  0
SECTION
  2
HEADER
  9
$ACADVER
  1
AC1015
  9
$ACADMAINTVER
 70
    13
  9
$DWGCODEPAGE
  3
ANSI_1252
  9
$INSBASE
 10
0.0
 20
0.0
 30
0.0
  9
$EXTMIN
 10
0.0
 20
-0.0000000000000024
 30
0.0
  9
$EXTMAX
 10
100.0
 20
110.0
 30
0.0
  9
$LIMMIN
 10
0.0
 20
0.0
  9
$LIMMAX
 10
12.0
 20
9.0
  9
$ORTHOMODE
 70
     0
  9
$REGENMODE
 70
     1
  9
$FILLMODE
 70
     1
  9
$QTEXTMODE
 70
     0
  9
$MIRRTEXT
 70
     1
  9
$LTSCALE
 40
1.0
  9
$ATTMODE
 70
     1
  9
$TEXTSIZE
 40
0.2
  9
$TRACEWID
 40
0.05
  9
$TEXTSTYLE
  7
Standard
  9
$CLAYER
  8
0
  9
$CELTYPE
  6
Continuous
  9
$CECOLOR
 62
   256
  9
$CELTSCALE
 40
1.0
  9
$DISPSILH
 70
     0
  9
$DIMSCALE
 40
1.0
  9
$DIMASZ
 40
0.18
  9
$DIMEXO
 40
0.0625
  9
$DIMDLI
 40
0.38
  9
$DIMRND
 40
0.0
  9
$DIMDLE
 40
0.0
  9
$DIMEXE
 40
0.18
  9
$DIMTP
 40
0.0
  9
$DIMTM
 40
0.0
  9
$DIMTXT
 40
0.18
  9
$DIMCEN
 40
0.09
  9
$DIMTSZ
 40
0.0
  9
$DIMTOL
 70
     0
  9
$DIMLIM
 70
     0
  9
$DIMTIH
 70
     1
  9
$DIMTOH
 70
     1
  9
$DIMSE1
 70
     0
  9
$DIMSE2
 70
     0
  9
$DIMTAD
 70
     0
  9
$DIMZIN
 70
     0
  9
$DIMBLK
  1

  9
$DIMASO
 70
     1
  9
$DIMSHO
 70
     1
  9
$DIMPOST
  1

  9
$DIMAPOST
  1

  9
$DIMALT
 70
     0
  9
$DIMALTD
 70
     2
  9
$DIMALTF
 40
25.4
  9
$DIMLFAC
 40
1.0
  9
$DIMTOFL
 70
     0
  9
$DIMTVP
 40
0.0
  9
$DIMTIX
 70
     0
  9
$DIMSOXD
 70
     0
  9
$DIMSAH
 70
     0
  9
$DIMBLK1
  1

  9
$DIMBLK2
  1

  9
$DIMSTYLE
  2
Standard
  9
$DIMCLRD
 70
     0
  9
$DIMCLRE
 70
     0
  9
$DIMCLRT
 70
     0
  9
$DIMTFAC
 40
1.0
  9
$DIMGAP
 40
0.09
  9
$DIMJUST
 70
     0
  9
$DIMSD1
 70
     0
  9
$DIMSD2
 70
     0
  9
$DIMTOLJ
 70
     1
  9
$DIMTZIN
 70
     0
  9
$DIMALTZ
 70
     0
  9
$DIMALTTZ
 70
     0
  9
$DIMUPT
 70
     0
  9
$DIMDEC
 70
     4
  9
$DIMTDEC
 70
     4
  9
$DIMALTU
 70
     2
  9
$DIMALTTD
 70
     2
  9
$DIMTXSTY
  7
Standard
  9
$DIMAUNIT
 70
     0
  9
$DIMADEC
 70
     0
  9
$DIMALTRND
 40
0.0
  9
$DIMAZIN
 70
     0
  9
$DIMDSEP
 70
    46
  9
$DIMATFIT
 70
     3
  9
$DIMFRAC
 70
     0
  9
$DIMLDRBLK
  1

  9
$DIMLUNIT
 70
     2
  9
$DIMLWD
 70
    -2
  9
$DIMLWE
 70
    -2
  9
$DIMTMOVE
 70
     0
  9
$LUNITS
 70
     2
  9
$LUPREC
 70
     4
  9
$SKETCHINC
 40
0.1
  9
$FILLETRAD
 40
0.0
  9
$AUNITS
 70
     0
  9
$AUPREC
 70
     0
  9
$MENU
  1
.
  9
$ELEVATION
 40
0.0
  9
$PELEVATION
 40
0.0
  9
$THICKNESS
 40
0.0
  9
$LIMCHECK
 70
     0
  9
$CHAMFERA
 40
0.0
  9
$CHAMFERB
 40
0.0
  9
$CHAMFERC
 40
0.0
  9
$CHAMFERD
 40
0.0
  9
$SKPOLY
 70
     0
  9
$TDCREATE
 40
2454874.853748183
  9
$TDUCREATE
 40
2454874.812081516
  9
$TDUPDATE
 40
2454874.857749201
  9
$TDUUPDATE
 40
2454874.816082535
  9
$TDINDWG
 40
0.0040013773
  9
$TDUSRTIMER
 40
0.0040013773
  9
$USRTIMER
 70
     1
  9
$ANGBASE
 50
0.0
  9
$ANGDIR
 70
     0
  9
$PDMODE
 70
     0
  9
$PDSIZE
 40
0.0
  9
$PLINEWID
 40
0.0
  9
$SPLFRAME
 70
     0
  9
$SPLINETYPE
 70
     6
  9
$SPLINESEGS
 70
     8
  9
$HANDSEED
  5
1A0
  9
$SURFTAB1
 70
     6
  9
$SURFTAB2
 70
     6
  9
$SURFTYPE
 70
     6
  9
$SURFU
 70
     6
  9
$SURFV
 70
     6
  9
$UCSBASE
  2

  9
$UCSNAME
  2

  9
$UCSORG
 10
0.0
 20
0.0
 30
0.0
  9
$UCSXDIR
 10
1.0
 20
0.0
 30
0.0
  9
$UCSYDIR
 10
0.0
 20
1.0
 30
0.0
  9
$UCSORTHOREF
  2

  9
$UCSORTHOVIEW
 70
     1
  9
$UCSORGTOP
 10
0.0
 20
0.0
 30
0.0
  9
$UCSORGBOTTOM
 10
0.0
 20
0.0
 30
0.0
  9
$UCSORGLEFT
 10
0.0
 20
0.0
 30
0.0
  9
$UCSORGRIGHT
 10
0.0
 20
0.0
 30
0.0
  9
$UCSORGFRONT
 10
0.0
 20
0.0
 30
0.0
  9
$UCSORGBACK
 10
0.0
 20
0.0
 30
0.0
  9
$PUCSBASE
  2

  9
$PUCSNAME
  2

  9
$PUCSORG
 10
0.0
 20
0.0
 30
0.0
  9
$PUCSXDIR
 10
1.0
 20
0.0
 30
0.0
  9
$PUCSYDIR
 10
0.0
 20
1.0
 30
0.0
  9
$PUCSORTHOREF
  2

  9
$PUCSORTHOVIEW
 70
     0
  9
$PUCSORGTOP
 10
0.0
 20
0.0
 30
0.0
  9
$PUCSORGBOTTOM
 10
0.0
 20
0.0
 30
0.0
  9
$PUCSORGLEFT
 10
0.0
 20
0.0
 30
0.0
  9
$PUCSORGRIGHT
 10
0.0
 20
0.0
 30
0.0
  9
$PUCSORGFRONT
 10
0.0
 20
0.0
 30
0.0
  9
$PUCSORGBACK
 10
0.0
 20
0.0
 30
0.0
  9
$USERI1
 70
     0
  9
$USERI2
 70
     0
  9
$USERI3
 70
     0
  9
$USERI4
 70
     0
  9
$USERI5
 70
     0
  9
$USERR1
 40
0.0
  9
$USERR2
 40
0.0
  9
$USERR3
 40
0.0
  9
$USERR4
 40
0.0
  9
$USERR5
 40
0.0
  9
$WORLDVIEW
 70
     1
  9
$SHADEDGE
 70
     3
  9
$SHADEDIF
 70
    70
  9
$TILEMODE
 70
     1
  9
$MAXACTVP
 70
    64
  9
$PINSBASE
 10
0.0
 20
0.0
 30
0.0
  9
$PLIMCHECK
 70
     0
  9
$PEXTMIN
 10
1.000000000000000E+20
 20
1.000000000000000E+20
 30
1.000000000000000E+20
  9
$PEXTMAX
 10
-1.000000000000000E+20
 20
-1.000000000000000E+20
 30
-1.000000000000000E+20
  9
$PLIMMIN
 10
0.0
 20
0.0
  9
$PLIMMAX
 10
12.0
 20
9.0
  9
$UNITMODE
 70
     0
  9
$VISRETAIN
 70
     1
  9
$PLINEGEN
 70
     0
  9
$PSLTSCALE
 70
     1
  9
$TREEDEPTH
 70
  3020
  9
$CMLSTYLE
  2
Standard
  9
$CMLJUST
 70
     0
  9
$CMLSCALE
 40
1.0
  9
$PROXYGRAPHICS
 70
     1
  9
$MEASUREMENT
 70
     0
  9
$CELWEIGHT
370
    -1
  9
$ENDCAPS
280
     0
  9
$JOINSTYLE
280
     0
  9
$LWDISPLAY
290
     0
  9
$INSUNITS
 70
     0
  9
$HYPERLINKBASE
  1

  9
$STYLESHEET
  1

  9
$XEDIT
290
     1
  9
$CEPSNTYPE
380
     0
  9
$PSTYLEMODE
290
     1
  9
$FINGERPRINTGUID
  2
{A0C44349-5B0E-4474-A987-32F1ECE79989}
  9
$VERSIONGUID
  2
{535760FD-F193-42F3-BC0C-FAFE0E701966}
  9
$EXTNAMES
290
     1
  9
$PSVPSCALE
 40
0.0
  9
$OLESTARTUP
290
     0
  0
ENDSEC
  0
SECTION
  2
CLASSES
  0
CLASS
  1
ACDBDICTIONARYWDFLT
  2
AcDbDictionaryWithDefault
  3
AutoCAD 2000
 90
        0
280
     0
281
     0
  0
CLASS
  1
ACDBPLACEHOLDER
  2
AcDbPlaceHolder
  3
AutoCAD 2000
 90
        0
280
     0
281
     0
  0
CLASS
  1
LAYOUT
  2
AcDbLayout
  3
AutoCAD 2000
 90
        0
280
     0
281
     0
  0
CLASS
  1
DICTIONARYVAR
  2
AcDbDictionaryVar
  3
AutoCAD 2000
 90
        0
280
     0
281
     0
  0
ENDSEC
  0
SECTION
  2
TABLES
  0
TABLE
  2
VPORT
  5
8
330
0
100
AcDbSymbolTable
 70
     2
  0
VPORT
  5
19F
330
8
100
AcDbSymbolTableRecord
100
AcDbViewportTableRecord
  2
*Active
 70
     0
 10
0.0
 20
0.0
 11
1.0
 21
1.0
 12
50.0
 22
55.0
 13
0.0
 23
0.0
 14
1.0
 24
1.0
 15
0.0
 25
0.0
 16
0.0
 26
0.0
 36
1.0
 17
0.0
 27
0.0
 37
0.0
 40
110.6947368421052
 41
1.968387776606954
 42
50.0
 43
0.0
 44
0.0
 50
0.0
 51
0.0
 71
     0
 72
   100
 73
     1
 74
     3
 75
     0
 76
     0
 77
     0
 78
     0
281
     0
 65
     1
110
0.0
120
0.0
130
0.0
111
1.0
121
0.0
131
0.0
112
0.0
122
1.0
132
0.0
 79
     1
146
0.0
  0
ENDTAB
  0
TABLE
  2
LTYPE
  5
5
330
0
100
AcDbSymbolTable
 70
     1
  0
LTYPE
  5
13
330
5
100
AcDbSymbolTableRecord
100
AcDbLinetypeTableRecord
  2
ByBlock
 70
     0
  3

 72
    65
 73
     0
 40
0.0
  0
LTYPE
  5
14
330
5
100
AcDbSymbolTableRecord
100
AcDbLinetypeTableRecord
  2
ByLayer
 70
     0
  3

 72
    65
 73
     0
 40
0.0
  0
LTYPE
  5
15
330
5
100
AcDbSymbolTableRecord
100
AcDbLinetypeTableRecord
  2
Continuous
 70
     0
  3
Solid line
 72
    65
 73
     0
 40
0.0
  0
ENDTAB
  0
TABLE
  2
LAYER
  5
2
330
0
100
AcDbSymbolTable
 70
     1
  0
LAYER
  5
10
330
2
100
AcDbSymbolTableRecord
100
AcDbLayerTableRecord
  2
0
 70
     0
 62
     7
  6
Continuous
370
    -3
390
F
  0
ENDTAB
  0
TABLE
  2
STYLE
  5
3
330
0
100
AcDbSymbolTable
 70
     1
  0
STYLE
  5
11
330
3
100
AcDbSymbolTableRecord
100
AcDbTextStyleTableRecord
  2
Standard
 70
     0
 40
0.0
 41
1.0
 50
0.0
 71
     0
 42
0.2
  3
txt
  4

  0
ENDTAB
  0
TABLE
  2
VIEW
  5
6
330
0
100
AcDbSymbolTable
 70
     0
  0
ENDTAB
  0
TABLE
  2
UCS
  5
7
330
0
100
AcDbSymbolTable
 70
     0
  0
ENDTAB
  0
TABLE
  2
APPID
  5
9
330
0
100
AcDbSymbolTable
 70
     1
  0
APPID
  5
12
330
9
100
AcDbSymbolTableRecord
100
AcDbRegAppTableRecord
  2
ACAD
 70
     0
  0
ENDTAB
  0
TABLE
  2
DIMSTYLE
  5
A
330
0
100
AcDbSymbolTable
 70
     1
100
AcDbDimStyleTable
 71
     0
  0
DIMSTYLE
105
136
330
A
100
AcDbSymbolTableRecord
100
AcDbDimStyleTableRecord
  2
Standard
 70
     0
340
11
  0
ENDTAB
  0
TABLE
  2
BLOCK_RECORD
  5
1
330
0
100
AcDbSymbolTable
 70
     0
  0
BLOCK_RECORD
  5
1E
330
1
100
AcDbSymbolTableRecord
100
AcDbBlockTableRecord
  2
*Model_Space
340
21
  0
BLOCK_RECORD
  5
1A
330
1
100
AcDbSymbolTableRecord
100
AcDbBlockTableRecord
  2
*Paper_Space
340
1D
  0
ENDTAB
  0
ENDSEC
  0
SECTION
  2
BLOCKS
  0
BLOCK
  5
1F
330
1E
100
AcDbEntity
  8
0
100
AcDbBlockBegin
  2
*Model_Space
 70
     0
 10
0.0
 20
0.0
 30
0.0
  3
*Model_Space
  1

  0
ENDBLK
  5
20
330
1E
100
AcDbEntity
  8
0
100
AcDbBlockEnd
  0
BLOCK
  5
1B
330
1A
100
AcDbEntity
 67
     1
  8
0
100
AcDbBlockBegin
  2
*Paper_Space
 70
     0
 10
0.0
 20
0.0
 30
0.0
  3
*Paper_Space
  1

  0
ENDBLK
  5
1C
330
1A
100
AcDbEntity
 67
     1
  8
0
100
AcDbBlockEnd
  0
ENDSEC
  0
SECTION
  2
ENTITIES
  0
LINE
  5
22
330
1E
100
AcDbEntity
  8
0
100
AcDbLine
 10
0.0
 20
18.82349999999999
 30
0.0
 11
0.0
 21
60.0
 31
0.0
  0
LINE
  5
23
330
1E
100
AcDbEntity
  8
0
100
AcDbLine
 10
0.0
 20
18.82349999999999
 30
0.0
 11
0.117647
 21
17.6471
 31
0.0
  0
LINE
  5
24
330
1E
100
AcDbEntity
  8
0
100
AcDbLine
 10
0.0
 20
101.1759999999999
 30
0.0
 11
0.0
 21
60.0
 31
0.0
  0
LINE
  5
25
330
1E
100
AcDbEntity
  8
0
100
AcDbLine
 10
0.0
 20
101.1759999999999
 30
0.0
 11
0.117647
 21
102.353
 31
0.0
  0
LINE
  5
28
330
1E
100
AcDbEntity
  8
0
100
AcDbLine
 10
0.117647
 20
17.6471
 30
0.0
 11
0.294118
 21
16.5294
 31
0.0
  0
LINE
  5
2F
330
1E
100
AcDbEntity
  8
0
100
AcDbLine
 10
0.294118
 20
16.5294
 30
0.0
 11
0.705882
 21
15.4706
 31
0.0
  0
LINE
  5
34
330
1E
100
AcDbEntity
  8
0
100
AcDbLine
 10
33.0
 20
0.9999999999999969
 30
0.0
 11
33.3
 21
0.299999999999998
 31
0.0
  0
LINE
  5
35
330
1E
100
AcDbEntity
  8
0
100
AcDbLine
 10
33.0
 20
0.9999999999999969
 30
0.0
 11
33.3
 21
0.299999999999998
 31
0.0
  0
LINE
  5
36
330
1E
100
AcDbEntity
  8
0
100
AcDbLine
 10
33.0
 20
3.5
 30
0.0
 11
33.0
 21
3.57405
 31
0.0
  0
LINE
  5
37
330
1E
100
AcDbEntity
  8
0
100
AcDbLine
 10
33.0
 20
3.57405
 30
0.0
 11
33.0
 21
3.5
 31
0.0
  0
LINE
  5
38
330
1E
100
AcDbEntity
  8
0
100
AcDbLine
 10
33.0
 20
3.57405
 30
0.0
 11
33.0
 21
3.816859999999999
 31
0.0
  0
LINE
  5
39
330
1E
100
AcDbEntity
  8
0
100
AcDbLine
 10
33.0
 20
3.5
 30
0.0
 11
33.0
 21
3.57405
 31
0.0
  0
LINE
  5
3A
330
1E
100
AcDbEntity
  8
0
100
AcDbLine
 10
33.0
 20
2.5
 30
0.0
 11
33.0
 21
1.7
 31
0.0
  0
LINE
  5
3B
330
1E
100
AcDbEntity
  8
0
100
AcDbLine
 10
33.0
 20
2.5
 30
0.0
 11
33.0
 21
3.6
 31
0.0
  0
LINE
  5
3C
330
1E
100
AcDbEntity
  8
0
100
AcDbLine
 10
33.0
 20
1.7
 30
0.0
 11
33.0
 21
2.5
 31
0.0
  0
LINE
  5
3D
330
1E
100
AcDbEntity
  8
0
100
AcDbLine
 10
33.0
 20
1.7
 30
0.0
 11
33.0
 21
1.199999999999999
 31
0.0
  0
LINE
  5
3E
330
1E
100
AcDbEntity
  8
0
100
AcDbLine
 10
33.0
 20
1.199999999999999
 30
0.0
 11
33.0
 21
1.7
 31
0.0
  0
LINE
  5
3F
330
1E
100
AcDbEntity
  8
0
100
AcDbLine
 10
33.0
 20
1.199999999999999
 30
0.0
 11
33.0
 21
1.0
 31
0.0
  0
LINE
  5
40
330
1E
100
AcDbEntity
  8
0
100
AcDbLine
 10
33.0
 20
3.816859999999999
 30
0.0
 11
33.0
 21
4.233109999999999
 31
0.0
  0
LINE
  5
41
330
1E
100
AcDbEntity
  8
0
100
AcDbLine
 10
33.0
 20
3.816859999999999
 30
0.0
 11
33.0
 21
3.57405
 31
0.0
  0
LINE
  5
42
330
1E
100
AcDbEntity
  8
0
100
AcDbLine
 10
33.0
 20
4.233109999999999
 30
0.0
 11
33.0
 21
4.710049999999999
 31
0.0
  0
LINE
  5
43
330
1E
100
AcDbEntity
  8
0
100
AcDbLine
 10
33.0
 20
4.233109999999999
 30
0.0
 11
33.0
 21
3.816859999999999
 31
0.0
  0
LINE
  5
44
330
1E
100
AcDbEntity
  8
0
100
AcDbLine
 10
33.0
 20
3.6
 30
0.0
 11
33.0
 21
4.799999999999999
 31
0.0
  0
LINE
  5
45
330
1E
100
AcDbEntity
  8
0
100
AcDbLine
 10
33.0
 20
3.6
 30
0.0
 11
33.0
 21
2.5
 31
0.0
  0
LINE
  5
46
330
1E
100
AcDbEntity
  8
0
100
AcDbLine
 10
33.0
 20
3.816859999999999
 30
0.0
 11
33.0
 21
3.57405
 31
0.0
  0
LINE
  5
47
330
1E
100
AcDbEntity
  8
0
100
AcDbLine
 10
33.0
 20
3.816859999999999
 30
0.0
 11
33.0
 21
4.233109999999999
 31
0.0
  0
LINE
  5
48
330
1E
100
AcDbEntity
  8
0
100
AcDbLine
 10
33.0
 20
3.57405
 30
0.0
 11
33.0
 21
3.5
 31
0.0
  0
LINE
  5
49
330
1E
100
AcDbEntity
  8
0
100
AcDbLine
 10
33.0
 20
3.57405
 30
0.0
 11
33.0
 21
3.816859999999999
 31
0.0
  0
LINE
  5
4A
330
1E
100
AcDbEntity
  8
0
100
AcDbLine
 10
33.0
 20
1.0
 30
0.0
 11
33.0
 21
1.199999999999999
 31
0.0
  0
LINE
  5
4B
330
1E
100
AcDbEntity
  8
0
100
AcDbLine
 10
33.0
 20
5.35177
 30
0.0
 11
33.0
 21
6.0
 31
0.0
  0
LINE
  5
4C
330
1E
100
AcDbEntity
  8
0
100
AcDbLine
 10
33.0
 20
5.35177
 30
0.0
 11
33.0
 21
4.710049999999999
 31
0.0
  0
LINE
  5
4D
330
1E
100
AcDbEntity
  8
0
100
AcDbLine
 10
33.0
 20
4.710049999999999
 30
0.0
 11
33.0
 21
5.35177
 31
0.0
  0
LINE
  5
4E
330
1E
100
AcDbEntity
  8
0
100
AcDbLine
 10
33.0
 20
4.710049999999999
 30
0.0
 11
33.0
 21
4.233109999999999
 31
0.0
  0
LINE
  5
4F
330
1E
100
AcDbEntity
  8
0
100
AcDbLine
 10
33.0
 20
4.799999999999999
 30
0.0
 11
33.0
 21
6.0
 31
0.0
  0
LINE
  5
50
330
1E
100
AcDbEntity
  8
0
100
AcDbLine
 10
33.0
 20
4.799999999999999
 30
0.0
 11
33.0
 21
3.6
 31
0.0
  0
LINE
  5
51
330
1E
100
AcDbEntity
  8
0
100
AcDbLine
 10
33.0
 20
4.233109999999999
 30
0.0
 11
33.0
 21
4.710049999999999
 31
0.0
  0
LINE
  5
52
330
1E
100
AcDbEntity
  8
0
100
AcDbLine
 10
33.0
 20
4.233109999999999
 30
0.0
 11
33.0
 21
3.816859999999999
 31
0.0
  0
LINE
  5
53
330
1E
100
AcDbEntity
  8
0
100
AcDbLine
 10
33.3
 20
0.299999999999998
 30
0.0
 11
34.0
 21
-0.0000000000000024
 31
0.0
  0
LINE
  5
54
330
1E
100
AcDbEntity
  8
0
100
AcDbLine
 10
33.3
 20
0.299999999999998
 30
0.0
 11
34.0
 21
-0.0000000000000024
 31
0.0
  0
LINE
  5
79
330
1E
100
AcDbEntity
  8
0
100
AcDbLine
 10
33.0
 20
4.710049999999999
 30
0.0
 11
33.0
 21
5.35177
 31
0.0
  0
LINE
  5
7A
330
1E
100
AcDbEntity
  8
0
100
AcDbLine
 10
33.0
 20
4.710049999999999
 30
0.0
 11
33.0
 21
4.233109999999999
 31
0.0
  0
LINE
  5
7B
330
1E
100
AcDbEntity
  8
0
100
AcDbLine
 10
33.0
 20
6.0
 30
0.0
 11
33.0
 21
50.0
 31
0.0
  0
LINE
  5
7C
330
1E
100
AcDbEntity
  8
0
100
AcDbLine
 10
33.0
 20
6.0
 30
0.0
 11
33.0
 21
5.35177
 31
0.0
  0
LINE
  5
83
330
1E
100
AcDbEntity
  8
0
100
AcDbLine
 10
33.0
 20
6.0
 30
0.0
 11
33.0
 21
5.35177
 31
0.0
  0
LINE
  5
84
330
1E
100
AcDbEntity
  8
0
100
AcDbLine
 10
33.0
 20
6.0
 30
0.0
 11
33.0
 21
4.799999999999999
 31
0.0
  0
LINE
  5
85
330
1E
100
AcDbEntity
  8
0
100
AcDbLine
 10
33.0
 20
6.0
 30
0.0
 11
33.0
 21
74.0
 31
0.0
  0
LINE
  5
86
330
1E
100
AcDbEntity
  8
0
100
AcDbLine
 10
33.0
 20
6.0
 30
0.0
 11
33.0
 21
50.0
 31
0.0
  0
LINE
  5
87
330
1E
100
AcDbEntity
  8
0
100
AcDbLine
 10
33.0
 20
5.35177
 30
0.0
 11
33.0
 21
6.0
 31
0.0
  0
LINE
  5
88
330
1E
100
AcDbEntity
  8
0
100
AcDbLine
 10
33.0
 20
5.35177
 30
0.0
 11
33.0
 21
4.710049999999999
 31
0.0
  0
LINE
  5
89
330
1E
100
AcDbEntity
  8
0
100
AcDbLine
 10
8.823529999999999
 20
10.0
 30
0.0
 11
33.0
 21
10.0
 31
0.0
  0
LINE
  5
8A
330
1E
100
AcDbEntity
  8
0
100
AcDbLine
 10
8.823529999999999
 20
10.0
 30
0.0
 11
33.0
 21
10.0
 31
0.0
  0
LINE
  5
8E
330
1E
100
AcDbEntity
  8
0
100
AcDbLine
 10
2.588229999999999
 20
12.5882
 30
0.0
 11
3.47059
 21
11.8235
 31
0.0
  0
LINE
  5
91
330
1E
100
AcDbEntity
  8
0
100
AcDbLine
 10
3.47059
 20
11.8235
 30
0.0
 11
4.411769999999999
 21
11.1765
 31
0.0
  0
LINE
  5
92
330
1E
100
AcDbEntity
  8
0
100
AcDbLine
 10
4.411769999999999
 20
11.1765
 30
0.0
 11
5.47059
 21
10.70589999999999
 31
0.0
  0
LINE
  5
98
330
1E
100
AcDbEntity
  8
0
100
AcDbLine
 10
5.47059
 20
10.70589999999999
 30
0.0
 11
6.529409999999999
 21
10.2941
 31
0.0
  0
LINE
  5
99
330
1E
100
AcDbEntity
  8
0
100
AcDbLine
 10
6.529409999999999
 20
10.2941
 30
0.0
 11
7.64706
 21
10.11759999999999
 31
0.0
  0
LINE
  5
A9
330
1E
100
AcDbEntity
  8
0
100
AcDbLine
 10
1.823529999999999
 20
13.47059999999999
 30
0.0
 11
2.588229999999999
 21
12.5882
 31
0.0
  0
LINE
  5
AB
330
1E
100
AcDbEntity
  8
0
100
AcDbLine
 10
1.17647
 20
14.4118
 30
0.0
 11
1.823529999999999
 21
13.47059999999999
 31
0.0
  0
LINE
  5
B0
330
1E
100
AcDbEntity
  8
0
100
AcDbLine
 10
0.705882
 20
15.4706
 30
0.0
 11
1.17647
 21
14.4118
 31
0.0
  0
LINE
  5
B3
330
1E
100
AcDbEntity
  8
0
100
AcDbLine
 10
33.0
 20
50.0
 30
0.0
 11
33.0
 21
6.0
 31
0.0
  0
LINE
  5
B4
330
1E
100
AcDbEntity
  8
0
100
AcDbLine
 10
33.0
 20
50.0
 30
0.0
 11
33.0
 21
50.6482
 31
0.0
  0
LINE
  5
B5
330
1E
100
AcDbEntity
  8
0
100
AcDbLine
 10
33.0
 20
50.0
 30
0.0
 11
33.0
 21
6.0
 31
0.0
  0
LINE
  5
B6
330
1E
100
AcDbEntity
  8
0
100
AcDbLine
 10
33.0
 20
52.5
 30
0.0
 11
33.0
 21
52.426
 31
0.0
  0
LINE
  5
B7
330
1E
100
AcDbEntity
  8
0
100
AcDbLine
 10
33.0
 20
52.426
 30
0.0
 11
33.0
 21
52.1831
 31
0.0
  0
LINE
  5
B8
330
1E
100
AcDbEntity
  8
0
100
AcDbLine
 10
33.0
 20
52.426
 30
0.0
 11
33.0
 21
52.5
 31
0.0
  0
LINE
  5
B9
330
1E
100
AcDbEntity
  8
0
100
AcDbLine
 10
33.0
 20
52.1831
 30
0.0
 11
33.0
 21
51.7669
 31
0.0
  0
LINE
  5
BA
330
1E
100
AcDbEntity
  8
0
100
AcDbLine
 10
33.0
 20
52.1831
 30
0.0
 11
33.0
 21
52.426
 31
0.0
  0
LINE
  5
BB
330
1E
100
AcDbEntity
  8
0
100
AcDbLine
 10
33.0
 20
51.7669
 30
0.0
 11
33.0
 21
51.2899
 31
0.0
  0
LINE
  5
BC
330
1E
100
AcDbEntity
  8
0
100
AcDbLine
 10
33.0
 20
51.7669
 30
0.0
 11
33.0
 21
52.1831
 31
0.0
  0
LINE
  5
BD
330
1E
100
AcDbEntity
  8
0
100
AcDbLine
 10
33.0
 20
51.2899
 30
0.0
 11
33.0
 21
50.6482
 31
0.0
  0
LINE
  5
BE
330
1E
100
AcDbEntity
  8
0
100
AcDbLine
 10
33.0
 20
51.2899
 30
0.0
 11
33.0
 21
51.7669
 31
0.0
  0
LINE
  5
BF
330
1E
100
AcDbEntity
  8
0
100
AcDbLine
 10
33.0
 20
50.6482
 30
0.0
 11
33.0
 21
50.0
 31
0.0
  0
LINE
  5
C0
330
1E
100
AcDbEntity
  8
0
100
AcDbLine
 10
33.0
 20
50.6482
 30
0.0
 11
33.0
 21
51.2899
 31
0.0
  0
LINE
  5
CD
330
1E
100
AcDbEntity
  8
0
100
AcDbLine
 10
33.3
 20
75.5
 30
0.0
 11
33.9
 21
76.90000000000001
 31
0.0
  0
LINE
  5
CE
330
1E
100
AcDbEntity
  8
0
100
AcDbLine
 10
33.0
 20
74.0
 30
0.0
 11
33.3
 21
75.5
 31
0.0
  0
LINE
  5
CF
330
1E
100
AcDbEntity
  8
0
100
AcDbLine
 10
33.0
 20
74.0
 30
0.0
 11
33.0
 21
6.0
 31
0.0
  0
LINE
  5
D0
330
1E
100
AcDbEntity
  8
0
100
AcDbLine
 10
33.9
 20
76.90000000000001
 30
0.0
 11
34.79999999999999
 21
78.2
 31
0.0
  0
LINE
  5
D5
330
1E
100
AcDbEntity
  8
0
100
AcDbLine
 10
34.79999999999999
 20
78.2
 30
0.0
 11
36.1
 21
79.1
 31
0.0
  0
LINE
  5
D7
330
1E
100
AcDbEntity
  8
0
100
AcDbLine
 10
36.1
 20
79.1
 30
0.0
 11
37.5
 21
79.7
 31
0.0
  0
LINE
  5
D9
330
1E
100
AcDbEntity
  8
0
100
AcDbLine
 10
37.5
 20
79.7
 30
0.0
 11
39.0
 21
80.0
 31
0.0
  0
LINE
  5
107
330
1E
100
AcDbEntity
  8
0
100
AcDbLine
 10
1.17647
 20
105.5879999999999
 30
0.0
 11
1.823529999999999
 21
106.529
 31
0.0
  0
LINE
  5
10B
330
1E
100
AcDbEntity
  8
0
100
AcDbLine
 10
2.588229999999999
 20
107.412
 30
0.0
 11
3.47059
 21
108.176
 31
0.0
  0
LINE
  5
10C
330
1E
100
AcDbEntity
  8
0
100
AcDbLine
 10
3.47059
 20
108.176
 30
0.0
 11
4.411769999999999
 21
108.824
 31
0.0
  0
LINE
  5
10F
330
1E
100
AcDbEntity
  8
0
100
AcDbLine
 10
4.411769999999999
 20
108.824
 30
0.0
 11
5.47059
 21
109.294
 31
0.0
  0
LINE
  5
110
330
1E
100
AcDbEntity
  8
0
100
AcDbLine
 10
5.47059
 20
109.294
 30
0.0
 11
6.529409999999999
 21
109.706
 31
0.0
  0
LINE
  5
12C
330
1E
100
AcDbEntity
  8
0
100
AcDbLine
 10
7.64706
 20
109.882
 30
0.0
 11
8.823529999999999
 21
110.0
 31
0.0
  0
LINE
  5
12D
330
1E
100
AcDbEntity
  8
0
100
AcDbLine
 10
8.823529999999999
 20
110.0
 30
0.0
 11
50.0
 21
110.0
 31
0.0
  0
LINE
  5
12E
330
1E
100
AcDbEntity
  8
0
100
AcDbLine
 10
6.529409999999999
 20
109.706
 30
0.0
 11
7.64706
 21
109.882
 31
0.0
  0
LINE
  5
12F
330
1E
100
AcDbEntity
  8
0
100
AcDbLine
 10
1.823529999999999
 20
106.529
 30
0.0
 11
2.588229999999999
 21
107.412
 31
0.0
  0
LINE
  5
130
330
1E
100
AcDbEntity
  8
0
100
AcDbLine
 10
1.17647
 20
105.5879999999999
 30
0.0
 11
1.823529999999999
 21
106.529
 31
0.0
  0
LINE
  5
131
330
1E
100
AcDbEntity
  8
0
100
AcDbLine
 10
0.705882
 20
104.529
 30
0.0
 11
1.17647
 21
105.5879999999999
 31
0.0
  0
LINE
  5
132
330
1E
100
AcDbEntity
  8
0
100
AcDbLine
 10
0.294118
 20
103.471
 30
0.0
 11
0.705882
 21
104.529
 31
0.0
  0
LINE
  5
133
330
1E
100
AcDbEntity
  8
0
100
AcDbLine
 10
0.117647
 20
102.353
 30
0.0
 11
0.294118
 21
103.471
 31
0.0
  0
LINE
  5
134
330
1E
100
AcDbEntity
  8
0
100
AcDbLine
 10
0.0
 20
60.0
 30
0.0
 11
0.0
 21
101.1759999999999
 31
0.0
  0
LINE
  5
135
330
1E
100
AcDbEntity
  8
0
100
AcDbLine
 10
0.0
 20
60.0
 30
0.0
 11
0.0
 21
18.82349999999999
 31
0.0
  0
LINE
  5
13A
330
1E
100
AcDbEntity
  8
0
100
AcDbLine
 10
8.823529999999999
 20
10.0
 30
0.0
 11
7.64706
 21
10.11759999999999
 31
0.0
  0
LINE
  5
13B
330
1E
100
AcDbEntity
  8
0
100
AcDbLine
 10
91.17646999999999
 20
110.0
 30
0.0
 11
50.0
 21
110.0
 31
0.0
  0
LINE
  5
13C
330
1E
100
AcDbEntity
  8
0
100
AcDbLine
 10
91.17646999999999
 20
10.0
 30
0.0
 11
67.0
 21
10.0
 31
0.0
  0
LINE
  5
13D
330
1E
100
AcDbEntity
  8
0
100
AcDbLine
 10
91.17646999999999
 20
10.0
 30
0.0
 11
67.0
 21
10.0
 31
0.0
  0
LINE
  5
13E
330
1E
100
AcDbEntity
  8
0
100
AcDbLine
 10
100.0
 20
60.0
 30
0.0
 11
100.0
 21
18.82349999999999
 31
0.0
  0
LINE
  5
13F
330
1E
100
AcDbEntity
  8
0
100
AcDbLine
 10
100.0
 20
18.82349999999999
 30
0.0
 11
100.0
 21
60.0
 31
0.0
  0
LINE
  5
140
330
1E
100
AcDbEntity
  8
0
100
AcDbLine
 10
98.82353000000001
 20
14.4118
 30
0.0
 11
98.17647
 21
13.47059999999999
 31
0.0
  0
LINE
  5
141
330
1E
100
AcDbEntity
  8
0
100
AcDbLine
 10
99.70588200000001
 20
16.5294
 30
0.0
 11
99.294118
 21
15.4706
 31
0.0
  0
LINE
  5
142
330
1E
100
AcDbEntity
  8
0
100
AcDbLine
 10
99.294118
 20
15.4706
 30
0.0
 11
98.82353000000001
 21
14.4118
 31
0.0
  0
LINE
  5
143
330
1E
100
AcDbEntity
  8
0
100
AcDbLine
 10
100.0
 20
18.82349999999999
 30
0.0
 11
99.88235299999999
 21
17.6471
 31
0.0
  0
LINE
  5
144
330
1E
100
AcDbEntity
  8
0
100
AcDbLine
 10
99.88235299999999
 20
17.6471
 30
0.0
 11
99.70588200000001
 21
16.5294
 31
0.0
  0
LINE
  5
145
330
1E
100
AcDbEntity
  8
0
100
AcDbLine
 10
95.58823
 20
11.1765
 30
0.0
 11
94.52941
 21
10.70589999999999
 31
0.0
  0
LINE
  5
146
330
1E
100
AcDbEntity
  8
0
100
AcDbLine
 10
97.41177
 20
12.5882
 30
0.0
 11
96.52941
 21
11.8235
 31
0.0
  0
LINE
  5
147
330
1E
100
AcDbEntity
  8
0
100
AcDbLine
 10
96.52941
 20
11.8235
 30
0.0
 11
95.58823
 21
11.1765
 31
0.0
  0
LINE
  5
148
330
1E
100
AcDbEntity
  8
0
100
AcDbLine
 10
98.17647
 20
13.47059999999999
 30
0.0
 11
97.41177
 21
12.5882
 31
0.0
  0
LINE
  5
149
330
1E
100
AcDbEntity
  8
0
100
AcDbLine
 10
93.47058999999999
 20
10.2941
 30
0.0
 11
92.35294000000001
 21
10.11759999999999
 31
0.0
  0
LINE
  5
14A
330
1E
100
AcDbEntity
  8
0
100
AcDbLine
 10
94.52941
 20
10.70589999999999
 30
0.0
 11
93.47058999999999
 21
10.2941
 31
0.0
  0
LINE
  5
14B
330
1E
100
AcDbEntity
  8
0
100
AcDbLine
 10
91.17646999999999
 20
10.0
 30
0.0
 11
92.35294000000001
 21
10.11759999999999
 31
0.0
  0
LINE
  5
14C
330
1E
100
AcDbEntity
  8
0
100
AcDbLine
 10
100.0
 20
60.0
 30
0.0
 11
100.0
 21
101.1759999999999
 31
0.0
  0
LINE
  5
14D
330
1E
100
AcDbEntity
  8
0
100
AcDbLine
 10
100.0
 20
101.1759999999999
 30
0.0
 11
100.0
 21
60.0
 31
0.0
  0
LINE
  5
14E
330
1E
100
AcDbEntity
  8
0
100
AcDbLine
 10
98.82353000000001
 20
105.5879999999999
 30
0.0
 11
98.17647
 21
106.529
 31
0.0
  0
LINE
  5
14F
330
1E
100
AcDbEntity
  8
0
100
AcDbLine
 10
98.82353000000001
 20
105.5879999999999
 30
0.0
 11
98.17647
 21
106.529
 31
0.0
  0
LINE
  5
150
330
1E
100
AcDbEntity
  8
0
100
AcDbLine
 10
100.0
 20
101.1759999999999
 30
0.0
 11
99.88235299999999
 21
102.353
 31
0.0
  0
LINE
  5
151
330
1E
100
AcDbEntity
  8
0
100
AcDbLine
 10
99.70588200000001
 20
103.471
 30
0.0
 11
99.294118
 21
104.529
 31
0.0
  0
LINE
  5
152
330
1E
100
AcDbEntity
  8
0
100
AcDbLine
 10
99.88235299999999
 20
102.353
 30
0.0
 11
99.70588200000001
 21
103.471
 31
0.0
  0
LINE
  5
153
330
1E
100
AcDbEntity
  8
0
100
AcDbLine
 10
99.294118
 20
104.529
 30
0.0
 11
98.82353000000001
 21
105.5879999999999
 31
0.0
  0
LINE
  5
154
330
1E
100
AcDbEntity
  8
0
100
AcDbLine
 10
98.17647
 20
106.529
 30
0.0
 11
97.41177
 21
107.412
 31
0.0
  0
LINE
  5
155
330
1E
100
AcDbEntity
  8
0
100
AcDbLine
 10
95.58823
 20
108.824
 30
0.0
 11
94.52941
 21
109.294
 31
0.0
  0
LINE
  5
156
330
1E
100
AcDbEntity
  8
0
100
AcDbLine
 10
96.52941
 20
108.176
 30
0.0
 11
95.58823
 21
108.824
 31
0.0
  0
LINE
  5
157
330
1E
100
AcDbEntity
  8
0
100
AcDbLine
 10
97.41177
 20
107.412
 30
0.0
 11
96.52941
 21
108.176
 31
0.0
  0
LINE
  5
158
330
1E
100
AcDbEntity
  8
0
100
AcDbLine
 10
93.47058999999999
 20
109.706
 30
0.0
 11
92.35294000000001
 21
109.882
 31
0.0
  0
LINE
  5
159
330
1E
100
AcDbEntity
  8
0
100
AcDbLine
 10
94.52941
 20
109.294
 30
0.0
 11
93.47058999999999
 21
109.706
 31
0.0
  0
LINE
  5
15A
330
1E
100
AcDbEntity
  8
0
100
AcDbLine
 10
92.35294000000001
 20
109.882
 30
0.0
 11
91.17646999999999
 21
110.0
 31
0.0
  0
LINE
  5
15B
330
1E
100
AcDbEntity
  8
0
100
AcDbLine
 10
67.0
 20
74.0
 30
0.0
 11
67.0
 21
6.0
 31
0.0
  0
LINE
  5
15C
330
1E
100
AcDbEntity
  8
0
100
AcDbLine
 10
67.0
 20
6.0
 30
0.0
 11
67.0
 21
74.0
 31
0.0
  0
LINE
  5
15D
330
1E
100
AcDbEntity
  8
0
100
AcDbLine
 10
67.0
 20
50.0
 30
0.0
 11
67.0
 21
6.0
 31
0.0
  0
LINE
  5
15E
330
1E
100
AcDbEntity
  8
0
100
AcDbLine
 10
67.0
 20
50.0
 30
0.0
 11
67.0
 21
6.0
 31
0.0
  0
LINE
  5
15F
330
1E
100
AcDbEntity
  8
0
100
AcDbLine
 10
67.0
 20
6.0
 30
0.0
 11
67.0
 21
50.0
 31
0.0
  0
LINE
  5
160
330
1E
100
AcDbEntity
  8
0
100
AcDbLine
 10
67.0
 20
6.0
 30
0.0
 11
67.0
 21
50.0
 31
0.0
  0
LINE
  5
161
330
1E
100
AcDbEntity
  8
0
100
AcDbLine
 10
67.0
 20
3.6
 30
0.0
 11
67.0
 21
2.5
 31
0.0
  0
LINE
  5
162
330
1E
100
AcDbEntity
  8
0
100
AcDbLine
 10
67.0
 20
2.5
 30
0.0
 11
67.0
 21
3.6
 31
0.0
  0
LINE
  5
163
330
1E
100
AcDbEntity
  8
0
100
AcDbLine
 10
66.7
 20
0.299999999999998
 30
0.0
 11
66.0
 21
-0.0000000000000024
 31
0.0
  0
LINE
  5
164
330
1E
100
AcDbEntity
  8
0
100
AcDbLine
 10
66.7
 20
0.299999999999998
 30
0.0
 11
66.0
 21
-0.0000000000000024
 31
0.0
  0
LINE
  5
165
330
1E
100
AcDbEntity
  8
0
100
AcDbLine
 10
67.0
 20
1.199999999999999
 30
0.0
 11
67.0
 21
1.7
 31
0.0
  0
LINE
  5
166
330
1E
100
AcDbEntity
  8
0
100
AcDbLine
 10
67.0
 20
1.7
 30
0.0
 11
67.0
 21
1.199999999999999
 31
0.0
  0
LINE
  5
167
330
1E
100
AcDbEntity
  8
0
100
AcDbLine
 10
67.0
 20
1.0
 30
0.0
 11
67.0
 21
1.199999999999999
 31
0.0
  0
LINE
  5
168
330
1E
100
AcDbEntity
  8
0
100
AcDbLine
 10
67.0
 20
1.199999999999999
 30
0.0
 11
67.0
 21
1.0
 31
0.0
  0
LINE
  5
169
330
1E
100
AcDbEntity
  8
0
100
AcDbLine
 10
67.0
 20
0.9999999999999969
 30
0.0
 11
66.7
 21
0.299999999999998
 31
0.0
  0
LINE
  5
16A
330
1E
100
AcDbEntity
  8
0
100
AcDbLine
 10
67.0
 20
0.9999999999999969
 30
0.0
 11
66.7
 21
0.299999999999998
 31
0.0
  0
LINE
  5
16B
330
1E
100
AcDbEntity
  8
0
100
AcDbLine
 10
67.0
 20
1.7
 30
0.0
 11
67.0
 21
2.5
 31
0.0
  0
LINE
  5
16C
330
1E
100
AcDbEntity
  8
0
100
AcDbLine
 10
67.0
 20
2.5
 30
0.0
 11
67.0
 21
1.7
 31
0.0
  0
LINE
  5
16D
330
1E
100
AcDbEntity
  8
0
100
AcDbLine
 10
67.0
 20
5.35177
 30
0.0
 11
67.0
 21
6.0
 31
0.0
  0
LINE
  5
16E
330
1E
100
AcDbEntity
  8
0
100
AcDbLine
 10
67.0
 20
6.0
 30
0.0
 11
67.0
 21
4.799999999999999
 31
0.0
  0
LINE
  5
16F
330
1E
100
AcDbEntity
  8
0
100
AcDbLine
 10
67.0
 20
6.0
 30
0.0
 11
67.0
 21
5.35177
 31
0.0
  0
LINE
  5
170
330
1E
100
AcDbEntity
  8
0
100
AcDbLine
 10
67.0
 20
6.0
 30
0.0
 11
67.0
 21
5.35177
 31
0.0
  0
LINE
  5
171
330
1E
100
AcDbEntity
  8
0
100
AcDbLine
 10
67.0
 20
4.799999999999999
 30
0.0
 11
67.0
 21
6.0
 31
0.0
  0
LINE
  5
172
330
1E
100
AcDbEntity
  8
0
100
AcDbLine
 10
67.0
 20
5.35177
 30
0.0
 11
67.0
 21
6.0
 31
0.0
  0
LINE
  5
173
330
1E
100
AcDbEntity
  8
0
100
AcDbLine
 10
67.0
 20
5.35177
 30
0.0
 11
67.0
 21
4.710049999999999
 31
0.0
  0
LINE
  5
174
330
1E
100
AcDbEntity
  8
0
100
AcDbLine
 10
67.0
 20
4.710049999999999
 30
0.0
 11
67.0
 21
5.35177
 31
0.0
  0
LINE
  5
175
330
1E
100
AcDbEntity
  8
0
100
AcDbLine
 10
67.0
 20
4.710049999999999
 30
0.0
 11
67.0
 21
5.35177
 31
0.0
  0
LINE
  5
176
330
1E
100
AcDbEntity
  8
0
100
AcDbLine
 10
67.0
 20
5.35177
 30
0.0
 11
67.0
 21
4.710049999999999
 31
0.0
  0
LINE
  5
177
330
1E
100
AcDbEntity
  8
0
100
AcDbLine
 10
67.0
 20
4.233109999999999
 30
0.0
 11
67.0
 21
3.816859999999999
 31
0.0
  0
LINE
  5
178
330
1E
100
AcDbEntity
  8
0
100
AcDbLine
 10
67.0
 20
3.816859999999999
 30
0.0
 11
67.0
 21
4.233109999999999
 31
0.0
  0
LINE
  5
179
330
1E
100
AcDbEntity
  8
0
100
AcDbLine
 10
67.0
 20
4.233109999999999
 30
0.0
 11
67.0
 21
3.816859999999999
 31
0.0
  0
LINE
  5
17A
330
1E
100
AcDbEntity
  8
0
100
AcDbLine
 10
67.0
 20
3.816859999999999
 30
0.0
 11
67.0
 21
4.233109999999999
 31
0.0
  0
LINE
  5
17B
330
1E
100
AcDbEntity
  8
0
100
AcDbLine
 10
67.0
 20
3.57405
 30
0.0
 11
67.0
 21
3.5
 31
0.0
  0
LINE
  5
17C
330
1E
100
AcDbEntity
  8
0
100
AcDbLine
 10
67.0
 20
3.5
 30
0.0
 11
67.0
 21
3.57405
 31
0.0
  0
LINE
  5
17D
330
1E
100
AcDbEntity
  8
0
100
AcDbLine
 10
67.0
 20
3.57405
 30
0.0
 11
67.0
 21
3.5
 31
0.0
  0
LINE
  5
17E
330
1E
100
AcDbEntity
  8
0
100
AcDbLine
 10
67.0
 20
3.5
 30
0.0
 11
67.0
 21
3.57405
 31
0.0
  0
LINE
  5
17F
330
1E
100
AcDbEntity
  8
0
100
AcDbLine
 10
67.0
 20
3.57405
 30
0.0
 11
67.0
 21
3.816859999999999
 31
0.0
  0
LINE
  5
180
330
1E
100
AcDbEntity
  8
0
100
AcDbLine
 10
67.0
 20
3.816859999999999
 30
0.0
 11
67.0
 21
3.57405
 31
0.0
  0
LINE
  5
181
330
1E
100
AcDbEntity
  8
0
100
AcDbLine
 10
67.0
 20
3.816859999999999
 30
0.0
 11
67.0
 21
3.57405
 31
0.0
  0
LINE
  5
182
330
1E
100
AcDbEntity
  8
0
100
AcDbLine
 10
67.0
 20
3.57405
 30
0.0
 11
67.0
 21
3.816859999999999
 31
0.0
  0
LINE
  5
183
330
1E
100
AcDbEntity
  8
0
100
AcDbLine
 10
67.0
 20
4.710049999999999
 30
0.0
 11
67.0
 21
4.233109999999999
 31
0.0
  0
LINE
  5
184
330
1E
100
AcDbEntity
  8
0
100
AcDbLine
 10
67.0
 20
4.233109999999999
 30
0.0
 11
67.0
 21
4.710049999999999
 31
0.0
  0
LINE
  5
185
330
1E
100
AcDbEntity
  8
0
100
AcDbLine
 10
67.0
 20
4.799999999999999
 30
0.0
 11
67.0
 21
3.6
 31
0.0
  0
LINE
  5
186
330
1E
100
AcDbEntity
  8
0
100
AcDbLine
 10
67.0
 20
4.710049999999999
 30
0.0
 11
67.0
 21
4.233109999999999
 31
0.0
  0
LINE
  5
187
330
1E
100
AcDbEntity
  8
0
100
AcDbLine
 10
67.0
 20
3.6
 30
0.0
 11
67.0
 21
4.799999999999999
 31
0.0
  0
LINE
  5
188
330
1E
100
AcDbEntity
  8
0
100
AcDbLine
 10
67.0
 20
4.233109999999999
 30
0.0
 11
67.0
 21
4.710049999999999
 31
0.0
  0
LINE
  5
189
330
1E
100
AcDbEntity
  8
0
100
AcDbLine
 10
67.0
 20
50.6482
 30
0.0
 11
67.0
 21
51.2899
 31
0.0
  0
LINE
  5
18A
330
1E
100
AcDbEntity
  8
0
100
AcDbLine
 10
67.0
 20
51.2899
 30
0.0
 11
67.0
 21
50.6482
 31
0.0
  0
LINE
  5
18B
330
1E
100
AcDbEntity
  8
0
100
AcDbLine
 10
67.0
 20
50.6482
 30
0.0
 11
67.0
 21
50.0
 31
0.0
  0
LINE
  5
18C
330
1E
100
AcDbEntity
  8
0
100
AcDbLine
 10
67.0
 20
50.0
 30
0.0
 11
67.0
 21
50.6482
 31
0.0
  0
LINE
  5
18D
330
1E
100
AcDbEntity
  8
0
100
AcDbLine
 10
67.0
 20
51.2899
 30
0.0
 11
67.0
 21
51.7669
 31
0.0
  0
LINE
  5
18E
330
1E
100
AcDbEntity
  8
0
100
AcDbLine
 10
67.0
 20
51.7669
 30
0.0
 11
67.0
 21
52.1831
 31
0.0
  0
LINE
  5
18F
330
1E
100
AcDbEntity
  8
0
100
AcDbLine
 10
67.0
 20
51.7669
 30
0.0
 11
67.0
 21
51.2899
 31
0.0
  0
LINE
  5
190
330
1E
100
AcDbEntity
  8
0
100
AcDbLine
 10
67.0
 20
52.1831
 30
0.0
 11
67.0
 21
52.426
 31
0.0
  0
LINE
  5
191
330
1E
100
AcDbEntity
  8
0
100
AcDbLine
 10
67.0
 20
52.1831
 30
0.0
 11
67.0
 21
51.7669
 31
0.0
  0
LINE
  5
192
330
1E
100
AcDbEntity
  8
0
100
AcDbLine
 10
67.0
 20
52.426
 30
0.0
 11
67.0
 21
52.5
 31
0.0
  0
LINE
  5
193
330
1E
100
AcDbEntity
  8
0
100
AcDbLine
 10
67.0
 20
52.426
 30
0.0
 11
67.0
 21
52.1831
 31
0.0
  0
LINE
  5
194
330
1E
100
AcDbEntity
  8
0
100
AcDbLine
 10
67.0
 20
52.5
 30
0.0
 11
67.0
 21
52.426
 31
0.0
  0
LINE
  5
195
330
1E
100
AcDbEntity
  8
0
100
AcDbLine
 10
63.9
 20
79.1
 30
0.0
 11
62.5
 21
79.7
 31
0.0
  0
LINE
  5
196
330
1E
100
AcDbEntity
  8
0
100
AcDbLine
 10
66.09999999999999
 20
76.90000000000001
 30
0.0
 11
65.2
 21
78.2
 31
0.0
  0
LINE
  5
197
330
1E
100
AcDbEntity
  8
0
100
AcDbLine
 10
66.7
 20
75.5
 30
0.0
 11
66.09999999999999
 21
76.90000000000001
 31
0.0
  0
LINE
  5
198
330
1E
100
AcDbEntity
  8
0
100
AcDbLine
 10
67.0
 20
74.0
 30
0.0
 11
66.7
 21
75.5
 31
0.0
  0
LINE
  5
199
330
1E
100
AcDbEntity
  8
0
100
AcDbLine
 10
65.2
 20
78.2
 30
0.0
 11
63.9
 21
79.1
 31
0.0
  0
LINE
  5
19A
330
1E
100
AcDbEntity
  8
0
100
AcDbLine
 10
62.5
 20
79.7
 30
0.0
 11
61.0
 21
80.0
 31
0.0
  0
LINE
  5
19B
330
1E
100
AcDbEntity
  8
0
100
AcDbLine
 10
39.0
 20
80.0
 30
0.0
 11
61.0
 21
80.0
 31
0.0
  0
LINE
  5
19C
330
1E
100
AcDbEntity
  8
0
100
AcDbLine
 10
34.0
 20
-0.0000000000000024
 30
0.0
 11
66.0
 21
-0.0000000000000024
 31
0.0
  0
ENDSEC
  0
SECTION
  2
OBJECTS
  0
DICTIONARY
  5
C
330
0
100
AcDbDictionary
281
     1
  3
ACAD_GROUP
350
D
  3
ACAD_LAYOUT
350
19
  3
ACAD_MLINESTYLE
350
16
  3
ACAD_PLOTSETTINGS
350
18
  3
ACAD_PLOTSTYLENAME
350
E
  3
AcDbVariableDictionary
350
19D
  0
DICTIONARY
  5
D
102
{ACAD_REACTORS
330
C
102
}
330
C
100
AcDbDictionary
281
     1
  0
DICTIONARY
  5
19
102
{ACAD_REACTORS
330
C
102
}
330
C
100
AcDbDictionary
281
     1
  3
Layout1
350
1D
  3
Model
350
21
  0
DICTIONARY
  5
16
102
{ACAD_REACTORS
330
C
102
}
330
C
100
AcDbDictionary
281
     1
  3
Standard
350
17
  0
DICTIONARY
  5
18
102
{ACAD_REACTORS
330
C
102
}
330
C
100
AcDbDictionary
281
     1
  0
ACDBDICTIONARYWDFLT
  5
E
102
{ACAD_REACTORS
330
C
102
}
330
C
100
AcDbDictionary
281
     1
  3
Normal
350
F
100
AcDbDictionaryWithDefault
340
F
  0
DICTIONARY
  5
19D
102
{ACAD_REACTORS
330
C
102
}
330
C
100
AcDbDictionary
281
     1
  3
DIMASSOC
350
19E
  0
LAYOUT
  5
1D
102
{ACAD_REACTORS
330
19
102
}
330
19
100
AcDbPlotSettings
  1

  2
hp deskjet 980c series
  4

  6

 40
0.0
 41
0.0
 42
0.0
 43
0.0
 44
0.0
 45
0.0
 46
0.0
 47
0.0
 48
0.0
 49
0.0
140
0.0
141
0.0
142
1.0
143
1.0
 70
   688
 72
     0
 73
     0
 74
     5
  7

 75
    16
147
1.0
148
0.0
149
0.0
100
AcDbLayout
  1
Layout1
 70
     1
 71
     1
 10
0.0
 20
0.0
 11
12.0
 21
9.0
 12
0.0
 22
0.0
 32
0.0
 14
1.000000000000000E+20
 24
1.000000000000000E+20
 34
1.000000000000000E+20
 15
-1.000000000000000E+20
 25
-1.000000000000000E+20
 35
-1.000000000000000E+20
146
0.0
 13
0.0
 23
0.0
 33
0.0
 16
1.0
 26
0.0
 36
0.0
 17
0.0
 27
1.0
 37
0.0
 76
     0
330
1A
  0
LAYOUT
  5
21
102
{ACAD_REACTORS
330
19
102
}
330
19
100
AcDbPlotSettings
  1

  2
hp deskjet 980c series
  4

  6

 40
0.0
 41
0.0
 42
0.0
 43
0.0
 44
0.0
 45
0.0
 46
0.0
 47
0.0
 48
0.0
 49
0.0
140
0.0
141
0.0
142
1.0
143
1.0
 70
  1712
 72
     0
 73
     0
 74
     0
  7

 75
     0
147
1.0
148
0.0
149
0.0
100
AcDbLayout
  1
Model
 70
     1
 71
     0
 10
0.0
 20
0.0
 11
12.0
 21
9.0
 12
0.0
 22
0.0
 32
0.0
 14
0.0
 24
0.0
 34
0.0
 15
0.0
 25
0.0
 35
0.0
146
0.0
 13
0.0
 23
0.0
 33
0.0
 16
1.0
 26
0.0
 36
0.0
 17
0.0
 27
1.0
 37
0.0
 76
     0
330
1E
  0
MLINESTYLE
  5
17
102
{ACAD_REACTORS
330
16
102
}
330
16
100
AcDbMlineStyle
  2
STANDARD
 70
     0
  3

 62
   256
 51
90.0
 52
90.0
 71
     2
 49
0.5
 62
   256
  6
BYLAYER
 49
-0.5
 62
   256
  6
BYLAYER
  0
ACDBPLACEHOLDER
  5
F
102
{ACAD_REACTORS
330
E
102
}
330
E
  0
DICTIONARYVAR
  5
19E
102
{ACAD_REACTORS
330
19D
102
}
330
19D
100
DictionaryVariables
280
     0
  1
1
  0
ENDSEC
  0
EOF
