  0
SECTION
  2
HEADER
  9
$ACADVER
  1
AC1015
  9
$ACADMAINTVER
 70
    13
  9
$DWGCODEPAGE
  3
ANSI_1252
  9
$INSBASE
 10
0.0
 20
0.0
 30
0.0
  9
$EXTMIN
 10
0.0000225000000125
 20
0.0000000000000046
 30
0.0
  9
$EXTMAX
 10
188.9999774999999
 20
113.0
 30
0.0
  9
$LIMMIN
 10
0.0
 20
0.0
  9
$LIMMAX
 10
12.0
 20
9.0
  9
$ORTHOMODE
 70
     0
  9
$REGENMODE
 70
     1
  9
$FILLMODE
 70
     1
  9
$QTEXTMODE
 70
     0
  9
$MIRRTEXT
 70
     1
  9
$LTSCALE
 40
1.0
  9
$ATTMODE
 70
     1
  9
$TEXTSIZE
 40
0.2
  9
$TRACEWID
 40
0.05
  9
$TEXTSTYLE
  7
Standard
  9
$CLAYER
  8
0
  9
$CELTYPE
  6
Continuous
  9
$CECOLOR
 62
   256
  9
$CELTSCALE
 40
1.0
  9
$DISPSILH
 70
     0
  9
$DIMSCALE
 40
1.0
  9
$DIMASZ
 40
0.18
  9
$DIMEXO
 40
0.0625
  9
$DIMDLI
 40
0.38
  9
$DIMRND
 40
0.0
  9
$DIMDLE
 40
0.0
  9
$DIMEXE
 40
0.18
  9
$DIMTP
 40
0.0
  9
$DIMTM
 40
0.0
  9
$DIMTXT
 40
0.18
  9
$DIMCEN
 40
0.09
  9
$DIMTSZ
 40
0.0
  9
$DIMTOL
 70
     0
  9
$DIMLIM
 70
     0
  9
$DIMTIH
 70
     1
  9
$DIMTOH
 70
     1
  9
$DIMSE1
 70
     0
  9
$DIMSE2
 70
     0
  9
$DIMTAD
 70
     0
  9
$DIMZIN
 70
     0
  9
$DIMBLK
  1

  9
$DIMASO
 70
     1
  9
$DIMSHO
 70
     1
  9
$DIMPOST
  1

  9
$DIMAPOST
  1

  9
$DIMALT
 70
     0
  9
$DIMALTD
 70
     2
  9
$DIMALTF
 40
25.4
  9
$DIMLFAC
 40
1.0
  9
$DIMTOFL
 70
     0
  9
$DIMTVP
 40
0.0
  9
$DIMTIX
 70
     0
  9
$DIMSOXD
 70
     0
  9
$DIMSAH
 70
     0
  9
$DIMBLK1
  1

  9
$DIMBLK2
  1

  9
$DIMSTYLE
  2
Standard
  9
$DIMCLRD
 70
     0
  9
$DIMCLRE
 70
     0
  9
$DIMCLRT
 70
     0
  9
$DIMTFAC
 40
1.0
  9
$DIMGAP
 40
0.09
  9
$DIMJUST
 70
     0
  9
$DIMSD1
 70
     0
  9
$DIMSD2
 70
     0
  9
$DIMTOLJ
 70
     1
  9
$DIMTZIN
 70
     0
  9
$DIMALTZ
 70
     0
  9
$DIMALTTZ
 70
     0
  9
$DIMUPT
 70
     0
  9
$DIMDEC
 70
     4
  9
$DIMTDEC
 70
     4
  9
$DIMALTU
 70
     2
  9
$DIMALTTD
 70
     2
  9
$DIMTXSTY
  7
Standard
  9
$DIMAUNIT
 70
     0
  9
$DIMADEC
 70
     0
  9
$DIMALTRND
 40
0.0
  9
$DIMAZIN
 70
     0
  9
$DIMDSEP
 70
    46
  9
$DIMATFIT
 70
     3
  9
$DIMFRAC
 70
     0
  9
$DIMLDRBLK
  1

  9
$DIMLUNIT
 70
     2
  9
$DIMLWD
 70
    -2
  9
$DIMLWE
 70
    -2
  9
$DIMTMOVE
 70
     0
  9
$LUNITS
 70
     2
  9
$LUPREC
 70
     4
  9
$SKETCHINC
 40
0.1
  9
$FILLETRAD
 40
0.0
  9
$AUNITS
 70
     0
  9
$AUPREC
 70
     0
  9
$MENU
  1
.
  9
$ELEVATION
 40
0.0
  9
$PELEVATION
 40
0.0
  9
$THICKNESS
 40
0.0
  9
$LIMCHECK
 70
     0
  9
$CHAMFERA
 40
0.0
  9
$CHAMFERB
 40
0.0
  9
$CHAMFERC
 40
0.0
  9
$CHAMFERD
 40
0.0
  9
$SKPOLY
 70
     0
  9
$TDCREATE
 40
2454875.850624086
  9
$TDUCREATE
 40
2454875.808957419
  9
$TDUPDATE
 40
2454875.856857269
  9
$TDUUPDATE
 40
2454875.815190601
  9
$TDINDWG
 40
0.0062331829
  9
$TDUSRTIMER
 40
0.0062331829
  9
$USRTIMER
 70
     1
  9
$ANGBASE
 50
0.0
  9
$ANGDIR
 70
     0
  9
$PDMODE
 70
     0
  9
$PDSIZE
 40
0.0
  9
$PLINEWID
 40
0.0
  9
$SPLFRAME
 70
     0
  9
$SPLINETYPE
 70
     6
  9
$SPLINESEGS
 70
     8
  9
$HANDSEED
  5
197
  9
$SURFTAB1
 70
     6
  9
$SURFTAB2
 70
     6
  9
$SURFTYPE
 70
     6
  9
$SURFU
 70
     6
  9
$SURFV
 70
     6
  9
$UCSBASE
  2

  9
$UCSNAME
  2

  9
$UCSORG
 10
0.0
 20
0.0
 30
0.0
  9
$UCSXDIR
 10
1.0
 20
0.0
 30
0.0
  9
$UCSYDIR
 10
0.0
 20
1.0
 30
0.0
  9
$UCSORTHOREF
  2

  9
$UCSORTHOVIEW
 70
     1
  9
$UCSORGTOP
 10
0.0
 20
0.0
 30
0.0
  9
$UCSORGBOTTOM
 10
0.0
 20
0.0
 30
0.0
  9
$UCSORGLEFT
 10
0.0
 20
0.0
 30
0.0
  9
$UCSORGRIGHT
 10
0.0
 20
0.0
 30
0.0
  9
$UCSORGFRONT
 10
0.0
 20
0.0
 30
0.0
  9
$UCSORGBACK
 10
0.0
 20
0.0
 30
0.0
  9
$PUCSBASE
  2

  9
$PUCSNAME
  2

  9
$PUCSORG
 10
0.0
 20
0.0
 30
0.0
  9
$PUCSXDIR
 10
1.0
 20
0.0
 30
0.0
  9
$PUCSYDIR
 10
0.0
 20
1.0
 30
0.0
  9
$PUCSORTHOREF
  2

  9
$PUCSORTHOVIEW
 70
     0
  9
$PUCSORGTOP
 10
0.0
 20
0.0
 30
0.0
  9
$PUCSORGBOTTOM
 10
0.0
 20
0.0
 30
0.0
  9
$PUCSORGLEFT
 10
0.0
 20
0.0
 30
0.0
  9
$PUCSORGRIGHT
 10
0.0
 20
0.0
 30
0.0
  9
$PUCSORGFRONT
 10
0.0
 20
0.0
 30
0.0
  9
$PUCSORGBACK
 10
0.0
 20
0.0
 30
0.0
  9
$USERI1
 70
     0
  9
$USERI2
 70
     0
  9
$USERI3
 70
     0
  9
$USERI4
 70
     0
  9
$USERI5
 70
     0
  9
$USERR1
 40
0.0
  9
$USERR2
 40
0.0
  9
$USERR3
 40
0.0
  9
$USERR4
 40
0.0
  9
$USERR5
 40
0.0
  9
$WORLDVIEW
 70
     1
  9
$SHADEDGE
 70
     3
  9
$SHADEDIF
 70
    70
  9
$TILEMODE
 70
     1
  9
$MAXACTVP
 70
    64
  9
$PINSBASE
 10
0.0
 20
0.0
 30
0.0
  9
$PLIMCHECK
 70
     0
  9
$PEXTMIN
 10
1.000000000000000E+20
 20
1.000000000000000E+20
 30
1.000000000000000E+20
  9
$PEXTMAX
 10
-1.000000000000000E+20
 20
-1.000000000000000E+20
 30
-1.000000000000000E+20
  9
$PLIMMIN
 10
0.0
 20
0.0
  9
$PLIMMAX
 10
12.0
 20
9.0
  9
$UNITMODE
 70
     0
  9
$VISRETAIN
 70
     1
  9
$PLINEGEN
 70
     0
  9
$PSLTSCALE
 70
     1
  9
$TREEDEPTH
 70
  3020
  9
$CMLSTYLE
  2
Standard
  9
$CMLJUST
 70
     0
  9
$CMLSCALE
 40
1.0
  9
$PROXYGRAPHICS
 70
     1
  9
$MEASUREMENT
 70
     0
  9
$CELWEIGHT
370
    -1
  9
$ENDCAPS
280
     0
  9
$JOINSTYLE
280
     0
  9
$LWDISPLAY
290
     0
  9
$INSUNITS
 70
     0
  9
$HYPERLINKBASE
  1

  9
$STYLESHEET
  1

  9
$XEDIT
290
     1
  9
$CEPSNTYPE
380
     0
  9
$PSTYLEMODE
290
     1
  9
$FINGERPRINTGUID
  2
{4269204D-00B9-4ED1-8BC9-C21A9FA0D2F2}
  9
$VERSIONGUID
  2
{809EB8E3-E24D-4D44-9DDE-41B208D8CB7D}
  9
$EXTNAMES
290
     1
  9
$PSVPSCALE
 40
0.0
  9
$OLESTARTUP
290
     0
  0
ENDSEC
  0
SECTION
  2
CLASSES
  0
CLASS
  1
ACDBDICTIONARYWDFLT
  2
AcDbDictionaryWithDefault
  3
AutoCAD 2000
 90
        0
280
     0
281
     0
  0
CLASS
  1
ACDBPLACEHOLDER
  2
AcDbPlaceHolder
  3
AutoCAD 2000
 90
        0
280
     0
281
     0
  0
CLASS
  1
LAYOUT
  2
AcDbLayout
  3
AutoCAD 2000
 90
        0
280
     0
281
     0
  0
CLASS
  1
DICTIONARYVAR
  2
AcDbDictionaryVar
  3
AutoCAD 2000
 90
        0
280
     0
281
     0
  0
ENDSEC
  0
SECTION
  2
TABLES
  0
TABLE
  2
VPORT
  5
8
330
0
100
AcDbSymbolTable
 70
     2
  0
VPORT
  5
196
330
8
100
AcDbSymbolTableRecord
100
AcDbViewportTableRecord
  2
*Active
 70
     0
 10
0.0
 20
0.0
 11
1.0
 21
1.0
 12
94.50000000000001
 22
56.50000000000001
 13
0.0
 23
0.0
 14
1.0
 24
1.0
 15
0.0
 25
0.0
 16
0.0
 26
0.0
 36
1.0
 17
0.0
 27
0.0
 37
0.0
 40
113.7136842105263
 41
1.968387776606954
 42
50.0
 43
0.0
 44
0.0
 50
0.0
 51
0.0
 71
     0
 72
   100
 73
     1
 74
     3
 75
     0
 76
     0
 77
     0
 78
     0
281
     0
 65
     1
110
0.0
120
0.0
130
0.0
111
1.0
121
0.0
131
0.0
112
0.0
122
1.0
132
0.0
 79
     1
146
0.0
  0
ENDTAB
  0
TABLE
  2
LTYPE
  5
5
330
0
100
AcDbSymbolTable
 70
     1
  0
LTYPE
  5
13
330
5
100
AcDbSymbolTableRecord
100
AcDbLinetypeTableRecord
  2
ByBlock
 70
     0
  3

 72
    65
 73
     0
 40
0.0
  0
LTYPE
  5
14
330
5
100
AcDbSymbolTableRecord
100
AcDbLinetypeTableRecord
  2
ByLayer
 70
     0
  3

 72
    65
 73
     0
 40
0.0
  0
LTYPE
  5
15
330
5
100
AcDbSymbolTableRecord
100
AcDbLinetypeTableRecord
  2
Continuous
 70
     0
  3
Solid line
 72
    65
 73
     0
 40
0.0
  0
ENDTAB
  0
TABLE
  2
LAYER
  5
2
330
0
100
AcDbSymbolTable
 70
     1
  0
LAYER
  5
10
330
2
100
AcDbSymbolTableRecord
100
AcDbLayerTableRecord
  2
0
 70
     0
 62
     7
  6
Continuous
370
    -3
390
F
  0
ENDTAB
  0
TABLE
  2
STYLE
  5
3
330
0
100
AcDbSymbolTable
 70
     1
  0
STYLE
  5
11
330
3
100
AcDbSymbolTableRecord
100
AcDbTextStyleTableRecord
  2
Standard
 70
     0
 40
0.0
 41
1.0
 50
0.0
 71
     0
 42
0.2
  3
txt
  4

  0
ENDTAB
  0
TABLE
  2
VIEW
  5
6
330
0
100
AcDbSymbolTable
 70
     0
  0
ENDTAB
  0
TABLE
  2
UCS
  5
7
330
0
100
AcDbSymbolTable
 70
     0
  0
ENDTAB
  0
TABLE
  2
APPID
  5
9
330
0
100
AcDbSymbolTable
 70
     1
  0
APPID
  5
12
330
9
100
AcDbSymbolTableRecord
100
AcDbRegAppTableRecord
  2
ACAD
 70
     0
  0
ENDTAB
  0
TABLE
  2
DIMSTYLE
  5
A
330
0
100
AcDbSymbolTable
 70
     1
100
AcDbDimStyleTable
 71
     0
  0
DIMSTYLE
105
185
330
A
100
AcDbSymbolTableRecord
100
AcDbDimStyleTableRecord
  2
Standard
 70
     0
340
11
  0
ENDTAB
  0
TABLE
  2
BLOCK_RECORD
  5
1
330
0
100
AcDbSymbolTable
 70
     0
  0
BLOCK_RECORD
  5
1E
330
1
100
AcDbSymbolTableRecord
100
AcDbBlockTableRecord
  2
*Model_Space
340
21
  0
BLOCK_RECORD
  5
1A
330
1
100
AcDbSymbolTableRecord
100
AcDbBlockTableRecord
  2
*Paper_Space
340
1D
  0
ENDTAB
  0
ENDSEC
  0
SECTION
  2
BLOCKS
  0
BLOCK
  5
1F
330
1E
100
AcDbEntity
  8
0
100
AcDbBlockBegin
  2
*Model_Space
 70
     0
 10
0.0
 20
0.0
 30
0.0
  3
*Model_Space
  1

  0
ENDBLK
  5
20
330
1E
100
AcDbEntity
  8
0
100
AcDbBlockEnd
  0
BLOCK
  5
1B
330
1A
100
AcDbEntity
 67
     1
  8
0
100
AcDbBlockBegin
  2
*Paper_Space
 70
     0
 10
0.0
 20
0.0
 30
0.0
  3
*Paper_Space
  1

  0
ENDBLK
  5
1C
330
1A
100
AcDbEntity
 67
     1
  8
0
100
AcDbBlockEnd
  0
ENDSEC
  0
SECTION
  2
ENTITIES
  0
LINE
  5
22
330
1E
100
AcDbEntity
  8
0
100
AcDbLine
 10
2.813267500000009
 20
6.251930000000009
 30
0.0
 11
4.966007500000009
 21
4.882370000000009
 31
0.0
  0
LINE
  5
23
330
1E
100
AcDbEntity
  8
0
100
AcDbLine
 10
5.263977500000009
 20
0.000000000000006
 30
0.0
 11
5.659977500000009
 21
0.0000000000000059
 31
0.0
  0
LINE
  5
24
330
1E
100
AcDbEntity
  8
0
100
AcDbLine
 10
5.659977500000009
 20
0.0000000000000059
 30
0.0
 11
6.715977500000009
 21
0.0000000000000059
 31
0.0
  0
LINE
  5
25
330
1E
100
AcDbEntity
  8
0
100
AcDbLine
 10
6.715977500000009
 20
0.0000000000000059
 30
0.0
 11
8.431977500000009
 21
0.0000000000000058
 31
0.0
  0
LINE
  5
26
330
1E
100
AcDbEntity
  8
0
100
AcDbLine
 10
8.431977500000009
 20
0.0000000000000058
 30
0.0
 11
10.6759775
 21
0.0000000000000056
 31
0.0
  0
LINE
  5
27
330
1E
100
AcDbEntity
  8
0
100
AcDbLine
 10
10.6759775
 20
0.0000000000000056
 30
0.0
 11
13.2279775
 21
0.0000000000000055
 31
0.0
  0
LINE
  5
28
330
1E
100
AcDbEntity
  8
0
100
AcDbLine
 10
4.999977500000009
 20
4.86976615240119
 30
0.0
 11
4.999977500000009
 21
0.300000000000005
 31
0.0
  0
LINE
  5
29
330
1E
100
AcDbEntity
  8
0
100
AcDbLine
 10
4.999977500000009
 20
0.300000000000006
 30
0.0
 11
5.395977500000009
 21
0.300000000000006
 31
0.0
  0
LINE
  5
2A
330
1E
100
AcDbEntity
  8
0
100
AcDbLine
 10
4.999977500000009
 20
0.300000000000006
 30
0.0
 11
4.999977500000009
 21
4.86976615240119
 31
0.0
  0
LINE
  5
2B
330
1E
100
AcDbEntity
  8
0
100
AcDbLine
 10
4.999977500000009
 20
0.300000000000006
 30
0.0
 11
5.263977500000009
 21
0.000000000000006
 31
0.0
  0
LINE
  5
2C
330
1E
100
AcDbEntity
  8
0
100
AcDbLine
 10
4.999977500000009
 20
0.300000000000006
 30
0.0
 11
5.263977500000009
 21
0.0000000000000059
 31
0.0
  0
LINE
  5
2D
330
1E
100
AcDbEntity
  8
0
100
AcDbLine
 10
5.395977500000009
 20
0.300000000000006
 30
0.0
 11
6.451977500000009
 21
0.300000000000006
 31
0.0
  0
LINE
  5
2E
330
1E
100
AcDbEntity
  8
0
100
AcDbLine
 10
6.451977500000009
 20
0.300000000000006
 30
0.0
 11
8.21197750000001
 21
0.300000000000006
 31
0.0
  0
LINE
  5
2F
330
1E
100
AcDbEntity
  8
0
100
AcDbLine
 10
8.21197750000001
 20
0.300000000000006
 30
0.0
 11
10.54397749999999
 21
0.300000000000006
 31
0.0
  0
LINE
  5
30
330
1E
100
AcDbEntity
  8
0
100
AcDbLine
 10
10.54397749999999
 20
0.300000000000006
 30
0.0
 11
13.18397749999999
 21
0.300000000000006
 31
0.0
  0
LINE
  5
31
330
1E
100
AcDbEntity
  8
0
100
AcDbLine
 10
26.7359775
 20
0.0000000000000047
 30
0.0
 11
26.9999775
 21
0.300000000000005
 31
0.0
  0
LINE
  5
32
330
1E
100
AcDbEntity
  8
0
100
AcDbLine
 10
26.3399775
 20
0.0000000000000047
 30
0.0
 11
26.7359775
 21
0.0000000000000046
 31
0.0
  0
LINE
  5
33
330
1E
100
AcDbEntity
  8
0
100
AcDbLine
 10
26.7359775
 20
0.0000000000000046
 30
0.0
 11
26.9999775
 21
0.300000000000005
 31
0.0
  0
LINE
  5
34
330
1E
100
AcDbEntity
  8
0
100
AcDbLine
 10
25.28397749999999
 20
0.0000000000000047
 30
0.0
 11
26.3399775
 21
0.0000000000000047
 31
0.0
  0
LINE
  5
35
330
1E
100
AcDbEntity
  8
0
100
AcDbLine
 10
23.56797749999999
 20
0.0000000000000048
 30
0.0
 11
25.28397749999999
 21
0.0000000000000047
 31
0.0
  0
LINE
  5
36
330
1E
100
AcDbEntity
  8
0
100
AcDbLine
 10
21.32397749999999
 20
0.000000000000005
 30
0.0
 11
23.56797749999999
 21
0.0000000000000048
 31
0.0
  0
LINE
  5
37
330
1E
100
AcDbEntity
  8
0
100
AcDbLine
 10
18.77197749999999
 20
0.0000000000000051
 30
0.0
 11
21.32397749999999
 21
0.000000000000005
 31
0.0
  0
LINE
  5
38
330
1E
100
AcDbEntity
  8
0
100
AcDbLine
 10
15.99997749999999
 20
0.0000000000000053
 30
0.0
 11
18.77197749999999
 21
0.0000000000000051
 31
0.0
  0
LINE
  5
39
330
1E
100
AcDbEntity
  8
0
100
AcDbLine
 10
26.6039775
 20
0.300000000000005
 30
0.0
 11
26.9999775
 21
0.300000000000005
 31
0.0
  0
LINE
  5
3A
330
1E
100
AcDbEntity
  8
0
100
AcDbLine
 10
25.5479775
 20
0.300000000000005
 30
0.0
 11
26.6039775
 21
0.300000000000005
 31
0.0
  0
LINE
  5
3B
330
1E
100
AcDbEntity
  8
0
100
AcDbLine
 10
23.78797749999999
 20
0.300000000000005
 30
0.0
 11
25.5479775
 21
0.300000000000005
 31
0.0
  0
LINE
  5
3C
330
1E
100
AcDbEntity
  8
0
100
AcDbLine
 10
21.45597749999999
 20
0.300000000000005
 30
0.0
 11
23.78797749999999
 21
0.300000000000005
 31
0.0
  0
LINE
  5
3D
330
1E
100
AcDbEntity
  8
0
100
AcDbLine
 10
18.8159775
 20
0.300000000000005
 30
0.0
 11
21.45597749999999
 21
0.300000000000005
 31
0.0
  0
LINE
  5
3E
330
1E
100
AcDbEntity
  8
0
100
AcDbLine
 10
15.99997749999999
 20
0.300000000000005
 30
0.0
 11
18.8159775
 21
0.300000000000005
 31
0.0
  0
LINE
  5
3F
330
1E
100
AcDbEntity
  8
0
100
AcDbLine
 10
26.9999775
 20
0.300000000000005
 30
0.0
 11
26.9999775
 21
7.56577531537917
 31
0.0
  0
LINE
  5
40
330
1E
100
AcDbEntity
  8
0
100
AcDbLine
 10
13.2279775
 20
0.0000000000000055
 30
0.0
 11
15.99997749999999
 21
0.0000000000000053
 31
0.0
  0
LINE
  5
41
330
1E
100
AcDbEntity
  8
0
100
AcDbLine
 10
13.18397749999999
 20
0.300000000000006
 30
0.0
 11
15.99997749999999
 21
0.300000000000005
 31
0.0
  0
LINE
  5
42
330
1E
100
AcDbEntity
  8
0
100
AcDbLine
 10
28.3747775
 20
8.34801
 30
0.0
 11
84.20187750000001
 21
40.5721
 31
0.0
  0
LINE
  5
43
330
1E
100
AcDbEntity
  8
0
100
AcDbLine
 10
26.9999775
 20
7.56577531537917
 30
0.0
 11
26.9999775
 21
0.3000000000000039
 31
0.0
  0
LINE
  5
44
330
1E
100
AcDbEntity
  8
0
100
AcDbLine
 10
0.0902145000000125
 20
9.338390000000009
 30
0.0
 11
0.5902145000000121
 21
8.472360000000008
 31
0.0
  0
LINE
  5
45
330
1E
100
AcDbEntity
  8
0
100
AcDbLine
 10
0.5902145000000121
 20
8.472360000000008
 30
0.0
 11
2.813267500000009
 21
6.251930000000009
 31
0.0
  0
LINE
  5
48
330
1E
100
AcDbEntity
  8
0
100
AcDbLine
 10
0.5902145000000121
 20
8.472360000000008
 30
0.0
 11
2.813267500000009
 21
6.251930000000009
 31
0.0
  0
LINE
  5
49
330
1E
100
AcDbEntity
  8
0
100
AcDbLine
 10
0.0000225000000125
 20
10.0946
 30
0.0
 11
0.0902145000000125
 21
9.338390000000009
 31
0.0
  0
LINE
  5
4B
330
1E
100
AcDbEntity
  8
0
100
AcDbLine
 10
0.0000225000000125
 20
10.0946
 30
0.0
 11
0.456240500000013
 21
10.7044
 31
0.0
  0
LINE
  5
4C
330
1E
100
AcDbEntity
  8
0
100
AcDbLine
 10
0.0000225000000125
 20
10.0946
 30
0.0
 11
0.456240500000013
 21
10.7044
 31
0.0
  0
LINE
  5
4E
330
1E
100
AcDbEntity
  8
0
100
AcDbLine
 10
0.0000225000000125
 20
10.0946
 30
0.0
 11
0.0902145000000125
 21
9.338390000000009
 31
0.0
  0
LINE
  5
54
330
1E
100
AcDbEntity
  8
0
100
AcDbLine
 10
0.0902145000000124
 20
9.338390000000009
 30
0.0
 11
0.5902145000000121
 21
8.472360000000008
 31
0.0
  0
LINE
  5
77
330
1E
100
AcDbEntity
  8
0
100
AcDbLine
 10
78.1905775
 20
55.1514
 30
0.0
 11
80.99627750000001
 21
57.4016
 31
0.0
  0
LINE
  5
79
330
1E
100
AcDbEntity
  8
0
100
AcDbLine
 10
28.3747775
 20
8.34801
 30
0.0
 11
84.20187750000001
 21
40.5721
 31
0.0
  0
LINE
  5
7D
330
1E
100
AcDbEntity
  8
0
100
AcDbLine
 10
86.8913775
 20
65.2936
 30
0.0
 11
88.1848775
 21
68.74819999999999
 31
0.0
  0
LINE
  5
7E
330
1E
100
AcDbEntity
  8
0
100
AcDbLine
 10
85.76257750000001
 20
63.13159999999999
 30
0.0
 11
86.8913775
 21
65.2936
 31
0.0
  0
LINE
  5
7F
330
1E
100
AcDbEntity
  8
0
100
AcDbLine
 10
84.3842775
 20
61.3145
 30
0.0
 11
85.76257750000001
 21
63.13159999999999
 31
0.0
  0
LINE
  5
81
330
1E
100
AcDbEntity
  8
0
100
AcDbLine
 10
88.9999775
 20
80.20000000000001
 30
0.0
 11
88.9999775
 21
81.00709999999999
 31
0.0
  0
LINE
  5
82
330
1E
100
AcDbEntity
  8
0
100
AcDbLine
 10
88.9999775
 20
80.20000000000001
 30
0.0
 11
88.9999775
 21
79.0
 31
0.0
  0
LINE
  5
83
330
1E
100
AcDbEntity
  8
0
100
AcDbLine
 10
88.9999775
 20
79.0
 30
0.0
 11
88.9999775
 21
80.20000000000001
 31
0.0
  0
LINE
  5
84
330
1E
100
AcDbEntity
  8
0
100
AcDbLine
 10
88.9999775
 20
79.0
 30
0.0
 11
88.9999775
 21
77.3
 31
0.0
  0
LINE
  5
85
330
1E
100
AcDbEntity
  8
0
100
AcDbLine
 10
88.9999775
 20
77.3
 30
0.0
 11
88.9999775
 21
79.0
 31
0.0
  0
LINE
  5
86
330
1E
100
AcDbEntity
  8
0
100
AcDbLine
 10
88.9999775
 20
77.3
 30
0.0
 11
88.9999775
 21
75.49590000000001
 31
0.0
  0
LINE
  5
87
330
1E
100
AcDbEntity
  8
0
100
AcDbLine
 10
88.9999775
 20
75.49590000000001
 30
0.0
 11
88.9999775
 21
77.3
 31
0.0
  0
LINE
  5
88
330
1E
100
AcDbEntity
  8
0
100
AcDbLine
 10
88.9999775
 20
75.49590000000001
 30
0.0
 11
88.9999775
 21
73.51100000000001
 31
0.0
  0
LINE
  5
91
330
1E
100
AcDbEntity
  8
0
100
AcDbLine
 10
88.9999775
 20
73.51100000000001
 30
0.0
 11
88.9999775
 21
75.49590000000001
 31
0.0
  0
LINE
  5
92
330
1E
100
AcDbEntity
  8
0
100
AcDbLine
 10
88.72577750000001
 20
71.3098
 30
0.0
 11
88.9999775
 21
73.51100000000001
 31
0.0
  0
LINE
  5
93
330
1E
100
AcDbEntity
  8
0
100
AcDbLine
 10
88.1848775
 20
68.74819999999999
 30
0.0
 11
88.72577750000001
 21
71.3098
 31
0.0
  0
LINE
  5
94
330
1E
100
AcDbEntity
  8
0
100
AcDbLine
 10
88.9999775
 20
81.6571
 30
0.0
 11
88.9999775
 21
81.8196
 31
0.0
  0
LINE
  5
95
330
1E
100
AcDbEntity
  8
0
100
AcDbLine
 10
88.9999775
 20
81.6571
 30
0.0
 11
88.9999775
 21
81.4043
 31
0.0
  0
LINE
  5
96
330
1E
100
AcDbEntity
  8
0
100
AcDbLine
 10
88.9999775
 20
81.4043
 30
0.0
 11
88.9999775
 21
81.6571
 31
0.0
  0
LINE
  5
97
330
1E
100
AcDbEntity
  8
0
100
AcDbLine
 10
88.9999775
 20
81.4043
 30
0.0
 11
88.9999775
 21
81.00709999999999
 31
0.0
  0
LINE
  5
98
330
1E
100
AcDbEntity
  8
0
100
AcDbLine
 10
88.9999775
 20
81.00709999999999
 30
0.0
 11
88.9999775
 21
81.4043
 31
0.0
  0
LINE
  5
99
330
1E
100
AcDbEntity
  8
0
100
AcDbLine
 10
88.9999775
 20
81.00709999999999
 30
0.0
 11
88.9999775
 21
80.20000000000001
 31
0.0
  0
LINE
  5
9E
330
1E
100
AcDbEntity
  8
0
100
AcDbLine
 10
87.4324775
 20
41.8653
 30
0.0
 11
90.37927749999999
 21
42.6159
 31
0.0
  0
LINE
  5
9F
330
1E
100
AcDbEntity
  8
0
100
AcDbLine
 10
88.9999775
 20
82.0
 30
0.0
 11
88.9999775
 21
81.8196
 31
0.0
  0
LINE
  5
A0
330
1E
100
AcDbEntity
  8
0
100
AcDbLine
 10
88.9999775
 20
82.0
 30
0.0
 11
89.2999775
 21
82.70000000000001
 31
0.0
  0
LINE
  5
A9
330
1E
100
AcDbEntity
  8
0
100
AcDbLine
 10
88.9999775
 20
81.8196
 30
0.0
 11
88.9999775
 21
82.0
 31
0.0
  0
LINE
  5
AA
330
1E
100
AcDbEntity
  8
0
100
AcDbLine
 10
88.9999775
 20
81.8196
 30
0.0
 11
88.9999775
 21
81.6571
 31
0.0
  0
LINE
  5
AB
330
1E
100
AcDbEntity
  8
0
100
AcDbLine
 10
179.9999775
 20
13.0
 30
0.0
 11
188.9999774999999
 21
13.0
 31
0.0
  0
LINE
  5
AC
330
1E
100
AcDbEntity
  8
0
100
AcDbLine
 10
178.9999775
 20
13.6471
 30
0.0
 11
178.9999775
 21
13.8824
 31
0.0
  0
LINE
  5
AD
330
1E
100
AcDbEntity
  8
0
100
AcDbLine
 10
178.9999775
 20
13.6471
 30
0.0
 11
178.9999775
 21
13.5882
 31
0.0
  0
LINE
  5
AE
330
1E
100
AcDbEntity
  8
0
100
AcDbLine
 10
178.9999775
 20
13.5882
 30
0.0
 11
178.9999775
 21
13.6471
 31
0.0
  0
LINE
  5
AF
330
1E
100
AcDbEntity
  8
0
100
AcDbLine
 10
178.9999775
 20
13.5882
 30
0.0
 11
179.2999775
 21
13.1765
 31
0.0
  0
LINE
  5
B5
330
1E
100
AcDbEntity
  8
0
100
AcDbLine
 10
179.2999775
 20
13.1765
 30
0.0
 11
179.9999775
 21
13.0
 31
0.0
  0
LINE
  5
B6
330
1E
100
AcDbEntity
  8
0
100
AcDbLine
 10
178.9999775
 20
13.8824
 30
0.0
 11
178.9999775
 21
13.6471
 31
0.0
  0
LINE
  5
B7
330
1E
100
AcDbEntity
  8
0
100
AcDbLine
 10
178.9999775
 20
13.8824
 30
0.0
 11
178.9999775
 21
15.2941
 31
0.0
  0
LINE
  5
BC
330
1E
100
AcDbEntity
  8
0
100
AcDbLine
 10
178.9999775
 20
15.2941
 30
0.0
 11
178.9999775
 21
16.0
 31
0.0
  0
LINE
  5
BD
330
1E
100
AcDbEntity
  8
0
100
AcDbLine
 10
178.9999775
 20
15.2941
 30
0.0
 11
178.9999775
 21
13.8824
 31
0.0
  0
LINE
  5
C0
330
1E
100
AcDbEntity
  8
0
100
AcDbLine
 10
188.9999774999999
 20
14.8235
 30
0.0
 11
188.9999774999999
 21
15.5882
 31
0.0
  0
LINE
  5
C1
330
1E
100
AcDbEntity
  8
0
100
AcDbLine
 10
188.9999774999999
 20
14.8235
 30
0.0
 11
188.9999774999999
 21
14.1765
 31
0.0
  0
LINE
  5
C2
330
1E
100
AcDbEntity
  8
0
100
AcDbLine
 10
188.9999774999999
 20
14.1765
 30
0.0
 11
188.9999774999999
 21
14.8235
 31
0.0
  0
LINE
  5
C3
330
1E
100
AcDbEntity
  8
0
100
AcDbLine
 10
188.9999774999999
 20
14.1765
 30
0.0
 11
188.9999774999999
 21
13.70589999999999
 31
0.0
  0
LINE
  5
C4
330
1E
100
AcDbEntity
  8
0
100
AcDbLine
 10
188.9999774999999
 20
13.70589999999999
 30
0.0
 11
188.9999774999999
 21
14.1765
 31
0.0
  0
LINE
  5
C5
330
1E
100
AcDbEntity
  8
0
100
AcDbLine
 10
188.9999774999999
 20
13.70589999999999
 30
0.0
 11
188.9999774999999
 21
13.2941
 31
0.0
  0
LINE
  5
C6
330
1E
100
AcDbEntity
  8
0
100
AcDbLine
 10
188.9999774999999
 20
13.2941
 30
0.0
 11
188.9999774999999
 21
13.70589999999999
 31
0.0
  0
LINE
  5
C7
330
1E
100
AcDbEntity
  8
0
100
AcDbLine
 10
188.9999774999999
 20
13.2941
 30
0.0
 11
188.9999774999999
 21
13.1176
 31
0.0
  0
LINE
  5
C8
330
1E
100
AcDbEntity
  8
0
100
AcDbLine
 10
188.9999774999999
 20
13.1176
 30
0.0
 11
188.9999774999999
 21
13.2941
 31
0.0
  0
LINE
  5
C9
330
1E
100
AcDbEntity
  8
0
100
AcDbLine
 10
188.9999774999999
 20
13.1176
 30
0.0
 11
188.9999774999999
 21
13.0
 31
0.0
  0
LINE
  5
CA
330
1E
100
AcDbEntity
  8
0
100
AcDbLine
 10
188.9999774999999
 20
13.0
 30
0.0
 11
188.9999774999999
 21
13.1176
 31
0.0
  0
LINE
  5
CB
330
1E
100
AcDbEntity
  8
0
100
AcDbLine
 10
178.9999775
 20
16.0
 30
0.0
 11
178.9999775
 21
16.8235
 31
0.0
  0
LINE
  5
CC
330
1E
100
AcDbEntity
  8
0
100
AcDbLine
 10
178.9999775
 20
16.0
 30
0.0
 11
178.9999775
 21
15.2941
 31
0.0
  0
LINE
  5
CF
330
1E
100
AcDbEntity
  8
0
100
AcDbLine
 10
188.9999774999999
 20
15.5882
 30
0.0
 11
188.9999774999999
 21
16.4706
 31
0.0
  0
LINE
  5
D0
330
1E
100
AcDbEntity
  8
0
100
AcDbLine
 10
188.9999774999999
 20
15.5882
 30
0.0
 11
188.9999774999999
 21
14.8235
 31
0.0
  0
LINE
  5
D1
330
1E
100
AcDbEntity
  8
0
100
AcDbLine
 10
178.9999775
 20
16.8235
 30
0.0
 11
178.9999775
 21
17.7059
 31
0.0
  0
LINE
  5
D2
330
1E
100
AcDbEntity
  8
0
100
AcDbLine
 10
178.9999775
 20
16.8235
 30
0.0
 11
178.9999775
 21
16.0
 31
0.0
  0
LINE
  5
D5
330
1E
100
AcDbEntity
  8
0
100
AcDbLine
 10
178.9999775
 20
17.7059
 30
0.0
 11
178.9999775
 21
16.8235
 31
0.0
  0
LINE
  5
D6
330
1E
100
AcDbEntity
  8
0
100
AcDbLine
 10
178.9999775
 20
17.7059
 30
0.0
 11
178.9999775
 21
18.70589999999999
 31
0.0
  0
LINE
  5
DB
330
1E
100
AcDbEntity
  8
0
100
AcDbLine
 10
188.9999774999999
 20
16.4706
 30
0.0
 11
188.9999774999999
 21
17.41179999999999
 31
0.0
  0
LINE
  5
DC
330
1E
100
AcDbEntity
  8
0
100
AcDbLine
 10
188.9999774999999
 20
16.4706
 30
0.0
 11
188.9999774999999
 21
15.5882
 31
0.0
  0
LINE
  5
DD
330
1E
100
AcDbEntity
  8
0
100
AcDbLine
 10
188.9999774999999
 20
17.41179999999999
 30
0.0
 11
188.9999774999999
 21
18.4706
 31
0.0
  0
LINE
  5
DE
330
1E
100
AcDbEntity
  8
0
100
AcDbLine
 10
188.9999774999999
 20
17.41179999999999
 30
0.0
 11
188.9999774999999
 21
16.4706
 31
0.0
  0
LINE
  5
DF
330
1E
100
AcDbEntity
  8
0
100
AcDbLine
 10
178.9999775
 20
18.70589999999999
 30
0.0
 11
178.9999775
 21
17.7059
 31
0.0
  0
LINE
  5
E0
330
1E
100
AcDbEntity
  8
0
100
AcDbLine
 10
178.9999775
 20
18.70589999999999
 30
0.0
 11
178.9999775
 21
19.70589999999999
 31
0.0
  0
LINE
  5
E1
330
1E
100
AcDbEntity
  8
0
100
AcDbLine
 10
178.9999775
 20
19.70589999999999
 30
0.0
 11
178.9999775
 21
20.7647
 31
0.0
  0
LINE
  5
E2
330
1E
100
AcDbEntity
  8
0
100
AcDbLine
 10
178.9999775
 20
19.70589999999999
 30
0.0
 11
178.9999775
 21
18.70589999999999
 31
0.0
  0
LINE
  5
E7
330
1E
100
AcDbEntity
  8
0
100
AcDbLine
 10
188.9999774999999
 20
18.4706
 30
0.0
 11
188.9999774999999
 21
19.52939999999999
 31
0.0
  0
LINE
  5
E8
330
1E
100
AcDbEntity
  8
0
100
AcDbLine
 10
188.9999774999999
 20
18.4706
 30
0.0
 11
188.9999774999999
 21
17.41179999999999
 31
0.0
  0
LINE
  5
E9
330
1E
100
AcDbEntity
  8
0
100
AcDbLine
 10
188.9999774999999
 20
19.52939999999999
 30
0.0
 11
188.9999774999999
 21
20.64709999999999
 31
0.0
  0
LINE
  5
EA
330
1E
100
AcDbEntity
  8
0
100
AcDbLine
 10
188.9999774999999
 20
19.52939999999999
 30
0.0
 11
188.9999774999999
 21
18.4706
 31
0.0
  0
LINE
  5
EB
330
1E
100
AcDbEntity
  8
0
100
AcDbLine
 10
178.9999775
 20
20.7647
 30
0.0
 11
178.9999775
 21
21.8235
 31
0.0
  0
LINE
  5
EC
330
1E
100
AcDbEntity
  8
0
100
AcDbLine
 10
178.9999775
 20
20.7647
 30
0.0
 11
178.9999775
 21
19.70589999999999
 31
0.0
  0
LINE
  5
ED
330
1E
100
AcDbEntity
  8
0
100
AcDbLine
 10
178.9999775
 20
21.8235
 30
0.0
 11
178.9999775
 21
63.0
 31
0.0
  0
LINE
  5
EE
330
1E
100
AcDbEntity
  8
0
100
AcDbLine
 10
178.9999775
 20
21.8235
 30
0.0
 11
178.9999775
 21
20.7647
 31
0.0
  0
LINE
  5
EF
330
1E
100
AcDbEntity
  8
0
100
AcDbLine
 10
178.9999775
 20
21.8235
 30
0.0
 11
178.9999775
 21
43.0
 31
0.0
  0
LINE
  5
F2
330
1E
100
AcDbEntity
  8
0
100
AcDbLine
 10
188.9999774999999
 20
20.64709999999999
 30
0.0
 11
188.9999774999999
 21
21.8235
 31
0.0
  0
LINE
  5
F3
330
1E
100
AcDbEntity
  8
0
100
AcDbLine
 10
188.9999774999999
 20
20.64709999999999
 30
0.0
 11
188.9999774999999
 21
19.52939999999999
 31
0.0
  0
LINE
  5
F4
330
1E
100
AcDbEntity
  8
0
100
AcDbLine
 10
188.9999774999999
 20
21.8235
 30
0.0
 11
188.9999774999999
 21
63.0
 31
0.0
  0
LINE
  5
F5
330
1E
100
AcDbEntity
  8
0
100
AcDbLine
 10
188.9999774999999
 20
21.8235
 30
0.0
 11
188.9999774999999
 21
20.64709999999999
 31
0.0
  0
LINE
  5
F6
330
1E
100
AcDbEntity
  8
0
100
AcDbLine
 10
178.9999775
 20
43.0
 30
0.0
 11
178.9999775
 21
21.8235
 31
0.0
  0
LINE
  5
F7
330
1E
100
AcDbEntity
  8
0
100
AcDbLine
 10
93.06417749999999
 20
42.9009
 30
0.0
 11
94.9999775
 21
43.0
 31
0.0
  0
LINE
  5
F8
330
1E
100
AcDbEntity
  8
0
100
AcDbLine
 10
90.37927749999999
 20
42.6159
 30
0.0
 11
93.06417749999999
 21
42.9009
 31
0.0
  0
LINE
  5
F9
330
1E
100
AcDbEntity
  8
0
100
AcDbLine
 10
178.9999775
 20
43.04999999999999
 30
0.0
 11
178.9999775
 21
43.15
 31
0.0
  0
LINE
  5
FA
330
1E
100
AcDbEntity
  8
0
100
AcDbLine
 10
178.9999775
 20
43.15
 30
0.0
 11
178.9999775
 21
43.34999999999999
 31
0.0
  0
LINE
  5
FB
330
1E
100
AcDbEntity
  8
0
100
AcDbLine
 10
178.9999775
 20
43.15
 30
0.0
 11
178.9999775
 21
43.04999999999999
 31
0.0
  0
LINE
  5
FC
330
1E
100
AcDbEntity
  8
0
100
AcDbLine
 10
178.9999775
 20
43.34999999999999
 30
0.0
 11
178.9999775
 21
43.6
 31
0.0
  0
LINE
  5
FD
330
1E
100
AcDbEntity
  8
0
100
AcDbLine
 10
178.9999775
 20
43.34999999999999
 30
0.0
 11
178.9999775
 21
43.15
 31
0.0
  0
LINE
  5
FE
330
1E
100
AcDbEntity
  8
0
100
AcDbLine
 10
178.9999775
 20
43.6
 30
0.0
 11
178.9999775
 21
44.0
 31
0.0
  0
LINE
  5
FF
330
1E
100
AcDbEntity
  8
0
100
AcDbLine
 10
178.9999775
 20
43.6
 30
0.0
 11
178.9999775
 21
43.34999999999999
 31
0.0
  0
LINE
  5
100
330
1E
100
AcDbEntity
  8
0
100
AcDbLine
 10
178.9999775
 20
44.0
 30
0.0
 11
178.9999775
 21
44.79999999999999
 31
0.0
  0
LINE
  5
101
330
1E
100
AcDbEntity
  8
0
100
AcDbLine
 10
178.9999775
 20
44.0
 30
0.0
 11
178.9999775
 21
43.6
 31
0.0
  0
LINE
  5
102
330
1E
100
AcDbEntity
  8
0
100
AcDbLine
 10
178.9999775
 20
44.79999999999999
 30
0.0
 11
178.9999775
 21
46.0
 31
0.0
  0
LINE
  5
103
330
1E
100
AcDbEntity
  8
0
100
AcDbLine
 10
178.9999775
 20
44.79999999999999
 30
0.0
 11
178.9999775
 21
44.0
 31
0.0
  0
LINE
  5
104
330
1E
100
AcDbEntity
  8
0
100
AcDbLine
 10
178.9999775
 20
60.6
 30
0.0
 11
178.9999775
 21
63.0
 31
0.0
  0
LINE
  5
105
330
1E
100
AcDbEntity
  8
0
100
AcDbLine
 10
178.9999775
 20
60.6
 30
0.0
 11
178.9999775
 21
57.0
 31
0.0
  0
LINE
  5
106
330
1E
100
AcDbEntity
  8
0
100
AcDbLine
 10
178.9999775
 20
57.0
 30
0.0
 11
178.9999775
 21
60.6
 31
0.0
  0
LINE
  5
107
330
1E
100
AcDbEntity
  8
0
100
AcDbLine
 10
178.9999775
 20
57.0
 30
0.0
 11
178.9999775
 21
54.0
 31
0.0
  0
LINE
  5
108
330
1E
100
AcDbEntity
  8
0
100
AcDbLine
 10
178.9999775
 20
54.0
 30
0.0
 11
178.9999775
 21
57.0
 31
0.0
  0
LINE
  5
109
330
1E
100
AcDbEntity
  8
0
100
AcDbLine
 10
178.9999775
 20
54.0
 30
0.0
 11
178.9999775
 21
51.7
 31
0.0
  0
LINE
  5
10A
330
1E
100
AcDbEntity
  8
0
100
AcDbLine
 10
178.9999775
 20
51.7
 30
0.0
 11
178.9999775
 21
54.0
 31
0.0
  0
LINE
  5
10B
330
1E
100
AcDbEntity
  8
0
100
AcDbLine
 10
178.9999775
 20
51.7
 30
0.0
 11
178.9999775
 21
49.6
 31
0.0
  0
LINE
  5
10C
330
1E
100
AcDbEntity
  8
0
100
AcDbLine
 10
178.9999775
 20
49.6
 30
0.0
 11
178.9999775
 21
51.7
 31
0.0
  0
LINE
  5
10D
330
1E
100
AcDbEntity
  8
0
100
AcDbLine
 10
178.9999775
 20
49.6
 30
0.0
 11
178.9999775
 21
47.7
 31
0.0
  0
LINE
  5
10E
330
1E
100
AcDbEntity
  8
0
100
AcDbLine
 10
178.9999775
 20
47.7
 30
0.0
 11
178.9999775
 21
49.6
 31
0.0
  0
LINE
  5
10F
330
1E
100
AcDbEntity
  8
0
100
AcDbLine
 10
178.9999775
 20
47.7
 30
0.0
 11
178.9999775
 21
46.0
 31
0.0
  0
LINE
  5
110
330
1E
100
AcDbEntity
  8
0
100
AcDbLine
 10
178.9999775
 20
46.0
 30
0.0
 11
178.9999775
 21
47.7
 31
0.0
  0
LINE
  5
111
330
1E
100
AcDbEntity
  8
0
100
AcDbLine
 10
178.9999775
 20
46.0
 30
0.0
 11
178.9999775
 21
44.79999999999999
 31
0.0
  0
LINE
  5
112
330
1E
100
AcDbEntity
  8
0
100
AcDbLine
 10
178.9999775
 20
63.0
 30
0.0
 11
178.9999775
 21
65.4
 31
0.0
  0
LINE
  5
113
330
1E
100
AcDbEntity
  8
0
100
AcDbLine
 10
178.9999775
 20
63.0
 30
0.0
 11
178.9999775
 21
60.6
 31
0.0
  0
LINE
  5
115
330
1E
100
AcDbEntity
  8
0
100
AcDbLine
 10
178.9999775
 20
63.0
 30
0.0
 11
178.9999775
 21
21.8235
 31
0.0
  0
LINE
  5
116
330
1E
100
AcDbEntity
  8
0
100
AcDbLine
 10
178.9999775
 20
65.4
 30
0.0
 11
178.9999775
 21
69.0
 31
0.0
  0
LINE
  5
117
330
1E
100
AcDbEntity
  8
0
100
AcDbLine
 10
178.9999775
 20
65.4
 30
0.0
 11
178.9999775
 21
63.0
 31
0.0
  0
LINE
  5
118
330
1E
100
AcDbEntity
  8
0
100
AcDbLine
 10
178.9999775
 20
69.0
 30
0.0
 11
178.9999775
 21
72.0
 31
0.0
  0
LINE
  5
119
330
1E
100
AcDbEntity
  8
0
100
AcDbLine
 10
178.9999775
 20
69.0
 30
0.0
 11
178.9999775
 21
65.4
 31
0.0
  0
LINE
  5
11A
330
1E
100
AcDbEntity
  8
0
100
AcDbLine
 10
178.9999775
 20
72.0
 30
0.0
 11
178.9999775
 21
74.29999999999999
 31
0.0
  0
LINE
  5
11B
330
1E
100
AcDbEntity
  8
0
100
AcDbLine
 10
178.9999775
 20
72.0
 30
0.0
 11
178.9999775
 21
69.0
 31
0.0
  0
LINE
  5
11C
330
1E
100
AcDbEntity
  8
0
100
AcDbLine
 10
178.9999775
 20
74.29999999999999
 30
0.0
 11
178.9999775
 21
76.4
 31
0.0
  0
LINE
  5
11D
330
1E
100
AcDbEntity
  8
0
100
AcDbLine
 10
178.9999775
 20
74.29999999999999
 30
0.0
 11
178.9999775
 21
72.0
 31
0.0
  0
LINE
  5
11E
330
1E
100
AcDbEntity
  8
0
100
AcDbLine
 10
178.9999775
 20
76.4
 30
0.0
 11
178.9999775
 21
78.3
 31
0.0
  0
LINE
  5
11F
330
1E
100
AcDbEntity
  8
0
100
AcDbLine
 10
178.9999775
 20
76.4
 30
0.0
 11
178.9999775
 21
74.29999999999999
 31
0.0
  0
LINE
  5
120
330
1E
100
AcDbEntity
  8
0
100
AcDbLine
 10
178.9999775
 20
80.0
 30
0.0
 11
178.9999775
 21
78.3
 31
0.0
  0
LINE
  5
121
330
1E
100
AcDbEntity
  8
0
100
AcDbLine
 10
178.9999775
 20
80.0
 30
0.0
 11
178.9999775
 21
81.2
 31
0.0
  0
LINE
  5
122
330
1E
100
AcDbEntity
  8
0
100
AcDbLine
 10
178.9999775
 20
81.2
 30
0.0
 11
178.9999775
 21
80.0
 31
0.0
  0
LINE
  5
123
330
1E
100
AcDbEntity
  8
0
100
AcDbLine
 10
178.9999775
 20
81.2
 30
0.0
 11
178.9999775
 21
82.0
 31
0.0
  0
LINE
  5
124
330
1E
100
AcDbEntity
  8
0
100
AcDbLine
 10
178.9999775
 20
82.0
 30
0.0
 11
178.9999775
 21
81.2
 31
0.0
  0
LINE
  5
125
330
1E
100
AcDbEntity
  8
0
100
AcDbLine
 10
178.9999775
 20
82.0
 30
0.0
 11
178.9999775
 21
82.4
 31
0.0
  0
LINE
  5
126
330
1E
100
AcDbEntity
  8
0
100
AcDbLine
 10
178.9999775
 20
82.4
 30
0.0
 11
178.9999775
 21
82.0
 31
0.0
  0
LINE
  5
127
330
1E
100
AcDbEntity
  8
0
100
AcDbLine
 10
178.9999775
 20
82.4
 30
0.0
 11
178.9999775
 21
82.65
 31
0.0
  0
LINE
  5
128
330
1E
100
AcDbEntity
  8
0
100
AcDbLine
 10
178.9999775
 20
82.65
 30
0.0
 11
178.9999775
 21
82.4
 31
0.0
  0
LINE
  5
129
330
1E
100
AcDbEntity
  8
0
100
AcDbLine
 10
178.9999775
 20
82.65
 30
0.0
 11
178.9999775
 21
82.85
 31
0.0
  0
LINE
  5
12A
330
1E
100
AcDbEntity
  8
0
100
AcDbLine
 10
178.9999775
 20
78.3
 30
0.0
 11
178.9999775
 21
80.0
 31
0.0
  0
LINE
  5
12B
330
1E
100
AcDbEntity
  8
0
100
AcDbLine
 10
178.9999775
 20
78.3
 30
0.0
 11
178.9999775
 21
76.4
 31
0.0
  0
LINE
  5
12E
330
1E
100
AcDbEntity
  8
0
100
AcDbLine
 10
188.9999774999999
 20
63.0
 30
0.0
 11
188.9999774999999
 21
104.176
 31
0.0
  0
LINE
  5
12F
330
1E
100
AcDbEntity
  8
0
100
AcDbLine
 10
188.9999774999999
 20
63.0
 30
0.0
 11
188.9999774999999
 21
21.8235
 31
0.0
  0
LINE
  5
130
330
1E
100
AcDbEntity
  8
0
100
AcDbLine
 10
94.9999775
 20
43.0
 30
0.0
 11
178.9999775
 21
43.0
 31
0.0
  0
LINE
  5
132
330
1E
100
AcDbEntity
  8
0
100
AcDbLine
 10
178.9999775
 20
82.85
 30
0.0
 11
178.9999775
 21
82.65
 31
0.0
  0
LINE
  5
133
330
1E
100
AcDbEntity
  8
0
100
AcDbLine
 10
178.9999775
 20
82.85
 30
0.0
 11
178.9999775
 21
82.94999999999999
 31
0.0
  0
LINE
  5
134
330
1E
100
AcDbEntity
  8
0
100
AcDbLine
 10
178.9999775
 20
82.94999999999999
 30
0.0
 11
178.9999775
 21
82.85
 31
0.0
  0
LINE
  5
13F
330
1E
100
AcDbEntity
  8
0
100
AcDbLine
 10
178.9999775
 20
112.3529999999999
 30
0.0
 11
178.9999775
 21
112.412
 31
0.0
  0
LINE
  5
140
330
1E
100
AcDbEntity
  8
0
100
AcDbLine
 10
178.9999775
 20
112.412
 30
0.0
 11
179.2999775
 21
112.8239999999999
 31
0.0
  0
LINE
  5
141
330
1E
100
AcDbEntity
  8
0
100
AcDbLine
 10
178.9999775
 20
112.412
 30
0.0
 11
178.9999775
 21
112.3529999999999
 31
0.0
  0
LINE
  5
14E
330
1E
100
AcDbEntity
  8
0
100
AcDbLine
 10
89.9999775
 20
83.0
 30
0.0
 11
178.9999775
 21
83.0
 31
0.0
  0
LINE
  5
161
330
1E
100
AcDbEntity
  8
0
100
AcDbLine
 10
188.9999774999999
 20
111.176
 30
0.0
 11
188.9999774999999
 21
111.8239999999999
 31
0.0
  0
LINE
  5
162
330
1E
100
AcDbEntity
  8
0
100
AcDbLine
 10
188.9999774999999
 20
111.176
 30
0.0
 11
188.9999774999999
 21
110.4119999999999
 31
0.0
  0
LINE
  5
163
330
1E
100
AcDbEntity
  8
0
100
AcDbLine
 10
188.9999774999999
 20
111.8239999999999
 30
0.0
 11
188.9999774999999
 21
112.294
 31
0.0
  0
LINE
  5
164
330
1E
100
AcDbEntity
  8
0
100
AcDbLine
 10
188.9999774999999
 20
111.8239999999999
 30
0.0
 11
188.9999774999999
 21
111.176
 31
0.0
  0
LINE
  5
169
330
1E
100
AcDbEntity
  8
0
100
AcDbLine
 10
188.9999774999999
 20
112.294
 30
0.0
 11
188.9999774999999
 21
112.7059999999999
 31
0.0
  0
LINE
  5
16A
330
1E
100
AcDbEntity
  8
0
100
AcDbLine
 10
188.9999774999999
 20
112.294
 30
0.0
 11
188.9999774999999
 21
111.8239999999999
 31
0.0
  0
LINE
  5
16B
330
1E
100
AcDbEntity
  8
0
100
AcDbLine
 10
188.9999774999999
 20
112.7059999999999
 30
0.0
 11
188.9999774999999
 21
112.882
 31
0.0
  0
LINE
  5
16C
330
1E
100
AcDbEntity
  8
0
100
AcDbLine
 10
188.9999774999999
 20
112.7059999999999
 30
0.0
 11
188.9999774999999
 21
112.294
 31
0.0
  0
LINE
  5
16F
330
1E
100
AcDbEntity
  8
0
100
AcDbLine
 10
188.9999774999999
 20
110.4119999999999
 30
0.0
 11
188.9999774999999
 21
109.529
 31
0.0
  0
LINE
  5
170
330
1E
100
AcDbEntity
  8
0
100
AcDbLine
 10
188.9999774999999
 20
110.4119999999999
 30
0.0
 11
188.9999774999999
 21
111.176
 31
0.0
  0
LINE
  5
171
330
1E
100
AcDbEntity
  8
0
100
AcDbLine
 10
188.9999774999999
 20
109.529
 30
0.0
 11
188.9999774999999
 21
110.4119999999999
 31
0.0
  0
LINE
  5
172
330
1E
100
AcDbEntity
  8
0
100
AcDbLine
 10
188.9999774999999
 20
109.529
 30
0.0
 11
188.9999774999999
 21
108.5879999999999
 31
0.0
  0
LINE
  5
173
330
1E
100
AcDbEntity
  8
0
100
AcDbLine
 10
188.9999774999999
 20
108.5879999999999
 30
0.0
 11
188.9999774999999
 21
109.529
 31
0.0
  0
LINE
  5
174
330
1E
100
AcDbEntity
  8
0
100
AcDbLine
 10
188.9999774999999
 20
108.5879999999999
 30
0.0
 11
188.9999774999999
 21
107.529
 31
0.0
  0
LINE
  5
175
330
1E
100
AcDbEntity
  8
0
100
AcDbLine
 10
188.9999774999999
 20
107.529
 30
0.0
 11
188.9999774999999
 21
108.5879999999999
 31
0.0
  0
LINE
  5
176
330
1E
100
AcDbEntity
  8
0
100
AcDbLine
 10
188.9999774999999
 20
107.529
 30
0.0
 11
188.9999774999999
 21
106.471
 31
0.0
  0
LINE
  5
177
330
1E
100
AcDbEntity
  8
0
100
AcDbLine
 10
188.9999774999999
 20
106.471
 30
0.0
 11
188.9999774999999
 21
107.529
 31
0.0
  0
LINE
  5
178
330
1E
100
AcDbEntity
  8
0
100
AcDbLine
 10
188.9999774999999
 20
106.471
 30
0.0
 11
188.9999774999999
 21
105.3529999999999
 31
0.0
  0
LINE
  5
179
330
1E
100
AcDbEntity
  8
0
100
AcDbLine
 10
188.9999774999999
 20
105.3529999999999
 30
0.0
 11
188.9999774999999
 21
106.471
 31
0.0
  0
LINE
  5
17A
330
1E
100
AcDbEntity
  8
0
100
AcDbLine
 10
188.9999774999999
 20
105.3529999999999
 30
0.0
 11
188.9999774999999
 21
104.176
 31
0.0
  0
LINE
  5
17B
330
1E
100
AcDbEntity
  8
0
100
AcDbLine
 10
188.9999774999999
 20
104.176
 30
0.0
 11
188.9999774999999
 21
105.3529999999999
 31
0.0
  0
LINE
  5
17C
330
1E
100
AcDbEntity
  8
0
100
AcDbLine
 10
188.9999774999999
 20
104.176
 30
0.0
 11
188.9999774999999
 21
63.0
 31
0.0
  0
LINE
  5
17D
330
1E
100
AcDbEntity
  8
0
100
AcDbLine
 10
188.9999774999999
 20
113.0
 30
0.0
 11
188.9999774999999
 21
112.882
 31
0.0
  0
LINE
  5
17E
330
1E
100
AcDbEntity
  8
0
100
AcDbLine
 10
188.9999774999999
 20
112.882
 30
0.0
 11
188.9999774999999
 21
113.0
 31
0.0
  0
LINE
  5
17F
330
1E
100
AcDbEntity
  8
0
100
AcDbLine
 10
188.9999774999999
 20
112.882
 30
0.0
 11
188.9999774999999
 21
112.7059999999999
 31
0.0
  0
LINE
  5
180
330
1E
100
AcDbEntity
  8
0
100
AcDbLine
 10
179.2999775
 20
112.8239999999999
 30
0.0
 11
179.9999775
 21
113.0
 31
0.0
  0
LINE
  5
183
330
1E
100
AcDbEntity
  8
0
100
AcDbLine
 10
89.2999775
 20
82.70000000000001
 30
0.0
 11
89.9999775
 21
83.0
 31
0.0
  0
LINE
  5
184
330
1E
100
AcDbEntity
  8
0
100
AcDbLine
 10
84.20187750000001
 20
40.5721
 30
0.0
 11
87.4324775
 21
41.8653
 31
0.0
  0
LINE
  5
189
330
1E
100
AcDbEntity
  8
0
100
AcDbLine
 10
188.9999774999999
 20
113.0
 30
0.0
 11
179.9999775
 21
113.0
 31
0.0
  0
LINE
  5
18A
330
1E
100
AcDbEntity
  8
0
100
AcDbLine
 10
178.9999775
 20
112.3529999999999
 30
0.0
 11
178.9999775
 21
83.0
 31
0.0
  0
LINE
  5
18B
330
1E
100
AcDbEntity
  8
0
100
AcDbLine
 10
84.3842775
 20
61.3145
 30
0.0
 11
82.51948216810404
 21
58.99962757109193
 31
0.0
  0
LINE
  5
18C
330
1E
100
AcDbEntity
  8
0
100
AcDbLine
 10
82.51948216810404
 20
58.99962757109193
 30
0.0
 11
80.99627750000001
 21
57.4016
 31
0.0
  0
LINE
  5
18D
330
1E
100
AcDbEntity
  8
0
100
AcDbLine
 10
78.1905775
 20
55.1514
 30
0.0
 11
0.456240500000013
 21
10.7044
 31
0.0
  0
LINE
  5
18E
330
1E
100
AcDbEntity
  8
0
100
AcDbLine
 10
28.3747775
 20
8.34801
 30
0.0
 11
26.9999775
 21
7.56577531537917
 31
0.0
  0
LINE
  5
18F
330
1E
100
AcDbEntity
  8
0
100
AcDbLine
 10
26.9999775
 20
7.56577531537917
 30
0.0
 11
24.0718721813381
 21
6.541967364581722
 31
0.0
  0
LINE
  5
190
330
1E
100
AcDbEntity
  8
0
100
AcDbLine
 10
24.0718721813381
 20
6.541967364581722
 30
0.0
 11
20.39869974317878
 21
5.840106863761747
 31
0.0
  0
LINE
  5
191
330
1E
100
AcDbEntity
  8
0
100
AcDbLine
 10
20.39869974317878
 20
5.840106863761747
 30
0.0
 11
16.45544134924278
 21
5.408192790875716
 31
0.0
  0
LINE
  5
192
330
1E
100
AcDbEntity
  8
0
100
AcDbLine
 10
16.45544134924278
 20
5.408192790875716
 30
0.0
 11
10.47753410153996
 21
4.976278453229383
 31
0.0
  0
LINE
  5
193
330
1E
100
AcDbEntity
  8
0
100
AcDbLine
 10
10.47753410153996
 20
4.976278453229383
 30
0.0
 11
4.999977500000009
 21
4.86976615240119
 31
0.0
  0
ENDSEC
  0
SECTION
  2
OBJECTS
  0
DICTIONARY
  5
C
330
0
100
AcDbDictionary
281
     1
  3
ACAD_GROUP
350
D
  3
ACAD_LAYOUT
350
19
  3
ACAD_MLINESTYLE
350
16
  3
ACAD_PLOTSETTINGS
350
18
  3
ACAD_PLOTSTYLENAME
350
E
  3
AcDbVariableDictionary
350
194
  0
DICTIONARY
  5
D
102
{ACAD_REACTORS
330
C
102
}
330
C
100
AcDbDictionary
281
     1
  0
DICTIONARY
  5
19
102
{ACAD_REACTORS
330
C
102
}
330
C
100
AcDbDictionary
281
     1
  3
Layout1
350
1D
  3
Model
350
21
  0
DICTIONARY
  5
16
102
{ACAD_REACTORS
330
C
102
}
330
C
100
AcDbDictionary
281
     1
  3
Standard
350
17
  0
DICTIONARY
  5
18
102
{ACAD_REACTORS
330
C
102
}
330
C
100
AcDbDictionary
281
     1
  0
ACDBDICTIONARYWDFLT
  5
E
102
{ACAD_REACTORS
330
C
102
}
330
C
100
AcDbDictionary
281
     1
  3
Normal
350
F
100
AcDbDictionaryWithDefault
340
F
  0
DICTIONARY
  5
194
102
{ACAD_REACTORS
330
C
102
}
330
C
100
AcDbDictionary
281
     1
  3
DIMASSOC
350
195
  0
LAYOUT
  5
1D
102
{ACAD_REACTORS
330
19
102
}
330
19
100
AcDbPlotSettings
  1

  2
hp deskjet 980c series
  4

  6

 40
0.0
 41
0.0
 42
0.0
 43
0.0
 44
0.0
 45
0.0
 46
0.0
 47
0.0
 48
0.0
 49
0.0
140
0.0
141
0.0
142
1.0
143
1.0
 70
   688
 72
     0
 73
     0
 74
     5
  7

 75
    16
147
1.0
148
0.0
149
0.0
100
AcDbLayout
  1
Layout1
 70
     1
 71
     1
 10
0.0
 20
0.0
 11
12.0
 21
9.0
 12
0.0
 22
0.0
 32
0.0
 14
1.000000000000000E+20
 24
1.000000000000000E+20
 34
1.000000000000000E+20
 15
-1.000000000000000E+20
 25
-1.000000000000000E+20
 35
-1.000000000000000E+20
146
0.0
 13
0.0
 23
0.0
 33
0.0
 16
1.0
 26
0.0
 36
0.0
 17
0.0
 27
1.0
 37
0.0
 76
     0
330
1A
  0
LAYOUT
  5
21
102
{ACAD_REACTORS
330
19
102
}
330
19
100
AcDbPlotSettings
  1

  2
hp deskjet 980c series
  4

  6

 40
0.0
 41
0.0
 42
0.0
 43
0.0
 44
0.0
 45
0.0
 46
0.0
 47
0.0
 48
0.0
 49
0.0
140
0.0
141
0.0
142
1.0
143
1.0
 70
  1712
 72
     0
 73
     0
 74
     0
  7

 75
     0
147
1.0
148
0.0
149
0.0
100
AcDbLayout
  1
Model
 70
     1
 71
     0
 10
0.0
 20
0.0
 11
12.0
 21
9.0
 12
0.0
 22
0.0
 32
0.0
 14
0.0
 24
0.0
 34
0.0
 15
0.0
 25
0.0
 35
0.0
146
0.0
 13
0.0
 23
0.0
 33
0.0
 16
1.0
 26
0.0
 36
0.0
 17
0.0
 27
1.0
 37
0.0
 76
     0
330
1E
  0
MLINESTYLE
  5
17
102
{ACAD_REACTORS
330
16
102
}
330
16
100
AcDbMlineStyle
  2
STANDARD
 70
     0
  3

 62
   256
 51
90.0
 52
90.0
 71
     2
 49
0.5
 62
   256
  6
BYLAYER
 49
-0.5
 62
   256
  6
BYLAYER
  0
ACDBPLACEHOLDER
  5
F
102
{ACAD_REACTORS
330
E
102
}
330
E
  0
DICTIONARYVAR
  5
195
102
{ACAD_REACTORS
330
194
102
}
330
194
100
DictionaryVariables
280
     0
  1
1
  0
ENDSEC
  0
EOF
