  0
SECTION
  2
HEADER
  9
$ACADVER
  1
AC1015
  9
$ACADMAINTVER
 70
    13
  9
$DWGCODEPAGE
  3
ANSI_1252
  9
$INSBASE
 10
0.0
 20
0.0
 30
0.0
  9
$EXTMIN
 10
0.0
 20
0.0
 30
0.0
  9
$EXTMAX
 10
170.0
 20
207.0
 30
0.0
  9
$LIMMIN
 10
0.0
 20
0.0
  9
$LIMMAX
 10
12.0
 20
9.0
  9
$ORTHOMODE
 70
     0
  9
$REGENMODE
 70
     1
  9
$FILLMODE
 70
     1
  9
$QTEXTMODE
 70
     0
  9
$MIRRTEXT
 70
     1
  9
$LTSCALE
 40
1.0
  9
$ATTMODE
 70
     1
  9
$TEXTSIZE
 40
0.2
  9
$TRACEWID
 40
0.05
  9
$TEXTSTYLE
  7
Standard
  9
$CLAYER
  8
0
  9
$CELTYPE
  6
Continuous
  9
$CECOLOR
 62
   256
  9
$CELTSCALE
 40
1.0
  9
$DISPSILH
 70
     0
  9
$DIMSCALE
 40
1.0
  9
$DIMASZ
 40
0.18
  9
$DIMEXO
 40
0.0625
  9
$DIMDLI
 40
0.38
  9
$DIMRND
 40
0.0
  9
$DIMDLE
 40
0.0
  9
$DIMEXE
 40
0.18
  9
$DIMTP
 40
0.0
  9
$DIMTM
 40
0.0
  9
$DIMTXT
 40
0.18
  9
$DIMCEN
 40
0.09
  9
$DIMTSZ
 40
0.0
  9
$DIMTOL
 70
     0
  9
$DIMLIM
 70
     0
  9
$DIMTIH
 70
     1
  9
$DIMTOH
 70
     1
  9
$DIMSE1
 70
     0
  9
$DIMSE2
 70
     0
  9
$DIMTAD
 70
     0
  9
$DIMZIN
 70
     0
  9
$DIMBLK
  1

  9
$DIMASO
 70
     1
  9
$DIMSHO
 70
     1
  9
$DIMPOST
  1

  9
$DIMAPOST
  1

  9
$DIMALT
 70
     0
  9
$DIMALTD
 70
     2
  9
$DIMALTF
 40
25.4
  9
$DIMLFAC
 40
1.0
  9
$DIMTOFL
 70
     0
  9
$DIMTVP
 40
0.0
  9
$DIMTIX
 70
     0
  9
$DIMSOXD
 70
     0
  9
$DIMSAH
 70
     0
  9
$DIMBLK1
  1

  9
$DIMBLK2
  1

  9
$DIMSTYLE
  2
Standard
  9
$DIMCLRD
 70
     0
  9
$DIMCLRE
 70
     0
  9
$DIMCLRT
 70
     0
  9
$DIMTFAC
 40
1.0
  9
$DIMGAP
 40
0.09
  9
$DIMJUST
 70
     0
  9
$DIMSD1
 70
     0
  9
$DIMSD2
 70
     0
  9
$DIMTOLJ
 70
     1
  9
$DIMTZIN
 70
     0
  9
$DIMALTZ
 70
     0
  9
$DIMALTTZ
 70
     0
  9
$DIMUPT
 70
     0
  9
$DIMDEC
 70
     4
  9
$DIMTDEC
 70
     4
  9
$DIMALTU
 70
     2
  9
$DIMALTTD
 70
     2
  9
$DIMTXSTY
  7
Standard
  9
$DIMAUNIT
 70
     0
  9
$DIMADEC
 70
     0
  9
$DIMALTRND
 40
0.0
  9
$DIMAZIN
 70
     0
  9
$DIMDSEP
 70
    46
  9
$DIMATFIT
 70
     3
  9
$DIMFRAC
 70
     0
  9
$DIMLDRBLK
  1

  9
$DIMLUNIT
 70
     2
  9
$DIMLWD
 70
    -2
  9
$DIMLWE
 70
    -2
  9
$DIMTMOVE
 70
     0
  9
$LUNITS
 70
     2
  9
$LUPREC
 70
     4
  9
$SKETCHINC
 40
0.1
  9
$FILLETRAD
 40
0.0
  9
$AUNITS
 70
     0
  9
$AUPREC
 70
     0
  9
$MENU
  1
.
  9
$ELEVATION
 40
0.0
  9
$PELEVATION
 40
0.0
  9
$THICKNESS
 40
0.0
  9
$LIMCHECK
 70
     0
  9
$CHAMFERA
 40
0.0
  9
$CHAMFERB
 40
0.0
  9
$CHAMFERC
 40
0.0
  9
$CHAMFERD
 40
0.0
  9
$SKPOLY
 70
     0
  9
$TDCREATE
 40
2454875.858035289
  9
$TDUCREATE
 40
2454875.816368622
  9
$TDUPDATE
 40
2454875.862922257
  9
$TDUUPDATE
 40
2454875.821255590
  9
$TDINDWG
 40
0.0048869676
  9
$TDUSRTIMER
 40
0.0048869676
  9
$USRTIMER
 70
     1
  9
$ANGBASE
 50
0.0
  9
$ANGDIR
 70
     0
  9
$PDMODE
 70
     0
  9
$PDSIZE
 40
0.0
  9
$PLINEWID
 40
0.0
  9
$SPLFRAME
 70
     0
  9
$SPLINETYPE
 70
     6
  9
$SPLINESEGS
 70
     8
  9
$HANDSEED
  5
26E
  9
$SURFTAB1
 70
     6
  9
$SURFTAB2
 70
     6
  9
$SURFTYPE
 70
     6
  9
$SURFU
 70
     6
  9
$SURFV
 70
     6
  9
$UCSBASE
  2

  9
$UCSNAME
  2

  9
$UCSORG
 10
0.0
 20
0.0
 30
0.0
  9
$UCSXDIR
 10
1.0
 20
0.0
 30
0.0
  9
$UCSYDIR
 10
0.0
 20
1.0
 30
0.0
  9
$UCSORTHOREF
  2

  9
$UCSORTHOVIEW
 70
     1
  9
$UCSORGTOP
 10
0.0
 20
0.0
 30
0.0
  9
$UCSORGBOTTOM
 10
0.0
 20
0.0
 30
0.0
  9
$UCSORGLEFT
 10
0.0
 20
0.0
 30
0.0
  9
$UCSORGRIGHT
 10
0.0
 20
0.0
 30
0.0
  9
$UCSORGFRONT
 10
0.0
 20
0.0
 30
0.0
  9
$UCSORGBACK
 10
0.0
 20
0.0
 30
0.0
  9
$PUCSBASE
  2

  9
$PUCSNAME
  2

  9
$PUCSORG
 10
0.0
 20
0.0
 30
0.0
  9
$PUCSXDIR
 10
1.0
 20
0.0
 30
0.0
  9
$PUCSYDIR
 10
0.0
 20
1.0
 30
0.0
  9
$PUCSORTHOREF
  2

  9
$PUCSORTHOVIEW
 70
     0
  9
$PUCSORGTOP
 10
0.0
 20
0.0
 30
0.0
  9
$PUCSORGBOTTOM
 10
0.0
 20
0.0
 30
0.0
  9
$PUCSORGLEFT
 10
0.0
 20
0.0
 30
0.0
  9
$PUCSORGRIGHT
 10
0.0
 20
0.0
 30
0.0
  9
$PUCSORGFRONT
 10
0.0
 20
0.0
 30
0.0
  9
$PUCSORGBACK
 10
0.0
 20
0.0
 30
0.0
  9
$USERI1
 70
     0
  9
$USERI2
 70
     0
  9
$USERI3
 70
     0
  9
$USERI4
 70
     0
  9
$USERI5
 70
     0
  9
$USERR1
 40
0.0
  9
$USERR2
 40
0.0
  9
$USERR3
 40
0.0
  9
$USERR4
 40
0.0
  9
$USERR5
 40
0.0
  9
$WORLDVIEW
 70
     1
  9
$SHADEDGE
 70
     3
  9
$SHADEDIF
 70
    70
  9
$TILEMODE
 70
     1
  9
$MAXACTVP
 70
    64
  9
$PINSBASE
 10
0.0
 20
0.0
 30
0.0
  9
$PLIMCHECK
 70
     0
  9
$PEXTMIN
 10
1.000000000000000E+20
 20
1.000000000000000E+20
 30
1.000000000000000E+20
  9
$PEXTMAX
 10
-1.000000000000000E+20
 20
-1.000000000000000E+20
 30
-1.000000000000000E+20
  9
$PLIMMIN
 10
0.0
 20
0.0
  9
$PLIMMAX
 10
12.0
 20
9.0
  9
$UNITMODE
 70
     0
  9
$VISRETAIN
 70
     1
  9
$PLINEGEN
 70
     0
  9
$PSLTSCALE
 70
     1
  9
$TREEDEPTH
 70
  3020
  9
$CMLSTYLE
  2
Standard
  9
$CMLJUST
 70
     0
  9
$CMLSCALE
 40
1.0
  9
$PROXYGRAPHICS
 70
     1
  9
$MEASUREMENT
 70
     0
  9
$CELWEIGHT
370
    -1
  9
$ENDCAPS
280
     0
  9
$JOINSTYLE
280
     0
  9
$LWDISPLAY
290
     0
  9
$INSUNITS
 70
     0
  9
$HYPERLINKBASE
  1

  9
$STYLESHEET
  1

  9
$XEDIT
290
     1
  9
$CEPSNTYPE
380
     0
  9
$PSTYLEMODE
290
     1
  9
$FINGERPRINTGUID
  2
{866023D3-075F-459D-BE1A-AC47907A91B6}
  9
$VERSIONGUID
  2
{CC3E080D-7D2A-4823-AE0C-6763C2ECE8C4}
  9
$EXTNAMES
290
     1
  9
$PSVPSCALE
 40
0.0
  9
$OLESTARTUP
290
     0
  0
ENDSEC
  0
SECTION
  2
CLASSES
  0
CLASS
  1
ACDBDICTIONARYWDFLT
  2
AcDbDictionaryWithDefault
  3
AutoCAD 2000
 90
        0
280
     0
281
     0
  0
CLASS
  1
ACDBPLACEHOLDER
  2
AcDbPlaceHolder
  3
AutoCAD 2000
 90
        0
280
     0
281
     0
  0
CLASS
  1
LAYOUT
  2
AcDbLayout
  3
AutoCAD 2000
 90
        0
280
     0
281
     0
  0
CLASS
  1
DICTIONARYVAR
  2
AcDbDictionaryVar
  3
AutoCAD 2000
 90
        0
280
     0
281
     0
  0
ENDSEC
  0
SECTION
  2
TABLES
  0
TABLE
  2
VPORT
  5
8
330
0
100
AcDbSymbolTable
 70
     3
  0
VPORT
  5
26D
330
8
100
AcDbSymbolTableRecord
100
AcDbViewportTableRecord
  2
*Active
 70
     0
 10
0.0
 20
0.0
 11
1.0
 21
1.0
 12
85.0
 22
103.4999999999999
 13
0.0
 23
0.0
 14
1.0
 24
1.0
 15
0.0
 25
0.0
 16
0.0
 26
0.0
 36
1.0
 17
0.0
 27
0.0
 37
0.0
 40
208.3073684210526
 41
1.968387776606954
 42
50.0
 43
0.0
 44
0.0
 50
0.0
 51
0.0
 71
     0
 72
   100
 73
     1
 74
     3
 75
     0
 76
     0
 77
     0
 78
     0
281
     0
 65
     1
110
0.0
120
0.0
130
0.0
111
1.0
121
0.0
131
0.0
112
0.0
122
1.0
132
0.0
 79
     1
146
0.0
  0
ENDTAB
  0
TABLE
  2
LTYPE
  5
5
330
0
100
AcDbSymbolTable
 70
     1
  0
LTYPE
  5
13
330
5
100
AcDbSymbolTableRecord
100
AcDbLinetypeTableRecord
  2
ByBlock
 70
     0
  3

 72
    65
 73
     0
 40
0.0
  0
LTYPE
  5
14
330
5
100
AcDbSymbolTableRecord
100
AcDbLinetypeTableRecord
  2
ByLayer
 70
     0
  3

 72
    65
 73
     0
 40
0.0
  0
LTYPE
  5
15
330
5
100
AcDbSymbolTableRecord
100
AcDbLinetypeTableRecord
  2
Continuous
 70
     0
  3
Solid line
 72
    65
 73
     0
 40
0.0
  0
ENDTAB
  0
TABLE
  2
LAYER
  5
2
330
0
100
AcDbSymbolTable
 70
     1
  0
LAYER
  5
10
330
2
100
AcDbSymbolTableRecord
100
AcDbLayerTableRecord
  2
0
 70
     0
 62
     7
  6
Continuous
370
    -3
390
F
  0
ENDTAB
  0
TABLE
  2
STYLE
  5
3
330
0
100
AcDbSymbolTable
 70
     1
  0
STYLE
  5
11
330
3
100
AcDbSymbolTableRecord
100
AcDbTextStyleTableRecord
  2
Standard
 70
     0
 40
0.0
 41
1.0
 50
0.0
 71
     0
 42
0.2
  3
txt
  4

  0
ENDTAB
  0
TABLE
  2
VIEW
  5
6
330
0
100
AcDbSymbolTable
 70
     0
  0
ENDTAB
  0
TABLE
  2
UCS
  5
7
330
0
100
AcDbSymbolTable
 70
     0
  0
ENDTAB
  0
TABLE
  2
APPID
  5
9
330
0
100
AcDbSymbolTable
 70
     1
  0
APPID
  5
12
330
9
100
AcDbSymbolTableRecord
100
AcDbRegAppTableRecord
  2
ACAD
 70
     0
  0
ENDTAB
  0
TABLE
  2
DIMSTYLE
  5
A
330
0
100
AcDbSymbolTable
 70
     1
100
AcDbDimStyleTable
 71
     0
  0
DIMSTYLE
105
1BB
330
A
100
AcDbSymbolTableRecord
100
AcDbDimStyleTableRecord
  2
Standard
 70
     0
340
11
  0
ENDTAB
  0
TABLE
  2
BLOCK_RECORD
  5
1
330
0
100
AcDbSymbolTable
 70
     0
  0
BLOCK_RECORD
  5
1E
330
1
100
AcDbSymbolTableRecord
100
AcDbBlockTableRecord
  2
*Model_Space
340
21
  0
BLOCK_RECORD
  5
1A
330
1
100
AcDbSymbolTableRecord
100
AcDbBlockTableRecord
  2
*Paper_Space
340
1D
  0
ENDTAB
  0
ENDSEC
  0
SECTION
  2
BLOCKS
  0
BLOCK
  5
1F
330
1E
100
AcDbEntity
  8
0
100
AcDbBlockBegin
  2
*Model_Space
 70
     0
 10
0.0
 20
0.0
 30
0.0
  3
*Model_Space
  1

  0
ENDBLK
  5
20
330
1E
100
AcDbEntity
  8
0
100
AcDbBlockEnd
  0
BLOCK
  5
1B
330
1A
100
AcDbEntity
 67
     1
  8
0
100
AcDbBlockBegin
  2
*Paper_Space
 70
     0
 10
0.0
 20
0.0
 30
0.0
  3
*Paper_Space
  1

  0
ENDBLK
  5
1C
330
1A
100
AcDbEntity
 67
     1
  8
0
100
AcDbBlockEnd
  0
ENDSEC
  0
SECTION
  2
ENTITIES
  0
LINE
  5
22
330
1E
100
AcDbEntity
  8
0
100
AcDbLine
 10
0.0
 20
192.0
 30
0.0
 11
0.2
 21
194.0
 31
0.0
  0
LINE
  5
23
330
1E
100
AcDbEntity
  8
0
100
AcDbLine
 10
0.0
 20
192.0
 30
0.0
 11
0.0
 21
122.0
 31
0.0
  0
LINE
  5
25
330
1E
100
AcDbEntity
  8
0
100
AcDbLine
 10
0.0
 20
122.0
 30
0.0
 11
0.0
 21
192.0
 31
0.0
  0
LINE
  5
34
330
1E
100
AcDbEntity
  8
0
100
AcDbLine
 10
64.0
 20
1.119399999999999
 30
0.0
 11
64.0
 21
1.607399999999999
 31
0.0
  0
LINE
  5
35
330
1E
100
AcDbEntity
  8
0
100
AcDbLine
 10
64.0
 20
1.119399999999999
 30
0.0
 11
64.0
 21
0.9470000000000041
 31
0.0
  0
LINE
  5
36
330
1E
100
AcDbEntity
  8
0
100
AcDbLine
 10
64.0
 20
0.9470000000000041
 30
0.0
 11
64.0
 21
1.119399999999999
 31
0.0
  0
LINE
  5
37
330
1E
100
AcDbEntity
  8
0
100
AcDbLine
 10
64.0
 20
0.9470000000000041
 30
0.0
 11
64.29999999999999
 21
0.219099999999994
 31
0.0
  0
LINE
  5
38
330
1E
100
AcDbEntity
  8
0
100
AcDbLine
 10
64.0
 20
1.607399999999999
 30
0.0
 11
64.0
 21
2.462899999999999
 31
0.0
  0
LINE
  5
39
330
1E
100
AcDbEntity
  8
0
100
AcDbLine
 10
64.0
 20
1.607399999999999
 30
0.0
 11
64.0
 21
1.119399999999999
 31
0.0
  0
LINE
  5
3A
330
1E
100
AcDbEntity
  8
0
100
AcDbLine
 10
64.0
 20
2.5133
 30
0.0
 11
64.0
 21
8.724899999999999
 31
0.0
  0
LINE
  5
3B
330
1E
100
AcDbEntity
  8
0
100
AcDbLine
 10
64.0
 20
2.556299999999999
 30
0.0
 11
64.0
 21
2.47349999999999
 31
0.0
  0
LINE
  5
3C
330
1E
100
AcDbEntity
  8
0
100
AcDbLine
 10
64.0
 20
2.556299999999999
 30
0.0
 11
64.0
 21
2.9546
 31
0.0
  0
LINE
  5
3D
330
1E
100
AcDbEntity
  8
0
100
AcDbLine
 10
64.0
 20
2.47349999999999
 30
0.0
 11
64.0
 21
2.556299999999999
 31
0.0
  0
LINE
  5
3E
330
1E
100
AcDbEntity
  8
0
100
AcDbLine
 10
64.0
 20
2.9546
 30
0.0
 11
64.0
 21
3.475499999999999
 31
0.0
  0
LINE
  5
3F
330
1E
100
AcDbEntity
  8
0
100
AcDbLine
 10
64.0
 20
2.9546
 30
0.0
 11
64.0
 21
2.556299999999999
 31
0.0
  0
LINE
  5
40
330
1E
100
AcDbEntity
  8
0
100
AcDbLine
 10
64.0
 20
3.475499999999999
 30
0.0
 11
64.0
 21
4.1706
 31
0.0
  0
LINE
  5
41
330
1E
100
AcDbEntity
  8
0
100
AcDbLine
 10
64.0
 20
3.475499999999999
 30
0.0
 11
64.0
 21
2.9546
 31
0.0
  0
LINE
  5
42
330
1E
100
AcDbEntity
  8
0
100
AcDbLine
 10
64.0
 20
4.1706
 30
0.0
 11
64.0
 21
4.988200000000009
 31
0.0
  0
LINE
  5
43
330
1E
100
AcDbEntity
  8
0
100
AcDbLine
 10
64.0
 20
4.1706
 30
0.0
 11
64.0
 21
3.475499999999999
 31
0.0
  0
LINE
  5
44
330
1E
100
AcDbEntity
  8
0
100
AcDbLine
 10
64.0
 20
2.462899999999999
 30
0.0
 11
64.0
 21
1.607399999999999
 31
0.0
  0
LINE
  5
45
330
1E
100
AcDbEntity
  8
0
100
AcDbLine
 10
64.0
 20
2.462899999999999
 30
0.0
 11
64.0
 21
3.492599999999999
 31
0.0
  0
LINE
  5
4F
330
1E
100
AcDbEntity
  8
0
100
AcDbLine
 10
64.29999999999999
 20
0.219099999999994
 30
0.0
 11
65.0
 21
0.0
 31
0.0
  0
LINE
  5
50
330
1E
100
AcDbEntity
  8
0
100
AcDbLine
 10
64.0
 20
3.492599999999999
 30
0.0
 11
64.0
 21
2.462899999999999
 31
0.0
  0
LINE
  5
51
330
1E
100
AcDbEntity
  8
0
100
AcDbLine
 10
64.0
 20
3.492599999999999
 30
0.0
 11
64.0
 21
4.599899999999999
 31
0.0
  0
LINE
  5
52
330
1E
100
AcDbEntity
  8
0
100
AcDbLine
 10
64.0
 20
10.4086
 30
0.0
 11
64.0
 21
11.24009999999999
 31
0.0
  0
LINE
  5
53
330
1E
100
AcDbEntity
  8
0
100
AcDbLine
 10
64.0
 20
10.4086
 30
0.0
 11
64.0
 21
9.647899999999999
 31
0.0
  0
LINE
  5
54
330
1E
100
AcDbEntity
  8
0
100
AcDbLine
 10
64.0
 20
9.647899999999999
 30
0.0
 11
64.0
 21
10.4086
 31
0.0
  0
LINE
  5
55
330
1E
100
AcDbEntity
  8
0
100
AcDbLine
 10
64.0
 20
9.647899999999999
 30
0.0
 11
64.0
 21
9.151099999999999
 31
0.0
  0
LINE
  5
56
330
1E
100
AcDbEntity
  8
0
100
AcDbLine
 10
64.0
 20
9.151099999999999
 30
0.0
 11
64.0
 21
9.647899999999999
 31
0.0
  0
LINE
  5
57
330
1E
100
AcDbEntity
  8
0
100
AcDbLine
 10
64.0
 20
9.151099999999999
 30
0.0
 11
64.0
 21
8.724899999999999
 31
0.0
  0
LINE
  5
58
330
1E
100
AcDbEntity
  8
0
100
AcDbLine
 10
64.0
 20
8.724899999999999
 30
0.0
 11
64.0
 21
9.151099999999999
 31
0.0
  0
LINE
  5
59
330
1E
100
AcDbEntity
  8
0
100
AcDbLine
 10
64.0
 20
8.724899999999999
 30
0.0
 11
64.0
 21
2.5133
 31
0.0
  0
LINE
  5
5A
330
1E
100
AcDbEntity
  8
0
100
AcDbLine
 10
64.0
 20
11.24009999999999
 30
0.0
 11
64.0
 21
10.4086
 31
0.0
  0
LINE
  5
5B
330
1E
100
AcDbEntity
  8
0
100
AcDbLine
 10
64.0
 20
11.24009999999999
 30
0.0
 11
64.0
 21
12.0905
 31
0.0
  0
LINE
  5
5C
330
1E
100
AcDbEntity
  8
0
100
AcDbLine
 10
64.0
 20
12.0905
 30
0.0
 11
64.0
 21
11.24009999999999
 31
0.0
  0
LINE
  5
5D
330
1E
100
AcDbEntity
  8
0
100
AcDbLine
 10
64.0
 20
12.0905
 30
0.0
 11
64.0
 21
13.0116
 31
0.0
  0
LINE
  5
5E
330
1E
100
AcDbEntity
  8
0
100
AcDbLine
 10
64.0
 20
13.0116
 30
0.0
 11
64.0
 21
12.0905
 31
0.0
  0
LINE
  5
5F
330
1E
100
AcDbEntity
  8
0
100
AcDbLine
 10
64.0
 20
13.0116
 30
0.0
 11
64.0
 21
59.376
 31
0.0
  0
LINE
  5
86
330
1E
100
AcDbEntity
  8
0
100
AcDbLine
 10
64.0
 20
4.988200000000009
 30
0.0
 11
64.0
 21
4.1706
 31
0.0
  0
LINE
  5
87
330
1E
100
AcDbEntity
  8
0
100
AcDbLine
 10
64.0
 20
4.988200000000009
 30
0.0
 11
64.0
 21
51.3526
 31
0.0
  0
LINE
  5
88
330
1E
100
AcDbEntity
  8
0
100
AcDbLine
 10
64.0
 20
4.599899999999999
 30
0.0
 11
64.0
 21
3.492599999999999
 31
0.0
  0
LINE
  5
89
330
1E
100
AcDbEntity
  8
0
100
AcDbLine
 10
64.0
 20
4.599899999999999
 30
0.0
 11
64.0
 21
82.83990000000001
 31
0.0
  0
LINE
  5
9B
330
1E
100
AcDbEntity
  8
0
100
AcDbLine
 10
0.2
 20
194.0
 30
0.0
 11
0.5
 21
195.8999999999999
 31
0.0
  0
LINE
  5
A1
330
1E
100
AcDbEntity
  8
0
100
AcDbLine
 10
64.0
 20
53.12409999999999
 30
0.0
 11
64.0
 21
53.9555
 31
0.0
  0
LINE
  5
A2
330
1E
100
AcDbEntity
  8
0
100
AcDbLine
 10
64.0
 20
53.12409999999999
 30
0.0
 11
64.0
 21
52.2737
 31
0.0
  0
LINE
  5
A3
330
1E
100
AcDbEntity
  8
0
100
AcDbLine
 10
64.0
 20
52.2737
 30
0.0
 11
64.0
 21
53.12409999999999
 31
0.0
  0
LINE
  5
A4
330
1E
100
AcDbEntity
  8
0
100
AcDbLine
 10
64.0
 20
52.2737
 30
0.0
 11
64.0
 21
51.3526
 31
0.0
  0
LINE
  5
A5
330
1E
100
AcDbEntity
  8
0
100
AcDbLine
 10
64.0
 20
51.3526
 30
0.0
 11
64.0
 21
52.2737
 31
0.0
  0
LINE
  5
A6
330
1E
100
AcDbEntity
  8
0
100
AcDbLine
 10
64.0
 20
51.3526
 30
0.0
 11
64.0
 21
4.988200000000009
 31
0.0
  0
LINE
  5
A7
330
1E
100
AcDbEntity
  8
0
100
AcDbLine
 10
64.0
 20
53.9555
 30
0.0
 11
64.0
 21
54.7163
 31
0.0
  0
LINE
  5
A8
330
1E
100
AcDbEntity
  8
0
100
AcDbLine
 10
64.0
 20
53.9555
 30
0.0
 11
64.0
 21
53.12409999999999
 31
0.0
  0
LINE
  5
A9
330
1E
100
AcDbEntity
  8
0
100
AcDbLine
 10
64.0
 20
54.7163
 30
0.0
 11
64.0
 21
55.21309999999999
 31
0.0
  0
LINE
  5
AA
330
1E
100
AcDbEntity
  8
0
100
AcDbLine
 10
64.0
 20
54.7163
 30
0.0
 11
64.0
 21
53.9555
 31
0.0
  0
LINE
  5
AB
330
1E
100
AcDbEntity
  8
0
100
AcDbLine
 10
64.0
 20
59.376
 30
0.0
 11
64.0
 21
13.0116
 31
0.0
  0
LINE
  5
AC
330
1E
100
AcDbEntity
  8
0
100
AcDbLine
 10
64.0
 20
59.376
 30
0.0
 11
64.0
 21
60.1936
 31
0.0
  0
LINE
  5
AD
330
1E
100
AcDbEntity
  8
0
100
AcDbLine
 10
64.0
 20
55.21309999999999
 30
0.0
 11
64.0
 21
55.6392
 31
0.0
  0
LINE
  5
AE
330
1E
100
AcDbEntity
  8
0
100
AcDbLine
 10
64.0
 20
55.21309999999999
 30
0.0
 11
64.0
 21
54.7163
 31
0.0
  0
LINE
  5
AF
330
1E
100
AcDbEntity
  8
0
100
AcDbLine
 10
64.0
 20
55.6392
 30
0.0
 11
64.0
 21
61.8509
 31
0.0
  0
LINE
  5
B0
330
1E
100
AcDbEntity
  8
0
100
AcDbLine
 10
64.0
 20
55.6392
 30
0.0
 11
64.0
 21
55.21309999999999
 31
0.0
  0
LINE
  5
B1
330
1E
100
AcDbEntity
  8
0
100
AcDbLine
 10
64.0
 20
61.4095
 30
0.0
 11
64.0
 21
60.8887
 31
0.0
  0
LINE
  5
B2
330
1E
100
AcDbEntity
  8
0
100
AcDbLine
 10
64.0
 20
61.4095
 30
0.0
 11
64.0
 21
61.8079
 31
0.0
  0
LINE
  5
B3
330
1E
100
AcDbEntity
  8
0
100
AcDbLine
 10
64.0
 20
60.8887
 30
0.0
 11
64.0
 21
60.1936
 31
0.0
  0
LINE
  5
B4
330
1E
100
AcDbEntity
  8
0
100
AcDbLine
 10
64.0
 20
60.8887
 30
0.0
 11
64.0
 21
61.4095
 31
0.0
  0
LINE
  5
B5
330
1E
100
AcDbEntity
  8
0
100
AcDbLine
 10
64.0
 20
60.1936
 30
0.0
 11
64.0
 21
59.376
 31
0.0
  0
LINE
  5
B6
330
1E
100
AcDbEntity
  8
0
100
AcDbLine
 10
64.0
 20
60.1936
 30
0.0
 11
64.0
 21
60.8887
 31
0.0
  0
LINE
  5
B7
330
1E
100
AcDbEntity
  8
0
100
AcDbLine
 10
64.0
 20
61.8079
 30
0.0
 11
64.0
 21
61.4095
 31
0.0
  0
LINE
  5
B8
330
1E
100
AcDbEntity
  8
0
100
AcDbLine
 10
64.0
 20
61.8079
 30
0.0
 11
64.0
 21
61.8906
 31
0.0
  0
LINE
  5
BF
330
1E
100
AcDbEntity
  8
0
100
AcDbLine
 10
64.0
 20
101.1474999999999
 30
0.0
 11
64.0
 21
82.83990000000001
 31
0.0
  0
LINE
  5
C0
330
1E
100
AcDbEntity
  8
0
100
AcDbLine
 10
64.0
 20
101.1474999999999
 30
0.0
 11
64.0
 21
108.0605
 31
0.0
  0
LINE
  5
C1
330
1E
100
AcDbEntity
  8
0
100
AcDbLine
 10
64.0
 20
82.83990000000001
 30
0.0
 11
64.0
 21
4.599899999999999
 31
0.0
  0
LINE
  5
C2
330
1E
100
AcDbEntity
  8
0
100
AcDbLine
 10
64.0
 20
82.83990000000001
 30
0.0
 11
64.0
 21
101.1474999999999
 31
0.0
  0
LINE
  5
C3
330
1E
100
AcDbEntity
  8
0
100
AcDbLine
 10
64.0
 20
61.8906
 30
0.0
 11
64.0
 21
61.8079
 31
0.0
  0
LINE
  5
C4
330
1E
100
AcDbEntity
  8
0
100
AcDbLine
 10
64.0
 20
61.8509
 30
0.0
 11
64.0
 21
55.6392
 31
0.0
  0
LINE
  5
C6
330
1E
100
AcDbEntity
  8
0
100
AcDbLine
 10
64.90000000000001
 20
110.8616999999999
 30
0.0
 11
65.8
 21
112.1174
 31
0.0
  0
LINE
  5
C8
330
1E
100
AcDbEntity
  8
0
100
AcDbLine
 10
64.29999999999999
 20
109.5094
 30
0.0
 11
64.90000000000001
 21
110.8616999999999
 31
0.0
  0
LINE
  5
CB
330
1E
100
AcDbEntity
  8
0
100
AcDbLine
 10
64.0
 20
108.0605
 30
0.0
 11
64.29999999999999
 21
109.5094
 31
0.0
  0
LINE
  5
CC
330
1E
100
AcDbEntity
  8
0
100
AcDbLine
 10
64.0
 20
108.0605
 30
0.0
 11
64.0
 21
101.1474999999999
 31
0.0
  0
LINE
  5
CD
330
1E
100
AcDbEntity
  8
0
100
AcDbLine
 10
65.8
 20
112.1174
 30
0.0
 11
67.09999999999999
 21
112.9866999999999
 31
0.0
  0
LINE
  5
CF
330
1E
100
AcDbEntity
  8
0
100
AcDbLine
 10
67.09999999999999
 20
112.9866999999999
 30
0.0
 11
68.5
 21
113.5663
 31
0.0
  0
LINE
  5
D1
330
1E
100
AcDbEntity
  8
0
100
AcDbLine
 10
67.0
 20
172.0909999999999
 30
0.0
 11
67.0
 21
159.0
 31
0.0
  0
LINE
  5
D2
330
1E
100
AcDbEntity
  8
0
100
AcDbLine
 10
67.0
 20
172.0909999999999
 30
0.0
 11
67.0655
 21
172.745
 31
0.0
  0
LINE
  5
E4
330
1E
100
AcDbEntity
  8
0
100
AcDbLine
 10
67.0655
 20
172.745
 30
0.0
 11
67.1636
 21
173.367
 31
0.0
  0
LINE
  5
F5
330
1E
100
AcDbEntity
  8
0
100
AcDbLine
 10
68.44
 20
175.56
 30
0.0
 11
68.93089999999999
 21
175.9859999999999
 31
0.0
  0
LINE
  5
F6
330
1E
100
AcDbEntity
  8
0
100
AcDbLine
 10
68.01449999999999
 20
175.069
 30
0.0
 11
68.44
 21
175.56
 31
0.0
  0
LINE
  5
F7
330
1E
100
AcDbEntity
  8
0
100
AcDbLine
 10
67.6545
 20
174.546
 30
0.0
 11
68.01449999999999
 21
175.069
 31
0.0
  0
LINE
  5
F8
330
1E
100
AcDbEntity
  8
0
100
AcDbLine
 10
67.39270000000001
 20
173.9559999999999
 30
0.0
 11
67.6545
 21
174.546
 31
0.0
  0
LINE
  5
F9
330
1E
100
AcDbEntity
  8
0
100
AcDbLine
 10
67.1636
 20
173.367
 30
0.0
 11
67.39270000000001
 21
173.9559999999999
 31
0.0
  0
LINE
  5
100
330
1E
100
AcDbEntity
  8
0
100
AcDbLine
 10
67.0
 20
159.0
 30
0.0
 11
67.0
 21
172.0909999999999
 31
0.0
  0
LINE
  5
101
330
1E
100
AcDbEntity
  8
0
100
AcDbLine
 10
68.5
 20
113.5663
 30
0.0
 11
70.0
 21
113.8560999999999
 31
0.0
  0
LINE
  5
118
330
1E
100
AcDbEntity
  8
0
100
AcDbLine
 10
68.93089999999999
 20
175.9859999999999
 30
0.0
 11
69.4546
 21
176.3459999999999
 31
0.0
  0
LINE
  5
11C
330
1E
100
AcDbEntity
  8
0
100
AcDbLine
 10
69.4546
 20
176.3459999999999
 30
0.0
 11
70.0436
 21
176.607
 31
0.0
  0
LINE
  5
11D
330
1E
100
AcDbEntity
  8
0
100
AcDbLine
 10
70.0436
 20
176.607
 30
0.0
 11
70.6327
 21
176.8359999999999
 31
0.0
  0
LINE
  5
123
330
1E
100
AcDbEntity
  8
0
100
AcDbLine
 10
70.6327
 20
176.8359999999999
 30
0.0
 11
71.25449999999999
 21
176.934
 31
0.0
  0
LINE
  5
129
330
1E
100
AcDbEntity
  8
0
100
AcDbLine
 10
71.90909999999999
 20
177.0
 30
0.0
 11
85.0
 21
177.0
 31
0.0
  0
LINE
  5
12A
330
1E
100
AcDbEntity
  8
0
100
AcDbLine
 10
71.25449999999999
 20
176.934
 30
0.0
 11
71.90909999999999
 21
177.0
 31
0.0
  0
LINE
  5
18E
330
1E
100
AcDbEntity
  8
0
100
AcDbLine
 10
1.199999999999999
 20
197.6999999999999
 30
0.0
 11
2.0
 21
199.5
 31
0.0
  0
LINE
  5
192
330
1E
100
AcDbEntity
  8
0
100
AcDbLine
 10
4.4
 20
202.5999999999999
 30
0.0
 11
5.9
 21
203.9
 31
0.0
  0
LINE
  5
193
330
1E
100
AcDbEntity
  8
0
100
AcDbLine
 10
5.9
 20
203.9
 30
0.0
 11
7.5
 21
205.0
 31
0.0
  0
LINE
  5
196
330
1E
100
AcDbEntity
  8
0
100
AcDbLine
 10
7.5
 20
205.0
 30
0.0
 11
9.3
 21
205.8
 31
0.0
  0
LINE
  5
199
330
1E
100
AcDbEntity
  8
0
100
AcDbLine
 10
11.1
 20
206.4999999999999
 30
0.0
 11
13.0
 21
206.8
 31
0.0
  0
LINE
  5
19A
330
1E
100
AcDbEntity
  8
0
100
AcDbLine
 10
9.3
 20
205.8
 30
0.0
 11
11.1
 21
206.4999999999999
 31
0.0
  0
LINE
  5
1AD
330
1E
100
AcDbEntity
  8
0
100
AcDbLine
 10
15.0
 20
207.0
 30
0.0
 11
85.0
 21
207.0
 31
0.0
  0
LINE
  5
1AF
330
1E
100
AcDbEntity
  8
0
100
AcDbLine
 10
15.0
 20
207.0
 30
0.0
 11
85.0
 21
207.0
 31
0.0
  0
LINE
  5
1B0
330
1E
100
AcDbEntity
  8
0
100
AcDbLine
 10
13.0
 20
206.8
 30
0.0
 11
15.0
 21
207.0
 31
0.0
  0
LINE
  5
1B2
330
1E
100
AcDbEntity
  8
0
100
AcDbLine
 10
3.1
 20
201.1
 30
0.0
 11
4.4
 21
202.5999999999999
 31
0.0
  0
LINE
  5
1B3
330
1E
100
AcDbEntity
  8
0
100
AcDbLine
 10
2.0
 20
199.5
 30
0.0
 11
3.1
 21
201.1
 31
0.0
  0
LINE
  5
1B4
330
1E
100
AcDbEntity
  8
0
100
AcDbLine
 10
0.5
 20
195.8999999999999
 30
0.0
 11
1.199999999999999
 21
197.6999999999999
 31
0.0
  0
LINE
  5
1BF
330
1E
100
AcDbEntity
  8
0
100
AcDbLine
 10
67.0
 20
159.0
 30
0.0
 11
67.0
 21
145.909
 31
0.0
  0
LINE
  5
1C0
330
1E
100
AcDbEntity
  8
0
100
AcDbLine
 10
67.0
 20
145.909
 30
0.0
 11
67.0
 21
159.0
 31
0.0
  0
LINE
  5
1C1
330
1E
100
AcDbEntity
  8
0
100
AcDbLine
 10
71.25449999999999
 20
141.0659999999999
 30
0.0
 11
71.90909999999999
 21
141.0
 31
0.0
  0
LINE
  5
1C2
330
1E
100
AcDbEntity
  8
0
100
AcDbLine
 10
68.93089999999999
 20
142.014
 30
0.0
 11
69.4546
 21
141.654
 31
0.0
  0
LINE
  5
1C3
330
1E
100
AcDbEntity
  8
0
100
AcDbLine
 10
68.01449999999999
 20
142.9309999999999
 30
0.0
 11
68.44
 21
142.44
 31
0.0
  0
LINE
  5
1C4
330
1E
100
AcDbEntity
  8
0
100
AcDbLine
 10
67.0
 20
145.909
 30
0.0
 11
67.0655
 21
145.255
 31
0.0
  0
LINE
  5
1C5
330
1E
100
AcDbEntity
  8
0
100
AcDbLine
 10
67.1636
 20
144.6329999999999
 30
0.0
 11
67.39270000000001
 21
144.044
 31
0.0
  0
LINE
  5
1C6
330
1E
100
AcDbEntity
  8
0
100
AcDbLine
 10
67.39270000000001
 20
144.044
 30
0.0
 11
67.6545
 21
143.454
 31
0.0
  0
LINE
  5
1C7
330
1E
100
AcDbEntity
  8
0
100
AcDbLine
 10
67.6545
 20
143.454
 30
0.0
 11
68.01449999999999
 21
142.9309999999999
 31
0.0
  0
LINE
  5
1C8
330
1E
100
AcDbEntity
  8
0
100
AcDbLine
 10
67.0655
 20
145.255
 30
0.0
 11
67.1636
 21
144.6329999999999
 31
0.0
  0
LINE
  5
1C9
330
1E
100
AcDbEntity
  8
0
100
AcDbLine
 10
68.44
 20
142.44
 30
0.0
 11
68.93089999999999
 21
142.014
 31
0.0
  0
LINE
  5
1CA
330
1E
100
AcDbEntity
  8
0
100
AcDbLine
 10
70.0436
 20
141.393
 30
0.0
 11
70.6327
 21
141.164
 31
0.0
  0
LINE
  5
1CB
330
1E
100
AcDbEntity
  8
0
100
AcDbLine
 10
69.4546
 20
141.654
 30
0.0
 11
70.0436
 21
141.393
 31
0.0
  0
LINE
  5
1CC
330
1E
100
AcDbEntity
  8
0
100
AcDbLine
 10
70.6327
 20
141.164
 30
0.0
 11
71.25449999999999
 21
141.0659999999999
 31
0.0
  0
LINE
  5
1CD
330
1E
100
AcDbEntity
  8
0
100
AcDbLine
 10
71.90909999999999
 20
141.0
 30
0.0
 11
85.0
 21
141.0
 31
0.0
  0
LINE
  5
1CE
330
1E
100
AcDbEntity
  8
0
100
AcDbLine
 10
15.0
 20
37.0
 30
0.0
 11
64.0
 21
37.0
 31
0.0
  0
LINE
  5
1CF
330
1E
100
AcDbEntity
  8
0
100
AcDbLine
 10
15.0
 20
37.0
 30
0.0
 11
64.0
 21
37.0
 31
0.0
  0
LINE
  5
1D0
330
1E
100
AcDbEntity
  8
0
100
AcDbLine
 10
0.0
 20
122.0
 30
0.0
 11
0.0
 21
52.0
 31
0.0
  0
LINE
  5
1D1
330
1E
100
AcDbEntity
  8
0
100
AcDbLine
 10
0.0
 20
52.0
 30
0.0
 11
0.0
 21
122.0
 31
0.0
  0
LINE
  5
1D2
330
1E
100
AcDbEntity
  8
0
100
AcDbLine
 10
2.0
 20
44.5
 30
0.0
 11
3.1
 21
42.9
 31
0.0
  0
LINE
  5
1D3
330
1E
100
AcDbEntity
  8
0
100
AcDbLine
 10
0.0
 20
52.0
 30
0.0
 11
0.2
 21
50.0
 31
0.0
  0
LINE
  5
1D4
330
1E
100
AcDbEntity
  8
0
100
AcDbLine
 10
0.5
 20
48.09999999999999
 30
0.0
 11
1.199999999999999
 21
46.30000000000001
 31
0.0
  0
LINE
  5
1D5
330
1E
100
AcDbEntity
  8
0
100
AcDbLine
 10
0.2
 20
50.0
 30
0.0
 11
0.5
 21
48.09999999999999
 31
0.0
  0
LINE
  5
1D6
330
1E
100
AcDbEntity
  8
0
100
AcDbLine
 10
1.199999999999999
 20
46.30000000000001
 30
0.0
 11
2.0
 21
44.5
 31
0.0
  0
LINE
  5
1D7
330
1E
100
AcDbEntity
  8
0
100
AcDbLine
 10
7.5
 20
39.0
 30
0.0
 11
9.3
 21
38.19999999999998
 31
0.0
  0
LINE
  5
1D8
330
1E
100
AcDbEntity
  8
0
100
AcDbLine
 10
5.9
 20
40.09999999999999
 30
0.0
 11
7.5
 21
39.0
 31
0.0
  0
LINE
  5
1D9
330
1E
100
AcDbEntity
  8
0
100
AcDbLine
 10
3.1
 20
42.9
 30
0.0
 11
4.4
 21
41.4
 31
0.0
  0
LINE
  5
1DA
330
1E
100
AcDbEntity
  8
0
100
AcDbLine
 10
4.4
 20
41.4
 30
0.0
 11
5.9
 21
40.09999999999999
 31
0.0
  0
LINE
  5
1DB
330
1E
100
AcDbEntity
  8
0
100
AcDbLine
 10
11.1
 20
37.5
 30
0.0
 11
13.0
 21
37.19999999999998
 31
0.0
  0
LINE
  5
1DC
330
1E
100
AcDbEntity
  8
0
100
AcDbLine
 10
9.3
 20
38.19999999999998
 30
0.0
 11
11.1
 21
37.5
 31
0.0
  0
LINE
  5
1DD
330
1E
100
AcDbEntity
  8
0
100
AcDbLine
 10
13.0
 20
37.19999999999998
 30
0.0
 11
15.0
 21
37.0
 31
0.0
  0
LINE
  5
1DE
330
1E
100
AcDbEntity
  8
0
100
AcDbLine
 10
155.0
 20
37.0
 30
0.0
 11
106.0
 21
37.0
 31
0.0
  0
LINE
  5
1DF
330
1E
100
AcDbEntity
  8
0
100
AcDbLine
 10
155.0
 20
37.0
 30
0.0
 11
106.0
 21
37.0
 31
0.0
  0
LINE
  5
1E0
330
1E
100
AcDbEntity
  8
0
100
AcDbLine
 10
155.0
 20
207.0
 30
0.0
 11
85.0
 21
207.0
 31
0.0
  0
LINE
  5
1E1
330
1E
100
AcDbEntity
  8
0
100
AcDbLine
 10
155.0
 20
207.0
 30
0.0
 11
85.0
 21
207.0
 31
0.0
  0
LINE
  5
1E2
330
1E
100
AcDbEntity
  8
0
100
AcDbLine
 10
170.0
 20
52.0
 30
0.0
 11
170.0
 21
122.0
 31
0.0
  0
LINE
  5
1E3
330
1E
100
AcDbEntity
  8
0
100
AcDbLine
 10
170.0
 20
122.0
 30
0.0
 11
170.0
 21
52.0
 31
0.0
  0
LINE
  5
1E4
330
1E
100
AcDbEntity
  8
0
100
AcDbLine
 10
162.5
 20
39.0
 30
0.0
 11
160.7
 21
38.19999999999998
 31
0.0
  0
LINE
  5
1E5
330
1E
100
AcDbEntity
  8
0
100
AcDbLine
 10
158.9
 20
37.5
 30
0.0
 11
157.0
 21
37.19999999999998
 31
0.0
  0
LINE
  5
1E6
330
1E
100
AcDbEntity
  8
0
100
AcDbLine
 10
160.7
 20
38.19999999999998
 30
0.0
 11
158.9
 21
37.5
 31
0.0
  0
LINE
  5
1E7
330
1E
100
AcDbEntity
  8
0
100
AcDbLine
 10
157.0
 20
37.19999999999998
 30
0.0
 11
155.0
 21
37.0
 31
0.0
  0
LINE
  5
1E8
330
1E
100
AcDbEntity
  8
0
100
AcDbLine
 10
168.0
 20
44.5
 30
0.0
 11
166.9
 21
42.9
 31
0.0
  0
LINE
  5
1E9
330
1E
100
AcDbEntity
  8
0
100
AcDbLine
 10
169.5
 20
48.09999999999999
 30
0.0
 11
168.8
 21
46.30000000000001
 31
0.0
  0
LINE
  5
1EA
330
1E
100
AcDbEntity
  8
0
100
AcDbLine
 10
168.8
 20
46.30000000000001
 30
0.0
 11
168.0
 21
44.5
 31
0.0
  0
LINE
  5
1EB
330
1E
100
AcDbEntity
  8
0
100
AcDbLine
 10
170.0
 20
52.0
 30
0.0
 11
169.8
 21
50.0
 31
0.0
  0
LINE
  5
1EC
330
1E
100
AcDbEntity
  8
0
100
AcDbLine
 10
169.8
 20
50.0
 30
0.0
 11
169.5
 21
48.09999999999999
 31
0.0
  0
LINE
  5
1ED
330
1E
100
AcDbEntity
  8
0
100
AcDbLine
 10
164.1
 20
40.09999999999999
 30
0.0
 11
162.5
 21
39.0
 31
0.0
  0
LINE
  5
1EE
330
1E
100
AcDbEntity
  8
0
100
AcDbLine
 10
166.9
 20
42.9
 30
0.0
 11
165.5999999999999
 21
41.4
 31
0.0
  0
LINE
  5
1EF
330
1E
100
AcDbEntity
  8
0
100
AcDbLine
 10
165.5999999999999
 20
41.4
 30
0.0
 11
164.1
 21
40.09999999999999
 31
0.0
  0
LINE
  5
1F0
330
1E
100
AcDbEntity
  8
0
100
AcDbLine
 10
170.0
 20
122.0
 30
0.0
 11
170.0
 21
192.0
 31
0.0
  0
LINE
  5
1F1
330
1E
100
AcDbEntity
  8
0
100
AcDbLine
 10
170.0
 20
192.0
 30
0.0
 11
170.0
 21
122.0
 31
0.0
  0
LINE
  5
1F2
330
1E
100
AcDbEntity
  8
0
100
AcDbLine
 10
168.0
 20
199.5
 30
0.0
 11
166.9
 21
201.1
 31
0.0
  0
LINE
  5
1F3
330
1E
100
AcDbEntity
  8
0
100
AcDbLine
 10
170.0
 20
192.0
 30
0.0
 11
169.8
 21
194.0
 31
0.0
  0
LINE
  5
1F4
330
1E
100
AcDbEntity
  8
0
100
AcDbLine
 10
169.5
 20
195.8999999999999
 30
0.0
 11
168.8
 21
197.6999999999999
 31
0.0
  0
LINE
  5
1F5
330
1E
100
AcDbEntity
  8
0
100
AcDbLine
 10
169.8
 20
194.0
 30
0.0
 11
169.5
 21
195.8999999999999
 31
0.0
  0
LINE
  5
1F6
330
1E
100
AcDbEntity
  8
0
100
AcDbLine
 10
168.8
 20
197.6999999999999
 30
0.0
 11
168.0
 21
199.5
 31
0.0
  0
LINE
  5
1F7
330
1E
100
AcDbEntity
  8
0
100
AcDbLine
 10
162.5
 20
205.0
 30
0.0
 11
160.7
 21
205.8
 31
0.0
  0
LINE
  5
1F8
330
1E
100
AcDbEntity
  8
0
100
AcDbLine
 10
164.1
 20
203.9
 30
0.0
 11
162.5
 21
205.0
 31
0.0
  0
LINE
  5
1F9
330
1E
100
AcDbEntity
  8
0
100
AcDbLine
 10
166.9
 20
201.1
 30
0.0
 11
165.5999999999999
 21
202.5999999999999
 31
0.0
  0
LINE
  5
1FA
330
1E
100
AcDbEntity
  8
0
100
AcDbLine
 10
165.5999999999999
 20
202.5999999999999
 30
0.0
 11
164.1
 21
203.9
 31
0.0
  0
LINE
  5
1FB
330
1E
100
AcDbEntity
  8
0
100
AcDbLine
 10
158.9
 20
206.4999999999999
 30
0.0
 11
157.0
 21
206.8
 31
0.0
  0
LINE
  5
1FC
330
1E
100
AcDbEntity
  8
0
100
AcDbLine
 10
160.7
 20
205.8
 30
0.0
 11
158.9
 21
206.4999999999999
 31
0.0
  0
LINE
  5
1FD
330
1E
100
AcDbEntity
  8
0
100
AcDbLine
 10
157.0
 20
206.8
 30
0.0
 11
155.0
 21
207.0
 31
0.0
  0
LINE
  5
1FE
330
1E
100
AcDbEntity
  8
0
100
AcDbLine
 10
106.0
 20
108.0605
 30
0.0
 11
106.0
 21
101.1474999999999
 31
0.0
  0
LINE
  5
1FF
330
1E
100
AcDbEntity
  8
0
100
AcDbLine
 10
106.0
 20
101.1474999999999
 30
0.0
 11
106.0
 21
108.0605
 31
0.0
  0
LINE
  5
200
330
1E
100
AcDbEntity
  8
0
100
AcDbLine
 10
106.0
 20
82.83990000000001
 30
0.0
 11
106.0
 21
4.599899999999999
 31
0.0
  0
LINE
  5
201
330
1E
100
AcDbEntity
  8
0
100
AcDbLine
 10
106.0
 20
59.376
 30
0.0
 11
106.0
 21
13.0116
 31
0.0
  0
LINE
  5
202
330
1E
100
AcDbEntity
  8
0
100
AcDbLine
 10
106.0
 20
51.3526
 30
0.0
 11
106.0
 21
4.988200000000009
 31
0.0
  0
LINE
  5
203
330
1E
100
AcDbEntity
  8
0
100
AcDbLine
 10
106.0
 20
4.599899999999999
 30
0.0
 11
106.0
 21
82.83990000000001
 31
0.0
  0
LINE
  5
204
330
1E
100
AcDbEntity
  8
0
100
AcDbLine
 10
106.0
 20
4.988200000000009
 30
0.0
 11
106.0
 21
51.3526
 31
0.0
  0
LINE
  5
205
330
1E
100
AcDbEntity
  8
0
100
AcDbLine
 10
106.0
 20
13.0116
 30
0.0
 11
106.0
 21
59.376
 31
0.0
  0
LINE
  5
206
330
1E
100
AcDbEntity
  8
0
100
AcDbLine
 10
106.0
 20
8.724899999999999
 30
0.0
 11
106.0
 21
2.5133
 31
0.0
  0
LINE
  5
207
330
1E
100
AcDbEntity
  8
0
100
AcDbLine
 10
106.0
 20
2.5133
 30
0.0
 11
106.0
 21
8.724899999999999
 31
0.0
  0
LINE
  5
208
330
1E
100
AcDbEntity
  8
0
100
AcDbLine
 10
106.0
 20
0.9470000000000041
 30
0.0
 11
105.6999999999999
 21
0.219099999999994
 31
0.0
  0
LINE
  5
209
330
1E
100
AcDbEntity
  8
0
100
AcDbLine
 10
106.0
 20
2.462899999999999
 30
0.0
 11
106.0
 21
1.607399999999999
 31
0.0
  0
LINE
  5
20A
330
1E
100
AcDbEntity
  8
0
100
AcDbLine
 10
106.0
 20
1.607399999999999
 30
0.0
 11
106.0
 21
2.462899999999999
 31
0.0
  0
LINE
  5
20B
330
1E
100
AcDbEntity
  8
0
100
AcDbLine
 10
106.0
 20
1.607399999999999
 30
0.0
 11
106.0
 21
1.119399999999999
 31
0.0
  0
LINE
  5
20C
330
1E
100
AcDbEntity
  8
0
100
AcDbLine
 10
106.0
 20
0.9470000000000041
 30
0.0
 11
106.0
 21
1.119399999999999
 31
0.0
  0
LINE
  5
20D
330
1E
100
AcDbEntity
  8
0
100
AcDbLine
 10
106.0
 20
1.119399999999999
 30
0.0
 11
106.0
 21
0.9470000000000041
 31
0.0
  0
LINE
  5
20E
330
1E
100
AcDbEntity
  8
0
100
AcDbLine
 10
106.0
 20
1.119399999999999
 30
0.0
 11
106.0
 21
1.607399999999999
 31
0.0
  0
LINE
  5
20F
330
1E
100
AcDbEntity
  8
0
100
AcDbLine
 10
106.0
 20
4.599899999999999
 30
0.0
 11
106.0
 21
3.492599999999999
 31
0.0
  0
LINE
  5
210
330
1E
100
AcDbEntity
  8
0
100
AcDbLine
 10
106.0
 20
4.988200000000009
 30
0.0
 11
106.0
 21
4.1706
 31
0.0
  0
LINE
  5
211
330
1E
100
AcDbEntity
  8
0
100
AcDbLine
 10
106.0
 20
3.492599999999999
 30
0.0
 11
106.0
 21
4.599899999999999
 31
0.0
  0
LINE
  5
212
330
1E
100
AcDbEntity
  8
0
100
AcDbLine
 10
106.0
 20
3.492599999999999
 30
0.0
 11
106.0
 21
2.462899999999999
 31
0.0
  0
LINE
  5
213
330
1E
100
AcDbEntity
  8
0
100
AcDbLine
 10
106.0
 20
2.462899999999999
 30
0.0
 11
106.0
 21
3.492599999999999
 31
0.0
  0
LINE
  5
214
330
1E
100
AcDbEntity
  8
0
100
AcDbLine
 10
106.0
 20
4.1706
 30
0.0
 11
106.0
 21
3.475499999999999
 31
0.0
  0
LINE
  5
215
330
1E
100
AcDbEntity
  8
0
100
AcDbLine
 10
106.0
 20
4.1706
 30
0.0
 11
106.0
 21
4.988200000000009
 31
0.0
  0
LINE
  5
216
330
1E
100
AcDbEntity
  8
0
100
AcDbLine
 10
106.0
 20
3.475499999999999
 30
0.0
 11
106.0
 21
2.9546
 31
0.0
  0
LINE
  5
217
330
1E
100
AcDbEntity
  8
0
100
AcDbLine
 10
106.0
 20
3.475499999999999
 30
0.0
 11
106.0
 21
4.1706
 31
0.0
  0
LINE
  5
218
330
1E
100
AcDbEntity
  8
0
100
AcDbLine
 10
106.0
 20
2.9546
 30
0.0
 11
106.0
 21
2.556299999999999
 31
0.0
  0
LINE
  5
219
330
1E
100
AcDbEntity
  8
0
100
AcDbLine
 10
106.0
 20
2.9546
 30
0.0
 11
106.0
 21
3.475499999999999
 31
0.0
  0
LINE
  5
21A
330
1E
100
AcDbEntity
  8
0
100
AcDbLine
 10
106.0
 20
2.47349999999999
 30
0.0
 11
106.0
 21
2.556299999999999
 31
0.0
  0
LINE
  5
21B
330
1E
100
AcDbEntity
  8
0
100
AcDbLine
 10
106.0
 20
2.556299999999999
 30
0.0
 11
106.0
 21
2.9546
 31
0.0
  0
LINE
  5
21C
330
1E
100
AcDbEntity
  8
0
100
AcDbLine
 10
106.0
 20
2.556299999999999
 30
0.0
 11
106.0
 21
2.47349999999999
 31
0.0
  0
LINE
  5
21D
330
1E
100
AcDbEntity
  8
0
100
AcDbLine
 10
105.6999999999999
 20
0.219099999999994
 30
0.0
 11
105.0
 21
0.0
 31
0.0
  0
LINE
  5
21E
330
1E
100
AcDbEntity
  8
0
100
AcDbLine
 10
106.0
 20
11.24009999999999
 30
0.0
 11
106.0
 21
10.4086
 31
0.0
  0
LINE
  5
21F
330
1E
100
AcDbEntity
  8
0
100
AcDbLine
 10
106.0
 20
10.4086
 30
0.0
 11
106.0
 21
11.24009999999999
 31
0.0
  0
LINE
  5
220
330
1E
100
AcDbEntity
  8
0
100
AcDbLine
 10
106.0
 20
8.724899999999999
 30
0.0
 11
106.0
 21
9.151099999999999
 31
0.0
  0
LINE
  5
221
330
1E
100
AcDbEntity
  8
0
100
AcDbLine
 10
106.0
 20
9.151099999999999
 30
0.0
 11
106.0
 21
8.724899999999999
 31
0.0
  0
LINE
  5
222
330
1E
100
AcDbEntity
  8
0
100
AcDbLine
 10
106.0
 20
9.151099999999999
 30
0.0
 11
106.0
 21
9.647899999999999
 31
0.0
  0
LINE
  5
223
330
1E
100
AcDbEntity
  8
0
100
AcDbLine
 10
106.0
 20
9.647899999999999
 30
0.0
 11
106.0
 21
9.151099999999999
 31
0.0
  0
LINE
  5
224
330
1E
100
AcDbEntity
  8
0
100
AcDbLine
 10
106.0
 20
9.647899999999999
 30
0.0
 11
106.0
 21
10.4086
 31
0.0
  0
LINE
  5
225
330
1E
100
AcDbEntity
  8
0
100
AcDbLine
 10
106.0
 20
10.4086
 30
0.0
 11
106.0
 21
9.647899999999999
 31
0.0
  0
LINE
  5
226
330
1E
100
AcDbEntity
  8
0
100
AcDbLine
 10
106.0
 20
13.0116
 30
0.0
 11
106.0
 21
12.0905
 31
0.0
  0
LINE
  5
227
330
1E
100
AcDbEntity
  8
0
100
AcDbLine
 10
106.0
 20
12.0905
 30
0.0
 11
106.0
 21
13.0116
 31
0.0
  0
LINE
  5
228
330
1E
100
AcDbEntity
  8
0
100
AcDbLine
 10
106.0
 20
12.0905
 30
0.0
 11
106.0
 21
11.24009999999999
 31
0.0
  0
LINE
  5
229
330
1E
100
AcDbEntity
  8
0
100
AcDbLine
 10
106.0
 20
11.24009999999999
 30
0.0
 11
106.0
 21
12.0905
 31
0.0
  0
LINE
  5
22A
330
1E
100
AcDbEntity
  8
0
100
AcDbLine
 10
106.0
 20
55.21309999999999
 30
0.0
 11
106.0
 21
54.7163
 31
0.0
  0
LINE
  5
22B
330
1E
100
AcDbEntity
  8
0
100
AcDbLine
 10
106.0
 20
54.7163
 30
0.0
 11
106.0
 21
55.21309999999999
 31
0.0
  0
LINE
  5
22C
330
1E
100
AcDbEntity
  8
0
100
AcDbLine
 10
106.0
 20
54.7163
 30
0.0
 11
106.0
 21
53.9555
 31
0.0
  0
LINE
  5
22D
330
1E
100
AcDbEntity
  8
0
100
AcDbLine
 10
106.0
 20
53.9555
 30
0.0
 11
106.0
 21
53.12409999999999
 31
0.0
  0
LINE
  5
22E
330
1E
100
AcDbEntity
  8
0
100
AcDbLine
 10
106.0
 20
53.9555
 30
0.0
 11
106.0
 21
54.7163
 31
0.0
  0
LINE
  5
22F
330
1E
100
AcDbEntity
  8
0
100
AcDbLine
 10
106.0
 20
51.3526
 30
0.0
 11
106.0
 21
52.2737
 31
0.0
  0
LINE
  5
230
330
1E
100
AcDbEntity
  8
0
100
AcDbLine
 10
106.0
 20
52.2737
 30
0.0
 11
106.0
 21
51.3526
 31
0.0
  0
LINE
  5
231
330
1E
100
AcDbEntity
  8
0
100
AcDbLine
 10
106.0
 20
52.2737
 30
0.0
 11
106.0
 21
53.12409999999999
 31
0.0
  0
LINE
  5
232
330
1E
100
AcDbEntity
  8
0
100
AcDbLine
 10
106.0
 20
53.12409999999999
 30
0.0
 11
106.0
 21
52.2737
 31
0.0
  0
LINE
  5
233
330
1E
100
AcDbEntity
  8
0
100
AcDbLine
 10
106.0
 20
53.12409999999999
 30
0.0
 11
106.0
 21
53.9555
 31
0.0
  0
LINE
  5
234
330
1E
100
AcDbEntity
  8
0
100
AcDbLine
 10
106.0
 20
61.8509
 30
0.0
 11
106.0
 21
55.6392
 31
0.0
  0
LINE
  5
235
330
1E
100
AcDbEntity
  8
0
100
AcDbLine
 10
106.0
 20
55.6392
 30
0.0
 11
106.0
 21
61.8509
 31
0.0
  0
LINE
  5
236
330
1E
100
AcDbEntity
  8
0
100
AcDbLine
 10
106.0
 20
55.6392
 30
0.0
 11
106.0
 21
55.21309999999999
 31
0.0
  0
LINE
  5
237
330
1E
100
AcDbEntity
  8
0
100
AcDbLine
 10
106.0
 20
55.21309999999999
 30
0.0
 11
106.0
 21
55.6392
 31
0.0
  0
LINE
  5
238
330
1E
100
AcDbEntity
  8
0
100
AcDbLine
 10
106.0
 20
61.8906
 30
0.0
 11
106.0
 21
61.8079
 31
0.0
  0
LINE
  5
239
330
1E
100
AcDbEntity
  8
0
100
AcDbLine
 10
106.0
 20
61.8079
 30
0.0
 11
106.0
 21
61.8906
 31
0.0
  0
LINE
  5
23A
330
1E
100
AcDbEntity
  8
0
100
AcDbLine
 10
106.0
 20
61.8079
 30
0.0
 11
106.0
 21
61.4095
 31
0.0
  0
LINE
  5
23B
330
1E
100
AcDbEntity
  8
0
100
AcDbLine
 10
106.0
 20
60.1936
 30
0.0
 11
106.0
 21
60.8887
 31
0.0
  0
LINE
  5
23C
330
1E
100
AcDbEntity
  8
0
100
AcDbLine
 10
106.0
 20
60.1936
 30
0.0
 11
106.0
 21
59.376
 31
0.0
  0
LINE
  5
23D
330
1E
100
AcDbEntity
  8
0
100
AcDbLine
 10
106.0
 20
60.8887
 30
0.0
 11
106.0
 21
61.4095
 31
0.0
  0
LINE
  5
23E
330
1E
100
AcDbEntity
  8
0
100
AcDbLine
 10
106.0
 20
60.8887
 30
0.0
 11
106.0
 21
60.1936
 31
0.0
  0
LINE
  5
23F
330
1E
100
AcDbEntity
  8
0
100
AcDbLine
 10
106.0
 20
61.4095
 30
0.0
 11
106.0
 21
61.8079
 31
0.0
  0
LINE
  5
240
330
1E
100
AcDbEntity
  8
0
100
AcDbLine
 10
106.0
 20
61.4095
 30
0.0
 11
106.0
 21
60.8887
 31
0.0
  0
LINE
  5
241
330
1E
100
AcDbEntity
  8
0
100
AcDbLine
 10
106.0
 20
59.376
 30
0.0
 11
106.0
 21
60.1936
 31
0.0
  0
LINE
  5
242
330
1E
100
AcDbEntity
  8
0
100
AcDbLine
 10
106.0
 20
82.83990000000001
 30
0.0
 11
106.0
 21
101.1474999999999
 31
0.0
  0
LINE
  5
243
330
1E
100
AcDbEntity
  8
0
100
AcDbLine
 10
106.0
 20
101.1474999999999
 30
0.0
 11
106.0
 21
82.83990000000001
 31
0.0
  0
LINE
  5
244
330
1E
100
AcDbEntity
  8
0
100
AcDbLine
 10
101.0691
 20
175.9859999999999
 30
0.0
 11
100.5454
 21
176.3459999999999
 31
0.0
  0
LINE
  5
245
330
1E
100
AcDbEntity
  8
0
100
AcDbLine
 10
101.0691
 20
142.014
 30
0.0
 11
100.5454
 21
141.654
 31
0.0
  0
LINE
  5
246
330
1E
100
AcDbEntity
  8
0
100
AcDbLine
 10
101.5
 20
113.5663
 30
0.0
 11
100.0
 21
113.8560999999999
 31
0.0
  0
LINE
  5
247
330
1E
100
AcDbEntity
  8
0
100
AcDbLine
 10
103.0
 20
159.0
 30
0.0
 11
103.0
 21
172.0909999999999
 31
0.0
  0
LINE
  5
248
330
1E
100
AcDbEntity
  8
0
100
AcDbLine
 10
103.0
 20
172.0909999999999
 30
0.0
 11
103.0
 21
159.0
 31
0.0
  0
LINE
  5
249
330
1E
100
AcDbEntity
  8
0
100
AcDbLine
 10
105.0999999999999
 20
110.8616999999999
 30
0.0
 11
104.2
 21
112.1174
 31
0.0
  0
LINE
  5
24A
330
1E
100
AcDbEntity
  8
0
100
AcDbLine
 10
106.0
 20
108.0605
 30
0.0
 11
105.6999999999999
 21
109.5094
 31
0.0
  0
LINE
  5
24B
330
1E
100
AcDbEntity
  8
0
100
AcDbLine
 10
105.6999999999999
 20
109.5094
 30
0.0
 11
105.0999999999999
 21
110.8616999999999
 31
0.0
  0
LINE
  5
24C
330
1E
100
AcDbEntity
  8
0
100
AcDbLine
 10
102.9
 20
112.9866999999999
 30
0.0
 11
101.5
 21
113.5663
 31
0.0
  0
LINE
  5
24D
330
1E
100
AcDbEntity
  8
0
100
AcDbLine
 10
104.2
 20
112.1174
 30
0.0
 11
102.9
 21
112.9866999999999
 31
0.0
  0
LINE
  5
24E
330
1E
100
AcDbEntity
  8
0
100
AcDbLine
 10
103.0
 20
145.909
 30
0.0
 11
103.0
 21
159.0
 31
0.0
  0
LINE
  5
24F
330
1E
100
AcDbEntity
  8
0
100
AcDbLine
 10
103.0
 20
159.0
 30
0.0
 11
103.0
 21
145.909
 31
0.0
  0
LINE
  5
250
330
1E
100
AcDbEntity
  8
0
100
AcDbLine
 10
102.6073
 20
144.044
 30
0.0
 11
102.3455
 21
143.454
 31
0.0
  0
LINE
  5
251
330
1E
100
AcDbEntity
  8
0
100
AcDbLine
 10
101.9854999999999
 20
142.9309999999999
 30
0.0
 11
101.56
 21
142.44
 31
0.0
  0
LINE
  5
252
330
1E
100
AcDbEntity
  8
0
100
AcDbLine
 10
102.3455
 20
143.454
 30
0.0
 11
101.9854999999999
 21
142.9309999999999
 31
0.0
  0
LINE
  5
253
330
1E
100
AcDbEntity
  8
0
100
AcDbLine
 10
101.56
 20
142.44
 30
0.0
 11
101.0691
 21
142.014
 31
0.0
  0
LINE
  5
254
330
1E
100
AcDbEntity
  8
0
100
AcDbLine
 10
102.9344999999999
 20
145.255
 30
0.0
 11
102.8364
 21
144.6329999999999
 31
0.0
  0
LINE
  5
255
330
1E
100
AcDbEntity
  8
0
100
AcDbLine
 10
102.8364
 20
144.6329999999999
 30
0.0
 11
102.6073
 21
144.044
 31
0.0
  0
LINE
  5
256
330
1E
100
AcDbEntity
  8
0
100
AcDbLine
 10
103.0
 20
145.909
 30
0.0
 11
102.9344999999999
 21
145.255
 31
0.0
  0
LINE
  5
257
330
1E
100
AcDbEntity
  8
0
100
AcDbLine
 10
102.6073
 20
173.9559999999999
 30
0.0
 11
102.3455
 21
174.546
 31
0.0
  0
LINE
  5
258
330
1E
100
AcDbEntity
  8
0
100
AcDbLine
 10
103.0
 20
172.0909999999999
 30
0.0
 11
102.9344999999999
 21
172.745
 31
0.0
  0
LINE
  5
259
330
1E
100
AcDbEntity
  8
0
100
AcDbLine
 10
102.8364
 20
173.367
 30
0.0
 11
102.6073
 21
173.9559999999999
 31
0.0
  0
LINE
  5
25A
330
1E
100
AcDbEntity
  8
0
100
AcDbLine
 10
102.9344999999999
 20
172.745
 30
0.0
 11
102.8364
 21
173.367
 31
0.0
  0
LINE
  5
25B
330
1E
100
AcDbEntity
  8
0
100
AcDbLine
 10
101.9854999999999
 20
175.069
 30
0.0
 11
101.56
 21
175.56
 31
0.0
  0
LINE
  5
25C
330
1E
100
AcDbEntity
  8
0
100
AcDbLine
 10
102.3455
 20
174.546
 30
0.0
 11
101.9854999999999
 21
175.069
 31
0.0
  0
LINE
  5
25D
330
1E
100
AcDbEntity
  8
0
100
AcDbLine
 10
101.56
 20
175.56
 30
0.0
 11
101.0691
 21
175.9859999999999
 31
0.0
  0
LINE
  5
25E
330
1E
100
AcDbEntity
  8
0
100
AcDbLine
 10
98.09090000000001
 20
141.0
 30
0.0
 11
85.0
 21
141.0
 31
0.0
  0
LINE
  5
25F
330
1E
100
AcDbEntity
  8
0
100
AcDbLine
 10
99.3673
 20
141.164
 30
0.0
 11
98.74550000000001
 21
141.0659999999999
 31
0.0
  0
LINE
  5
260
330
1E
100
AcDbEntity
  8
0
100
AcDbLine
 10
100.5454
 20
141.654
 30
0.0
 11
99.95640000000001
 21
141.393
 31
0.0
  0
LINE
  5
261
330
1E
100
AcDbEntity
  8
0
100
AcDbLine
 10
99.95640000000001
 20
141.393
 30
0.0
 11
99.3673
 21
141.164
 31
0.0
  0
LINE
  5
262
330
1E
100
AcDbEntity
  8
0
100
AcDbLine
 10
98.74550000000001
 20
141.0659999999999
 30
0.0
 11
98.09090000000001
 21
141.0
 31
0.0
  0
LINE
  5
263
330
1E
100
AcDbEntity
  8
0
100
AcDbLine
 10
98.09090000000001
 20
177.0
 30
0.0
 11
85.0
 21
177.0
 31
0.0
  0
LINE
  5
264
330
1E
100
AcDbEntity
  8
0
100
AcDbLine
 10
99.3673
 20
176.8359999999999
 30
0.0
 11
98.74550000000001
 21
176.934
 31
0.0
  0
LINE
  5
265
330
1E
100
AcDbEntity
  8
0
100
AcDbLine
 10
100.5454
 20
176.3459999999999
 30
0.0
 11
99.95640000000001
 21
176.607
 31
0.0
  0
LINE
  5
266
330
1E
100
AcDbEntity
  8
0
100
AcDbLine
 10
99.95640000000001
 20
176.607
 30
0.0
 11
99.3673
 21
176.8359999999999
 31
0.0
  0
LINE
  5
267
330
1E
100
AcDbEntity
  8
0
100
AcDbLine
 10
98.74550000000001
 20
176.934
 30
0.0
 11
98.09090000000001
 21
177.0
 31
0.0
  0
LINE
  5
268
330
1E
100
AcDbEntity
  8
0
100
AcDbLine
 10
70.0
 20
113.8560999999999
 30
0.0
 11
100.0
 21
113.8560999999999
 31
0.0
  0
LINE
  5
269
330
1E
100
AcDbEntity
  8
0
100
AcDbLine
 10
65.0
 20
0.0
 30
0.0
 11
105.0
 21
0.0
 31
0.0
  0
ENDSEC
  0
SECTION
  2
OBJECTS
  0
DICTIONARY
  5
C
330
0
100
AcDbDictionary
281
     1
  3
ACAD_GROUP
350
D
  3
ACAD_LAYOUT
350
19
  3
ACAD_MLINESTYLE
350
16
  3
ACAD_PLOTSETTINGS
350
18
  3
ACAD_PLOTSTYLENAME
350
E
  3
AcDbVariableDictionary
350
26A
  0
DICTIONARY
  5
D
102
{ACAD_REACTORS
330
C
102
}
330
C
100
AcDbDictionary
281
     1
  0
DICTIONARY
  5
19
102
{ACAD_REACTORS
330
C
102
}
330
C
100
AcDbDictionary
281
     1
  3
Layout1
350
1D
  3
Model
350
21
  0
DICTIONARY
  5
16
102
{ACAD_REACTORS
330
C
102
}
330
C
100
AcDbDictionary
281
     1
  3
Standard
350
17
  0
DICTIONARY
  5
18
102
{ACAD_REACTORS
330
C
102
}
330
C
100
AcDbDictionary
281
     1
  0
ACDBDICTIONARYWDFLT
  5
E
102
{ACAD_REACTORS
330
C
102
}
330
C
100
AcDbDictionary
281
     1
  3
Normal
350
F
100
AcDbDictionaryWithDefault
340
F
  0
DICTIONARY
  5
26A
102
{ACAD_REACTORS
330
C
102
}
330
C
100
AcDbDictionary
281
     1
  3
DIMASSOC
350
26B
  0
LAYOUT
  5
1D
102
{ACAD_REACTORS
330
19
102
}
330
19
100
AcDbPlotSettings
  1

  2
hp deskjet 980c series
  4

  6

 40
0.0
 41
0.0
 42
0.0
 43
0.0
 44
0.0
 45
0.0
 46
0.0
 47
0.0
 48
0.0
 49
0.0
140
0.0
141
0.0
142
1.0
143
1.0
 70
   688
 72
     0
 73
     0
 74
     5
  7

 75
    16
147
1.0
148
0.0
149
0.0
100
AcDbLayout
  1
Layout1
 70
     1
 71
     1
 10
0.0
 20
0.0
 11
12.0
 21
9.0
 12
0.0
 22
0.0
 32
0.0
 14
1.000000000000000E+20
 24
1.000000000000000E+20
 34
1.000000000000000E+20
 15
-1.000000000000000E+20
 25
-1.000000000000000E+20
 35
-1.000000000000000E+20
146
0.0
 13
0.0
 23
0.0
 33
0.0
 16
1.0
 26
0.0
 36
0.0
 17
0.0
 27
1.0
 37
0.0
 76
     0
330
1A
  0
LAYOUT
  5
21
102
{ACAD_REACTORS
330
19
102
}
330
19
100
AcDbPlotSettings
  1

  2
hp deskjet 980c series
  4

  6

 40
0.0
 41
0.0
 42
0.0
 43
0.0
 44
0.0
 45
0.0
 46
0.0
 47
0.0
 48
0.0
 49
0.0
140
0.0
141
0.0
142
1.0
143
1.0
 70
  1712
 72
     0
 73
     0
 74
     0
  7

 75
     0
147
1.0
148
0.0
149
0.0
100
AcDbLayout
  1
Model
 70
     1
 71
     0
 10
0.0
 20
0.0
 11
12.0
 21
9.0
 12
0.0
 22
0.0
 32
0.0
 14
0.0
 24
0.0
 34
0.0
 15
0.0
 25
0.0
 35
0.0
146
0.0
 13
0.0
 23
0.0
 33
0.0
 16
1.0
 26
0.0
 36
0.0
 17
0.0
 27
1.0
 37
0.0
 76
     0
330
1E
  0
MLINESTYLE
  5
17
102
{ACAD_REACTORS
330
16
102
}
330
16
100
AcDbMlineStyle
  2
STANDARD
 70
     0
  3

 62
   256
 51
90.0
 52
90.0
 71
     2
 49
0.5
 62
   256
  6
BYLAYER
 49
-0.5
 62
   256
  6
BYLAYER
  0
ACDBPLACEHOLDER
  5
F
102
{ACAD_REACTORS
330
E
102
}
330
E
  0
DICTIONARYVAR
  5
26B
102
{ACAD_REACTORS
330
26A
102
}
330
26A
100
DictionaryVariables
280
     0
  1
1
  0
ENDSEC
  0
EOF
