  0
SECTION
  2
HEADER
  9
$ACADVER
  1
AC1015
  9
$ACADMAINTVER
 70
    13
  9
$DWGCODEPAGE
  3
ANSI_1252
  9
$INSBASE
 10
0.0
 20
0.0
 30
0.0
  9
$EXTMIN
 10
0.0
 20
0.0000225000000026
 30
0.0
  9
$EXTMAX
 10
327.0
 20
244.9999775
 30
0.0
  9
$LIMMIN
 10
0.0
 20
0.0
  9
$LIMMAX
 10
12.0
 20
9.0
  9
$ORTHOMODE
 70
     0
  9
$REGENMODE
 70
     1
  9
$FILLMODE
 70
     1
  9
$QTEXTMODE
 70
     0
  9
$MIRRTEXT
 70
     1
  9
$LTSCALE
 40
1.0
  9
$ATTMODE
 70
     1
  9
$TEXTSIZE
 40
0.2
  9
$TRACEWID
 40
0.05
  9
$TEXTSTYLE
  7
Standard
  9
$CLAYER
  8
0
  9
$CELTYPE
  6
Continuous
  9
$CECOLOR
 62
   256
  9
$CELTSCALE
 40
1.0
  9
$DISPSILH
 70
     0
  9
$DIMSCALE
 40
1.0
  9
$DIMASZ
 40
0.18
  9
$DIMEXO
 40
0.0625
  9
$DIMDLI
 40
0.38
  9
$DIMRND
 40
0.0
  9
$DIMDLE
 40
0.0
  9
$DIMEXE
 40
0.18
  9
$DIMTP
 40
0.0
  9
$DIMTM
 40
0.0
  9
$DIMTXT
 40
0.18
  9
$DIMCEN
 40
0.09
  9
$DIMTSZ
 40
0.0
  9
$DIMTOL
 70
     0
  9
$DIMLIM
 70
     0
  9
$DIMTIH
 70
     1
  9
$DIMTOH
 70
     1
  9
$DIMSE1
 70
     0
  9
$DIMSE2
 70
     0
  9
$DIMTAD
 70
     0
  9
$DIMZIN
 70
     0
  9
$DIMBLK
  1

  9
$DIMASO
 70
     1
  9
$DIMSHO
 70
     1
  9
$DIMPOST
  1

  9
$DIMAPOST
  1

  9
$DIMALT
 70
     0
  9
$DIMALTD
 70
     2
  9
$DIMALTF
 40
25.4
  9
$DIMLFAC
 40
1.0
  9
$DIMTOFL
 70
     0
  9
$DIMTVP
 40
0.0
  9
$DIMTIX
 70
     0
  9
$DIMSOXD
 70
     0
  9
$DIMSAH
 70
     0
  9
$DIMBLK1
  1

  9
$DIMBLK2
  1

  9
$DIMSTYLE
  2
Standard
  9
$DIMCLRD
 70
     0
  9
$DIMCLRE
 70
     0
  9
$DIMCLRT
 70
     0
  9
$DIMTFAC
 40
1.0
  9
$DIMGAP
 40
0.09
  9
$DIMJUST
 70
     0
  9
$DIMSD1
 70
     0
  9
$DIMSD2
 70
     0
  9
$DIMTOLJ
 70
     1
  9
$DIMTZIN
 70
     0
  9
$DIMALTZ
 70
     0
  9
$DIMALTTZ
 70
     0
  9
$DIMUPT
 70
     0
  9
$DIMDEC
 70
     4
  9
$DIMTDEC
 70
     4
  9
$DIMALTU
 70
     2
  9
$DIMALTTD
 70
     2
  9
$DIMTXSTY
  7
Standard
  9
$DIMAUNIT
 70
     0
  9
$DIMADEC
 70
     0
  9
$DIMALTRND
 40
0.0
  9
$DIMAZIN
 70
     0
  9
$DIMDSEP
 70
    46
  9
$DIMATFIT
 70
     3
  9
$DIMFRAC
 70
     0
  9
$DIMLDRBLK
  1

  9
$DIMLUNIT
 70
     2
  9
$DIMLWD
 70
    -2
  9
$DIMLWE
 70
    -2
  9
$DIMTMOVE
 70
     0
  9
$LUNITS
 70
     2
  9
$LUPREC
 70
     4
  9
$SKETCHINC
 40
0.1
  9
$FILLETRAD
 40
0.0
  9
$AUNITS
 70
     0
  9
$AUPREC
 70
     0
  9
$MENU
  1
.
  9
$ELEVATION
 40
0.0
  9
$PELEVATION
 40
0.0
  9
$THICKNESS
 40
0.0
  9
$LIMCHECK
 70
     0
  9
$CHAMFERA
 40
0.0
  9
$CHAMFERB
 40
0.0
  9
$CHAMFERC
 40
0.0
  9
$CHAMFERD
 40
0.0
  9
$SKPOLY
 70
     0
  9
$TDCREATE
 40
2454873.879135914
  9
$TDUCREATE
 40
2454873.837469247
  9
$TDUPDATE
 40
2454873.889569768
  9
$TDUUPDATE
 40
2454873.847903102
  9
$TDINDWG
 40
0.0097395833
  9
$TDUSRTIMER
 40
0.0097395833
  9
$USRTIMER
 70
     1
  9
$ANGBASE
 50
0.0
  9
$ANGDIR
 70
     0
  9
$PDMODE
 70
     0
  9
$PDSIZE
 40
0.0
  9
$PLINEWID
 40
0.0
  9
$SPLFRAME
 70
     0
  9
$SPLINETYPE
 70
     6
  9
$SPLINESEGS
 70
     8
  9
$HANDSEED
  5
494
  9
$SURFTAB1
 70
     6
  9
$SURFTAB2
 70
     6
  9
$SURFTYPE
 70
     6
  9
$SURFU
 70
     6
  9
$SURFV
 70
     6
  9
$UCSBASE
  2

  9
$UCSNAME
  2

  9
$UCSORG
 10
0.0
 20
0.0
 30
0.0
  9
$UCSXDIR
 10
1.0
 20
0.0
 30
0.0
  9
$UCSYDIR
 10
0.0
 20
1.0
 30
0.0
  9
$UCSORTHOREF
  2

  9
$UCSORTHOVIEW
 70
     1
  9
$UCSORGTOP
 10
0.0
 20
0.0
 30
0.0
  9
$UCSORGBOTTOM
 10
0.0
 20
0.0
 30
0.0
  9
$UCSORGLEFT
 10
0.0
 20
0.0
 30
0.0
  9
$UCSORGRIGHT
 10
0.0
 20
0.0
 30
0.0
  9
$UCSORGFRONT
 10
0.0
 20
0.0
 30
0.0
  9
$UCSORGBACK
 10
0.0
 20
0.0
 30
0.0
  9
$PUCSBASE
  2

  9
$PUCSNAME
  2

  9
$PUCSORG
 10
0.0
 20
0.0
 30
0.0
  9
$PUCSXDIR
 10
1.0
 20
0.0
 30
0.0
  9
$PUCSYDIR
 10
0.0
 20
1.0
 30
0.0
  9
$PUCSORTHOREF
  2

  9
$PUCSORTHOVIEW
 70
     0
  9
$PUCSORGTOP
 10
0.0
 20
0.0
 30
0.0
  9
$PUCSORGBOTTOM
 10
0.0
 20
0.0
 30
0.0
  9
$PUCSORGLEFT
 10
0.0
 20
0.0
 30
0.0
  9
$PUCSORGRIGHT
 10
0.0
 20
0.0
 30
0.0
  9
$PUCSORGFRONT
 10
0.0
 20
0.0
 30
0.0
  9
$PUCSORGBACK
 10
0.0
 20
0.0
 30
0.0
  9
$USERI1
 70
     0
  9
$USERI2
 70
     0
  9
$USERI3
 70
     0
  9
$USERI4
 70
     0
  9
$USERI5
 70
     0
  9
$USERR1
 40
0.0
  9
$USERR2
 40
0.0
  9
$USERR3
 40
0.0
  9
$USERR4
 40
0.0
  9
$USERR5
 40
0.0
  9
$WORLDVIEW
 70
     1
  9
$SHADEDGE
 70
     3
  9
$SHADEDIF
 70
    70
  9
$TILEMODE
 70
     1
  9
$MAXACTVP
 70
    64
  9
$PINSBASE
 10
0.0
 20
0.0
 30
0.0
  9
$PLIMCHECK
 70
     0
  9
$PEXTMIN
 10
1.000000000000000E+20
 20
1.000000000000000E+20
 30
1.000000000000000E+20
  9
$PEXTMAX
 10
-1.000000000000000E+20
 20
-1.000000000000000E+20
 30
-1.000000000000000E+20
  9
$PLIMMIN
 10
0.0
 20
0.0
  9
$PLIMMAX
 10
12.0
 20
9.0
  9
$UNITMODE
 70
     0
  9
$VISRETAIN
 70
     1
  9
$PLINEGEN
 70
     0
  9
$PSLTSCALE
 70
     1
  9
$TREEDEPTH
 70
  3020
  9
$CMLSTYLE
  2
Standard
  9
$CMLJUST
 70
     0
  9
$CMLSCALE
 40
1.0
  9
$PROXYGRAPHICS
 70
     1
  9
$MEASUREMENT
 70
     0
  9
$CELWEIGHT
370
    -1
  9
$ENDCAPS
280
     0
  9
$JOINSTYLE
280
     0
  9
$LWDISPLAY
290
     0
  9
$INSUNITS
 70
     0
  9
$HYPERLINKBASE
  1

  9
$STYLESHEET
  1

  9
$XEDIT
290
     1
  9
$CEPSNTYPE
380
     0
  9
$PSTYLEMODE
290
     1
  9
$FINGERPRINTGUID
  2
{B5E531E5-566C-4769-BFDD-A936B767CB0E}
  9
$VERSIONGUID
  2
{4A351072-E741-4199-851D-ACA573535FC0}
  9
$EXTNAMES
290
     1
  9
$PSVPSCALE
 40
0.0
  9
$OLESTARTUP
290
     0
  0
ENDSEC
  0
SECTION
  2
CLASSES
  0
CLASS
  1
ACDBDICTIONARYWDFLT
  2
AcDbDictionaryWithDefault
  3
AutoCAD 2000
 90
        0
280
     0
281
     0
  0
CLASS
  1
ACDBPLACEHOLDER
  2
AcDbPlaceHolder
  3
AutoCAD 2000
 90
        0
280
     0
281
     0
  0
CLASS
  1
LAYOUT
  2
AcDbLayout
  3
AutoCAD 2000
 90
        0
280
     0
281
     0
  0
CLASS
  1
DICTIONARYVAR
  2
AcDbDictionaryVar
  3
AutoCAD 2000
 90
        0
280
     0
281
     0
  0
ENDSEC
  0
SECTION
  2
TABLES
  0
TABLE
  2
VPORT
  5
8
330
0
100
AcDbSymbolTable
 70
     3
  0
VPORT
  5
493
330
8
100
AcDbSymbolTableRecord
100
AcDbViewportTableRecord
  2
*Active
 70
     0
 10
0.0
 20
0.0
 11
1.0
 21
1.0
 12
163.4999999999999
 22
122.5
 13
0.0
 23
0.0
 14
1.0
 24
1.0
 15
0.0
 25
0.0
 16
0.0
 26
0.0
 36
1.0
 17
0.0
 27
0.0
 37
0.0
 40
246.5473231368421
 41
1.968387776606954
 42
50.0
 43
0.0
 44
0.0
 50
0.0
 51
0.0
 71
     0
 72
   100
 73
     1
 74
     3
 75
     0
 76
     0
 77
     0
 78
     0
281
     0
 65
     1
110
0.0
120
0.0
130
0.0
111
1.0
121
0.0
131
0.0
112
0.0
122
1.0
132
0.0
 79
     1
146
0.0
  0
ENDTAB
  0
TABLE
  2
LTYPE
  5
5
330
0
100
AcDbSymbolTable
 70
     1
  0
LTYPE
  5
13
330
5
100
AcDbSymbolTableRecord
100
AcDbLinetypeTableRecord
  2
ByBlock
 70
     0
  3

 72
    65
 73
     0
 40
0.0
  0
LTYPE
  5
14
330
5
100
AcDbSymbolTableRecord
100
AcDbLinetypeTableRecord
  2
ByLayer
 70
     0
  3

 72
    65
 73
     0
 40
0.0
  0
LTYPE
  5
15
330
5
100
AcDbSymbolTableRecord
100
AcDbLinetypeTableRecord
  2
Continuous
 70
     0
  3
Solid line
 72
    65
 73
     0
 40
0.0
  0
ENDTAB
  0
TABLE
  2
LAYER
  5
2
330
0
100
AcDbSymbolTable
 70
     1
  0
LAYER
  5
10
330
2
100
AcDbSymbolTableRecord
100
AcDbLayerTableRecord
  2
0
 70
     0
 62
     7
  6
Continuous
370
    -3
390
F
  0
ENDTAB
  0
TABLE
  2
STYLE
  5
3
330
0
100
AcDbSymbolTable
 70
     1
  0
STYLE
  5
11
330
3
100
AcDbSymbolTableRecord
100
AcDbTextStyleTableRecord
  2
Standard
 70
     0
 40
0.0
 41
1.0
 50
0.0
 71
     0
 42
0.2
  3
txt
  4

  0
ENDTAB
  0
TABLE
  2
VIEW
  5
6
330
0
100
AcDbSymbolTable
 70
     0
  0
ENDTAB
  0
TABLE
  2
UCS
  5
7
330
0
100
AcDbSymbolTable
 70
     0
  0
ENDTAB
  0
TABLE
  2
APPID
  5
9
330
0
100
AcDbSymbolTable
 70
     1
  0
APPID
  5
12
330
9
100
AcDbSymbolTableRecord
100
AcDbRegAppTableRecord
  2
ACAD
 70
     0
  0
ENDTAB
  0
TABLE
  2
DIMSTYLE
  5
A
330
0
100
AcDbSymbolTable
 70
     1
100
AcDbDimStyleTable
 71
     0
  0
DIMSTYLE
105
38F
330
A
100
AcDbSymbolTableRecord
100
AcDbDimStyleTableRecord
  2
Standard
 70
     0
340
11
  0
ENDTAB
  0
TABLE
  2
BLOCK_RECORD
  5
1
330
0
100
AcDbSymbolTable
 70
     0
  0
BLOCK_RECORD
  5
1E
330
1
100
AcDbSymbolTableRecord
100
AcDbBlockTableRecord
  2
*Model_Space
340
21
  0
BLOCK_RECORD
  5
1A
330
1
100
AcDbSymbolTableRecord
100
AcDbBlockTableRecord
  2
*Paper_Space
340
1D
  0
ENDTAB
  0
ENDSEC
  0
SECTION
  2
BLOCKS
  0
BLOCK
  5
1F
330
1E
100
AcDbEntity
  8
0
100
AcDbBlockBegin
  2
*Model_Space
 70
     0
 10
0.0
 20
0.0
 30
0.0
  3
*Model_Space
  1

  0
ENDBLK
  5
20
330
1E
100
AcDbEntity
  8
0
100
AcDbBlockEnd
  0
BLOCK
  5
1B
330
1A
100
AcDbEntity
 67
     1
  8
0
100
AcDbBlockBegin
  2
*Paper_Space
 70
     0
 10
0.0
 20
0.0
 30
0.0
  3
*Paper_Space
  1

  0
ENDBLK
  5
1C
330
1A
100
AcDbEntity
 67
     1
  8
0
100
AcDbBlockEnd
  0
ENDSEC
  0
SECTION
  2
ENTITIES
  0
LINE
  5
22
330
1E
100
AcDbEntity
  8
0
100
AcDbLine
 10
140.5
 20
20.8747775
 30
0.0
 11
140.51
 21
18.88297749999998
 31
0.0
  0
LINE
  5
23
330
1E
100
AcDbEntity
  8
0
100
AcDbLine
 10
140.5
 20
20.8747775
 30
0.0
 11
140.5
 21
97.83847749999999
 31
0.0
  0
LINE
  5
24
330
1E
100
AcDbEntity
  8
0
100
AcDbLine
 10
140.51
 20
18.88297749999998
 30
0.0
 11
140.55
 21
16.19827749999998
 31
0.0
  0
LINE
  5
25
330
1E
100
AcDbEntity
  8
0
100
AcDbLine
 10
140.55
 20
16.19827749999998
 30
0.0
 11
140.65
 21
13.08057749999999
 31
0.0
  0
LINE
  5
26
330
1E
100
AcDbEntity
  8
0
100
AcDbLine
 10
140.65
 20
13.08057749999999
 30
0.0
 11
140.8499999999999
 21
10.4824775
 31
0.0
  0
LINE
  5
27
330
1E
100
AcDbEntity
  8
0
100
AcDbLine
 10
140.8
 20
97.38497750000002
 30
0.0
 11
140.8
 21
20.52477749999999
 31
0.0
  0
LINE
  5
28
330
1E
100
AcDbEntity
  8
0
100
AcDbLine
 10
140.8
 20
97.38497750000002
 30
0.0
 11
140.8
 21
100.2073775
 31
0.0
  0
LINE
  5
29
330
1E
100
AcDbEntity
  8
0
100
AcDbLine
 10
140.5
 20
101.0040775
 30
0.0
 11
140.5
 21
105.9473774999999
 31
0.0
  0
LINE
  5
2A
330
1E
100
AcDbEntity
  8
0
100
AcDbLine
 10
140.5
 20
100.6413774999999
 30
0.0
 11
140.5
 21
97.83847749999999
 31
0.0
  0
LINE
  5
2B
330
1E
100
AcDbEntity
  8
0
100
AcDbLine
 10
140.5
 20
100.6413774999999
 30
0.0
 11
140.5
 21
102.6235774999999
 31
0.0
  0
LINE
  5
2C
330
1E
100
AcDbEntity
  8
0
100
AcDbLine
 10
140.5
 20
102.6235774999999
 30
0.0
 11
140.5
 21
100.6413774999999
 31
0.0
  0
LINE
  5
2D
330
1E
100
AcDbEntity
  8
0
100
AcDbLine
 10
140.5
 20
102.6235774999999
 30
0.0
 11
140.5
 21
104.1827775
 31
0.0
  0
LINE
  5
2E
330
1E
100
AcDbEntity
  8
0
100
AcDbLine
 10
140.8
 20
100.2073775
 30
0.0
 11
140.8
 21
102.0370775
 31
0.0
  0
LINE
  5
2F
330
1E
100
AcDbEntity
  8
0
100
AcDbLine
 10
140.8
 20
100.2073775
 30
0.0
 11
140.8
 21
97.38497750000002
 31
0.0
  0
LINE
  5
30
330
1E
100
AcDbEntity
  8
0
100
AcDbLine
 10
140.8
 20
103.6237774999999
 30
0.0
 11
140.8
 21
102.0370775
 31
0.0
  0
LINE
  5
31
330
1E
100
AcDbEntity
  8
0
100
AcDbLine
 10
140.8
 20
103.6237774999999
 30
0.0
 11
140.8
 21
104.9741774999999
 31
0.0
  0
LINE
  5
32
330
1E
100
AcDbEntity
  8
0
100
AcDbLine
 10
6.0
 20
197.9999774999999
 30
0.0
 11
74.0
 21
197.9999774999999
 31
0.0
  0
LINE
  5
34
330
1E
100
AcDbEntity
  8
0
100
AcDbLine
 10
0.3
 20
202.4999774999999
 30
0.0
 11
0.9
 21
201.0999775
 31
0.0
  0
LINE
  5
35
330
1E
100
AcDbEntity
  8
0
100
AcDbLine
 10
0.0
 20
231.9999774999999
 30
0.0
 11
0.3
 21
233.4999774999999
 31
0.0
  0
LINE
  5
36
330
1E
100
AcDbEntity
  8
0
100
AcDbLine
 10
0.0
 20
231.9999774999999
 30
0.0
 11
0.0
 21
217.9999775
 31
0.0
  0
LINE
  5
37
330
1E
100
AcDbEntity
  8
0
100
AcDbLine
 10
0.0
 20
217.9999775
 30
0.0
 11
0.0
 21
203.9999775
 31
0.0
  0
LINE
  5
38
330
1E
100
AcDbEntity
  8
0
100
AcDbLine
 10
0.0
 20
217.9999775
 30
0.0
 11
0.0
 21
231.9999774999999
 31
0.0
  0
LINE
  5
39
330
1E
100
AcDbEntity
  8
0
100
AcDbLine
 10
0.0
 20
203.9999775
 30
0.0
 11
0.0
 21
217.9999775
 31
0.0
  0
LINE
  5
3A
330
1E
100
AcDbEntity
  8
0
100
AcDbLine
 10
0.0
 20
203.9999775
 30
0.0
 11
0.3
 21
202.4999774999999
 31
0.0
  0
LINE
  5
3C
330
1E
100
AcDbEntity
  8
0
100
AcDbLine
 10
0.3
 20
233.4999774999999
 30
0.0
 11
0.9
 21
234.8999774999999
 31
0.0
  0
LINE
  5
3F
330
1E
100
AcDbEntity
  8
0
100
AcDbLine
 10
0.3
 20
233.4999774999999
 30
0.0
 11
0.9
 21
234.8999774999999
 31
0.0
  0
LINE
  5
41
330
1E
100
AcDbEntity
  8
0
100
AcDbLine
 10
0.9
 20
234.8999774999999
 30
0.0
 11
1.8
 21
236.1999774999999
 31
0.0
  0
LINE
  5
46
330
1E
100
AcDbEntity
  8
0
100
AcDbLine
 10
0.0000000000000001
 20
203.9999775
 30
0.0
 11
0.3
 21
202.4999774999999
 31
0.0
  0
LINE
  5
47
330
1E
100
AcDbEntity
  8
0
100
AcDbLine
 10
0.3
 20
202.4999774999999
 30
0.0
 11
0.9
 21
201.0999775
 31
0.0
  0
LINE
  5
4B
330
1E
100
AcDbEntity
  8
0
100
AcDbLine
 10
3.1
 20
237.0999774999999
 30
0.0
 11
4.5
 21
237.6999774999999
 31
0.0
  0
LINE
  5
4C
330
1E
100
AcDbEntity
  8
0
100
AcDbLine
 10
1.8
 20
236.1999774999999
 30
0.0
 11
3.1
 21
237.0999774999999
 31
0.0
  0
LINE
  5
4E
330
1E
100
AcDbEntity
  8
0
100
AcDbLine
 10
0.9
 20
201.0999775
 30
0.0
 11
1.8
 21
199.7999774999998
 31
0.0
  0
LINE
  5
4F
330
1E
100
AcDbEntity
  8
0
100
AcDbLine
 10
1.8
 20
199.7999774999998
 30
0.0
 11
3.1
 21
198.8999774999999
 31
0.0
  0
LINE
  5
51
330
1E
100
AcDbEntity
  8
0
100
AcDbLine
 10
6.0
 20
201.4999775
 30
0.0
 11
50.0
 21
201.4999775
 31
0.0
  0
LINE
  5
57
330
1E
100
AcDbEntity
  8
0
100
AcDbLine
 10
3.816859999999998
 20
202.7599774999999
 30
0.0
 11
4.233109999999999
 21
202.2309775
 31
0.0
  0
LINE
  5
58
330
1E
100
AcDbEntity
  8
0
100
AcDbLine
 10
3.57405
 20
203.3489774999999
 30
0.0
 11
3.816859999999998
 21
202.7599774999999
 31
0.0
  0
LINE
  5
5A
330
1E
100
AcDbEntity
  8
0
100
AcDbLine
 10
3.816859999999998
 20
233.2399774999999
 30
0.0
 11
4.233109999999999
 21
233.7689774999999
 31
0.0
  0
LINE
  5
5B
330
1E
100
AcDbEntity
  8
0
100
AcDbLine
 10
3.57405
 20
232.6509774999999
 30
0.0
 11
3.816859999999998
 21
233.2399774999999
 31
0.0
  0
LINE
  5
5C
330
1E
100
AcDbEntity
  8
0
100
AcDbLine
 10
3.5
 20
231.9999774999999
 30
0.0
 11
3.5
 21
217.9999775
 31
0.0
  0
LINE
  5
5D
330
1E
100
AcDbEntity
  8
0
100
AcDbLine
 10
3.5
 20
231.9999774999999
 30
0.0
 11
3.57405
 21
232.6509774999999
 31
0.0
  0
LINE
  5
60
330
1E
100
AcDbEntity
  8
0
100
AcDbLine
 10
3.5
 20
217.9999775
 30
0.0
 11
3.5
 21
203.9999775
 31
0.0
  0
LINE
  5
61
330
1E
100
AcDbEntity
  8
0
100
AcDbLine
 10
3.5
 20
217.9999775
 30
0.0
 11
3.5
 21
231.9999774999999
 31
0.0
  0
LINE
  5
62
330
1E
100
AcDbEntity
  8
0
100
AcDbLine
 10
4.233109999999999
 20
233.7689774999999
 30
0.0
 11
4.710049999999998
 21
234.1679774999999
 31
0.0
  0
LINE
  5
66
330
1E
100
AcDbEntity
  8
0
100
AcDbLine
 10
4.5
 20
237.6999774999999
 30
0.0
 11
6.0
 21
237.9999774999999
 31
0.0
  0
LINE
  5
69
330
1E
100
AcDbEntity
  8
0
100
AcDbLine
 10
3.5
 20
203.9999775
 30
0.0
 11
3.57405
 21
203.3489774999999
 31
0.0
  0
LINE
  5
6A
330
1E
100
AcDbEntity
  8
0
100
AcDbLine
 10
3.5
 20
203.9999775
 30
0.0
 11
3.5
 21
217.9999775
 31
0.0
  0
LINE
  5
6C
330
1E
100
AcDbEntity
  8
0
100
AcDbLine
 10
4.710049999999998
 20
234.1679774999999
 30
0.0
 11
5.35177
 21
234.4189774999999
 31
0.0
  0
LINE
  5
6F
330
1E
100
AcDbEntity
  8
0
100
AcDbLine
 10
4.233109999999999
 20
202.2309775
 30
0.0
 11
4.710049999999998
 21
201.8319775
 31
0.0
  0
LINE
  5
70
330
1E
100
AcDbEntity
  8
0
100
AcDbLine
 10
5.35177
 20
234.4189774999999
 30
0.0
 11
6.0
 21
234.4999774999999
 31
0.0
  0
LINE
  5
73
330
1E
100
AcDbEntity
  8
0
100
AcDbLine
 10
4.710049999999998
 20
201.8319775
 30
0.0
 11
5.35177
 21
201.5809774999999
 31
0.0
  0
LINE
  5
75
330
1E
100
AcDbEntity
  8
0
100
AcDbLine
 10
6.0
 20
237.9999774999999
 30
0.0
 11
74.0
 21
237.9999774999999
 31
0.0
  0
LINE
  5
76
330
1E
100
AcDbEntity
  8
0
100
AcDbLine
 10
6.0
 20
234.4999774999999
 30
0.0
 11
50.0
 21
234.4999774999999
 31
0.0
  0
LINE
  5
7A
330
1E
100
AcDbEntity
  8
0
100
AcDbLine
 10
5.35177
 20
201.5809774999999
 30
0.0
 11
6.0
 21
201.4999775
 31
0.0
  0
LINE
  5
7B
330
1E
100
AcDbEntity
  8
0
100
AcDbLine
 10
3.1
 20
198.8999774999999
 30
0.0
 11
4.5
 21
198.2999774999998
 31
0.0
  0
LINE
  5
7C
330
1E
100
AcDbEntity
  8
0
100
AcDbLine
 10
4.5
 20
198.2999774999998
 30
0.0
 11
6.0
 21
197.9999774999999
 31
0.0
  0
LINE
  5
7D
330
1E
100
AcDbEntity
  8
0
100
AcDbLine
 10
11.3
 20
237.9999774999999
 30
0.0
 11
11.7941
 21
237.9999774999999
 31
0.0
  0
LINE
  5
7E
330
1E
100
AcDbEntity
  8
0
100
AcDbLine
 10
11.7941
 20
237.9999774999999
 30
0.0
 11
12.3235
 21
237.9999774999999
 31
0.0
  0
LINE
  5
7F
330
1E
100
AcDbEntity
  8
0
100
AcDbLine
 10
12.3235
 20
237.9999774999999
 30
0.0
 11
12.9235
 21
237.9999774999999
 31
0.0
  0
LINE
  5
80
330
1E
100
AcDbEntity
  8
0
100
AcDbLine
 10
12.9235
 20
237.9999774999999
 30
0.0
 11
13.5235
 21
237.9999774999999
 31
0.0
  0
LINE
  5
81
330
1E
100
AcDbEntity
  8
0
100
AcDbLine
 10
14.7941
 20
237.9999774999999
 30
0.0
 11
163.4999999999999
 21
237.9999774999999
 31
0.0
  0
LINE
  5
82
330
1E
100
AcDbEntity
  8
0
100
AcDbLine
 10
13.5235
 20
237.9999774999999
 30
0.0
 11
14.1588
 21
237.9999774999999
 31
0.0
  0
LINE
  5
83
330
1E
100
AcDbEntity
  8
0
100
AcDbLine
 10
14.1588
 20
237.9999774999999
 30
0.0
 11
14.7941
 21
237.9999774999999
 31
0.0
  0
LINE
  5
84
330
1E
100
AcDbEntity
  8
0
100
AcDbLine
 10
75.2
 20
197.9999774999999
 30
0.0
 11
76.4
 21
197.9999774999999
 31
0.0
  0
LINE
  5
85
330
1E
100
AcDbEntity
  8
0
100
AcDbLine
 10
74.0
 20
197.9999774999999
 30
0.0
 11
75.2
 21
197.9999774999999
 31
0.0
  0
LINE
  5
86
330
1E
100
AcDbEntity
  8
0
100
AcDbLine
 10
77.5
 20
197.9999774999999
 30
0.0
 11
78.3
 21
197.9999774999999
 31
0.0
  0
LINE
  5
87
330
1E
100
AcDbEntity
  8
0
100
AcDbLine
 10
76.4
 20
197.9999774999999
 30
0.0
 11
77.5
 21
197.9999774999999
 31
0.0
  0
LINE
  5
8B
330
1E
100
AcDbEntity
  8
0
100
AcDbLine
 10
78.3
 20
197.9999774999999
 30
0.0
 11
78.79999999999999
 21
197.9999774999999
 31
0.0
  0
LINE
  5
8C
330
1E
100
AcDbEntity
  8
0
100
AcDbLine
 10
78.79999999999999
 20
197.9999774999999
 30
0.0
 11
79.0
 21
197.9999774999999
 31
0.0
  0
LINE
  5
8E
330
1E
100
AcDbEntity
  8
0
100
AcDbLine
 10
50.0
 20
234.4999774999999
 30
0.0
 11
50.6482
 21
234.4189774999999
 31
0.0
  0
LINE
  5
91
330
1E
100
AcDbEntity
  8
0
100
AcDbLine
 10
50.6482
 20
234.4189774999999
 30
0.0
 11
51.2899
 21
234.1679774999999
 31
0.0
  0
LINE
  5
94
330
1E
100
AcDbEntity
  8
0
100
AcDbLine
 10
51.2899
 20
234.1679774999999
 30
0.0
 11
51.7669
 21
233.7689774999999
 31
0.0
  0
LINE
  5
9A
330
1E
100
AcDbEntity
  8
0
100
AcDbLine
 10
51.7669
 20
233.7689774999999
 30
0.0
 11
52.1831
 21
233.2399774999999
 31
0.0
  0
LINE
  5
9F
330
1E
100
AcDbEntity
  8
0
100
AcDbLine
 10
52.1831
 20
233.2399774999999
 30
0.0
 11
52.426
 21
232.6509774999999
 31
0.0
  0
LINE
  5
A3
330
1E
100
AcDbEntity
  8
0
100
AcDbLine
 10
52.5
 20
231.9999774999999
 30
0.0
 11
52.5
 21
217.9999775
 31
0.0
  0
LINE
  5
A4
330
1E
100
AcDbEntity
  8
0
100
AcDbLine
 10
52.426
 20
232.6509774999999
 30
0.0
 11
52.5
 21
231.9999774999999
 31
0.0
  0
LINE
  5
A5
330
1E
100
AcDbEntity
  8
0
100
AcDbLine
 10
52.5
 20
217.9999775
 30
0.0
 11
52.5
 21
203.9999775
 31
0.0
  0
LINE
  5
A6
330
1E
100
AcDbEntity
  8
0
100
AcDbLine
 10
52.5
 20
217.9999775
 30
0.0
 11
52.5
 21
231.9999774999999
 31
0.0
  0
LINE
  5
A9
330
1E
100
AcDbEntity
  8
0
100
AcDbLine
 10
74.0
 20
237.9999774999999
 30
0.0
 11
75.2
 21
237.9999774999999
 31
0.0
  0
LINE
  5
AA
330
1E
100
AcDbEntity
  8
0
100
AcDbLine
 10
75.2
 20
237.9999774999999
 30
0.0
 11
76.4
 21
237.9999774999999
 31
0.0
  0
LINE
  5
AD
330
1E
100
AcDbEntity
  8
0
100
AcDbLine
 10
76.4
 20
237.9999774999999
 30
0.0
 11
77.5
 21
237.9999774999999
 31
0.0
  0
LINE
  5
AE
330
1E
100
AcDbEntity
  8
0
100
AcDbLine
 10
77.5
 20
237.9999774999999
 30
0.0
 11
78.3
 21
237.9999774999999
 31
0.0
  0
LINE
  5
B0
330
1E
100
AcDbEntity
  8
0
100
AcDbLine
 10
78.3
 20
237.9999774999999
 30
0.0
 11
78.79999999999999
 21
237.9999774999999
 31
0.0
  0
LINE
  5
B1
330
1E
100
AcDbEntity
  8
0
100
AcDbLine
 10
78.79999999999999
 20
237.9999774999999
 30
0.0
 11
79.0
 21
237.9999774999999
 31
0.0
  0
LINE
  5
B2
330
1E
100
AcDbEntity
  8
0
100
AcDbLine
 10
52.5
 20
203.9999775
 30
0.0
 11
52.5
 21
217.9999775
 31
0.0
  0
LINE
  5
B3
330
1E
100
AcDbEntity
  8
0
100
AcDbLine
 10
52.426
 20
203.3489774999999
 30
0.0
 11
52.5
 21
203.9999775
 31
0.0
  0
LINE
  5
B4
330
1E
100
AcDbEntity
  8
0
100
AcDbLine
 10
52.1831
 20
202.7599774999999
 30
0.0
 11
52.426
 21
203.3489774999999
 31
0.0
  0
LINE
  5
B5
330
1E
100
AcDbEntity
  8
0
100
AcDbLine
 10
51.7669
 20
202.2309775
 30
0.0
 11
52.1831
 21
202.7599774999999
 31
0.0
  0
LINE
  5
B6
330
1E
100
AcDbEntity
  8
0
100
AcDbLine
 10
51.2899
 20
201.8319775
 30
0.0
 11
51.7669
 21
202.2309775
 31
0.0
  0
LINE
  5
B7
330
1E
100
AcDbEntity
  8
0
100
AcDbLine
 10
50.6482
 20
201.5809774999999
 30
0.0
 11
51.2899
 21
201.8319775
 31
0.0
  0
LINE
  5
B8
330
1E
100
AcDbEntity
  8
0
100
AcDbLine
 10
50.0
 20
201.4999775
 30
0.0
 11
50.6482
 21
201.5809774999999
 31
0.0
  0
LINE
  5
BB
330
1E
100
AcDbEntity
  8
0
100
AcDbLine
 10
79.7
 20
237.6999774999999
 30
0.0
 11
80.0
 21
236.9999775
 31
0.0
  0
LINE
  5
BD
330
1E
100
AcDbEntity
  8
0
100
AcDbLine
 10
79.0
 20
237.9999774999999
 30
0.0
 11
140.5
 21
237.9999774999999
 31
0.0
  0
LINE
  5
BE
330
1E
100
AcDbEntity
  8
0
100
AcDbLine
 10
79.0
 20
237.9999774999999
 30
0.0
 11
79.7
 21
237.6999774999999
 31
0.0
  0
LINE
  5
BF
330
1E
100
AcDbEntity
  8
0
100
AcDbLine
 10
79.0
 20
237.9999774999999
 30
0.0
 11
140.5
 21
237.9999774999999
 31
0.0
  0
LINE
  5
C0
330
1E
100
AcDbEntity
  8
0
100
AcDbLine
 10
14.7941
 20
237.9999774999999
 30
0.0
 11
163.4999999999999
 21
237.9999774999999
 31
0.0
  0
LINE
  5
C1
330
1E
100
AcDbEntity
  8
0
100
AcDbLine
 10
10.8765
 20
237.9999774999999
 30
0.0
 11
11.3
 21
237.9999774999999
 31
0.0
  0
LINE
  5
C2
330
1E
100
AcDbEntity
  8
0
100
AcDbLine
 10
10.5235
 20
237.9999774999999
 30
0.0
 11
10.8765
 21
237.9999774999999
 31
0.0
  0
LINE
  5
C3
330
1E
100
AcDbEntity
  8
0
100
AcDbLine
 10
10.24119999999999
 20
237.9999774999999
 30
0.0
 11
10.5235
 21
237.9999774999999
 31
0.0
  0
LINE
  5
C4
330
1E
100
AcDbEntity
  8
0
100
AcDbLine
 10
10.0294
 20
237.9999774999999
 30
0.0
 11
10.24119999999999
 21
237.9999774999999
 31
0.0
  0
LINE
  5
C5
330
1E
100
AcDbEntity
  8
0
100
AcDbLine
 10
9.888239999999999
 20
237.9999774999999
 30
0.0
 11
10.0294
 21
237.9999774999999
 31
0.0
  0
LINE
  5
C6
330
1E
100
AcDbEntity
  8
0
100
AcDbLine
 10
140.5
 20
105.9473774999999
 30
0.0
 11
140.5
 21
101.0040775
 31
0.0
  0
LINE
  5
C7
330
1E
100
AcDbEntity
  8
0
100
AcDbLine
 10
140.5
 20
105.7999775
 30
0.0
 11
140.5
 21
104.1827775
 31
0.0
  0
LINE
  5
C8
330
1E
100
AcDbEntity
  8
0
100
AcDbLine
 10
140.5
 20
105.9473774999999
 30
0.0
 11
140.5
 21
237.9999774999999
 31
0.0
  0
LINE
  5
C9
330
1E
100
AcDbEntity
  8
0
100
AcDbLine
 10
140.5
 20
237.9999774999999
 30
0.0
 11
140.5
 21
105.9473774999999
 31
0.0
  0
LINE
  5
CA
330
1E
100
AcDbEntity
  8
0
100
AcDbLine
 10
140.5
 20
237.9999774999999
 30
0.0
 11
140.55
 21
237.9999774999999
 31
0.0
  0
LINE
  5
CB
330
1E
100
AcDbEntity
  8
0
100
AcDbLine
 10
140.55
 20
237.9999774999999
 30
0.0
 11
140.65
 21
237.9999774999999
 31
0.0
  0
LINE
  5
CC
330
1E
100
AcDbEntity
  8
0
100
AcDbLine
 10
9.5
 20
238.6999774999999
 30
0.0
 11
9.5
 21
244.9999775
 31
0.0
  0
LINE
  5
CD
330
1E
100
AcDbEntity
  8
0
100
AcDbLine
 10
9.5
 20
238.6999774999999
 30
0.0
 11
9.60588
 21
238.2099774999999
 31
0.0
  0
LINE
  5
CF
330
1E
100
AcDbEntity
  8
0
100
AcDbLine
 10
9.60588
 20
238.2099774999999
 30
0.0
 11
9.85294
 21
237.9999774999999
 31
0.0
  0
LINE
  5
DA
330
1E
100
AcDbEntity
  8
0
100
AcDbLine
 10
11.05289999999998
 20
244.9999775
 30
0.0
 11
11.5823
 21
244.9999775
 31
0.0
  0
LINE
  5
DB
330
1E
100
AcDbEntity
  8
0
100
AcDbLine
 10
11.5823
 20
244.9999775
 30
0.0
 11
12.1471
 21
244.9999775
 31
0.0
  0
LINE
  5
DC
330
1E
100
AcDbEntity
  8
0
100
AcDbLine
 10
12.1471
 20
244.9999775
 30
0.0
 11
12.78229999999999
 21
244.9999775
 31
0.0
  0
LINE
  5
DD
330
1E
100
AcDbEntity
  8
0
100
AcDbLine
 10
12.78229999999999
 20
244.9999775
 30
0.0
 11
13.4177
 21
244.9999775
 31
0.0
  0
LINE
  5
DE
330
1E
100
AcDbEntity
  8
0
100
AcDbLine
 10
14.7941
 20
244.9999775
 30
0.0
 11
163.4999999999999
 21
244.9999775
 31
0.0
  0
LINE
  5
DF
330
1E
100
AcDbEntity
  8
0
100
AcDbLine
 10
13.4177
 20
244.9999775
 30
0.0
 11
14.0882
 21
244.9999775
 31
0.0
  0
LINE
  5
E0
330
1E
100
AcDbEntity
  8
0
100
AcDbLine
 10
14.0882
 20
244.9999775
 30
0.0
 11
14.7941
 21
244.9999775
 31
0.0
  0
LINE
  5
E3
330
1E
100
AcDbEntity
  8
0
100
AcDbLine
 10
14.7941
 20
244.9999775
 30
0.0
 11
163.4999999999999
 21
244.9999775
 31
0.0
  0
LINE
  5
E6
330
1E
100
AcDbEntity
  8
0
100
AcDbLine
 10
10.59409999999999
 20
244.9999775
 30
0.0
 11
11.05289999999998
 21
244.9999775
 31
0.0
  0
LINE
  5
E7
330
1E
100
AcDbEntity
  8
0
100
AcDbLine
 10
10.2059
 20
244.9999775
 30
0.0
 11
10.59409999999999
 21
244.9999775
 31
0.0
  0
LINE
  5
E8
330
1E
100
AcDbEntity
  8
0
100
AcDbLine
 10
9.923529999999999
 20
244.9999775
 30
0.0
 11
10.2059
 21
244.9999775
 31
0.0
  0
LINE
  5
E9
330
1E
100
AcDbEntity
  8
0
100
AcDbLine
 10
9.67647
 20
244.9999775
 30
0.0
 11
9.923529999999999
 21
244.9999775
 31
0.0
  0
LINE
  5
19E
330
1E
100
AcDbEntity
  8
0
100
AcDbLine
 10
9.570589999999999
 20
244.9999775
 30
0.0
 11
9.67647
 21
244.9999775
 31
0.0
  0
LINE
  5
19F
330
1E
100
AcDbEntity
  8
0
100
AcDbLine
 10
9.5
 20
244.9999775
 30
0.0
 11
9.570589999999999
 21
244.9999775
 31
0.0
  0
LINE
  5
1A0
330
1E
100
AcDbEntity
  8
0
100
AcDbLine
 10
9.5
 20
244.9999775
 30
0.0
 11
9.5
 21
238.6999774999999
 31
0.0
  0
LINE
  5
1A1
330
1E
100
AcDbEntity
  8
0
100
AcDbLine
 10
140.65
 20
237.9999774999999
 30
0.0
 11
140.8499999999999
 21
237.9999774999999
 31
0.0
  0
LINE
  5
1A2
330
1E
100
AcDbEntity
  8
0
100
AcDbLine
 10
140.8
 20
104.9741774999999
 30
0.0
 11
140.8859999999999
 21
106.2441775
 31
0.0
  0
LINE
  5
1A3
330
1E
100
AcDbEntity
  8
0
100
AcDbLine
 10
140.8
 20
104.9741774999999
 30
0.0
 11
140.8
 21
103.6237774999999
 31
0.0
  0
LINE
  5
1A4
330
1E
100
AcDbEntity
  8
0
100
AcDbLine
 10
140.5
 20
104.1827775
 30
0.0
 11
140.5
 21
102.6235774999999
 31
0.0
  0
LINE
  5
1A5
330
1E
100
AcDbEntity
  8
0
100
AcDbLine
 10
140.5
 20
104.1827775
 30
0.0
 11
140.5
 21
105.7999775
 31
0.0
  0
LINE
  5
1A6
330
1E
100
AcDbEntity
  8
0
100
AcDbLine
 10
140.8
 20
102.0370775
 30
0.0
 11
140.8
 21
103.6237774999999
 31
0.0
  0
LINE
  5
1A7
330
1E
100
AcDbEntity
  8
0
100
AcDbLine
 10
140.8
 20
102.0370775
 30
0.0
 11
140.8
 21
100.2073775
 31
0.0
  0
LINE
  5
1A8
330
1E
100
AcDbEntity
  8
0
100
AcDbLine
 10
140.5
 20
97.83847749999999
 30
0.0
 11
140.5
 21
20.8747775
 31
0.0
  0
LINE
  5
1A9
330
1E
100
AcDbEntity
  8
0
100
AcDbLine
 10
140.5
 20
97.83847749999999
 30
0.0
 11
140.5
 21
100.6413774999999
 31
0.0
  0
LINE
  5
1AA
330
1E
100
AcDbEntity
  8
0
100
AcDbLine
 10
143.8
 20
3.4641275
 30
0.0
 11
145.5
 21
2.424897499999999
 31
0.0
  0
LINE
  5
1AB
330
1E
100
AcDbEntity
  8
0
100
AcDbLine
 10
147.0999999999999
 20
1.822267499999998
 30
0.0
 11
147.4
 21
1.7320775
 31
0.0
  0
LINE
  5
1AC
330
1E
100
AcDbEntity
  8
0
100
AcDbLine
 10
163.4999999999999
 20
0.0000225000000026
 30
0.0
 11
165.799
 21
0.0685555000000026
 31
0.0
  0
LINE
  5
1AD
330
1E
100
AcDbEntity
  8
0
100
AcDbLine
 10
163.4999999999999
 20
0.0000225000000026
 30
0.0
 11
165.799
 21
0.0685555000000026
 31
0.0
  0
LINE
  5
1AE
330
1E
100
AcDbEntity
  8
0
100
AcDbLine
 10
165.799
 20
0.0685555000000026
 30
0.0
 11
168.954
 21
0.198027500000003
 31
0.0
  0
LINE
  5
1AF
330
1E
100
AcDbEntity
  8
0
100
AcDbLine
 10
168.954
 20
0.198027500000003
 30
0.0
 11
172.572
 21
0.504052500000003
 31
0.0
  0
LINE
  5
1B0
330
1E
100
AcDbEntity
  8
0
100
AcDbLine
 10
172.572
 20
0.504052500000003
 30
0.0
 11
175.36
 21
0.8806985000000029
 31
0.0
  0
LINE
  5
1B1
330
1E
100
AcDbEntity
  8
0
100
AcDbLine
 10
161.2009999999999
 20
0.0685555000000026
 30
0.0
 11
163.4999999999999
 21
0.0000225000000026
 31
0.0
  0
LINE
  5
1B2
330
1E
100
AcDbEntity
  8
0
100
AcDbLine
 10
161.2009999999999
 20
0.0685555000000026
 30
0.0
 11
163.4999999999999
 21
0.0000225000000026
 31
0.0
  0
LINE
  5
1B3
330
1E
100
AcDbEntity
  8
0
100
AcDbLine
 10
158.0459999999999
 20
0.198027500000003
 30
0.0
 11
161.2009999999999
 21
0.0685555000000026
 31
0.0
  0
LINE
  5
1B4
330
1E
100
AcDbEntity
  8
0
100
AcDbLine
 10
175.36
 20
0.8806985000000029
 30
0.0
 11
177.6309999999999
 21
1.280887499999998
 31
0.0
  0
LINE
  5
1B5
330
1E
100
AcDbEntity
  8
0
100
AcDbLine
 10
177.6309999999999
 20
1.280887499999998
 30
0.0
 11
179.6
 21
1.7320775
 31
0.0
  0
LINE
  5
1B6
330
1E
100
AcDbEntity
  8
0
100
AcDbLine
 10
154.428
 20
0.504052500000003
 30
0.0
 11
158.0459999999999
 21
0.198027500000003
 31
0.0
  0
LINE
  5
1B7
330
1E
100
AcDbEntity
  8
0
100
AcDbLine
 10
151.6399999999999
 20
0.8806985000000029
 30
0.0
 11
154.428
 21
0.504052500000003
 31
0.0
  0
LINE
  5
1B8
330
1E
100
AcDbEntity
  8
0
100
AcDbLine
 10
179.6
 20
1.7320775
 30
0.0
 11
181.4999999999999
 21
2.424897499999999
 31
0.0
  0
LINE
  5
1B9
330
1E
100
AcDbEntity
  8
0
100
AcDbLine
 10
179.6
 20
1.7320775
 30
0.0
 11
179.9
 21
1.822267499999998
 31
0.0
  0
LINE
  5
1BA
330
1E
100
AcDbEntity
  8
0
100
AcDbLine
 10
181.4999999999999
 20
2.424897499999999
 30
0.0
 11
183.1999999999999
 21
3.4641275
 31
0.0
  0
LINE
  5
1BB
330
1E
100
AcDbEntity
  8
0
100
AcDbLine
 10
179.9
 20
1.822267499999998
 30
0.0
 11
181.7999999999999
 21
2.515087499999999
 31
0.0
  0
LINE
  5
1BC
330
1E
100
AcDbEntity
  8
0
100
AcDbLine
 10
149.3689999999999
 20
1.280887499999998
 30
0.0
 11
151.6399999999999
 21
0.8806985000000029
 31
0.0
  0
LINE
  5
1BD
330
1E
100
AcDbEntity
  8
0
100
AcDbLine
 10
147.4
 20
1.7320775
 30
0.0
 11
149.3689999999999
 21
1.280887499999998
 31
0.0
  0
LINE
  5
1BE
330
1E
100
AcDbEntity
  8
0
100
AcDbLine
 10
183.4999999999999
 20
3.5543175
 30
0.0
 11
184.6999999999999
 21
5.0265575
 31
0.0
  0
LINE
  5
1BF
330
1E
100
AcDbEntity
  8
0
100
AcDbLine
 10
183.1999999999999
 20
3.4641275
 30
0.0
 11
184.4
 21
4.9363675
 31
0.0
  0
LINE
  5
1C0
330
1E
100
AcDbEntity
  8
0
100
AcDbLine
 10
181.7999999999999
 20
2.515087499999999
 30
0.0
 11
183.4999999999999
 21
3.5543175
 31
0.0
  0
LINE
  5
1C1
330
1E
100
AcDbEntity
  8
0
100
AcDbLine
 10
145.5
 20
2.424897499999999
 30
0.0
 11
147.4
 21
1.7320775
 31
0.0
  0
LINE
  5
1C2
330
1E
100
AcDbEntity
  8
0
100
AcDbLine
 10
145.1999999999999
 20
2.515087499999999
 30
0.0
 11
147.0999999999999
 21
1.822267499999998
 31
0.0
  0
LINE
  5
1C3
330
1E
100
AcDbEntity
  8
0
100
AcDbLine
 10
141.8
 20
6.5818175
 30
0.0
 11
142.5999999999999
 21
4.9363675
 31
0.0
  0
LINE
  5
1C4
330
1E
100
AcDbEntity
  8
0
100
AcDbLine
 10
140.8859999999999
 20
106.2441775
 30
0.0
 11
140.976
 21
107.4905774999999
 31
0.0
  0
LINE
  5
1C5
330
1E
100
AcDbEntity
  8
0
100
AcDbLine
 10
140.8499999999999
 20
237.9999774999999
 30
0.0
 11
141.1
 21
237.9999774999999
 31
0.0
  0
LINE
  5
1C6
330
1E
100
AcDbEntity
  8
0
100
AcDbLine
 10
140.976
 20
107.4905774999999
 30
0.0
 11
141.15
 21
108.0785775
 31
0.0
  0
LINE
  5
1C7
330
1E
100
AcDbEntity
  8
0
100
AcDbLine
 10
140.8139999999999
 20
18.54047749999998
 30
0.0
 11
140.8859999999999
 21
15.86837749999999
 31
0.0
  0
LINE
  5
1C8
330
1E
100
AcDbEntity
  8
0
100
AcDbLine
 10
140.8859999999999
 20
15.86837749999999
 30
0.0
 11
140.976
 21
12.78987749999999
 31
0.0
  0
LINE
  5
1C9
330
1E
100
AcDbEntity
  8
0
100
AcDbLine
 10
141.1
 20
237.9999774999999
 30
0.0
 11
141.5
 21
237.9999774999999
 31
0.0
  0
LINE
  5
1CA
330
1E
100
AcDbEntity
  8
0
100
AcDbLine
 10
140.976
 20
12.78987749999999
 30
0.0
 11
141.15
 21
10.3923775
 31
0.0
  0
LINE
  5
1CB
330
1E
100
AcDbEntity
  8
0
100
AcDbLine
 10
140.8499999999999
 20
10.4824775
 30
0.0
 11
141.1
 21
8.490657499999999
 31
0.0
  0
LINE
  5
1CC
330
1E
100
AcDbEntity
  8
0
100
AcDbLine
 10
141.15
 20
108.0785775
 30
0.0
 11
141.4
 21
108.2999775
 31
0.0
  0
LINE
  5
1CD
330
1E
100
AcDbEntity
  8
0
100
AcDbLine
 10
141.4
 20
108.2999775
 30
0.0
 11
141.8
 21
108.2999775
 31
0.0
  0
LINE
  5
1CE
330
1E
100
AcDbEntity
  8
0
100
AcDbLine
 10
141.5
 20
237.9999774999999
 30
0.0
 11
142.3
 21
237.9999774999999
 31
0.0
  0
LINE
  5
1CF
330
1E
100
AcDbEntity
  8
0
100
AcDbLine
 10
142.3
 20
237.9999774999999
 30
0.0
 11
143.5
 21
237.9999774999999
 31
0.0
  0
LINE
  5
1D0
330
1E
100
AcDbEntity
  8
0
100
AcDbLine
 10
141.8
 20
108.2999775
 30
0.0
 11
142.5999999999999
 21
108.2999775
 31
0.0
  0
LINE
  5
1D1
330
1E
100
AcDbEntity
  8
0
100
AcDbLine
 10
141.15
 20
10.3923775
 30
0.0
 11
141.4
 21
8.400467499999999
 31
0.0
  0
LINE
  5
1D2
330
1E
100
AcDbEntity
  8
0
100
AcDbLine
 10
141.4
 20
8.400467499999999
 30
0.0
 11
141.8
 21
6.5818175
 31
0.0
  0
LINE
  5
1D3
330
1E
100
AcDbEntity
  8
0
100
AcDbLine
 10
141.1
 20
8.490657499999999
 30
0.0
 11
141.5
 21
6.672007499999998
 31
0.0
  0
LINE
  5
1D4
330
1E
100
AcDbEntity
  8
0
100
AcDbLine
 10
141.5
 20
6.672007499999998
 30
0.0
 11
142.3
 21
5.0265575
 31
0.0
  0
LINE
  5
1D5
330
1E
100
AcDbEntity
  8
0
100
AcDbLine
 10
184.4
 20
4.9363675
 30
0.0
 11
185.1999999999999
 21
6.5818175
 31
0.0
  0
LINE
  5
1D6
330
1E
100
AcDbEntity
  8
0
100
AcDbLine
 10
185.5
 20
6.672007499999998
 30
0.0
 11
185.8999999999999
 21
8.490657499999999
 31
0.0
  0
LINE
  5
1D7
330
1E
100
AcDbEntity
  8
0
100
AcDbLine
 10
185.1999999999999
 20
6.5818175
 30
0.0
 11
185.5999999999999
 21
8.400467499999999
 31
0.0
  0
LINE
  5
1D8
330
1E
100
AcDbEntity
  8
0
100
AcDbLine
 10
184.6999999999999
 20
5.0265575
 30
0.0
 11
185.5
 21
6.672007499999998
 31
0.0
  0
LINE
  5
1D9
330
1E
100
AcDbEntity
  8
0
100
AcDbLine
 10
165.791
 20
108.2999775
 30
0.0
 11
168.877
 21
108.2999775
 31
0.0
  0
LINE
  5
1DA
330
1E
100
AcDbEntity
  8
0
100
AcDbLine
 10
168.877
 20
108.2999775
 30
0.0
 11
172.432
 21
108.2999775
 31
0.0
  0
LINE
  5
1DB
330
1E
100
AcDbEntity
  8
0
100
AcDbLine
 10
172.432
 20
108.2999775
 30
0.0
 11
175.1999999999999
 21
108.2999775
 31
0.0
  0
LINE
  5
1DC
330
1E
100
AcDbEntity
  8
0
100
AcDbLine
 10
163.4999999999999
 20
108.2999775
 30
0.0
 11
165.791
 21
108.2999775
 31
0.0
  0
LINE
  5
1DD
330
1E
100
AcDbEntity
  8
0
100
AcDbLine
 10
185.85
 20
10.3923775
 30
0.0
 11
186.024
 21
12.78987749999999
 31
0.0
  0
LINE
  5
1DE
330
1E
100
AcDbEntity
  8
0
100
AcDbLine
 10
186.1139999999999
 20
15.86837749999999
 30
0.0
 11
186.1859999999999
 21
18.54047749999998
 31
0.0
  0
LINE
  5
1DF
330
1E
100
AcDbEntity
  8
0
100
AcDbLine
 10
186.024
 20
12.78987749999999
 30
0.0
 11
186.1139999999999
 21
15.86837749999999
 31
0.0
  0
LINE
  5
1E0
330
1E
100
AcDbEntity
  8
0
100
AcDbLine
 10
186.15
 20
10.4824775
 30
0.0
 11
186.3499999999999
 21
13.08057749999999
 31
0.0
  0
LINE
  5
1E1
330
1E
100
AcDbEntity
  8
0
100
AcDbLine
 10
185.8999999999999
 20
8.490657499999999
 30
0.0
 11
186.15
 21
10.4824775
 31
0.0
  0
LINE
  5
1E2
330
1E
100
AcDbEntity
  8
0
100
AcDbLine
 10
185.5999999999999
 20
8.400467499999999
 30
0.0
 11
185.85
 21
10.3923775
 31
0.0
  0
LINE
  5
1E3
330
1E
100
AcDbEntity
  8
0
100
AcDbLine
 10
186.1859999999999
 20
18.54047749999998
 30
0.0
 11
186.1999999999999
 21
20.52477749999999
 31
0.0
  0
LINE
  5
1E4
330
1E
100
AcDbEntity
  8
0
100
AcDbLine
 10
186.1999999999999
 20
20.52477749999999
 30
0.0
 11
186.1999999999999
 21
97.38497750000002
 31
0.0
  0
LINE
  5
1E5
330
1E
100
AcDbEntity
  8
0
100
AcDbLine
 10
186.49
 20
18.88297749999998
 30
0.0
 11
186.5
 21
20.8747775
 31
0.0
  0
LINE
  5
1E6
330
1E
100
AcDbEntity
  8
0
100
AcDbLine
 10
186.4499999999999
 20
16.19827749999998
 30
0.0
 11
186.49
 21
18.88297749999998
 31
0.0
  0
LINE
  5
1E7
330
1E
100
AcDbEntity
  8
0
100
AcDbLine
 10
186.3499999999999
 20
13.08057749999999
 30
0.0
 11
186.4499999999999
 21
16.19827749999998
 31
0.0
  0
LINE
  5
1E8
330
1E
100
AcDbEntity
  8
0
100
AcDbLine
 10
186.5
 20
20.8747775
 30
0.0
 11
186.5
 21
97.83847749999999
 31
0.0
  0
LINE
  5
1E9
330
1E
100
AcDbEntity
  8
0
100
AcDbLine
 10
186.1999999999999
 20
97.38497750000002
 30
0.0
 11
186.1999999999999
 21
20.52477749999999
 31
0.0
  0
LINE
  5
1EA
330
1E
100
AcDbEntity
  8
0
100
AcDbLine
 10
186.1999999999999
 20
97.38497750000002
 30
0.0
 11
186.1999999999999
 21
100.2073775
 31
0.0
  0
LINE
  5
1EB
330
1E
100
AcDbEntity
  8
0
100
AcDbLine
 10
186.1999999999999
 20
100.2073775
 30
0.0
 11
186.1999999999999
 21
97.38497750000002
 31
0.0
  0
LINE
  5
1EC
330
1E
100
AcDbEntity
  8
0
100
AcDbLine
 10
186.1999999999999
 20
100.2073775
 30
0.0
 11
186.1999999999999
 21
102.0370775
 31
0.0
  0
LINE
  5
1ED
330
1E
100
AcDbEntity
  8
0
100
AcDbLine
 10
186.5
 20
97.83847749999999
 30
0.0
 11
186.5
 21
20.8747775
 31
0.0
  0
LINE
  5
1EE
330
1E
100
AcDbEntity
  8
0
100
AcDbLine
 10
186.5
 20
97.83847749999999
 30
0.0
 11
186.5
 21
100.6413774999999
 31
0.0
  0
LINE
  5
1EF
330
1E
100
AcDbEntity
  8
0
100
AcDbLine
 10
186.1999999999999
 20
102.0370775
 30
0.0
 11
186.1999999999999
 21
103.6237774999999
 31
0.0
  0
LINE
  5
1F0
330
1E
100
AcDbEntity
  8
0
100
AcDbLine
 10
186.1999999999999
 20
102.0370775
 30
0.0
 11
186.1999999999999
 21
100.2073775
 31
0.0
  0
LINE
  5
1F1
330
1E
100
AcDbEntity
  8
0
100
AcDbLine
 10
186.1999999999999
 20
103.6237774999999
 30
0.0
 11
186.1999999999999
 21
102.0370775
 31
0.0
  0
LINE
  5
1F2
330
1E
100
AcDbEntity
  8
0
100
AcDbLine
 10
186.1999999999999
 20
103.6237774999999
 30
0.0
 11
186.1999999999999
 21
104.9741774999999
 31
0.0
  0
LINE
  5
1F3
330
1E
100
AcDbEntity
  8
0
100
AcDbLine
 10
186.5
 20
100.6413774999999
 30
0.0
 11
186.5
 21
97.83847749999999
 31
0.0
  0
LINE
  5
1F4
330
1E
100
AcDbEntity
  8
0
100
AcDbLine
 10
186.5
 20
100.6413774999999
 30
0.0
 11
186.5
 21
102.6235774999999
 31
0.0
  0
LINE
  5
1F5
330
1E
100
AcDbEntity
  8
0
100
AcDbLine
 10
186.5
 20
102.6235774999999
 30
0.0
 11
186.5
 21
100.6413774999999
 31
0.0
  0
LINE
  5
1F6
330
1E
100
AcDbEntity
  8
0
100
AcDbLine
 10
186.5
 20
102.6235774999999
 30
0.0
 11
186.5
 21
104.1827775
 31
0.0
  0
LINE
  5
1F7
330
1E
100
AcDbEntity
  8
0
100
AcDbLine
 10
175.1999999999999
 20
108.2999775
 30
0.0
 11
177.5
 21
108.2999775
 31
0.0
  0
LINE
  5
1F8
330
1E
100
AcDbEntity
  8
0
100
AcDbLine
 10
177.5
 20
108.2999775
 30
0.0
 11
179.6
 21
108.2999775
 31
0.0
  0
LINE
  5
1F9
330
1E
100
AcDbEntity
  8
0
100
AcDbLine
 10
179.6
 20
108.2999775
 30
0.0
 11
181.4999999999999
 21
108.2999775
 31
0.0
  0
LINE
  5
1FA
330
1E
100
AcDbEntity
  8
0
100
AcDbLine
 10
186.5
 20
105.7999775
 30
0.0
 11
186.5
 21
237.9999774999999
 31
0.0
  0
LINE
  5
1FB
330
1E
100
AcDbEntity
  8
0
100
AcDbLine
 10
186.5
 20
105.7999775
 30
0.0
 11
186.5
 21
104.1827775
 31
0.0
  0
LINE
  5
1FC
330
1E
100
AcDbEntity
  8
0
100
AcDbLine
 10
186.1999999999999
 20
104.9741774999999
 30
0.0
 11
186.1999999999999
 21
103.6237774999999
 31
0.0
  0
LINE
  5
1FD
330
1E
100
AcDbEntity
  8
0
100
AcDbLine
 10
186.1139999999999
 20
106.2441775
 30
0.0
 11
186.1999999999999
 21
104.9741774999999
 31
0.0
  0
LINE
  5
1FE
330
1E
100
AcDbEntity
  8
0
100
AcDbLine
 10
186.024
 20
107.4905774999999
 30
0.0
 11
186.1139999999999
 21
106.2441775
 31
0.0
  0
LINE
  5
1FF
330
1E
100
AcDbEntity
  8
0
100
AcDbLine
 10
185.85
 20
108.0785775
 30
0.0
 11
186.024
 21
107.4905774999999
 31
0.0
  0
LINE
  5
200
330
1E
100
AcDbEntity
  8
0
100
AcDbLine
 10
185.5999999999999
 20
108.2999775
 30
0.0
 11
185.85
 21
108.0785775
 31
0.0
  0
LINE
  5
201
330
1E
100
AcDbEntity
  8
0
100
AcDbLine
 10
185.1999999999999
 20
108.2999775
 30
0.0
 11
185.5999999999999
 21
108.2999775
 31
0.0
  0
LINE
  5
202
330
1E
100
AcDbEntity
  8
0
100
AcDbLine
 10
184.4
 20
108.2999775
 30
0.0
 11
185.1999999999999
 21
108.2999775
 31
0.0
  0
LINE
  5
203
330
1E
100
AcDbEntity
  8
0
100
AcDbLine
 10
183.1999999999999
 20
108.2999775
 30
0.0
 11
184.4
 21
108.2999775
 31
0.0
  0
LINE
  5
204
330
1E
100
AcDbEntity
  8
0
100
AcDbLine
 10
181.4999999999999
 20
108.2999775
 30
0.0
 11
183.1999999999999
 21
108.2999775
 31
0.0
  0
LINE
  5
205
330
1E
100
AcDbEntity
  8
0
100
AcDbLine
 10
186.5
 20
104.1827775
 30
0.0
 11
186.5
 21
102.6235774999999
 31
0.0
  0
LINE
  5
206
330
1E
100
AcDbEntity
  8
0
100
AcDbLine
 10
186.5
 20
104.1827775
 30
0.0
 11
186.5
 21
105.7999775
 31
0.0
  0
LINE
  5
207
330
1E
100
AcDbEntity
  8
0
100
AcDbLine
 10
161.209
 20
108.2999775
 30
0.0
 11
163.4999999999999
 21
108.2999775
 31
0.0
  0
LINE
  5
208
330
1E
100
AcDbEntity
  8
0
100
AcDbLine
 10
158.1229999999998
 20
108.2999775
 30
0.0
 11
161.209
 21
108.2999775
 31
0.0
  0
LINE
  5
209
330
1E
100
AcDbEntity
  8
0
100
AcDbLine
 10
154.5679999999999
 20
108.2999775
 30
0.0
 11
158.1229999999998
 21
108.2999775
 31
0.0
  0
LINE
  5
20A
330
1E
100
AcDbEntity
  8
0
100
AcDbLine
 10
151.8
 20
108.2999775
 30
0.0
 11
154.5679999999999
 21
108.2999775
 31
0.0
  0
LINE
  5
20B
330
1E
100
AcDbEntity
  8
0
100
AcDbLine
 10
149.5
 20
108.2999775
 30
0.0
 11
151.8
 21
108.2999775
 31
0.0
  0
LINE
  5
20C
330
1E
100
AcDbEntity
  8
0
100
AcDbLine
 10
147.4
 20
108.2999775
 30
0.0
 11
149.5
 21
108.2999775
 31
0.0
  0
LINE
  5
20D
330
1E
100
AcDbEntity
  8
0
100
AcDbLine
 10
145.5
 20
108.2999775
 30
0.0
 11
147.4
 21
108.2999775
 31
0.0
  0
LINE
  5
20E
330
1E
100
AcDbEntity
  8
0
100
AcDbLine
 10
181.7999999999999
 20
237.9999774999999
 30
0.0
 11
183.4999999999999
 21
237.9999774999999
 31
0.0
  0
LINE
  5
20F
330
1E
100
AcDbEntity
  8
0
100
AcDbLine
 10
179.9
 20
237.9999774999999
 30
0.0
 11
181.7999999999999
 21
237.9999774999999
 31
0.0
  0
LINE
  5
210
330
1E
100
AcDbEntity
  8
0
100
AcDbLine
 10
177.8
 20
237.9999774999999
 30
0.0
 11
179.9
 21
237.9999774999999
 31
0.0
  0
LINE
  5
211
330
1E
100
AcDbEntity
  8
0
100
AcDbLine
 10
175.5
 20
237.9999774999999
 30
0.0
 11
177.8
 21
237.9999774999999
 31
0.0
  0
LINE
  5
212
330
1E
100
AcDbEntity
  8
0
100
AcDbLine
 10
172.5
 20
237.9999774999999
 30
0.0
 11
175.5
 21
237.9999774999999
 31
0.0
  0
LINE
  5
213
330
1E
100
AcDbEntity
  8
0
100
AcDbLine
 10
168.9
 20
237.9999774999999
 30
0.0
 11
172.5
 21
237.9999774999999
 31
0.0
  0
LINE
  5
214
330
1E
100
AcDbEntity
  8
0
100
AcDbLine
 10
165.8
 20
237.9999774999999
 30
0.0
 11
168.9
 21
237.9999774999999
 31
0.0
  0
LINE
  5
215
330
1E
100
AcDbEntity
  8
0
100
AcDbLine
 10
163.4999999999999
 20
237.9999774999999
 30
0.0
 11
165.8
 21
237.9999774999999
 31
0.0
  0
LINE
  5
2A4
330
1E
100
AcDbEntity
  8
0
100
AcDbLine
 10
186.5
 20
237.9999774999999
 30
0.0
 11
186.5
 21
105.7999775
 31
0.0
  0
LINE
  5
2A6
330
1E
100
AcDbEntity
  8
0
100
AcDbLine
 10
186.3499999999999
 20
237.9999774999999
 30
0.0
 11
186.4499999999999
 21
237.9999774999999
 31
0.0
  0
LINE
  5
2A7
330
1E
100
AcDbEntity
  8
0
100
AcDbLine
 10
186.15
 20
237.9999774999999
 30
0.0
 11
186.3499999999999
 21
237.9999774999999
 31
0.0
  0
LINE
  5
2A8
330
1E
100
AcDbEntity
  8
0
100
AcDbLine
 10
185.8999999999999
 20
237.9999774999999
 30
0.0
 11
186.15
 21
237.9999774999999
 31
0.0
  0
LINE
  5
2A9
330
1E
100
AcDbEntity
  8
0
100
AcDbLine
 10
185.5
 20
237.9999774999999
 30
0.0
 11
185.8999999999999
 21
237.9999774999999
 31
0.0
  0
LINE
  5
2AA
330
1E
100
AcDbEntity
  8
0
100
AcDbLine
 10
184.6999999999999
 20
237.9999774999999
 30
0.0
 11
185.5
 21
237.9999774999999
 31
0.0
  0
LINE
  5
2AB
330
1E
100
AcDbEntity
  8
0
100
AcDbLine
 10
183.4999999999999
 20
237.9999774999999
 30
0.0
 11
184.6999999999999
 21
237.9999774999999
 31
0.0
  0
LINE
  5
2AC
330
1E
100
AcDbEntity
  8
0
100
AcDbLine
 10
161.1999999999999
 20
237.9999774999999
 30
0.0
 11
163.4999999999999
 21
237.9999774999999
 31
0.0
  0
LINE
  5
2AD
330
1E
100
AcDbEntity
  8
0
100
AcDbLine
 10
158.0999999999999
 20
237.9999774999999
 30
0.0
 11
161.1999999999999
 21
237.9999774999999
 31
0.0
  0
LINE
  5
2AE
330
1E
100
AcDbEntity
  8
0
100
AcDbLine
 10
154.4999999999999
 20
237.9999774999999
 30
0.0
 11
158.0999999999999
 21
237.9999774999999
 31
0.0
  0
LINE
  5
2AF
330
1E
100
AcDbEntity
  8
0
100
AcDbLine
 10
151.5
 20
237.9999774999999
 30
0.0
 11
154.4999999999999
 21
237.9999774999999
 31
0.0
  0
LINE
  5
2B0
330
1E
100
AcDbEntity
  8
0
100
AcDbLine
 10
149.1999999999999
 20
237.9999774999999
 30
0.0
 11
151.5
 21
237.9999774999999
 31
0.0
  0
LINE
  5
2B1
330
1E
100
AcDbEntity
  8
0
100
AcDbLine
 10
147.0999999999999
 20
237.9999774999999
 30
0.0
 11
149.1999999999999
 21
237.9999774999999
 31
0.0
  0
LINE
  5
386
330
1E
100
AcDbEntity
  8
0
100
AcDbLine
 10
145.1999999999999
 20
237.9999774999999
 30
0.0
 11
147.0999999999999
 21
237.9999774999999
 31
0.0
  0
LINE
  5
387
330
1E
100
AcDbEntity
  8
0
100
AcDbLine
 10
143.5
 20
237.9999774999999
 30
0.0
 11
145.1999999999999
 21
237.9999774999999
 31
0.0
  0
LINE
  5
388
330
1E
100
AcDbEntity
  8
0
100
AcDbLine
 10
143.8
 20
108.2999775
 30
0.0
 11
145.5
 21
108.2999775
 31
0.0
  0
LINE
  5
389
330
1E
100
AcDbEntity
  8
0
100
AcDbLine
 10
142.5999999999999
 20
108.2999775
 30
0.0
 11
143.8
 21
108.2999775
 31
0.0
  0
LINE
  5
38A
330
1E
100
AcDbEntity
  8
0
100
AcDbLine
 10
142.5999999999999
 20
4.9363675
 30
0.0
 11
143.8
 21
3.4641275
 31
0.0
  0
LINE
  5
38B
330
1E
100
AcDbEntity
  8
0
100
AcDbLine
 10
142.3
 20
5.0265575
 30
0.0
 11
143.5
 21
3.5543175
 31
0.0
  0
LINE
  5
38C
330
1E
100
AcDbEntity
  8
0
100
AcDbLine
 10
143.5
 20
3.5543175
 30
0.0
 11
145.1999999999999
 21
2.515087499999999
 31
0.0
  0
LINE
  5
38D
330
1E
100
AcDbEntity
  8
0
100
AcDbLine
 10
140.8
 20
20.52477749999999
 30
0.0
 11
140.8
 21
97.38497750000002
 31
0.0
  0
LINE
  5
38E
330
1E
100
AcDbEntity
  8
0
100
AcDbLine
 10
140.8
 20
20.52477749999999
 30
0.0
 11
140.8139999999999
 21
18.54047749999998
 31
0.0
  0
LINE
  5
393
330
1E
100
AcDbEntity
  8
0
100
AcDbLine
 10
80.0
 20
236.9999775
 30
0.0
 11
80.05401479848831
 21
199.0570204933117
 31
0.0
  0
LINE
  5
394
330
1E
100
AcDbEntity
  8
0
100
AcDbLine
 10
80.05401479848831
 20
199.0570204933117
 30
0.0
 11
79.7
 21
198.2999774999998
 31
0.0
  0
LINE
  5
395
330
1E
100
AcDbEntity
  8
0
100
AcDbLine
 10
79.7
 20
198.2999774999998
 30
0.0
 11
79.0
 21
197.9999774999999
 31
0.0
  0
LINE
  5
39A
330
1E
100
AcDbEntity
  8
0
100
AcDbLine
 10
312.2059
 20
244.9999775
 30
0.0
 11
163.4999999999999
 21
244.9999775
 31
0.0
  0
LINE
  5
39B
330
1E
100
AcDbEntity
  8
0
100
AcDbLine
 10
312.2059
 20
244.9999775
 30
0.0
 11
163.4999999999999
 21
244.9999775
 31
0.0
  0
LINE
  5
39C
330
1E
100
AcDbEntity
  8
0
100
AcDbLine
 10
312.2059
 20
237.9999774999999
 30
0.0
 11
163.4999999999999
 21
237.9999774999999
 31
0.0
  0
LINE
  5
39D
330
1E
100
AcDbEntity
  8
0
100
AcDbLine
 10
312.2059
 20
237.9999774999999
 30
0.0
 11
163.4999999999999
 21
237.9999774999999
 31
0.0
  0
LINE
  5
39E
330
1E
100
AcDbEntity
  8
0
100
AcDbLine
 10
321.0
 20
237.9999774999999
 30
0.0
 11
253.0
 21
237.9999774999999
 31
0.0
  0
LINE
  5
39F
330
1E
100
AcDbEntity
  8
0
100
AcDbLine
 10
321.0
 20
197.9999774999999
 30
0.0
 11
253.0
 21
197.9999774999999
 31
0.0
  0
LINE
  5
3A0
330
1E
100
AcDbEntity
  8
0
100
AcDbLine
 10
317.5
 20
244.9999775
 30
0.0
 11
317.5
 21
238.6999774999999
 31
0.0
  0
LINE
  5
3A1
330
1E
100
AcDbEntity
  8
0
100
AcDbLine
 10
317.5
 20
238.6999774999999
 30
0.0
 11
317.5
 21
244.9999775
 31
0.0
  0
LINE
  5
3A2
330
1E
100
AcDbEntity
  8
0
100
AcDbLine
 10
316.9706
 20
237.9999774999999
 30
0.0
 11
316.7588
 21
237.9999774999999
 31
0.0
  0
LINE
  5
3A3
330
1E
100
AcDbEntity
  8
0
100
AcDbLine
 10
321.0
 20
234.4999774999999
 30
0.0
 11
277.0
 21
234.4999774999999
 31
0.0
  0
LINE
  5
3A4
330
1E
100
AcDbEntity
  8
0
100
AcDbLine
 10
321.0
 20
201.4999775
 30
0.0
 11
277.0
 21
201.4999775
 31
0.0
  0
LINE
  5
3A5
330
1E
100
AcDbEntity
  8
0
100
AcDbLine
 10
323.4999999999998
 20
203.9999775
 30
0.0
 11
323.4999999999998
 21
217.9999775
 31
0.0
  0
LINE
  5
3A6
330
1E
100
AcDbEntity
  8
0
100
AcDbLine
 10
323.4999999999998
 20
217.9999775
 30
0.0
 11
323.4999999999998
 21
203.9999775
 31
0.0
  0
LINE
  5
3A7
330
1E
100
AcDbEntity
  8
0
100
AcDbLine
 10
327.0
 20
203.9999775
 30
0.0
 11
327.0
 21
217.9999775
 31
0.0
  0
LINE
  5
3A8
330
1E
100
AcDbEntity
  8
0
100
AcDbLine
 10
327.0
 20
217.9999775
 30
0.0
 11
327.0
 21
203.9999775
 31
0.0
  0
LINE
  5
3A9
330
1E
100
AcDbEntity
  8
0
100
AcDbLine
 10
323.8999999999998
 20
198.8999774999999
 30
0.0
 11
322.5
 21
198.2999774999998
 31
0.0
  0
LINE
  5
3AA
330
1E
100
AcDbEntity
  8
0
100
AcDbLine
 10
322.5
 20
198.2999774999998
 30
0.0
 11
321.0
 21
197.9999774999999
 31
0.0
  0
LINE
  5
3AB
330
1E
100
AcDbEntity
  8
0
100
AcDbLine
 10
323.1831399999998
 20
202.7599774999999
 30
0.0
 11
322.7668899999998
 21
202.2309775
 31
0.0
  0
LINE
  5
3AC
330
1E
100
AcDbEntity
  8
0
100
AcDbLine
 10
323.42595
 20
203.3489774999999
 30
0.0
 11
323.1831399999998
 21
202.7599774999999
 31
0.0
  0
LINE
  5
3AD
330
1E
100
AcDbEntity
  8
0
100
AcDbLine
 10
327.0
 20
203.9999775
 30
0.0
 11
326.6999999999999
 21
202.4999774999999
 31
0.0
  0
LINE
  5
3AE
330
1E
100
AcDbEntity
  8
0
100
AcDbLine
 10
327.0
 20
203.9999775
 30
0.0
 11
326.6999999999999
 21
202.4999774999999
 31
0.0
  0
LINE
  5
3AF
330
1E
100
AcDbEntity
  8
0
100
AcDbLine
 10
326.6999999999999
 20
202.4999774999999
 30
0.0
 11
326.1
 21
201.0999775
 31
0.0
  0
LINE
  5
3B0
330
1E
100
AcDbEntity
  8
0
100
AcDbLine
 10
326.6999999999999
 20
202.4999774999999
 30
0.0
 11
326.1
 21
201.0999775
 31
0.0
  0
LINE
  5
3B1
330
1E
100
AcDbEntity
  8
0
100
AcDbLine
 10
325.1999999999998
 20
199.7999774999998
 30
0.0
 11
323.8999999999998
 21
198.8999774999999
 31
0.0
  0
LINE
  5
3B2
330
1E
100
AcDbEntity
  8
0
100
AcDbLine
 10
326.1
 20
201.0999775
 30
0.0
 11
325.1999999999998
 21
199.7999774999998
 31
0.0
  0
LINE
  5
3B3
330
1E
100
AcDbEntity
  8
0
100
AcDbLine
 10
323.4999999999998
 20
203.9999775
 30
0.0
 11
323.42595
 21
203.3489774999999
 31
0.0
  0
LINE
  5
3B4
330
1E
100
AcDbEntity
  8
0
100
AcDbLine
 10
321.6482299999999
 20
201.5809774999999
 30
0.0
 11
321.0
 21
201.4999775
 31
0.0
  0
LINE
  5
3B5
330
1E
100
AcDbEntity
  8
0
100
AcDbLine
 10
322.28995
 20
201.8319775
 30
0.0
 11
321.6482299999999
 21
201.5809774999999
 31
0.0
  0
LINE
  5
3B6
330
1E
100
AcDbEntity
  8
0
100
AcDbLine
 10
322.7668899999998
 20
202.2309775
 30
0.0
 11
322.28995
 21
201.8319775
 31
0.0
  0
LINE
  5
3B7
330
1E
100
AcDbEntity
  8
0
100
AcDbLine
 10
323.4999999999998
 20
217.9999775
 30
0.0
 11
323.4999999999998
 21
231.9999774999999
 31
0.0
  0
LINE
  5
3B8
330
1E
100
AcDbEntity
  8
0
100
AcDbLine
 10
323.4999999999998
 20
231.9999774999999
 30
0.0
 11
323.4999999999998
 21
217.9999775
 31
0.0
  0
LINE
  5
3B9
330
1E
100
AcDbEntity
  8
0
100
AcDbLine
 10
327.0
 20
217.9999775
 30
0.0
 11
327.0
 21
231.9999774999999
 31
0.0
  0
LINE
  5
3BA
330
1E
100
AcDbEntity
  8
0
100
AcDbLine
 10
327.0
 20
231.9999774999999
 30
0.0
 11
327.0
 21
217.9999775
 31
0.0
  0
LINE
  5
3BB
330
1E
100
AcDbEntity
  8
0
100
AcDbLine
 10
322.7668899999998
 20
233.7689774999999
 30
0.0
 11
322.28995
 21
234.1679774999999
 31
0.0
  0
LINE
  5
3BC
330
1E
100
AcDbEntity
  8
0
100
AcDbLine
 10
326.6999999999999
 20
233.4999774999999
 30
0.0
 11
326.1
 21
234.8999774999999
 31
0.0
  0
LINE
  5
3BD
330
1E
100
AcDbEntity
  8
0
100
AcDbLine
 10
326.6999999999999
 20
233.4999774999999
 30
0.0
 11
326.1
 21
234.8999774999999
 31
0.0
  0
LINE
  5
3BE
330
1E
100
AcDbEntity
  8
0
100
AcDbLine
 10
323.1831399999998
 20
233.2399774999999
 30
0.0
 11
322.7668899999998
 21
233.7689774999999
 31
0.0
  0
LINE
  5
3BF
330
1E
100
AcDbEntity
  8
0
100
AcDbLine
 10
327.0
 20
231.9999774999999
 30
0.0
 11
326.6999999999999
 21
233.4999774999999
 31
0.0
  0
LINE
  5
3C0
330
1E
100
AcDbEntity
  8
0
100
AcDbLine
 10
323.4999999999998
 20
231.9999774999999
 30
0.0
 11
323.42595
 21
232.6509774999999
 31
0.0
  0
LINE
  5
3C1
330
1E
100
AcDbEntity
  8
0
100
AcDbLine
 10
323.42595
 20
232.6509774999999
 30
0.0
 11
323.1831399999998
 21
233.2399774999999
 31
0.0
  0
LINE
  5
3C2
330
1E
100
AcDbEntity
  8
0
100
AcDbLine
 10
323.8999999999998
 20
237.0999774999999
 30
0.0
 11
322.5
 21
237.6999774999999
 31
0.0
  0
LINE
  5
3C3
330
1E
100
AcDbEntity
  8
0
100
AcDbLine
 10
325.1999999999998
 20
236.1999774999999
 30
0.0
 11
323.8999999999998
 21
237.0999774999999
 31
0.0
  0
LINE
  5
3C4
330
1E
100
AcDbEntity
  8
0
100
AcDbLine
 10
326.1
 20
234.8999774999999
 30
0.0
 11
325.1999999999998
 21
236.1999774999999
 31
0.0
  0
LINE
  5
3C5
330
1E
100
AcDbEntity
  8
0
100
AcDbLine
 10
317.5
 20
238.6999774999999
 30
0.0
 11
317.3941199999998
 21
238.2099774999999
 31
0.0
  0
LINE
  5
3C6
330
1E
100
AcDbEntity
  8
0
100
AcDbLine
 10
321.6482299999999
 20
234.4189774999999
 30
0.0
 11
321.0
 21
234.4999774999999
 31
0.0
  0
LINE
  5
3C7
330
1E
100
AcDbEntity
  8
0
100
AcDbLine
 10
322.28995
 20
234.1679774999999
 30
0.0
 11
321.6482299999999
 21
234.4189774999999
 31
0.0
  0
LINE
  5
3C8
330
1E
100
AcDbEntity
  8
0
100
AcDbLine
 10
322.5
 20
237.6999774999999
 30
0.0
 11
321.0
 21
237.9999774999999
 31
0.0
  0
LINE
  5
3C9
330
1E
100
AcDbEntity
  8
0
100
AcDbLine
 10
317.3941199999998
 20
238.2099774999999
 30
0.0
 11
317.14706
 21
237.9999774999999
 31
0.0
  0
LINE
  5
3CA
330
1E
100
AcDbEntity
  8
0
100
AcDbLine
 10
317.11176
 20
237.9999774999999
 30
0.0
 11
316.9706
 21
237.9999774999999
 31
0.0
  0
LINE
  5
3CB
330
1E
100
AcDbEntity
  8
0
100
AcDbLine
 10
274.5
 20
203.9999775
 30
0.0
 11
274.5
 21
217.9999775
 31
0.0
  0
LINE
  5
3CC
330
1E
100
AcDbEntity
  8
0
100
AcDbLine
 10
274.5
 20
217.9999775
 30
0.0
 11
274.5
 21
203.9999775
 31
0.0
  0
LINE
  5
3CD
330
1E
100
AcDbEntity
  8
0
100
AcDbLine
 10
274.8168999999999
 20
202.7599774999999
 30
0.0
 11
274.574
 21
203.3489774999999
 31
0.0
  0
LINE
  5
3CE
330
1E
100
AcDbEntity
  8
0
100
AcDbLine
 10
275.7101
 20
201.8319775
 30
0.0
 11
275.2330999999999
 21
202.2309775
 31
0.0
  0
LINE
  5
3CF
330
1E
100
AcDbEntity
  8
0
100
AcDbLine
 10
277.0
 20
201.4999775
 30
0.0
 11
276.3518
 21
201.5809774999999
 31
0.0
  0
LINE
  5
3D0
330
1E
100
AcDbEntity
  8
0
100
AcDbLine
 10
276.3518
 20
201.5809774999999
 30
0.0
 11
275.7101
 21
201.8319775
 31
0.0
  0
LINE
  5
3D1
330
1E
100
AcDbEntity
  8
0
100
AcDbLine
 10
275.2330999999999
 20
202.2309775
 30
0.0
 11
274.8168999999999
 21
202.7599774999999
 31
0.0
  0
LINE
  5
3D2
330
1E
100
AcDbEntity
  8
0
100
AcDbLine
 10
274.574
 20
203.3489774999999
 30
0.0
 11
274.5
 21
203.9999775
 31
0.0
  0
LINE
  5
3D3
330
1E
100
AcDbEntity
  8
0
100
AcDbLine
 10
314.0765
 20
237.9999774999999
 30
0.0
 11
313.4764999999998
 21
237.9999774999999
 31
0.0
  0
LINE
  5
3D4
330
1E
100
AcDbEntity
  8
0
100
AcDbLine
 10
316.7588
 20
237.9999774999999
 30
0.0
 11
316.4765
 21
237.9999774999999
 31
0.0
  0
LINE
  5
3D5
330
1E
100
AcDbEntity
  8
0
100
AcDbLine
 10
316.4765
 20
237.9999774999999
 30
0.0
 11
316.1235
 21
237.9999774999999
 31
0.0
  0
LINE
  5
3D6
330
1E
100
AcDbEntity
  8
0
100
AcDbLine
 10
316.1235
 20
237.9999774999999
 30
0.0
 11
315.7
 21
237.9999774999999
 31
0.0
  0
LINE
  5
3D7
330
1E
100
AcDbEntity
  8
0
100
AcDbLine
 10
314.6764999999998
 20
237.9999774999999
 30
0.0
 11
314.0765
 21
237.9999774999999
 31
0.0
  0
LINE
  5
3D8
330
1E
100
AcDbEntity
  8
0
100
AcDbLine
 10
315.2058999999998
 20
237.9999774999999
 30
0.0
 11
314.6764999999998
 21
237.9999774999999
 31
0.0
  0
LINE
  5
3D9
330
1E
100
AcDbEntity
  8
0
100
AcDbLine
 10
315.7
 20
237.9999774999999
 30
0.0
 11
315.2058999999998
 21
237.9999774999999
 31
0.0
  0
LINE
  5
3DA
330
1E
100
AcDbEntity
  8
0
100
AcDbLine
 10
312.8412
 20
237.9999774999999
 30
0.0
 11
312.2059
 21
237.9999774999999
 31
0.0
  0
LINE
  5
3DB
330
1E
100
AcDbEntity
  8
0
100
AcDbLine
 10
313.4764999999998
 20
237.9999774999999
 30
0.0
 11
312.8412
 21
237.9999774999999
 31
0.0
  0
LINE
  5
3DC
330
1E
100
AcDbEntity
  8
0
100
AcDbLine
 10
274.5
 20
217.9999775
 30
0.0
 11
274.5
 21
231.9999774999999
 31
0.0
  0
LINE
  5
3DD
330
1E
100
AcDbEntity
  8
0
100
AcDbLine
 10
274.5
 20
231.9999774999999
 30
0.0
 11
274.5
 21
217.9999775
 31
0.0
  0
LINE
  5
3DE
330
1E
100
AcDbEntity
  8
0
100
AcDbLine
 10
275.7101
 20
234.1679774999999
 30
0.0
 11
275.2330999999999
 21
233.7689774999999
 31
0.0
  0
LINE
  5
3DF
330
1E
100
AcDbEntity
  8
0
100
AcDbLine
 10
274.574
 20
232.6509774999999
 30
0.0
 11
274.5
 21
231.9999774999999
 31
0.0
  0
LINE
  5
3E0
330
1E
100
AcDbEntity
  8
0
100
AcDbLine
 10
274.8168999999999
 20
233.2399774999999
 30
0.0
 11
274.574
 21
232.6509774999999
 31
0.0
  0
LINE
  5
3E1
330
1E
100
AcDbEntity
  8
0
100
AcDbLine
 10
275.2330999999999
 20
233.7689774999999
 30
0.0
 11
274.8168999999999
 21
233.2399774999999
 31
0.0
  0
LINE
  5
3E2
330
1E
100
AcDbEntity
  8
0
100
AcDbLine
 10
276.3518
 20
234.4189774999999
 30
0.0
 11
275.7101
 21
234.1679774999999
 31
0.0
  0
LINE
  5
3E3
330
1E
100
AcDbEntity
  8
0
100
AcDbLine
 10
277.0
 20
234.4999774999999
 30
0.0
 11
276.3518
 21
234.4189774999999
 31
0.0
  0
LINE
  5
3E4
330
1E
100
AcDbEntity
  8
0
100
AcDbLine
 10
316.7941
 20
244.9999775
 30
0.0
 11
316.4058999999998
 21
244.9999775
 31
0.0
  0
LINE
  5
3E5
330
1E
100
AcDbEntity
  8
0
100
AcDbLine
 10
317.5
 20
244.9999775
 30
0.0
 11
317.42941
 21
244.9999775
 31
0.0
  0
LINE
  5
3E6
330
1E
100
AcDbEntity
  8
0
100
AcDbLine
 10
317.42941
 20
244.9999775
 30
0.0
 11
317.3235299999999
 21
244.9999775
 31
0.0
  0
LINE
  5
3E7
330
1E
100
AcDbEntity
  8
0
100
AcDbLine
 10
317.3235299999999
 20
244.9999775
 30
0.0
 11
317.0764699999998
 21
244.9999775
 31
0.0
  0
LINE
  5
3E8
330
1E
100
AcDbEntity
  8
0
100
AcDbLine
 10
317.0764699999998
 20
244.9999775
 30
0.0
 11
316.7941
 21
244.9999775
 31
0.0
  0
LINE
  5
3EB
330
1E
100
AcDbEntity
  8
0
100
AcDbLine
 10
314.2176999999998
 20
244.9999775
 30
0.0
 11
313.5822999999998
 21
244.9999775
 31
0.0
  0
LINE
  5
3EC
330
1E
100
AcDbEntity
  8
0
100
AcDbLine
 10
316.4058999999998
 20
244.9999775
 30
0.0
 11
315.9470999999998
 21
244.9999775
 31
0.0
  0
LINE
  5
3ED
330
1E
100
AcDbEntity
  8
0
100
AcDbLine
 10
314.8528999999998
 20
244.9999775
 30
0.0
 11
314.2176999999998
 21
244.9999775
 31
0.0
  0
LINE
  5
3EE
330
1E
100
AcDbEntity
  8
0
100
AcDbLine
 10
315.4177
 20
244.9999775
 30
0.0
 11
314.8528999999998
 21
244.9999775
 31
0.0
  0
LINE
  5
3EF
330
1E
100
AcDbEntity
  8
0
100
AcDbLine
 10
315.9470999999998
 20
244.9999775
 30
0.0
 11
315.4177
 21
244.9999775
 31
0.0
  0
LINE
  5
3F0
330
1E
100
AcDbEntity
  8
0
100
AcDbLine
 10
312.9117999999998
 20
244.9999775
 30
0.0
 11
312.2059
 21
244.9999775
 31
0.0
  0
LINE
  5
3F1
330
1E
100
AcDbEntity
  8
0
100
AcDbLine
 10
313.5822999999998
 20
244.9999775
 30
0.0
 11
312.9117999999998
 21
244.9999775
 31
0.0
  0
LINE
  5
431
330
1E
100
AcDbEntity
  8
0
100
AcDbLine
 10
248.0
 20
237.9999774999999
 30
0.0
 11
186.5
 21
237.9999774999999
 31
0.0
  0
LINE
  5
432
330
1E
100
AcDbEntity
  8
0
100
AcDbLine
 10
248.0
 20
237.9999774999999
 30
0.0
 11
186.5
 21
237.9999774999999
 31
0.0
  0
LINE
  5
433
330
1E
100
AcDbEntity
  8
0
100
AcDbLine
 10
247.0
 20
236.9999775
 30
0.0
 11
246.9459852015116
 21
199.0570204933117
 31
0.0
  0
LINE
  5
434
330
1E
100
AcDbEntity
  8
0
100
AcDbLine
 10
253.0
 20
197.9999774999999
 30
0.0
 11
251.8
 21
197.9999774999999
 31
0.0
  0
LINE
  5
435
330
1E
100
AcDbEntity
  8
0
100
AcDbLine
 10
246.9459852015116
 20
199.0570204933117
 30
0.0
 11
247.3
 21
198.2999774999998
 31
0.0
  0
LINE
  5
436
330
1E
100
AcDbEntity
  8
0
100
AcDbLine
 10
250.5999999999999
 20
197.9999774999999
 30
0.0
 11
249.5
 21
197.9999774999999
 31
0.0
  0
LINE
  5
437
330
1E
100
AcDbEntity
  8
0
100
AcDbLine
 10
251.8
 20
197.9999774999999
 30
0.0
 11
250.5999999999999
 21
197.9999774999999
 31
0.0
  0
LINE
  5
438
330
1E
100
AcDbEntity
  8
0
100
AcDbLine
 10
247.3
 20
198.2999774999998
 30
0.0
 11
248.0
 21
197.9999774999999
 31
0.0
  0
LINE
  5
439
330
1E
100
AcDbEntity
  8
0
100
AcDbLine
 10
248.1999999999999
 20
197.9999774999999
 30
0.0
 11
248.0
 21
197.9999774999999
 31
0.0
  0
LINE
  5
43A
330
1E
100
AcDbEntity
  8
0
100
AcDbLine
 10
248.7
 20
197.9999774999999
 30
0.0
 11
248.1999999999999
 21
197.9999774999999
 31
0.0
  0
LINE
  5
43B
330
1E
100
AcDbEntity
  8
0
100
AcDbLine
 10
249.5
 20
197.9999774999999
 30
0.0
 11
248.7
 21
197.9999774999999
 31
0.0
  0
LINE
  5
43C
330
1E
100
AcDbEntity
  8
0
100
AcDbLine
 10
253.0
 20
237.9999774999999
 30
0.0
 11
251.8
 21
237.9999774999999
 31
0.0
  0
LINE
  5
43D
330
1E
100
AcDbEntity
  8
0
100
AcDbLine
 10
250.5999999999999
 20
237.9999774999999
 30
0.0
 11
249.5
 21
237.9999774999999
 31
0.0
  0
LINE
  5
43E
330
1E
100
AcDbEntity
  8
0
100
AcDbLine
 10
251.8
 20
237.9999774999999
 30
0.0
 11
250.5999999999999
 21
237.9999774999999
 31
0.0
  0
LINE
  5
43F
330
1E
100
AcDbEntity
  8
0
100
AcDbLine
 10
248.0
 20
237.9999774999999
 30
0.0
 11
247.3
 21
237.6999774999999
 31
0.0
  0
LINE
  5
440
330
1E
100
AcDbEntity
  8
0
100
AcDbLine
 10
247.3
 20
237.6999774999999
 30
0.0
 11
247.0
 21
236.9999775
 31
0.0
  0
LINE
  5
441
330
1E
100
AcDbEntity
  8
0
100
AcDbLine
 10
248.1999999999999
 20
237.9999774999999
 30
0.0
 11
248.0
 21
237.9999774999999
 31
0.0
  0
LINE
  5
442
330
1E
100
AcDbEntity
  8
0
100
AcDbLine
 10
248.7
 20
237.9999774999999
 30
0.0
 11
248.1999999999999
 21
237.9999774999999
 31
0.0
  0
LINE
  5
443
330
1E
100
AcDbEntity
  8
0
100
AcDbLine
 10
249.5
 20
237.9999774999999
 30
0.0
 11
248.7
 21
237.9999774999999
 31
0.0
  0
ENDSEC
  0
SECTION
  2
OBJECTS
  0
DICTIONARY
  5
C
330
0
100
AcDbDictionary
281
     1
  3
ACAD_GROUP
350
D
  3
ACAD_LAYOUT
350
19
  3
ACAD_MLINESTYLE
350
16
  3
ACAD_PLOTSETTINGS
350
18
  3
ACAD_PLOTSTYLENAME
350
E
  3
AcDbVariableDictionary
350
48B
  0
DICTIONARY
  5
D
102
{ACAD_REACTORS
330
C
102
}
330
C
100
AcDbDictionary
281
     1
  0
DICTIONARY
  5
19
102
{ACAD_REACTORS
330
C
102
}
330
C
100
AcDbDictionary
281
     1
  3
Layout1
350
1D
  3
Model
350
21
  0
DICTIONARY
  5
16
102
{ACAD_REACTORS
330
C
102
}
330
C
100
AcDbDictionary
281
     1
  3
Standard
350
17
  0
DICTIONARY
  5
18
102
{ACAD_REACTORS
330
C
102
}
330
C
100
AcDbDictionary
281
     1
  0
ACDBDICTIONARYWDFLT
  5
E
102
{ACAD_REACTORS
330
C
102
}
330
C
100
AcDbDictionary
281
     1
  3
Normal
350
F
100
AcDbDictionaryWithDefault
340
F
  0
DICTIONARY
  5
48B
102
{ACAD_REACTORS
330
C
102
}
330
C
100
AcDbDictionary
281
     1
  3
DIMASSOC
350
48C
  0
LAYOUT
  5
1D
102
{ACAD_REACTORS
330
19
102
}
330
19
100
AcDbPlotSettings
  1

  2
hp deskjet 980c series
  4

  6

 40
0.0
 41
0.0
 42
0.0
 43
0.0
 44
0.0
 45
0.0
 46
0.0
 47
0.0
 48
0.0
 49
0.0
140
0.0
141
0.0
142
1.0
143
1.0
 70
   688
 72
     0
 73
     0
 74
     5
  7

 75
    16
147
1.0
148
0.0
149
0.0
100
AcDbLayout
  1
Layout1
 70
     1
 71
     1
 10
0.0
 20
0.0
 11
12.0
 21
9.0
 12
0.0
 22
0.0
 32
0.0
 14
1.000000000000000E+20
 24
1.000000000000000E+20
 34
1.000000000000000E+20
 15
-1.000000000000000E+20
 25
-1.000000000000000E+20
 35
-1.000000000000000E+20
146
0.0
 13
0.0
 23
0.0
 33
0.0
 16
1.0
 26
0.0
 36
0.0
 17
0.0
 27
1.0
 37
0.0
 76
     0
330
1A
  0
LAYOUT
  5
21
102
{ACAD_REACTORS
330
19
102
}
330
19
100
AcDbPlotSettings
  1

  2
hp deskjet 980c series
  4

  6

 40
0.0
 41
0.0
 42
0.0
 43
0.0
 44
0.0
 45
0.0
 46
0.0
 47
0.0
 48
0.0
 49
0.0
140
0.0
141
0.0
142
1.0
143
1.0
 70
  1712
 72
     0
 73
     0
 74
     0
  7

 75
     0
147
1.0
148
0.0
149
0.0
100
AcDbLayout
  1
Model
 70
     1
 71
     0
 10
0.0
 20
0.0
 11
12.0
 21
9.0
 12
0.0
 22
0.0
 32
0.0
 14
0.0
 24
0.0
 34
0.0
 15
0.0
 25
0.0
 35
0.0
146
0.0
 13
0.0
 23
0.0
 33
0.0
 16
1.0
 26
0.0
 36
0.0
 17
0.0
 27
1.0
 37
0.0
 76
     0
330
1E
  0
MLINESTYLE
  5
17
102
{ACAD_REACTORS
330
16
102
}
330
16
100
AcDbMlineStyle
  2
STANDARD
 70
     0
  3

 62
   256
 51
90.0
 52
90.0
 71
     2
 49
0.5
 62
   256
  6
BYLAYER
 49
-0.5
 62
   256
  6
BYLAYER
  0
ACDBPLACEHOLDER
  5
F
102
{ACAD_REACTORS
330
E
102
}
330
E
  0
DICTIONARYVAR
  5
48C
102
{ACAD_REACTORS
330
48B
102
}
330
48B
100
DictionaryVariables
280
     0
  1
1
  0
ENDSEC
  0
EOF
