  0
SECTION
  2
HEADER
  9
$ACADVER
  1
AC1015
  9
$ACADMAINTVER
 70
    13
  9
$DWGCODEPAGE
  3
ANSI_1252
  9
$INSBASE
 10
0.0
 20
0.0
 30
0.0
  9
$EXTMIN
 10
-0.139499999999979
 20
0.0000000000000108
 30
0.0
  9
$EXTMAX
 10
158.1395
 20
107.0
 30
0.0
  9
$LIMMIN
 10
0.0
 20
0.0
  9
$LIMMAX
 10
12.0
 20
9.0
  9
$ORTHOMODE
 70
     0
  9
$REGENMODE
 70
     1
  9
$FILLMODE
 70
     1
  9
$QTEXTMODE
 70
     0
  9
$MIRRTEXT
 70
     1
  9
$LTSCALE
 40
1.0
  9
$ATTMODE
 70
     1
  9
$TEXTSIZE
 40
0.2
  9
$TRACEWID
 40
0.05
  9
$TEXTSTYLE
  7
Standard
  9
$CLAYER
  8
0
  9
$CELTYPE
  6
Continuous
  9
$CECOLOR
 62
   256
  9
$CELTSCALE
 40
1.0
  9
$DISPSILH
 70
     0
  9
$DIMSCALE
 40
1.0
  9
$DIMASZ
 40
0.18
  9
$DIMEXO
 40
0.0625
  9
$DIMDLI
 40
0.38
  9
$DIMRND
 40
0.0
  9
$DIMDLE
 40
0.0
  9
$DIMEXE
 40
0.18
  9
$DIMTP
 40
0.0
  9
$DIMTM
 40
0.0
  9
$DIMTXT
 40
0.18
  9
$DIMCEN
 40
0.09
  9
$DIMTSZ
 40
0.0
  9
$DIMTOL
 70
     0
  9
$DIMLIM
 70
     0
  9
$DIMTIH
 70
     1
  9
$DIMTOH
 70
     1
  9
$DIMSE1
 70
     0
  9
$DIMSE2
 70
     0
  9
$DIMTAD
 70
     0
  9
$DIMZIN
 70
     0
  9
$DIMBLK
  1

  9
$DIMASO
 70
     1
  9
$DIMSHO
 70
     1
  9
$DIMPOST
  1

  9
$DIMAPOST
  1

  9
$DIMALT
 70
     0
  9
$DIMALTD
 70
     2
  9
$DIMALTF
 40
25.4
  9
$DIMLFAC
 40
1.0
  9
$DIMTOFL
 70
     0
  9
$DIMTVP
 40
0.0
  9
$DIMTIX
 70
     0
  9
$DIMSOXD
 70
     0
  9
$DIMSAH
 70
     0
  9
$DIMBLK1
  1

  9
$DIMBLK2
  1

  9
$DIMSTYLE
  2
Standard
  9
$DIMCLRD
 70
     0
  9
$DIMCLRE
 70
     0
  9
$DIMCLRT
 70
     0
  9
$DIMTFAC
 40
1.0
  9
$DIMGAP
 40
0.09
  9
$DIMJUST
 70
     0
  9
$DIMSD1
 70
     0
  9
$DIMSD2
 70
     0
  9
$DIMTOLJ
 70
     1
  9
$DIMTZIN
 70
     0
  9
$DIMALTZ
 70
     0
  9
$DIMALTTZ
 70
     0
  9
$DIMUPT
 70
     0
  9
$DIMDEC
 70
     4
  9
$DIMTDEC
 70
     4
  9
$DIMALTU
 70
     2
  9
$DIMALTTD
 70
     2
  9
$DIMTXSTY
  7
Standard
  9
$DIMAUNIT
 70
     0
  9
$DIMADEC
 70
     0
  9
$DIMALTRND
 40
0.0
  9
$DIMAZIN
 70
     0
  9
$DIMDSEP
 70
    46
  9
$DIMATFIT
 70
     3
  9
$DIMFRAC
 70
     0
  9
$DIMLDRBLK
  1

  9
$DIMLUNIT
 70
     2
  9
$DIMLWD
 70
    -2
  9
$DIMLWE
 70
    -2
  9
$DIMTMOVE
 70
     0
  9
$LUNITS
 70
     2
  9
$LUPREC
 70
     4
  9
$SKETCHINC
 40
0.1
  9
$FILLETRAD
 40
0.0
  9
$AUNITS
 70
     0
  9
$AUPREC
 70
     0
  9
$MENU
  1
.
  9
$ELEVATION
 40
0.0
  9
$PELEVATION
 40
0.0
  9
$THICKNESS
 40
0.0
  9
$LIMCHECK
 70
     0
  9
$CHAMFERA
 40
0.0
  9
$CHAMFERB
 40
0.0
  9
$CHAMFERC
 40
0.0
  9
$CHAMFERD
 40
0.0
  9
$SKPOLY
 70
     0
  9
$TDCREATE
 40
2454873.845694073
  9
$TDUCREATE
 40
2454873.804027407
  9
$TDUPDATE
 40
2454873.851960532
  9
$TDUUPDATE
 40
2454873.810293865
  9
$TDINDWG
 40
0.0062664583
  9
$TDUSRTIMER
 40
0.0062664583
  9
$USRTIMER
 70
     1
  9
$ANGBASE
 50
0.0
  9
$ANGDIR
 70
     0
  9
$PDMODE
 70
     0
  9
$PDSIZE
 40
0.0
  9
$PLINEWID
 40
0.0
  9
$SPLFRAME
 70
     0
  9
$SPLINETYPE
 70
     6
  9
$SPLINESEGS
 70
     8
  9
$HANDSEED
  5
2A0
  9
$SURFTAB1
 70
     6
  9
$SURFTAB2
 70
     6
  9
$SURFTYPE
 70
     6
  9
$SURFU
 70
     6
  9
$SURFV
 70
     6
  9
$UCSBASE
  2

  9
$UCSNAME
  2

  9
$UCSORG
 10
0.0
 20
0.0
 30
0.0
  9
$UCSXDIR
 10
1.0
 20
0.0
 30
0.0
  9
$UCSYDIR
 10
0.0
 20
1.0
 30
0.0
  9
$UCSORTHOREF
  2

  9
$UCSORTHOVIEW
 70
     1
  9
$UCSORGTOP
 10
0.0
 20
0.0
 30
0.0
  9
$UCSORGBOTTOM
 10
0.0
 20
0.0
 30
0.0
  9
$UCSORGLEFT
 10
0.0
 20
0.0
 30
0.0
  9
$UCSORGRIGHT
 10
0.0
 20
0.0
 30
0.0
  9
$UCSORGFRONT
 10
0.0
 20
0.0
 30
0.0
  9
$UCSORGBACK
 10
0.0
 20
0.0
 30
0.0
  9
$PUCSBASE
  2

  9
$PUCSNAME
  2

  9
$PUCSORG
 10
0.0
 20
0.0
 30
0.0
  9
$PUCSXDIR
 10
1.0
 20
0.0
 30
0.0
  9
$PUCSYDIR
 10
0.0
 20
1.0
 30
0.0
  9
$PUCSORTHOREF
  2

  9
$PUCSORTHOVIEW
 70
     0
  9
$PUCSORGTOP
 10
0.0
 20
0.0
 30
0.0
  9
$PUCSORGBOTTOM
 10
0.0
 20
0.0
 30
0.0
  9
$PUCSORGLEFT
 10
0.0
 20
0.0
 30
0.0
  9
$PUCSORGRIGHT
 10
0.0
 20
0.0
 30
0.0
  9
$PUCSORGFRONT
 10
0.0
 20
0.0
 30
0.0
  9
$PUCSORGBACK
 10
0.0
 20
0.0
 30
0.0
  9
$USERI1
 70
     0
  9
$USERI2
 70
     0
  9
$USERI3
 70
     0
  9
$USERI4
 70
     0
  9
$USERI5
 70
     0
  9
$USERR1
 40
0.0
  9
$USERR2
 40
0.0
  9
$USERR3
 40
0.0
  9
$USERR4
 40
0.0
  9
$USERR5
 40
0.0
  9
$WORLDVIEW
 70
     1
  9
$SHADEDGE
 70
     3
  9
$SHADEDIF
 70
    70
  9
$TILEMODE
 70
     1
  9
$MAXACTVP
 70
    64
  9
$PINSBASE
 10
0.0
 20
0.0
 30
0.0
  9
$PLIMCHECK
 70
     0
  9
$PEXTMIN
 10
1.000000000000000E+20
 20
1.000000000000000E+20
 30
1.000000000000000E+20
  9
$PEXTMAX
 10
-1.000000000000000E+20
 20
-1.000000000000000E+20
 30
-1.000000000000000E+20
  9
$PLIMMIN
 10
0.0
 20
0.0
  9
$PLIMMAX
 10
12.0
 20
9.0
  9
$UNITMODE
 70
     0
  9
$VISRETAIN
 70
     1
  9
$PLINEGEN
 70
     0
  9
$PSLTSCALE
 70
     1
  9
$TREEDEPTH
 70
  3020
  9
$CMLSTYLE
  2
Standard
  9
$CMLJUST
 70
     0
  9
$CMLSCALE
 40
1.0
  9
$PROXYGRAPHICS
 70
     1
  9
$MEASUREMENT
 70
     0
  9
$CELWEIGHT
370
    -1
  9
$ENDCAPS
280
     0
  9
$JOINSTYLE
280
     0
  9
$LWDISPLAY
290
     0
  9
$INSUNITS
 70
     0
  9
$HYPERLINKBASE
  1

  9
$STYLESHEET
  1

  9
$XEDIT
290
     1
  9
$CEPSNTYPE
380
     0
  9
$PSTYLEMODE
290
     1
  9
$FINGERPRINTGUID
  2
{0EF268BA-C876-437C-A977-E945AB583E6F}
  9
$VERSIONGUID
  2
{94FAE667-7B64-4709-9F83-7D8133B10A7C}
  9
$EXTNAMES
290
     1
  9
$PSVPSCALE
 40
0.0
  9
$OLESTARTUP
290
     0
  0
ENDSEC
  0
SECTION
  2
CLASSES
  0
CLASS
  1
ACDBDICTIONARYWDFLT
  2
AcDbDictionaryWithDefault
  3
AutoCAD 2000
 90
        0
280
     0
281
     0
  0
CLASS
  1
ACDBPLACEHOLDER
  2
AcDbPlaceHolder
  3
AutoCAD 2000
 90
        0
280
     0
281
     0
  0
CLASS
  1
LAYOUT
  2
AcDbLayout
  3
AutoCAD 2000
 90
        0
280
     0
281
     0
  0
CLASS
  1
DICTIONARYVAR
  2
AcDbDictionaryVar
  3
AutoCAD 2000
 90
        0
280
     0
281
     0
  0
ENDSEC
  0
SECTION
  2
TABLES
  0
TABLE
  2
VPORT
  5
8
330
0
100
AcDbSymbolTable
 70
     3
  0
VPORT
  5
29F
330
8
100
AcDbSymbolTableRecord
100
AcDbViewportTableRecord
  2
*Active
 70
     0
 10
0.0
 20
0.0
 11
1.0
 21
1.0
 12
79.0
 22
53.50000000000001
 13
0.0
 23
0.0
 14
1.0
 24
1.0
 15
0.0
 25
0.0
 16
0.0
 26
0.0
 36
1.0
 17
0.0
 27
0.0
 37
0.0
 40
107.6757894736841
 41
1.968387776606954
 42
50.0
 43
0.0
 44
0.0
 50
0.0
 51
0.0
 71
     0
 72
   100
 73
     1
 74
     3
 75
     0
 76
     0
 77
     0
 78
     0
281
     0
 65
     1
110
0.0
120
0.0
130
0.0
111
1.0
121
0.0
131
0.0
112
0.0
122
1.0
132
0.0
 79
     1
146
0.0
  0
ENDTAB
  0
TABLE
  2
LTYPE
  5
5
330
0
100
AcDbSymbolTable
 70
     1
  0
LTYPE
  5
13
330
5
100
AcDbSymbolTableRecord
100
AcDbLinetypeTableRecord
  2
ByBlock
 70
     0
  3

 72
    65
 73
     0
 40
0.0
  0
LTYPE
  5
14
330
5
100
AcDbSymbolTableRecord
100
AcDbLinetypeTableRecord
  2
ByLayer
 70
     0
  3

 72
    65
 73
     0
 40
0.0
  0
LTYPE
  5
15
330
5
100
AcDbSymbolTableRecord
100
AcDbLinetypeTableRecord
  2
Continuous
 70
     0
  3
Solid line
 72
    65
 73
     0
 40
0.0
  0
ENDTAB
  0
TABLE
  2
LAYER
  5
2
330
0
100
AcDbSymbolTable
 70
     1
  0
LAYER
  5
10
330
2
100
AcDbSymbolTableRecord
100
AcDbLayerTableRecord
  2
0
 70
     0
 62
     7
  6
Continuous
370
    -3
390
F
  0
ENDTAB
  0
TABLE
  2
STYLE
  5
3
330
0
100
AcDbSymbolTable
 70
     1
  0
STYLE
  5
11
330
3
100
AcDbSymbolTableRecord
100
AcDbTextStyleTableRecord
  2
Standard
 70
     0
 40
0.0
 41
1.0
 50
0.0
 71
     0
 42
0.2
  3
txt
  4

  0
ENDTAB
  0
TABLE
  2
VIEW
  5
6
330
0
100
AcDbSymbolTable
 70
     0
  0
ENDTAB
  0
TABLE
  2
UCS
  5
7
330
0
100
AcDbSymbolTable
 70
     0
  0
ENDTAB
  0
TABLE
  2
APPID
  5
9
330
0
100
AcDbSymbolTable
 70
     1
  0
APPID
  5
12
330
9
100
AcDbSymbolTableRecord
100
AcDbRegAppTableRecord
  2
ACAD
 70
     0
  0
ENDTAB
  0
TABLE
  2
DIMSTYLE
  5
A
330
0
100
AcDbSymbolTable
 70
     1
100
AcDbDimStyleTable
 71
     0
  0
DIMSTYLE
105
286
330
A
100
AcDbSymbolTableRecord
100
AcDbDimStyleTableRecord
  2
Standard
 70
     0
340
11
  0
ENDTAB
  0
TABLE
  2
BLOCK_RECORD
  5
1
330
0
100
AcDbSymbolTable
 70
     0
  0
BLOCK_RECORD
  5
1E
330
1
100
AcDbSymbolTableRecord
100
AcDbBlockTableRecord
  2
*Model_Space
340
21
  0
BLOCK_RECORD
  5
1A
330
1
100
AcDbSymbolTableRecord
100
AcDbBlockTableRecord
  2
*Paper_Space
340
1D
  0
ENDTAB
  0
ENDSEC
  0
SECTION
  2
BLOCKS
  0
BLOCK
  5
1F
330
1E
100
AcDbEntity
  8
0
100
AcDbBlockBegin
  2
*Model_Space
 70
     0
 10
0.0
 20
0.0
 30
0.0
  3
*Model_Space
  1

  0
ENDBLK
  5
20
330
1E
100
AcDbEntity
  8
0
100
AcDbBlockEnd
  0
BLOCK
  5
1B
330
1A
100
AcDbEntity
 67
     1
  8
0
100
AcDbBlockBegin
  2
*Paper_Space
 70
     0
 10
0.0
 20
0.0
 30
0.0
  3
*Paper_Space
  1

  0
ENDBLK
  5
1C
330
1A
100
AcDbEntity
 67
     1
  8
0
100
AcDbBlockEnd
  0
ENDSEC
  0
SECTION
  2
ENTITIES
  0
LINE
  5
22
330
1E
100
AcDbEntity
  8
0
100
AcDbLine
 10
-0.0226069999999786
 20
22.6471
 30
0.0
 11
0.152733000000021
 21
21.5294
 31
0.0
  0
LINE
  5
2A
330
1E
100
AcDbEntity
  8
0
100
AcDbLine
 10
2.432140000000019
 20
17.5882
 30
0.0
 11
3.30884000000002
 21
16.8235
 31
0.0
  0
LINE
  5
2B
330
1E
100
AcDbEntity
  8
0
100
AcDbLine
 10
4.24399000000002
 20
16.1765
 30
0.0
 11
5.296020000000019
 21
15.7059
 31
0.0
  0
LINE
  5
32
330
1E
100
AcDbEntity
  8
0
100
AcDbLine
 10
5.296020000000019
 20
15.7059
 30
0.0
 11
6.348060000000018
 21
15.2941
 31
0.0
  0
LINE
  5
33
330
1E
100
AcDbEntity
  8
0
100
AcDbLine
 10
7.458540000000018
 20
15.11759999999999
 30
0.0
 11
8.627470000000018
 21
15.0
 31
0.0
  0
LINE
  5
36
330
1E
100
AcDbEntity
  8
0
100
AcDbLine
 10
8.627470000000018
 20
15.0
 30
0.0
 11
23.0342995441926
 21
15.0
 31
0.0
  0
LINE
  5
37
330
1E
100
AcDbEntity
  8
0
100
AcDbLine
 10
8.627470000000018
 20
15.0
 30
0.0
 11
23.0342995441926
 21
15.0
 31
0.0
  0
LINE
  5
3A
330
1E
100
AcDbEntity
  8
0
100
AcDbLine
 10
1.672340000000019
 20
18.4706
 30
0.0
 11
2.432140000000019
 21
17.5882
 31
0.0
  0
LINE
  5
3F
330
1E
100
AcDbEntity
  8
0
100
AcDbLine
 10
0.5618570000000211
 20
20.4706
 30
0.0
 11
1.02943000000002
 21
19.4118
 31
0.0
  0
LINE
  5
41
330
1E
100
AcDbEntity
  8
0
100
AcDbLine
 10
1.02943000000002
 20
19.4118
 30
0.0
 11
1.672340000000019
 21
18.4706
 31
0.0
  0
LINE
  5
42
330
1E
100
AcDbEntity
  8
0
100
AcDbLine
 10
0.152733000000021
 20
21.5294
 30
0.0
 11
0.5618570000000211
 21
20.4706
 31
0.0
  0
LINE
  5
43
330
1E
100
AcDbEntity
  8
0
100
AcDbLine
 10
-0.139499999999979
 20
23.8235
 30
0.0
 11
-0.139499999999979
 21
61.0
 31
0.0
  0
LINE
  5
44
330
1E
100
AcDbEntity
  8
0
100
AcDbLine
 10
-0.139499999999979
 20
23.8235
 30
0.0
 11
-0.0226069999999786
 21
22.6471
 31
0.0
  0
LINE
  5
4B
330
1E
100
AcDbEntity
  8
0
100
AcDbLine
 10
-0.139499999999979
 20
61.0
 30
0.0
 11
-0.139499999999979
 21
98.1765
 31
0.0
  0
LINE
  5
4C
330
1E
100
AcDbEntity
  8
0
100
AcDbLine
 10
-0.139499999999979
 20
61.0
 30
0.0
 11
-0.139499999999979
 21
23.8235
 31
0.0
  0
LINE
  5
59
330
1E
100
AcDbEntity
  8
0
100
AcDbLine
 10
0.152733000000021
 20
100.4709999999999
 30
0.0
 11
0.5618570000000211
 21
101.529
 31
0.0
  0
LINE
  5
5F
330
1E
100
AcDbEntity
  8
0
100
AcDbLine
 10
2.432140000000019
 20
104.412
 30
0.0
 11
3.30884000000002
 21
105.176
 31
0.0
  0
LINE
  5
62
330
1E
100
AcDbEntity
  8
0
100
AcDbLine
 10
3.30884000000002
 20
105.176
 30
0.0
 11
4.24399000000002
 21
105.824
 31
0.0
  0
LINE
  5
64
330
1E
100
AcDbEntity
  8
0
100
AcDbLine
 10
4.24399000000002
 20
105.824
 30
0.0
 11
5.296020000000019
 21
106.2939999999999
 31
0.0
  0
LINE
  5
67
330
1E
100
AcDbEntity
  8
0
100
AcDbLine
 10
5.296020000000019
 20
106.2939999999999
 30
0.0
 11
6.348060000000018
 21
106.706
 31
0.0
  0
LINE
  5
69
330
1E
100
AcDbEntity
  8
0
100
AcDbLine
 10
6.348060000000018
 20
106.706
 30
0.0
 11
7.458540000000018
 21
106.882
 31
0.0
  0
LINE
  5
6E
330
1E
100
AcDbEntity
  8
0
100
AcDbLine
 10
8.627470000000018
 20
107.0
 30
0.0
 11
77.3605
 21
107.0
 31
0.0
  0
LINE
  5
70
330
1E
100
AcDbEntity
  8
0
100
AcDbLine
 10
8.627470000000018
 20
107.0
 30
0.0
 11
77.3605
 21
107.0
 31
0.0
  0
LINE
  5
71
330
1E
100
AcDbEntity
  8
0
100
AcDbLine
 10
7.458540000000018
 20
106.882
 30
0.0
 11
8.627470000000018
 21
107.0
 31
0.0
  0
LINE
  5
72
330
1E
100
AcDbEntity
  8
0
100
AcDbLine
 10
1.672340000000019
 20
103.529
 30
0.0
 11
2.432140000000019
 21
104.412
 31
0.0
  0
LINE
  5
73
330
1E
100
AcDbEntity
  8
0
100
AcDbLine
 10
1.02943000000002
 20
102.5879999999999
 30
0.0
 11
1.672340000000019
 21
103.529
 31
0.0
  0
LINE
  5
74
330
1E
100
AcDbEntity
  8
0
100
AcDbLine
 10
0.5618570000000211
 20
101.529
 30
0.0
 11
1.02943000000002
 21
102.5879999999999
 31
0.0
  0
LINE
  5
75
330
1E
100
AcDbEntity
  8
0
100
AcDbLine
 10
0.152733000000021
 20
100.4709999999999
 30
0.0
 11
0.5618570000000211
 21
101.529
 31
0.0
  0
LINE
  5
76
330
1E
100
AcDbEntity
  8
0
100
AcDbLine
 10
-0.0226069999999786
 20
99.35290000000001
 30
0.0
 11
0.152733000000021
 21
100.4709999999999
 31
0.0
  0
LINE
  5
77
330
1E
100
AcDbEntity
  8
0
100
AcDbLine
 10
-0.139499999999979
 20
98.1765
 30
0.0
 11
-0.0226069999999786
 21
99.35290000000001
 31
0.0
  0
LINE
  5
78
330
1E
100
AcDbEntity
  8
0
100
AcDbLine
 10
-0.139499999999979
 20
98.1765
 30
0.0
 11
-0.139499999999979
 21
61.0
 31
0.0
  0
LINE
  5
7F
330
1E
100
AcDbEntity
  8
0
100
AcDbLine
 10
24.6721
 20
6.527110000000009
 30
0.0
 11
25.3499
 21
5.490700000000009
 31
0.0
  0
LINE
  5
80
330
1E
100
AcDbEntity
  8
0
100
AcDbLine
 10
23.7464
 20
9.303980000000009
 30
0.0
 11
23.9741
 21
7.990020000000009
 31
0.0
  0
LINE
  5
81
330
1E
100
AcDbEntity
  8
0
100
AcDbLine
 10
23.9741
 20
7.990020000000009
 30
0.0
 11
24.6721
 21
6.527110000000009
 31
0.0
  0
LINE
  5
82
330
1E
100
AcDbEntity
  8
0
100
AcDbLine
 10
23.469
 20
11.068
 30
0.0
 11
23.7464
 21
9.303980000000009
 31
0.0
  0
LINE
  5
83
330
1E
100
AcDbEntity
  8
0
100
AcDbLine
 10
23.2105
 20
13.47
 30
0.0
 11
23.469
 21
11.068
 31
0.0
  0
LINE
  5
84
330
1E
100
AcDbEntity
  8
0
100
AcDbLine
 10
23.5105
 20
15.02979999999999
 30
0.0
 11
23.7605
 21
13.6982
 31
0.0
  0
LINE
  5
85
330
1E
100
AcDbEntity
  8
0
100
AcDbLine
 10
23.7605
 20
13.6982
 30
0.0
 11
24.1605
 21
12.4823
 31
0.0
  0
LINE
  5
86
330
1E
100
AcDbEntity
  8
0
100
AcDbLine
 10
24.1605
 20
12.4823
 30
0.0
 11
24.9605
 21
11.3823
 31
0.0
  0
LINE
  5
87
330
1E
100
AcDbEntity
  8
0
100
AcDbLine
 10
26.7419
 20
4.438480000000009
 30
0.0
 11
28.06129999999999
 21
3.847690000000009
 31
0.0
  0
LINE
  5
88
330
1E
100
AcDbEntity
  8
0
100
AcDbLine
 10
25.3499
 20
5.490700000000009
 30
0.0
 11
26.7419
 21
4.438480000000009
 31
0.0
  0
LINE
  5
89
330
1E
100
AcDbEntity
  8
0
100
AcDbLine
 10
29.7317
 20
3.413520000000009
 30
0.0
 11
31.4505
 21
3.133410000000009
 31
0.0
  0
LINE
  5
8A
330
1E
100
AcDbEntity
  8
0
100
AcDbLine
 10
31.4505
 20
3.133410000000009
 30
0.0
 11
33.0482
 21
2.937330000000009
 31
0.0
  0
LINE
  5
8B
330
1E
100
AcDbEntity
  8
0
100
AcDbLine
 10
28.06129999999999
 20
3.847690000000009
 30
0.0
 11
29.7317
 21
3.413520000000009
 31
0.0
  0
LINE
  5
8C
330
1E
100
AcDbEntity
  8
0
100
AcDbLine
 10
34.8605
 20
2.783558485983379
 30
0.0
 11
34.8605
 21
0.300000000000011
 31
0.0
  0
LINE
  5
8D
330
1E
100
AcDbEntity
  8
0
100
AcDbLine
 10
34.8605
 20
0.300000000000012
 30
0.0
 11
35.2565
 21
0.300000000000012
 31
0.0
  0
LINE
  5
8E
330
1E
100
AcDbEntity
  8
0
100
AcDbLine
 10
34.8605
 20
0.300000000000012
 30
0.0
 11
35.12449999999999
 21
0.0000000000000115
 31
0.0
  0
LINE
  5
8F
330
1E
100
AcDbEntity
  8
0
100
AcDbLine
 10
34.8605
 20
0.300000000000012
 30
0.0
 11
34.8605
 21
2.783558485983379
 31
0.0
  0
LINE
  5
90
330
1E
100
AcDbEntity
  8
0
100
AcDbLine
 10
34.8605
 20
0.300000000000012
 30
0.0
 11
35.12449999999999
 21
0.0000000000000115
 31
0.0
  0
LINE
  5
91
330
1E
100
AcDbEntity
  8
0
100
AcDbLine
 10
33.0482
 20
2.937330000000009
 30
0.0
 11
34.8639
 21
2.783270000000009
 31
0.0
  0
LINE
  5
92
330
1E
100
AcDbEntity
  8
0
100
AcDbLine
 10
35.52049999999999
 20
0.0000000000000113
 30
0.0
 11
36.5765
 21
0.0000000000000111
 31
0.0
  0
LINE
  5
93
330
1E
100
AcDbEntity
  8
0
100
AcDbLine
 10
35.52049999999999
 20
0.0000000000000113
 30
0.0
 11
45.8605
 21
0.0000000000000115
 31
0.0
  0
LINE
  5
94
330
1E
100
AcDbEntity
  8
0
100
AcDbLine
 10
36.5765
 20
0.0000000000000111
 30
0.0
 11
38.2925
 21
0.000000000000011
 31
0.0
  0
LINE
  5
95
330
1E
100
AcDbEntity
  8
0
100
AcDbLine
 10
36.5765
 20
0.0000000000000111
 30
0.0
 11
45.8605
 21
0.0000000000000115
 31
0.0
  0
LINE
  5
96
330
1E
100
AcDbEntity
  8
0
100
AcDbLine
 10
36.5765
 20
0.0000000000000118
 30
0.0
 11
38.2925
 21
0.0000000000000119
 31
0.0
  0
LINE
  5
97
330
1E
100
AcDbEntity
  8
0
100
AcDbLine
 10
36.5765
 20
0.0000000000000118
 30
0.0
 11
45.8605
 21
0.0000000000000115
 31
0.0
  0
LINE
  5
98
330
1E
100
AcDbEntity
  8
0
100
AcDbLine
 10
35.52049999999999
 20
0.0000000000000116
 30
0.0
 11
36.5765
 21
0.0000000000000118
 31
0.0
  0
LINE
  5
99
330
1E
100
AcDbEntity
  8
0
100
AcDbLine
 10
35.52049999999999
 20
0.0000000000000116
 30
0.0
 11
45.8605
 21
0.0000000000000115
 31
0.0
  0
LINE
  5
9A
330
1E
100
AcDbEntity
  8
0
100
AcDbLine
 10
35.12449999999999
 20
0.0000000000000115
 30
0.0
 11
35.52049999999999
 21
0.0000000000000116
 31
0.0
  0
LINE
  5
9B
330
1E
100
AcDbEntity
  8
0
100
AcDbLine
 10
35.12449999999999
 20
0.0000000000000115
 30
0.0
 11
45.8605
 21
0.0000000000000115
 31
0.0
  0
LINE
  5
9C
330
1E
100
AcDbEntity
  8
0
100
AcDbLine
 10
35.12449999999999
 20
0.0000000000000115
 30
0.0
 11
35.52049999999999
 21
0.0000000000000113
 31
0.0
  0
LINE
  5
9F
330
1E
100
AcDbEntity
  8
0
100
AcDbLine
 10
36.3125
 20
0.300000000000012
 30
0.0
 11
38.07249999999999
 21
0.300000000000012
 31
0.0
  0
LINE
  5
A4
330
1E
100
AcDbEntity
  8
0
100
AcDbLine
 10
35.2565
 20
0.300000000000012
 30
0.0
 11
36.3125
 21
0.300000000000012
 31
0.0
  0
LINE
  5
A8
330
1E
100
AcDbEntity
  8
0
100
AcDbLine
 10
34.0004
 20
8.67099000000001
 30
0.0
 11
36.7886
 21
8.419180000000018
 31
0.0
  0
LINE
  5
A9
330
1E
100
AcDbEntity
  8
0
100
AcDbLine
 10
31.729
 20
8.938520000000009
 30
0.0
 11
34.0004
 21
8.67099000000001
 31
0.0
  0
LINE
  5
AA
330
1E
100
AcDbEntity
  8
0
100
AcDbLine
 10
29.7605
 20
9.240150000000008
 30
0.0
 11
31.729
 21
8.938520000000009
 31
0.0
  0
LINE
  5
AB
330
1E
100
AcDbEntity
  8
0
100
AcDbLine
 10
27.86049999999999
 20
9.70332000000001
 30
0.0
 11
29.7605
 21
9.240150000000008
 31
0.0
  0
LINE
  5
AC
330
1E
100
AcDbEntity
  8
0
100
AcDbLine
 10
26.16049999999999
 20
10.39809999999999
 30
0.0
 11
27.86049999999999
 21
9.70332000000001
 31
0.0
  0
LINE
  5
AD
330
1E
100
AcDbEntity
  8
0
100
AcDbLine
 10
24.9605
 20
11.3823
 30
0.0
 11
26.16049999999999
 21
10.39809999999999
 31
0.0
  0
LINE
  5
AF
330
1E
100
AcDbEntity
  8
0
100
AcDbLine
 10
23.1741
 20
20.47709999999999
 30
0.0
 11
23.2464
 21
18.69069999999999
 31
0.0
  0
LINE
  5
B0
330
1E
100
AcDbEntity
  8
0
100
AcDbLine
 10
23.2464
 20
18.69069999999999
 30
0.0
 11
23.3366
 21
16.6326
 31
0.0
  0
LINE
  5
B1
330
1E
100
AcDbEntity
  8
0
100
AcDbLine
 10
23.3366
 20
16.6326
 30
0.0
 11
23.5105
 21
15.02979999999999
 31
0.0
  0
LINE
  5
B3
330
1E
100
AcDbEntity
  8
0
100
AcDbLine
 10
23.0105
 20
15.2069
 30
0.0
 11
23.2105
 21
13.47
 31
0.0
  0
LINE
  5
B4
330
1E
100
AcDbEntity
  8
0
100
AcDbLine
 10
48.6325
 20
0.0000000000000108
 30
0.0
 11
51.1845
 21
0.0000000000000109
 31
0.0
  0
LINE
  5
B5
330
1E
100
AcDbEntity
  8
0
100
AcDbLine
 10
51.1845
 20
0.0000000000000109
 30
0.0
 11
53.4285
 21
0.000000000000011
 31
0.0
  0
LINE
  5
B6
330
1E
100
AcDbEntity
  8
0
100
AcDbLine
 10
45.8605
 20
0.0000000000000108
 30
0.0
 11
48.6325
 21
0.0000000000000108
 31
0.0
  0
LINE
  5
B7
330
1E
100
AcDbEntity
  8
0
100
AcDbLine
 10
43.0885
 20
0.0000000000000108
 30
0.0
 11
45.8605
 21
0.0000000000000108
 31
0.0
  0
LINE
  5
B8
330
1E
100
AcDbEntity
  8
0
100
AcDbLine
 10
43.0885
 20
0.0000000000000108
 30
0.0
 11
45.8605
 21
0.0000000000000115
 31
0.0
  0
LINE
  5
B9
330
1E
100
AcDbEntity
  8
0
100
AcDbLine
 10
53.4285
 20
0.000000000000011
 30
0.0
 11
55.1445
 21
0.0000000000000111
 31
0.0
  0
LINE
  5
BA
330
1E
100
AcDbEntity
  8
0
100
AcDbLine
 10
55.1445
 20
0.0000000000000111
 30
0.0
 11
56.20049999999999
 21
0.0000000000000113
 31
0.0
  0
LINE
  5
BB
330
1E
100
AcDbEntity
  8
0
100
AcDbLine
 10
56.20049999999999
 20
0.0000000000000113
 30
0.0
 11
56.5965
 21
0.0000000000000115
 31
0.0
  0
LINE
  5
BC
330
1E
100
AcDbEntity
  8
0
100
AcDbLine
 10
40.5365
 20
0.0000000000000109
 30
0.0
 11
43.0885
 21
0.0000000000000108
 31
0.0
  0
LINE
  5
BD
330
1E
100
AcDbEntity
  8
0
100
AcDbLine
 10
40.5365
 20
0.0000000000000109
 30
0.0
 11
45.8605
 21
0.0000000000000115
 31
0.0
  0
LINE
  5
BE
330
1E
100
AcDbEntity
  8
0
100
AcDbLine
 10
38.2925
 20
0.000000000000011
 30
0.0
 11
40.5365
 21
0.0000000000000109
 31
0.0
  0
LINE
  5
BF
330
1E
100
AcDbEntity
  8
0
100
AcDbLine
 10
38.2925
 20
0.000000000000011
 30
0.0
 11
45.8605
 21
0.0000000000000115
 31
0.0
  0
LINE
  5
C0
330
1E
100
AcDbEntity
  8
0
100
AcDbLine
 10
45.8605
 20
0.0000000000000115
 30
0.0
 11
56.5965
 21
0.0000000000000115
 31
0.0
  0
LINE
  5
C1
330
1E
100
AcDbEntity
  8
0
100
AcDbLine
 10
45.8605
 20
0.0000000000000115
 30
0.0
 11
56.20049999999999
 21
0.0000000000000116
 31
0.0
  0
LINE
  5
C2
330
1E
100
AcDbEntity
  8
0
100
AcDbLine
 10
45.8605
 20
0.0000000000000115
 30
0.0
 11
55.1445
 21
0.0000000000000118
 31
0.0
  0
LINE
  5
C3
330
1E
100
AcDbEntity
  8
0
100
AcDbLine
 10
45.8605
 20
0.0000000000000115
 30
0.0
 11
53.4285
 21
0.0000000000000119
 31
0.0
  0
LINE
  5
C4
330
1E
100
AcDbEntity
  8
0
100
AcDbLine
 10
45.8605
 20
0.0000000000000115
 30
0.0
 11
51.1845
 21
0.000000000000012
 31
0.0
  0
LINE
  5
C5
330
1E
100
AcDbEntity
  8
0
100
AcDbLine
 10
45.8605
 20
0.0000000000000115
 30
0.0
 11
48.6325
 21
0.0000000000000121
 31
0.0
  0
LINE
  5
C6
330
1E
100
AcDbEntity
  8
0
100
AcDbLine
 10
45.8605
 20
0.0000000000000115
 30
0.0
 11
56.20049999999999
 21
0.0000000000000113
 31
0.0
  0
LINE
  5
C7
330
1E
100
AcDbEntity
  8
0
100
AcDbLine
 10
45.8605
 20
0.0000000000000115
 30
0.0
 11
55.1445
 21
0.0000000000000111
 31
0.0
  0
LINE
  5
C8
330
1E
100
AcDbEntity
  8
0
100
AcDbLine
 10
45.8605
 20
0.0000000000000115
 30
0.0
 11
53.4285
 21
0.000000000000011
 31
0.0
  0
LINE
  5
C9
330
1E
100
AcDbEntity
  8
0
100
AcDbLine
 10
45.8605
 20
0.0000000000000115
 30
0.0
 11
51.1845
 21
0.0000000000000109
 31
0.0
  0
LINE
  5
CA
330
1E
100
AcDbEntity
  8
0
100
AcDbLine
 10
45.8605
 20
0.0000000000000115
 30
0.0
 11
48.6325
 21
0.0000000000000108
 31
0.0
  0
LINE
  5
CB
330
1E
100
AcDbEntity
  8
0
100
AcDbLine
 10
56.5965
 20
0.0000000000000115
 30
0.0
 11
56.8605
 21
0.300000000000012
 31
0.0
  0
LINE
  5
CD
330
1E
100
AcDbEntity
  8
0
100
AcDbLine
 10
38.2925
 20
0.0000000000000119
 30
0.0
 11
40.5365
 21
0.000000000000012
 31
0.0
  0
LINE
  5
CE
330
1E
100
AcDbEntity
  8
0
100
AcDbLine
 10
38.2925
 20
0.0000000000000119
 30
0.0
 11
45.8605
 21
0.0000000000000115
 31
0.0
  0
LINE
  5
CF
330
1E
100
AcDbEntity
  8
0
100
AcDbLine
 10
43.0885
 20
0.0000000000000121
 30
0.0
 11
45.8605
 21
0.0000000000000121
 31
0.0
  0
LINE
  5
D0
330
1E
100
AcDbEntity
  8
0
100
AcDbLine
 10
43.0885
 20
0.0000000000000121
 30
0.0
 11
45.8605
 21
0.0000000000000115
 31
0.0
  0
LINE
  5
D1
330
1E
100
AcDbEntity
  8
0
100
AcDbLine
 10
40.5365
 20
0.000000000000012
 30
0.0
 11
43.0885
 21
0.0000000000000121
 31
0.0
  0
LINE
  5
D2
330
1E
100
AcDbEntity
  8
0
100
AcDbLine
 10
40.5365
 20
0.000000000000012
 30
0.0
 11
45.8605
 21
0.0000000000000115
 31
0.0
  0
LINE
  5
D3
330
1E
100
AcDbEntity
  8
0
100
AcDbLine
 10
45.8605
 20
0.0000000000000121
 30
0.0
 11
48.6325
 21
0.0000000000000121
 31
0.0
  0
LINE
  5
D6
330
1E
100
AcDbEntity
  8
0
100
AcDbLine
 10
48.6325
 20
0.0000000000000121
 30
0.0
 11
51.1845
 21
0.000000000000012
 31
0.0
  0
LINE
  5
D9
330
1E
100
AcDbEntity
  8
0
100
AcDbLine
 10
51.1845
 20
0.000000000000012
 30
0.0
 11
53.4285
 21
0.0000000000000119
 31
0.0
  0
LINE
  5
DC
330
1E
100
AcDbEntity
  8
0
100
AcDbLine
 10
53.4285
 20
0.0000000000000119
 30
0.0
 11
55.1445
 21
0.0000000000000118
 31
0.0
  0
LINE
  5
DF
330
1E
100
AcDbEntity
  8
0
100
AcDbLine
 10
55.1445
 20
0.0000000000000118
 30
0.0
 11
56.20049999999999
 21
0.0000000000000116
 31
0.0
  0
LINE
  5
E1
330
1E
100
AcDbEntity
  8
0
100
AcDbLine
 10
56.20049999999999
 20
0.0000000000000116
 30
0.0
 11
56.5965
 21
0.0000000000000115
 31
0.0
  0
LINE
  5
E3
330
1E
100
AcDbEntity
  8
0
100
AcDbLine
 10
56.5965
 20
0.0000000000000115
 30
0.0
 11
56.8605
 21
0.300000000000012
 31
0.0
  0
LINE
  5
E5
330
1E
100
AcDbEntity
  8
0
100
AcDbLine
 10
38.07249999999999
 20
0.300000000000012
 30
0.0
 11
40.40449999999999
 21
0.300000000000012
 31
0.0
  0
LINE
  5
E9
330
1E
100
AcDbEntity
  8
0
100
AcDbLine
 10
40.40449999999999
 20
0.300000000000012
 30
0.0
 11
43.0445
 21
0.300000000000012
 31
0.0
  0
LINE
  5
ED
330
1E
100
AcDbEntity
  8
0
100
AcDbLine
 10
43.0445
 20
0.300000000000012
 30
0.0
 11
45.8605
 21
0.300000000000012
 31
0.0
  0
LINE
  5
F6
330
1E
100
AcDbEntity
  8
0
100
AcDbLine
 10
45.8605
 20
0.300000000000012
 30
0.0
 11
48.6765
 21
0.300000000000012
 31
0.0
  0
LINE
  5
FA
330
1E
100
AcDbEntity
  8
0
100
AcDbLine
 10
48.6765
 20
0.300000000000012
 30
0.0
 11
51.3165
 21
0.300000000000012
 31
0.0
  0
LINE
  5
FE
330
1E
100
AcDbEntity
  8
0
100
AcDbLine
 10
51.3165
 20
0.300000000000012
 30
0.0
 11
53.6485
 21
0.300000000000012
 31
0.0
  0
LINE
  5
101
330
1E
100
AcDbEntity
  8
0
100
AcDbLine
 10
53.6485
 20
0.300000000000012
 30
0.0
 11
55.40849999999999
 21
0.300000000000012
 31
0.0
  0
LINE
  5
105
330
1E
100
AcDbEntity
  8
0
100
AcDbLine
 10
55.40849999999999
 20
0.300000000000012
 30
0.0
 11
56.4645
 21
0.300000000000012
 31
0.0
  0
LINE
  5
107
330
1E
100
AcDbEntity
  8
0
100
AcDbLine
 10
56.8571
 20
2.783270000000009
 30
0.0
 11
58.6728
 21
2.937330000000009
 31
0.0
  0
LINE
  5
108
330
1E
100
AcDbEntity
  8
0
100
AcDbLine
 10
56.8605
 20
2.783558485983379
 30
0.0
 11
56.8605
 21
0.300000000000011
 31
0.0
  0
LINE
  5
10A
330
1E
100
AcDbEntity
  8
0
100
AcDbLine
 10
56.4645
 20
0.300000000000012
 30
0.0
 11
56.8605
 21
0.300000000000012
 31
0.0
  0
LINE
  5
10C
330
1E
100
AcDbEntity
  8
0
100
AcDbLine
 10
60.2705
 20
3.133410000000009
 30
0.0
 11
61.9893
 21
3.413520000000009
 31
0.0
  0
LINE
  5
10D
330
1E
100
AcDbEntity
  8
0
100
AcDbLine
 10
61.9893
 20
3.413520000000009
 30
0.0
 11
63.6597
 21
3.847690000000009
 31
0.0
  0
LINE
  5
10E
330
1E
100
AcDbEntity
  8
0
100
AcDbLine
 10
66.37109999999999
 20
5.490700000000009
 30
0.0
 11
67.0489
 21
6.527110000000009
 31
0.0
  0
LINE
  5
10F
330
1E
100
AcDbEntity
  8
0
100
AcDbLine
 10
67.0489
 20
6.527110000000009
 30
0.0
 11
67.74689999999999
 21
7.990020000000009
 31
0.0
  0
LINE
  5
110
330
1E
100
AcDbEntity
  8
0
100
AcDbLine
 10
64.9791
 20
4.438480000000009
 30
0.0
 11
66.37109999999999
 21
5.490700000000009
 31
0.0
  0
LINE
  5
111
330
1E
100
AcDbEntity
  8
0
100
AcDbLine
 10
63.6597
 20
3.847690000000009
 30
0.0
 11
64.9791
 21
4.438480000000009
 31
0.0
  0
LINE
  5
112
330
1E
100
AcDbEntity
  8
0
100
AcDbLine
 10
58.6728
 20
2.937330000000009
 30
0.0
 11
60.2705
 21
3.133410000000009
 31
0.0
  0
LINE
  5
113
330
1E
100
AcDbEntity
  8
0
100
AcDbLine
 10
56.8605
 20
0.300000000000012
 30
0.0
 11
56.8605
 21
2.783558485983379
 31
0.0
  0
LINE
  5
115
330
1E
100
AcDbEntity
  8
0
100
AcDbLine
 10
45.8605
 20
8.082230000000009
 30
0.0
 11
48.1591
 21
8.128040000000009
 31
0.0
  0
LINE
  5
117
330
1E
100
AcDbEntity
  8
0
100
AcDbLine
 10
67.74689999999999
 20
7.990020000000009
 30
0.0
 11
67.9746
 21
9.303980000000009
 31
0.0
  0
LINE
  5
118
330
1E
100
AcDbEntity
  8
0
100
AcDbLine
 10
48.1591
 20
8.128040000000009
 30
0.0
 11
51.3146
 21
8.214600000000009
 31
0.0
  0
LINE
  5
119
330
1E
100
AcDbEntity
  8
0
100
AcDbLine
 10
51.3146
 20
8.214600000000009
 30
0.0
 11
54.9324
 21
8.419180000000018
 31
0.0
  0
LINE
  5
11A
330
1E
100
AcDbEntity
  8
0
100
AcDbLine
 10
43.5619
 20
8.128040000000009
 30
0.0
 11
45.8605
 21
8.082230000000009
 31
0.0
  0
LINE
  5
11B
330
1E
100
AcDbEntity
  8
0
100
AcDbLine
 10
54.9324
 20
8.419180000000018
 30
0.0
 11
57.72059999999999
 21
8.67099000000001
 31
0.0
  0
LINE
  5
11C
330
1E
100
AcDbEntity
  8
0
100
AcDbLine
 10
57.72059999999999
 20
8.67099000000001
 30
0.0
 11
59.992
 21
8.938520000000009
 31
0.0
  0
LINE
  5
11D
330
1E
100
AcDbEntity
  8
0
100
AcDbLine
 10
59.992
 20
8.938520000000009
 30
0.0
 11
61.9605
 21
9.240150000000008
 31
0.0
  0
LINE
  5
11E
330
1E
100
AcDbEntity
  8
0
100
AcDbLine
 10
67.9746
 20
9.303980000000009
 30
0.0
 11
68.25199999999999
 21
11.068
 31
0.0
  0
LINE
  5
11F
330
1E
100
AcDbEntity
  8
0
100
AcDbLine
 10
61.9605
 20
9.240150000000008
 30
0.0
 11
63.8605
 21
9.70332000000001
 31
0.0
  0
LINE
  5
120
330
1E
100
AcDbEntity
  8
0
100
AcDbLine
 10
68.25199999999999
 20
11.068
 30
0.0
 11
68.51049999999999
 21
13.47
 31
0.0
  0
LINE
  5
121
330
1E
100
AcDbEntity
  8
0
100
AcDbLine
 10
68.47459999999999
 20
18.69069999999999
 30
0.0
 11
68.54689999999999
 21
20.47709999999999
 31
0.0
  0
LINE
  5
122
330
1E
100
AcDbEntity
  8
0
100
AcDbLine
 10
68.3844
 20
16.6326
 30
0.0
 11
68.47459999999999
 21
18.69069999999999
 31
0.0
  0
LINE
  5
123
330
1E
100
AcDbEntity
  8
0
100
AcDbLine
 10
68.21049999999999
 20
15.02979999999999
 30
0.0
 11
68.3844
 21
16.6326
 31
0.0
  0
LINE
  5
124
330
1E
100
AcDbEntity
  8
0
100
AcDbLine
 10
67.9605
 20
13.6982
 30
0.0
 11
68.21049999999999
 21
15.02979999999999
 31
0.0
  0
LINE
  5
125
330
1E
100
AcDbEntity
  8
0
100
AcDbLine
 10
67.5605
 20
12.4823
 30
0.0
 11
67.9605
 21
13.6982
 31
0.0
  0
LINE
  5
126
330
1E
100
AcDbEntity
  8
0
100
AcDbLine
 10
66.7605
 20
11.3823
 30
0.0
 11
67.5605
 21
12.4823
 31
0.0
  0
LINE
  5
127
330
1E
100
AcDbEntity
  8
0
100
AcDbLine
 10
65.5605
 20
10.39809999999999
 30
0.0
 11
66.7605
 21
11.3823
 31
0.0
  0
LINE
  5
129
330
1E
100
AcDbEntity
  8
0
100
AcDbLine
 10
68.68670045580739
 20
15.0
 30
0.0
 11
77.3605
 21
15.0
 31
0.0
  0
LINE
  5
12B
330
1E
100
AcDbEntity
  8
0
100
AcDbLine
 10
68.54689999999999
 20
20.47709999999999
 30
0.0
 11
68.5605
 21
21.80369999999999
 31
0.0
  0
LINE
  5
12F
330
1E
100
AcDbEntity
  8
0
100
AcDbLine
 10
68.51049999999999
 20
13.47
 30
0.0
 11
68.7105
 21
15.2069
 31
0.0
  0
LINE
  5
130
330
1E
100
AcDbEntity
  8
0
100
AcDbLine
 10
63.8605
 20
9.70332000000001
 30
0.0
 11
65.5605
 21
10.39809999999999
 31
0.0
  0
LINE
  5
13C
330
1E
100
AcDbEntity
  8
0
100
AcDbLine
 10
149.4245
 20
15.7059
 30
0.0
 11
150.4764999999999
 21
16.1765
 31
0.0
  0
LINE
  5
13D
330
1E
100
AcDbEntity
  8
0
100
AcDbLine
 10
148.3724999999999
 20
15.2941
 30
0.0
 11
149.4245
 21
15.7059
 31
0.0
  0
LINE
  5
13E
330
1E
100
AcDbEntity
  8
0
100
AcDbLine
 10
77.3605
 20
15.0
 30
0.0
 11
146.0935
 21
15.0
 31
0.0
  0
LINE
  5
148
330
1E
100
AcDbEntity
  8
0
100
AcDbLine
 10
68.5605
 20
21.80369999999999
 30
0.0
 11
68.5605
 21
52.9229
 31
0.0
  0
LINE
  5
14B
330
1E
100
AcDbEntity
  8
0
100
AcDbLine
 10
40.40639999999999
 20
8.214600000000009
 30
0.0
 11
43.5619
 21
8.128040000000009
 31
0.0
  0
LINE
  5
14C
330
1E
100
AcDbEntity
  8
0
100
AcDbLine
 10
36.7886
 20
8.419180000000018
 30
0.0
 11
40.40639999999999
 21
8.214600000000009
 31
0.0
  0
LINE
  5
150
330
1E
100
AcDbEntity
  8
0
100
AcDbLine
 10
23.1605
 20
55.15550000000001
 30
0.0
 11
23.1605
 21
57.0659
 31
0.0
  0
LINE
  5
151
330
1E
100
AcDbEntity
  8
0
100
AcDbLine
 10
23.1605
 20
55.15550000000001
 30
0.0
 11
23.1605
 21
52.9229
 31
0.0
  0
LINE
  5
156
330
1E
100
AcDbEntity
  8
0
100
AcDbLine
 10
23.1605
 20
61.0141
 30
0.0
 11
23.2464
 21
63.2231
 31
0.0
  0
LINE
  5
157
330
1E
100
AcDbEntity
  8
0
100
AcDbLine
 10
23.1605
 20
61.0141
 30
0.0
 11
23.1605
 21
59.13389999999999
 31
0.0
  0
LINE
  5
158
330
1E
100
AcDbEntity
  8
0
100
AcDbLine
 10
23.1605
 20
59.13389999999999
 30
0.0
 11
23.1605
 21
57.0659
 31
0.0
  0
LINE
  5
159
330
1E
100
AcDbEntity
  8
0
100
AcDbLine
 10
23.1605
 20
59.13389999999999
 30
0.0
 11
23.1605
 21
61.0141
 31
0.0
  0
LINE
  5
15A
330
1E
100
AcDbEntity
  8
0
100
AcDbLine
 10
23.1605
 20
57.0659
 30
0.0
 11
23.1605
 21
59.13389999999999
 31
0.0
  0
LINE
  5
15B
330
1E
100
AcDbEntity
  8
0
100
AcDbLine
 10
23.1605
 20
57.0659
 30
0.0
 11
23.1605
 21
55.15550000000001
 31
0.0
  0
LINE
  5
15C
330
1E
100
AcDbEntity
  8
0
100
AcDbLine
 10
23.2464
 20
63.2231
 30
0.0
 11
23.3366
 21
66.7012
 31
0.0
  0
LINE
  5
15E
330
1E
100
AcDbEntity
  8
0
100
AcDbLine
 10
23.3366
 20
66.7012
 30
0.0
 11
23.5105
 21
69.6858
 31
0.0
  0
LINE
  5
15F
330
1E
100
AcDbEntity
  8
0
100
AcDbLine
 10
23.5105
 20
69.6858
 30
0.0
 11
23.7605
 21
72.0
 31
0.0
  0
LINE
  5
162
330
1E
100
AcDbEntity
  8
0
100
AcDbLine
 10
23.7605
 20
72.0
 30
0.0
 11
24.1605
 21
74.1
 31
0.0
  0
LINE
  5
167
330
1E
100
AcDbEntity
  8
0
100
AcDbLine
 10
154.8605
 20
23.8235
 30
0.0
 11
154.8605
 21
47.60749439999999
 31
0.0
  0
LINE
  5
168
330
1E
100
AcDbEntity
  8
0
100
AcDbLine
 10
74.3816
 20
41.48369999999999
 30
0.0
 11
80.7057
 21
42.15939999999999
 31
0.0
  0
LINE
  5
169
330
1E
100
AcDbEntity
  8
0
100
AcDbLine
 10
69.2687
 20
41.23029999999999
 30
0.0
 11
74.3816
 21
41.48369999999999
 31
0.0
  0
LINE
  5
16A
330
1E
100
AcDbEntity
  8
0
100
AcDbLine
 10
68.8605
 20
41.21899255431159
 30
0.0
 11
69.2687
 21
41.23029999999999
 31
0.0
  0
LINE
  5
16F
330
1E
100
AcDbEntity
  8
0
100
AcDbLine
 10
68.5605
 20
59.13389999999999
 30
0.0
 11
68.5605
 21
57.0659
 31
0.0
  0
LINE
  5
170
330
1E
100
AcDbEntity
  8
0
100
AcDbLine
 10
68.5605
 20
59.13389999999999
 30
0.0
 11
68.5605
 21
61.0141
 31
0.0
  0
LINE
  5
171
330
1E
100
AcDbEntity
  8
0
100
AcDbLine
 10
68.5605
 20
57.0659
 30
0.0
 11
68.5605
 21
55.15550000000001
 31
0.0
  0
LINE
  5
172
330
1E
100
AcDbEntity
  8
0
100
AcDbLine
 10
68.5605
 20
57.0659
 30
0.0
 11
68.5605
 21
59.13389999999999
 31
0.0
  0
LINE
  5
173
330
1E
100
AcDbEntity
  8
0
100
AcDbLine
 10
68.5605
 20
55.15550000000001
 30
0.0
 11
68.5605
 21
52.9229
 31
0.0
  0
LINE
  5
174
330
1E
100
AcDbEntity
  8
0
100
AcDbLine
 10
68.5605
 20
55.15550000000001
 30
0.0
 11
68.5605
 21
57.0659
 31
0.0
  0
LINE
  5
17D
330
1E
100
AcDbEntity
  8
0
100
AcDbLine
 10
68.5605
 20
52.9229
 30
0.0
 11
68.5605
 21
21.80369999999999
 31
0.0
  0
LINE
  5
17E
330
1E
100
AcDbEntity
  8
0
100
AcDbLine
 10
68.5605
 20
52.9229
 30
0.0
 11
68.5605
 21
55.15550000000001
 31
0.0
  0
LINE
  5
186
330
1E
100
AcDbEntity
  8
0
100
AcDbLine
 10
80.7057
 20
42.15939999999999
 30
0.0
 11
85.6497
 21
42.8139
 31
0.0
  0
LINE
  5
188
330
1E
100
AcDbEntity
  8
0
100
AcDbLine
 10
68.5605
 20
61.0141
 30
0.0
 11
68.5605
 21
59.13389999999999
 31
0.0
  0
LINE
  5
189
330
1E
100
AcDbEntity
  8
0
100
AcDbLine
 10
68.47459999999999
 20
63.2231
 30
0.0
 11
68.5605
 21
61.0141
 31
0.0
  0
LINE
  5
18A
330
1E
100
AcDbEntity
  8
0
100
AcDbLine
 10
68.3844
 20
66.7012
 30
0.0
 11
68.47459999999999
 21
63.2231
 31
0.0
  0
LINE
  5
18C
330
1E
100
AcDbEntity
  8
0
100
AcDbLine
 10
68.21049999999999
 20
69.6858
 30
0.0
 11
68.3844
 21
66.7012
 31
0.0
  0
LINE
  5
18D
330
1E
100
AcDbEntity
  8
0
100
AcDbLine
 10
67.9605
 20
72.0
 30
0.0
 11
68.21049999999999
 21
69.6858
 31
0.0
  0
LINE
  5
18E
330
1E
100
AcDbEntity
  8
0
100
AcDbLine
 10
67.5605
 20
74.1
 30
0.0
 11
67.9605
 21
72.0
 31
0.0
  0
LINE
  5
18F
330
1E
100
AcDbEntity
  8
0
100
AcDbLine
 10
66.7605
 20
76.0
 30
0.0
 11
67.5605
 21
74.1
 31
0.0
  0
LINE
  5
195
330
1E
100
AcDbEntity
  8
0
100
AcDbLine
 10
81.6791
 20
45.3646
 30
0.0
 11
81.81780000000001
 21
45.3478
 31
0.0
  0
LINE
  5
196
330
1E
100
AcDbEntity
  8
0
100
AcDbLine
 10
81.5558
 20
45.4382
 30
0.0
 11
81.6791
 21
45.3646
 31
0.0
  0
LINE
  5
197
330
1E
100
AcDbEntity
  8
0
100
AcDbLine
 10
81.4942
 20
45.52649999999999
 30
0.0
 11
81.5558
 21
45.4382
 31
0.0
  0
LINE
  5
198
330
1E
100
AcDbEntity
  8
0
100
AcDbLine
 10
81.41710000000001
 20
45.72519999999999
 30
0.0
 11
81.4942
 21
45.52649999999999
 31
0.0
  0
LINE
  5
19B
330
1E
100
AcDbEntity
  8
0
100
AcDbLine
 10
81.38240000000001
 20
45.9238
 30
0.0
 11
81.41710000000001
 21
45.72519999999999
 31
0.0
  0
LINE
  5
19C
330
1E
100
AcDbEntity
  8
0
100
AcDbLine
 10
96.31210000000001
 20
44.47829999999999
 30
0.0
 11
96.5454
 21
44.54089999999999
 31
0.0
  0
LINE
  5
19D
330
1E
100
AcDbEntity
  8
0
100
AcDbLine
 10
94.53409999999999
 20
44.26899999999999
 30
0.0
 11
96.31210000000001
 21
44.47829999999999
 31
0.0
  0
LINE
  5
19E
330
1E
100
AcDbEntity
  8
0
100
AcDbLine
 10
89.0244
 20
44.7
 30
0.0
 11
97.1854
 21
44.7
 31
0.0
  0
LINE
  5
1A4
330
1E
100
AcDbEntity
  8
0
100
AcDbLine
 10
97.1854
 20
44.7
 30
0.0
 11
105.3465
 21
44.7
 31
0.0
  0
LINE
  5
1A5
330
1E
100
AcDbEntity
  8
0
100
AcDbLine
 10
109.8854999999999
 20
49.271
 30
0.0
 11
110.5145
 21
49.00739999999999
 31
0.0
  0
LINE
  5
1A7
330
1E
100
AcDbEntity
  8
0
100
AcDbLine
 10
110.5145
 20
49.00739999999999
 30
0.0
 11
111.1394999999999
 21
48.9162
 31
0.0
  0
LINE
  5
1A9
330
1E
100
AcDbEntity
  8
0
100
AcDbLine
 10
109.2565
 20
49.7088
 30
0.0
 11
109.8854999999999
 21
49.271
 31
0.0
  0
LINE
  5
1AC
330
1E
100
AcDbEntity
  8
0
100
AcDbLine
 10
111.1394999999999
 20
48.9162
 30
0.0
 11
136.1885
 21
49.6437
 31
0.0
  0
LINE
  5
1B0
330
1E
100
AcDbEntity
  8
0
100
AcDbLine
 10
136.1885
 20
49.6437
 30
0.0
 11
136.8135
 21
49.7276
 31
0.0
  0
LINE
  5
1B5
330
1E
100
AcDbEntity
  8
0
100
AcDbLine
 10
105.3465
 20
44.7
 30
0.0
 11
152.7524999999999
 21
47.0385
 31
0.0
  0
LINE
  5
1B7
330
1E
100
AcDbEntity
  8
0
100
AcDbLine
 10
108.5335
 20
50.9286
 30
0.0
 11
108.8065
 21
50.3196
 31
0.0
  0
LINE
  5
1B8
330
1E
100
AcDbEntity
  8
0
100
AcDbLine
 10
108.8065
 20
50.3196
 30
0.0
 11
109.2565
 21
49.7088
 31
0.0
  0
LINE
  5
1BA
330
1E
100
AcDbEntity
  8
0
100
AcDbLine
 10
81.7196
 20
61.2404
 30
0.0
 11
89.0244
 21
44.7
 31
0.0
  0
LINE
  5
1BB
330
1E
100
AcDbEntity
  8
0
100
AcDbLine
 10
81.7196
 20
61.2404
 30
0.0
 11
89.0244
 21
44.7
 31
0.0
  0
LINE
  5
1BC
330
1E
100
AcDbEntity
  8
0
100
AcDbLine
 10
108.4415
 20
51.5379
 30
0.0
 11
108.5335
 21
50.9286
 31
0.0
  0
LINE
  5
1BE
330
1E
100
AcDbEntity
  8
0
100
AcDbLine
 10
108.3844999999999
 20
61.0914
 30
0.0
 11
108.4415
 21
51.5379
 31
0.0
  0
LINE
  5
1C1
330
1E
100
AcDbEntity
  8
0
100
AcDbLine
 10
108.4135
 20
71.2516
 30
0.0
 11
108.6785
 21
71.8584
 31
0.0
  0
LINE
  5
1C2
330
1E
100
AcDbEntity
  8
0
100
AcDbLine
 10
108.6785
 20
71.8584
 30
0.0
 11
109.1225
 21
72.4641
 31
0.0
  0
LINE
  5
1C3
330
1E
100
AcDbEntity
  8
0
100
AcDbLine
 10
109.1225
 20
72.4641
 30
0.0
 11
109.7464999999999
 21
72.8949
 31
0.0
  0
LINE
  5
1C6
330
1E
100
AcDbEntity
  8
0
100
AcDbLine
 10
110.3705
 20
73.15139999999999
 30
0.0
 11
110.9965
 21
73.2351
 31
0.0
  0
LINE
  5
1C7
330
1E
100
AcDbEntity
  8
0
100
AcDbLine
 10
109.7464999999999
 20
72.8949
 30
0.0
 11
110.3705
 21
73.15139999999999
 31
0.0
  0
LINE
  5
1CB
330
1E
100
AcDbEntity
  8
0
100
AcDbLine
 10
110.9965
 20
73.2351
 30
0.0
 11
136.0544999999999
 21
72.2256
 31
0.0
  0
LINE
  5
1CC
330
1E
100
AcDbEntity
  8
0
100
AcDbLine
 10
108.3285
 20
70.6451
 30
0.0
 11
108.3844999999999
 21
61.0914
 31
0.0
  0
LINE
  5
1CD
330
1E
100
AcDbEntity
  8
0
100
AcDbLine
 10
108.3285
 20
70.6451
 30
0.0
 11
108.4135
 21
71.2516
 31
0.0
  0
LINE
  5
1D0
330
1E
100
AcDbEntity
  8
0
100
AcDbLine
 10
125.1885
 20
71.2516
 30
0.0
 11
125.4535
 21
71.8584
 31
0.0
  0
LINE
  5
1D1
330
1E
100
AcDbEntity
  8
0
100
AcDbLine
 10
125.1034999999999
 20
70.6451
 30
0.0
 11
125.1605
 21
61.0914
 31
0.0
  0
LINE
  5
1D2
330
1E
100
AcDbEntity
  8
0
100
AcDbLine
 10
125.1034999999999
 20
70.6451
 30
0.0
 11
125.1885
 21
71.2516
 31
0.0
  0
LINE
  5
1D3
330
1E
100
AcDbEntity
  8
0
100
AcDbLine
 10
125.1605
 20
61.0914
 30
0.0
 11
125.2164999999999
 21
51.5379
 31
0.0
  0
LINE
  5
1D4
330
1E
100
AcDbEntity
  8
0
100
AcDbLine
 10
125.4535
 20
71.8584
 30
0.0
 11
125.8974999999999
 21
72.4641
 31
0.0
  0
LINE
  5
1D5
330
1E
100
AcDbEntity
  8
0
100
AcDbLine
 10
125.2164999999999
 20
51.5379
 30
0.0
 11
125.3095
 21
50.9286
 31
0.0
  0
LINE
  5
1D6
330
1E
100
AcDbEntity
  8
0
100
AcDbLine
 10
125.3095
 20
50.9286
 30
0.0
 11
125.5815
 21
50.3196
 31
0.0
  0
LINE
  5
1DC
330
1E
100
AcDbEntity
  8
0
100
AcDbLine
 10
138.7715
 20
51.6274
 30
0.0
 11
138.8574999999999
 21
52.23449999999999
 31
0.0
  0
LINE
  5
1DD
330
1E
100
AcDbEntity
  8
0
100
AcDbLine
 10
138.5064999999999
 20
51.0204
 30
0.0
 11
138.7715
 21
51.6274
 31
0.0
  0
LINE
  5
1DE
330
1E
100
AcDbEntity
  8
0
100
AcDbLine
 10
138.0635
 20
50.4155
 30
0.0
 11
138.5064999999999
 21
51.0204
 31
0.0
  0
LINE
  5
1DF
330
1E
100
AcDbEntity
  8
0
100
AcDbLine
 10
137.4384999999999
 20
49.9838
 30
0.0
 11
138.0635
 21
50.4155
 31
0.0
  0
LINE
  5
1E0
330
1E
100
AcDbEntity
  8
0
100
AcDbLine
 10
136.8135
 20
49.7276
 30
0.0
 11
137.4384999999999
 21
49.9838
 31
0.0
  0
LINE
  5
1E3
330
1E
100
AcDbEntity
  8
0
100
AcDbLine
 10
138.7545
 20
69.6044
 30
0.0
 11
138.8055
 21
60.91969999999999
 31
0.0
  0
LINE
  5
1E4
330
1E
100
AcDbEntity
  8
0
100
AcDbLine
 10
138.6605
 20
70.2132
 30
0.0
 11
138.7545
 21
69.6044
 31
0.0
  0
LINE
  5
1E7
330
1E
100
AcDbEntity
  8
0
100
AcDbLine
 10
138.3885
 20
70.8228
 30
0.0
 11
138.6605
 21
70.2132
 31
0.0
  0
LINE
  5
1E8
330
1E
100
AcDbEntity
  8
0
100
AcDbLine
 10
137.9375
 20
71.433
 30
0.0
 11
138.3885
 21
70.8228
 31
0.0
  0
LINE
  5
1EA
330
1E
100
AcDbEntity
  8
0
100
AcDbLine
 10
137.3085
 20
71.8708
 30
0.0
 11
137.9375
 21
71.433
 31
0.0
  0
LINE
  5
1EB
330
1E
100
AcDbEntity
  8
0
100
AcDbLine
 10
136.6815
 20
72.1348
 30
0.0
 11
137.3085
 21
71.8708
 31
0.0
  0
LINE
  5
1F1
330
1E
100
AcDbEntity
  8
0
100
AcDbLine
 10
136.0544999999999
 20
72.2256
 30
0.0
 11
136.6815
 21
72.1348
 31
0.0
  0
LINE
  5
1F7
330
1E
100
AcDbEntity
  8
0
100
AcDbLine
 10
138.8055
 20
60.91969999999999
 30
0.0
 11
138.8574999999999
 21
52.23449999999999
 31
0.0
  0
LINE
  5
1F9
330
1E
100
AcDbEntity
  8
0
100
AcDbLine
 10
125.8974999999999
 20
72.4641
 30
0.0
 11
126.131107606198
 21
72.6253790973559
 31
0.0
  0
LINE
  5
1FA
330
1E
100
AcDbEntity
  8
0
100
AcDbLine
 10
152.5875
 20
74.8309
 30
0.0
 11
153.9315
 21
74.5633
 31
0.0
  0
LINE
  5
1FB
330
1E
100
AcDbEntity
  8
0
100
AcDbLine
 10
125.5815
 20
50.3196
 30
0.0
 11
126.0324999999999
 21
49.7088
 31
0.0
  0
LINE
  5
1FC
330
1E
100
AcDbEntity
  8
0
100
AcDbLine
 10
126.0324999999999
 20
49.7088
 30
0.0
 11
126.5290895900379
 21
49.36316101348371
 31
0.0
  0
LINE
  5
1FF
330
1E
100
AcDbEntity
  8
0
100
AcDbLine
 10
154.8605
 20
47.60749439999999
 30
0.0
 11
154.8605
 21
23.8235
 31
0.0
  0
LINE
  5
202
330
1E
100
AcDbEntity
  8
0
100
AcDbLine
 10
154.8605
 20
74.17224721337579
 30
0.0
 11
154.8605
 21
98.1765
 31
0.0
  0
LINE
  5
203
330
1E
100
AcDbEntity
  8
0
100
AcDbLine
 10
155.1875
 20
74.03459999999999
 30
0.0
 11
156.3555
 21
73.24699999999999
 31
0.0
  0
LINE
  5
204
330
1E
100
AcDbEntity
  8
0
100
AcDbLine
 10
153.9315
 20
74.5633
 30
0.0
 11
155.1875
 21
74.03459999999999
 31
0.0
  0
LINE
  5
205
330
1E
100
AcDbEntity
  8
0
100
AcDbLine
 10
156.6384999999999
 20
48.7552
 30
0.0
 11
157.4375
 21
49.7928
 31
0.0
  0
LINE
  5
206
330
1E
100
AcDbEntity
  8
0
100
AcDbLine
 10
156.5015
 20
48.58039999999999
 30
0.0
 11
156.6384999999999
 21
48.7552
 31
0.0
  0
LINE
  5
207
330
1E
100
AcDbEntity
  8
0
100
AcDbLine
 10
157.4375
 20
49.7928
 30
0.0
 11
157.9674999999999
 21
51.006
 31
0.0
  0
LINE
  5
208
330
1E
100
AcDbEntity
  8
0
100
AcDbLine
 10
156.3555
 20
73.24699999999999
 30
0.0
 11
156.4944999999999
 21
73.074
 31
0.0
  0
LINE
  5
209
330
1E
100
AcDbEntity
  8
0
100
AcDbLine
 10
156.4944999999999
 20
73.074
 30
0.0
 11
157.3055
 21
72.0269
 31
0.0
  0
LINE
  5
20A
330
1E
100
AcDbEntity
  8
0
100
AcDbLine
 10
157.3055
 20
72.0269
 30
0.0
 11
157.8505
 21
70.808
 31
0.0
  0
LINE
  5
20B
330
1E
100
AcDbEntity
  8
0
100
AcDbLine
 10
157.8505
 20
70.808
 30
0.0
 11
158.0355
 21
69.5913
 31
0.0
  0
LINE
  5
20C
330
1E
100
AcDbEntity
  8
0
100
AcDbLine
 10
158.0355
 20
69.5913
 30
0.0
 11
158.0874999999999
 21
60.9061
 31
0.0
  0
LINE
  5
20D
330
1E
100
AcDbEntity
  8
0
100
AcDbLine
 10
158.0874999999999
 20
60.9061
 30
0.0
 11
158.1395
 21
52.22129999999999
 31
0.0
  0
LINE
  5
20E
330
1E
100
AcDbEntity
  8
0
100
AcDbLine
 10
157.9674999999999
 20
51.006
 30
0.0
 11
158.1395
 21
52.22129999999999
 31
0.0
  0
LINE
  5
20F
330
1E
100
AcDbEntity
  8
0
100
AcDbLine
 10
155.3425
 20
47.8055
 30
0.0
 11
156.5015
 21
48.58039999999999
 31
0.0
  0
LINE
  5
210
330
1E
100
AcDbEntity
  8
0
100
AcDbLine
 10
154.0925
 20
47.292
 30
0.0
 11
155.3425
 21
47.8055
 31
0.0
  0
LINE
  5
211
330
1E
100
AcDbEntity
  8
0
100
AcDbLine
 10
152.7524999999999
 20
47.0385
 30
0.0
 11
154.0925
 21
47.292
 31
0.0
  0
LINE
  5
212
330
1E
100
AcDbEntity
  8
0
100
AcDbLine
 10
96.5454
 20
44.54089999999999
 30
0.0
 11
96.7538791491912
 21
44.7
 31
0.0
  0
LINE
  5
213
330
1E
100
AcDbEntity
  8
0
100
AcDbLine
 10
81.81780000000001
 20
45.3478
 30
0.0
 11
88.7402674372212
 21
45.3478
 31
0.0
  0
LINE
  5
214
330
1E
100
AcDbEntity
  8
0
100
AcDbLine
 10
85.6497
 20
42.8139
 30
0.0
 11
94.53409999999999
 21
44.26899999999999
 31
0.0
  0
LINE
  5
215
330
1E
100
AcDbEntity
  8
0
100
AcDbLine
 10
81.3621
 20
61.0
 30
0.0
 11
81.38240000000001
 21
76.0762
 31
0.0
  0
LINE
  5
216
330
1E
100
AcDbEntity
  8
0
100
AcDbLine
 10
81.3621
 20
61.0
 30
0.0
 11
81.38240000000001
 21
45.9238
 31
0.0
  0
LINE
  5
217
330
1E
100
AcDbEntity
  8
0
100
AcDbLine
 10
24.1605
 20
74.1
 30
0.0
 11
24.9605
 21
76.0
 31
0.0
  0
LINE
  5
21B
330
1E
100
AcDbEntity
  8
0
100
AcDbLine
 10
81.38240000000001
 20
76.0762
 30
0.0
 11
81.41710000000001
 21
76.2748
 31
0.0
  0
LINE
  5
21C
330
1E
100
AcDbEntity
  8
0
100
AcDbLine
 10
81.41710000000001
 20
76.2748
 30
0.0
 11
81.4942
 21
76.4735
 31
0.0
  0
LINE
  5
21D
330
1E
100
AcDbEntity
  8
0
100
AcDbLine
 10
65.5605
 20
77.7
 30
0.0
 11
66.7605
 21
76.0
 31
0.0
  0
LINE
  5
21E
330
1E
100
AcDbEntity
  8
0
100
AcDbLine
 10
63.8605
 20
78.9
 30
0.0
 11
65.5605
 21
77.7
 31
0.0
  0
LINE
  5
220
330
1E
100
AcDbEntity
  8
0
100
AcDbLine
 10
81.4942
 20
76.4735
 30
0.0
 11
81.5558
 21
76.5618
 31
0.0
  0
LINE
  5
221
330
1E
100
AcDbEntity
  8
0
100
AcDbLine
 10
81.6707
 20
77.7435
 30
0.0
 11
89.83169999999999
 21
77.7435
 31
0.0
  0
LINE
  5
222
330
1E
100
AcDbEntity
  8
0
100
AcDbLine
 10
81.62350000000001
 20
77.4816
 30
0.0
 11
81.7196
 21
61.2404
 31
0.0
  0
LINE
  5
224
330
1E
100
AcDbEntity
  8
0
100
AcDbLine
 10
81.62350000000001
 20
77.4816
 30
0.0
 11
81.6707
 21
77.7435
 31
0.0
  0
LINE
  5
226
330
1E
100
AcDbEntity
  8
0
100
AcDbLine
 10
97.99269999999999
 20
77.7435
 30
0.0
 11
152.5875
 21
74.8309
 31
0.0
  0
LINE
  5
227
330
1E
100
AcDbEntity
  8
0
100
AcDbLine
 10
89.83169999999999
 20
77.7435
 30
0.0
 11
97.99269999999999
 21
77.7435
 31
0.0
  0
LINE
  5
228
330
1E
100
AcDbEntity
  8
0
100
AcDbLine
 10
81.5558
 20
76.5618
 30
0.0
 11
81.62868507334341
 21
76.6053064184759
 31
0.0
  0
LINE
  5
22B
330
1E
100
AcDbEntity
  8
0
100
AcDbLine
 10
61.9605
 20
79.7
 30
0.0
 11
63.8605
 21
78.9
 31
0.0
  0
LINE
  5
22C
330
1E
100
AcDbEntity
  8
0
100
AcDbLine
 10
80.7057
 20
79.84059999999999
 30
0.0
 11
85.6497
 21
79.1861
 31
0.0
  0
LINE
  5
22D
330
1E
100
AcDbEntity
  8
0
100
AcDbLine
 10
59.8605
 20
80.09999999999999
 30
0.0
 11
61.9605
 21
79.7
 31
0.0
  0
LINE
  5
230
330
1E
100
AcDbEntity
  8
0
100
AcDbLine
 10
85.6497
 20
79.1861
 30
0.0
 11
94.4577787849632
 21
77.7435
 31
0.0
  0
LINE
  5
234
330
1E
100
AcDbEntity
  8
0
100
AcDbLine
 10
54.792
 20
80.5239
 30
0.0
 11
57.5605
 21
80.35
 31
0.0
  0
LINE
  5
235
330
1E
100
AcDbEntity
  8
0
100
AcDbLine
 10
57.5605
 20
80.35
 30
0.0
 11
59.8605
 21
80.09999999999999
 31
0.0
  0
LINE
  5
237
330
1E
100
AcDbEntity
  8
0
100
AcDbLine
 10
74.3816
 20
80.51630000000001
 30
0.0
 11
80.7057
 21
79.84059999999999
 31
0.0
  0
LINE
  5
23D
330
1E
100
AcDbEntity
  8
0
100
AcDbLine
 10
45.8605
 20
80.7
 30
0.0
 11
48.1518
 21
80.6864
 31
0.0
  0
LINE
  5
23E
330
1E
100
AcDbEntity
  8
0
100
AcDbLine
 10
48.1518
 20
80.6864
 30
0.0
 11
51.2373
 21
80.6141
 31
0.0
  0
LINE
  5
23F
330
1E
100
AcDbEntity
  8
0
100
AcDbLine
 10
51.2373
 20
80.6141
 30
0.0
 11
54.792
 21
80.5239
 31
0.0
  0
LINE
  5
240
330
1E
100
AcDbEntity
  8
0
100
AcDbLine
 10
69.2687
 20
80.76970000000001
 30
0.0
 11
74.3816
 21
80.51630000000001
 31
0.0
  0
LINE
  5
242
330
1E
100
AcDbEntity
  8
0
100
AcDbLine
 10
62.5252
 20
80.9565
 30
0.0
 11
69.2687
 21
80.76970000000001
 31
0.0
  0
LINE
  5
244
330
1E
100
AcDbEntity
  8
0
100
AcDbLine
 10
43.5692
 20
80.6864
 30
0.0
 11
45.8605
 21
80.7
 31
0.0
  0
LINE
  5
249
330
1E
100
AcDbEntity
  8
0
100
AcDbLine
 10
60.4447
 20
80.9913
 30
0.0
 11
62.5252
 21
80.9565
 31
0.0
  0
LINE
  5
24A
330
1E
100
AcDbEntity
  8
0
100
AcDbLine
 10
58.3643
 20
81.0
 30
0.0
 11
60.4447
 21
80.9913
 31
0.0
  0
LINE
  5
24C
330
1E
100
AcDbEntity
  8
0
100
AcDbLine
 10
55.8529
 20
81.0
 30
0.0
 11
58.3643
 21
81.0
 31
0.0
  0
LINE
  5
257
330
1E
100
AcDbEntity
  8
0
100
AcDbLine
 10
146.0935
 20
107.0
 30
0.0
 11
147.2624999999999
 21
106.882
 31
0.0
  0
LINE
  5
25A
330
1E
100
AcDbEntity
  8
0
100
AcDbLine
 10
77.3605
 20
107.0
 30
0.0
 11
146.0935
 21
107.0
 31
0.0
  0
LINE
  5
25E
330
1E
100
AcDbEntity
  8
0
100
AcDbLine
 10
151.4124999999999
 20
105.176
 30
0.0
 11
152.2885
 21
104.412
 31
0.0
  0
LINE
  5
261
330
1E
100
AcDbEntity
  8
0
100
AcDbLine
 10
149.4245
 20
106.2939999999999
 30
0.0
 11
150.4764999999999
 21
105.824
 31
0.0
  0
LINE
  5
262
330
1E
100
AcDbEntity
  8
0
100
AcDbLine
 10
148.3724999999999
 20
106.706
 30
0.0
 11
149.4245
 21
106.2939999999999
 31
0.0
  0
LINE
  5
263
330
1E
100
AcDbEntity
  8
0
100
AcDbLine
 10
150.4764999999999
 20
105.824
 30
0.0
 11
151.4124999999999
 21
105.176
 31
0.0
  0
LINE
  5
264
330
1E
100
AcDbEntity
  8
0
100
AcDbLine
 10
147.2624999999999
 20
106.882
 30
0.0
 11
148.3724999999999
 21
106.706
 31
0.0
  0
LINE
  5
266
330
1E
100
AcDbEntity
  8
0
100
AcDbLine
 10
152.2885
 20
104.412
 30
0.0
 11
153.0484999999999
 21
103.529
 31
0.0
  0
LINE
  5
267
330
1E
100
AcDbEntity
  8
0
100
AcDbLine
 10
153.0484999999999
 20
103.529
 30
0.0
 11
153.6915
 21
102.5879999999999
 31
0.0
  0
LINE
  5
26F
330
1E
100
AcDbEntity
  8
0
100
AcDbLine
 10
154.1595
 20
101.529
 30
0.0
 11
154.5684999999999
 21
100.4709999999999
 31
0.0
  0
LINE
  5
270
330
1E
100
AcDbEntity
  8
0
100
AcDbLine
 10
154.5684999999999
 20
100.4709999999999
 30
0.0
 11
154.7435
 21
99.35290000000001
 31
0.0
  0
LINE
  5
271
330
1E
100
AcDbEntity
  8
0
100
AcDbLine
 10
154.7435
 20
99.35290000000001
 30
0.0
 11
154.8605
 21
98.1765
 31
0.0
  0
LINE
  5
272
330
1E
100
AcDbEntity
  8
0
100
AcDbLine
 10
154.8605
 20
98.1765
 30
0.0
 11
154.8605
 21
74.17224721337579
 31
0.0
  0
LINE
  5
273
330
1E
100
AcDbEntity
  8
0
100
AcDbLine
 10
153.6915
 20
102.5879999999999
 30
0.0
 11
154.1595
 21
101.529
 31
0.0
  0
LINE
  5
274
330
1E
100
AcDbEntity
  8
0
100
AcDbLine
 10
36.929
 20
80.5239
 30
0.0
 11
55.8529
 21
81.0
 31
0.0
  0
LINE
  5
277
330
1E
100
AcDbEntity
  8
0
100
AcDbLine
 10
40.4837
 20
80.6141
 30
0.0
 11
43.5692
 21
80.6864
 31
0.0
  0
LINE
  5
278
330
1E
100
AcDbEntity
  8
0
100
AcDbLine
 10
36.929
 20
80.5239
 30
0.0
 11
40.4837
 21
80.6141
 31
0.0
  0
LINE
  5
279
330
1E
100
AcDbEntity
  8
0
100
AcDbLine
 10
34.1605
 20
80.35
 30
0.0
 11
36.929
 21
80.5239
 31
0.0
  0
LINE
  5
27A
330
1E
100
AcDbEntity
  8
0
100
AcDbLine
 10
31.86049999999999
 20
80.09999999999999
 30
0.0
 11
34.1605
 21
80.35
 31
0.0
  0
LINE
  5
27B
330
1E
100
AcDbEntity
  8
0
100
AcDbLine
 10
29.7605
 20
79.7
 30
0.0
 11
31.86049999999999
 21
80.09999999999999
 31
0.0
  0
LINE
  5
27C
330
1E
100
AcDbEntity
  8
0
100
AcDbLine
 10
27.86049999999999
 20
78.9
 30
0.0
 11
29.7605
 21
79.7
 31
0.0
  0
LINE
  5
27D
330
1E
100
AcDbEntity
  8
0
100
AcDbLine
 10
26.16049999999999
 20
77.7
 30
0.0
 11
27.86049999999999
 21
78.9
 31
0.0
  0
LINE
  5
27E
330
1E
100
AcDbEntity
  8
0
100
AcDbLine
 10
24.9605
 20
76.0
 30
0.0
 11
26.16049999999999
 21
77.7
 31
0.0
  0
LINE
  5
27F
330
1E
100
AcDbEntity
  8
0
100
AcDbLine
 10
23.1605
 20
52.9229
 30
0.0
 11
23.1605
 21
21.80369999999999
 31
0.0
  0
LINE
  5
280
330
1E
100
AcDbEntity
  8
0
100
AcDbLine
 10
23.1605
 20
52.9229
 30
0.0
 11
23.1605
 21
55.15550000000001
 31
0.0
  0
LINE
  5
281
330
1E
100
AcDbEntity
  8
0
100
AcDbLine
 10
23.1605
 20
21.80369999999999
 30
0.0
 11
23.1605
 21
52.9229
 31
0.0
  0
LINE
  5
282
330
1E
100
AcDbEntity
  8
0
100
AcDbLine
 10
23.1605
 20
21.80369999999999
 30
0.0
 11
23.1741
 21
20.47709999999999
 31
0.0
  0
LINE
  5
28F
330
1E
100
AcDbEntity
  8
0
100
AcDbLine
 10
34.8605
 20
2.783558485983376
 30
0.0
 11
56.8571
 21
2.783270000000009
 31
0.0
  0
LINE
  5
290
330
1E
100
AcDbEntity
  8
0
100
AcDbLine
 10
7.458540000000018
 20
15.11759999999999
 30
0.0
 11
6.348060000000018
 21
15.2941
 31
0.0
  0
LINE
  5
291
330
1E
100
AcDbEntity
  8
0
100
AcDbLine
 10
4.24399000000002
 20
16.1765
 30
0.0
 11
3.30884000000002
 21
16.8235
 31
0.0
  0
LINE
  5
292
330
1E
100
AcDbEntity
  8
0
100
AcDbLine
 10
154.8605
 20
23.8235
 30
0.0
 11
154.7853564002904
 21
22.6017570180638
 31
0.0
  0
LINE
  5
293
330
1E
100
AcDbEntity
  8
0
100
AcDbLine
 10
154.7853564002904
 20
22.6017570180638
 30
0.0
 11
154.5167277163009
 21
21.5033902876747
 31
0.0
  0
LINE
  5
294
330
1E
100
AcDbEntity
  8
0
100
AcDbLine
 10
154.5167277163009
 20
21.5033902876747
 30
0.0
 11
154.1626262927028
 21
20.39892156800439
 31
0.0
  0
LINE
  5
295
330
1E
100
AcDbEntity
  8
0
100
AcDbLine
 10
154.1626262927028
 20
20.39892156800439
 30
0.0
 11
153.7047361734809
 21
19.33716729813719
 31
0.0
  0
LINE
  5
296
330
1E
100
AcDbEntity
  8
0
100
AcDbLine
 10
153.7047361734809
 20
19.33716729813719
 30
0.0
 11
153.0392696960892
 21
18.39745333872881
 31
0.0
  0
LINE
  5
297
330
1E
100
AcDbEntity
  8
0
100
AcDbLine
 10
153.0392696960892
 20
18.39745333872881
 30
0.0
 11
152.2333836441208
 21
17.5431685413439
 31
0.0
  0
LINE
  5
298
330
1E
100
AcDbEntity
  8
0
100
AcDbLine
 10
152.2333836441208
 20
17.5431685413439
 30
0.0
 11
151.1954997871155
 21
16.64616929415589
 31
0.0
  0
LINE
  5
299
330
1E
100
AcDbEntity
  8
0
100
AcDbLine
 10
151.1954997871155
 20
16.64616929415589
 30
0.0
 11
150.4764999999999
 21
16.1765
 31
0.0
  0
LINE
  5
29A
330
1E
100
AcDbEntity
  8
0
100
AcDbLine
 10
146.0935
 20
15.0
 30
0.0
 11
147.2581529328645
 21
15.08005423820915
 31
0.0
  0
LINE
  5
29B
330
1E
100
AcDbEntity
  8
0
100
AcDbLine
 10
147.2581529328645
 20
15.08005423820915
 30
0.0
 11
148.3724999999999
 21
15.2941
 31
0.0
  0
ENDSEC
  0
SECTION
  2
OBJECTS
  0
DICTIONARY
  5
C
330
0
100
AcDbDictionary
281
     1
  3
ACAD_GROUP
350
D
  3
ACAD_LAYOUT
350
19
  3
ACAD_MLINESTYLE
350
16
  3
ACAD_PLOTSETTINGS
350
18
  3
ACAD_PLOTSTYLENAME
350
E
  3
AcDbVariableDictionary
350
29C
  0
DICTIONARY
  5
D
102
{ACAD_REACTORS
330
C
102
}
330
C
100
AcDbDictionary
281
     1
  0
DICTIONARY
  5
19
102
{ACAD_REACTORS
330
C
102
}
330
C
100
AcDbDictionary
281
     1
  3
Layout1
350
1D
  3
Model
350
21
  0
DICTIONARY
  5
16
102
{ACAD_REACTORS
330
C
102
}
330
C
100
AcDbDictionary
281
     1
  3
Standard
350
17
  0
DICTIONARY
  5
18
102
{ACAD_REACTORS
330
C
102
}
330
C
100
AcDbDictionary
281
     1
  0
ACDBDICTIONARYWDFLT
  5
E
102
{ACAD_REACTORS
330
C
102
}
330
C
100
AcDbDictionary
281
     1
  3
Normal
350
F
100
AcDbDictionaryWithDefault
340
F
  0
DICTIONARY
  5
29C
102
{ACAD_REACTORS
330
C
102
}
330
C
100
AcDbDictionary
281
     1
  3
DIMASSOC
350
29D
  0
LAYOUT
  5
1D
102
{ACAD_REACTORS
330
19
102
}
330
19
100
AcDbPlotSettings
  1

  2
hp deskjet 980c series
  4

  6

 40
0.0
 41
0.0
 42
0.0
 43
0.0
 44
0.0
 45
0.0
 46
0.0
 47
0.0
 48
0.0
 49
0.0
140
0.0
141
0.0
142
1.0
143
1.0
 70
   688
 72
     0
 73
     0
 74
     5
  7

 75
    16
147
1.0
148
0.0
149
0.0
100
AcDbLayout
  1
Layout1
 70
     1
 71
     1
 10
0.0
 20
0.0
 11
12.0
 21
9.0
 12
0.0
 22
0.0
 32
0.0
 14
1.000000000000000E+20
 24
1.000000000000000E+20
 34
1.000000000000000E+20
 15
-1.000000000000000E+20
 25
-1.000000000000000E+20
 35
-1.000000000000000E+20
146
0.0
 13
0.0
 23
0.0
 33
0.0
 16
1.0
 26
0.0
 36
0.0
 17
0.0
 27
1.0
 37
0.0
 76
     0
330
1A
  0
LAYOUT
  5
21
102
{ACAD_REACTORS
330
19
102
}
330
19
100
AcDbPlotSettings
  1

  2
hp deskjet 980c series
  4

  6

 40
0.0
 41
0.0
 42
0.0
 43
0.0
 44
0.0
 45
0.0
 46
0.0
 47
0.0
 48
0.0
 49
0.0
140
0.0
141
0.0
142
1.0
143
1.0
 70
  1712
 72
     0
 73
     0
 74
     0
  7

 75
     0
147
1.0
148
0.0
149
0.0
100
AcDbLayout
  1
Model
 70
     1
 71
     0
 10
0.0
 20
0.0
 11
12.0
 21
9.0
 12
0.0
 22
0.0
 32
0.0
 14
0.0
 24
0.0
 34
0.0
 15
0.0
 25
0.0
 35
0.0
146
0.0
 13
0.0
 23
0.0
 33
0.0
 16
1.0
 26
0.0
 36
0.0
 17
0.0
 27
1.0
 37
0.0
 76
     0
330
1E
  0
MLINESTYLE
  5
17
102
{ACAD_REACTORS
330
16
102
}
330
16
100
AcDbMlineStyle
  2
STANDARD
 70
     0
  3

 62
   256
 51
90.0
 52
90.0
 71
     2
 49
0.5
 62
   256
  6
BYLAYER
 49
-0.5
 62
   256
  6
BYLAYER
  0
ACDBPLACEHOLDER
  5
F
102
{ACAD_REACTORS
330
E
102
}
330
E
  0
DICTIONARYVAR
  5
29D
102
{ACAD_REACTORS
330
29C
102
}
330
29C
100
DictionaryVariables
280
     0
  1
1
  0
ENDSEC
  0
EOF
