  0
SECTION
  2
HEADER
  9
$ACADVER
  1
AC1015
  9
$ACADMAINTVER
 70
    13
  9
$DWGCODEPAGE
  3
ANSI_1252
  9
$INSBASE
 10
0.0
 20
0.0
 30
0.0
  9
$EXTMIN
 10
0.164500000000002
 20
-0.000000000000002
 30
0.0
  9
$EXTMAX
 10
267.8355
 20
291.0
 30
0.0
  9
$LIMMIN
 10
0.0
 20
0.0
  9
$LIMMAX
 10
12.0
 20
9.0
  9
$ORTHOMODE
 70
     0
  9
$REGENMODE
 70
     1
  9
$FILLMODE
 70
     1
  9
$QTEXTMODE
 70
     0
  9
$MIRRTEXT
 70
     1
  9
$LTSCALE
 40
1.0
  9
$ATTMODE
 70
     1
  9
$TEXTSIZE
 40
0.2
  9
$TRACEWID
 40
0.05
  9
$TEXTSTYLE
  7
Standard
  9
$CLAYER
  8
0
  9
$CELTYPE
  6
Continuous
  9
$CECOLOR
 62
   256
  9
$CELTSCALE
 40
1.0
  9
$DISPSILH
 70
     0
  9
$DIMSCALE
 40
1.0
  9
$DIMASZ
 40
0.18
  9
$DIMEXO
 40
0.0625
  9
$DIMDLI
 40
0.38
  9
$DIMRND
 40
0.0
  9
$DIMDLE
 40
0.0
  9
$DIMEXE
 40
0.18
  9
$DIMTP
 40
0.0
  9
$DIMTM
 40
0.0
  9
$DIMTXT
 40
0.18
  9
$DIMCEN
 40
0.09
  9
$DIMTSZ
 40
0.0
  9
$DIMTOL
 70
     0
  9
$DIMLIM
 70
     0
  9
$DIMTIH
 70
     1
  9
$DIMTOH
 70
     1
  9
$DIMSE1
 70
     0
  9
$DIMSE2
 70
     0
  9
$DIMTAD
 70
     0
  9
$DIMZIN
 70
     0
  9
$DIMBLK
  1

  9
$DIMASO
 70
     1
  9
$DIMSHO
 70
     1
  9
$DIMPOST
  1

  9
$DIMAPOST
  1

  9
$DIMALT
 70
     0
  9
$DIMALTD
 70
     2
  9
$DIMALTF
 40
25.4
  9
$DIMLFAC
 40
1.0
  9
$DIMTOFL
 70
     0
  9
$DIMTVP
 40
0.0
  9
$DIMTIX
 70
     0
  9
$DIMSOXD
 70
     0
  9
$DIMSAH
 70
     0
  9
$DIMBLK1
  1

  9
$DIMBLK2
  1

  9
$DIMSTYLE
  2
Standard
  9
$DIMCLRD
 70
     0
  9
$DIMCLRE
 70
     0
  9
$DIMCLRT
 70
     0
  9
$DIMTFAC
 40
1.0
  9
$DIMGAP
 40
0.09
  9
$DIMJUST
 70
     0
  9
$DIMSD1
 70
     0
  9
$DIMSD2
 70
     0
  9
$DIMTOLJ
 70
     1
  9
$DIMTZIN
 70
     0
  9
$DIMALTZ
 70
     0
  9
$DIMALTTZ
 70
     0
  9
$DIMUPT
 70
     0
  9
$DIMDEC
 70
     4
  9
$DIMTDEC
 70
     4
  9
$DIMALTU
 70
     2
  9
$DIMALTTD
 70
     2
  9
$DIMTXSTY
  7
Standard
  9
$DIMAUNIT
 70
     0
  9
$DIMADEC
 70
     0
  9
$DIMALTRND
 40
0.0
  9
$DIMAZIN
 70
     0
  9
$DIMDSEP
 70
    46
  9
$DIMATFIT
 70
     3
  9
$DIMFRAC
 70
     0
  9
$DIMLDRBLK
  1

  9
$DIMLUNIT
 70
     2
  9
$DIMLWD
 70
    -2
  9
$DIMLWE
 70
    -2
  9
$DIMTMOVE
 70
     0
  9
$LUNITS
 70
     2
  9
$LUPREC
 70
     4
  9
$SKETCHINC
 40
0.1
  9
$FILLETRAD
 40
0.0
  9
$AUNITS
 70
     0
  9
$AUPREC
 70
     0
  9
$MENU
  1
.
  9
$ELEVATION
 40
0.0
  9
$PELEVATION
 40
0.0
  9
$THICKNESS
 40
0.0
  9
$LIMCHECK
 70
     0
  9
$CHAMFERA
 40
0.0
  9
$CHAMFERB
 40
0.0
  9
$CHAMFERC
 40
0.0
  9
$CHAMFERD
 40
0.0
  9
$SKPOLY
 70
     0
  9
$TDCREATE
 40
2454873.857007187
  9
$TDUCREATE
 40
2454873.815340520
  9
$TDUPDATE
 40
2454873.874704491
  9
$TDUUPDATE
 40
2454873.833037824
  9
$TDINDWG
 40
0.0176973032
  9
$TDUSRTIMER
 40
0.0176973032
  9
$USRTIMER
 70
     1
  9
$ANGBASE
 50
0.0
  9
$ANGDIR
 70
     0
  9
$PDMODE
 70
     0
  9
$PDSIZE
 40
0.0
  9
$PLINEWID
 40
0.0
  9
$SPLFRAME
 70
     0
  9
$SPLINETYPE
 70
     6
  9
$SPLINESEGS
 70
     8
  9
$HANDSEED
  5
283
  9
$SURFTAB1
 70
     6
  9
$SURFTAB2
 70
     6
  9
$SURFTYPE
 70
     6
  9
$SURFU
 70
     6
  9
$SURFV
 70
     6
  9
$UCSBASE
  2

  9
$UCSNAME
  2

  9
$UCSORG
 10
0.0
 20
0.0
 30
0.0
  9
$UCSXDIR
 10
1.0
 20
0.0
 30
0.0
  9
$UCSYDIR
 10
0.0
 20
1.0
 30
0.0
  9
$UCSORTHOREF
  2

  9
$UCSORTHOVIEW
 70
     1
  9
$UCSORGTOP
 10
0.0
 20
0.0
 30
0.0
  9
$UCSORGBOTTOM
 10
0.0
 20
0.0
 30
0.0
  9
$UCSORGLEFT
 10
0.0
 20
0.0
 30
0.0
  9
$UCSORGRIGHT
 10
0.0
 20
0.0
 30
0.0
  9
$UCSORGFRONT
 10
0.0
 20
0.0
 30
0.0
  9
$UCSORGBACK
 10
0.0
 20
0.0
 30
0.0
  9
$PUCSBASE
  2

  9
$PUCSNAME
  2

  9
$PUCSORG
 10
0.0
 20
0.0
 30
0.0
  9
$PUCSXDIR
 10
1.0
 20
0.0
 30
0.0
  9
$PUCSYDIR
 10
0.0
 20
1.0
 30
0.0
  9
$PUCSORTHOREF
  2

  9
$PUCSORTHOVIEW
 70
     0
  9
$PUCSORGTOP
 10
0.0
 20
0.0
 30
0.0
  9
$PUCSORGBOTTOM
 10
0.0
 20
0.0
 30
0.0
  9
$PUCSORGLEFT
 10
0.0
 20
0.0
 30
0.0
  9
$PUCSORGRIGHT
 10
0.0
 20
0.0
 30
0.0
  9
$PUCSORGFRONT
 10
0.0
 20
0.0
 30
0.0
  9
$PUCSORGBACK
 10
0.0
 20
0.0
 30
0.0
  9
$USERI1
 70
     0
  9
$USERI2
 70
     0
  9
$USERI3
 70
     0
  9
$USERI4
 70
     0
  9
$USERI5
 70
     0
  9
$USERR1
 40
0.0
  9
$USERR2
 40
0.0
  9
$USERR3
 40
0.0
  9
$USERR4
 40
0.0
  9
$USERR5
 40
0.0
  9
$WORLDVIEW
 70
     1
  9
$SHADEDGE
 70
     3
  9
$SHADEDIF
 70
    70
  9
$TILEMODE
 70
     1
  9
$MAXACTVP
 70
    64
  9
$PINSBASE
 10
0.0
 20
0.0
 30
0.0
  9
$PLIMCHECK
 70
     0
  9
$PEXTMIN
 10
1.000000000000000E+20
 20
1.000000000000000E+20
 30
1.000000000000000E+20
  9
$PEXTMAX
 10
-1.000000000000000E+20
 20
-1.000000000000000E+20
 30
-1.000000000000000E+20
  9
$PLIMMIN
 10
0.0
 20
0.0
  9
$PLIMMAX
 10
12.0
 20
9.0
  9
$UNITMODE
 70
     0
  9
$VISRETAIN
 70
     1
  9
$PLINEGEN
 70
     0
  9
$PSLTSCALE
 70
     1
  9
$TREEDEPTH
 70
  3020
  9
$CMLSTYLE
  2
Standard
  9
$CMLJUST
 70
     0
  9
$CMLSCALE
 40
1.0
  9
$PROXYGRAPHICS
 70
     1
  9
$MEASUREMENT
 70
     0
  9
$CELWEIGHT
370
    -1
  9
$ENDCAPS
280
     0
  9
$JOINSTYLE
280
     0
  9
$LWDISPLAY
290
     0
  9
$INSUNITS
 70
     0
  9
$HYPERLINKBASE
  1

  9
$STYLESHEET
  1

  9
$XEDIT
290
     1
  9
$CEPSNTYPE
380
     0
  9
$PSTYLEMODE
290
     1
  9
$FINGERPRINTGUID
  2
{68C36955-1699-4E2A-8C10-2B257C6F6C6D}
  9
$VERSIONGUID
  2
{5B163BEE-06A8-4A19-9206-F1903C2F7808}
  9
$EXTNAMES
290
     1
  9
$PSVPSCALE
 40
0.0
  9
$OLESTARTUP
290
     0
  0
ENDSEC
  0
SECTION
  2
CLASSES
  0
CLASS
  1
ACDBDICTIONARYWDFLT
  2
AcDbDictionaryWithDefault
  3
AutoCAD 2000
 90
        0
280
     0
281
     0
  0
CLASS
  1
ACDBPLACEHOLDER
  2
AcDbPlaceHolder
  3
AutoCAD 2000
 90
        0
280
     0
281
     0
  0
CLASS
  1
LAYOUT
  2
AcDbLayout
  3
AutoCAD 2000
 90
        0
280
     0
281
     0
  0
CLASS
  1
DICTIONARYVAR
  2
AcDbDictionaryVar
  3
AutoCAD 2000
 90
        0
280
     0
281
     0
  0
ENDSEC
  0
SECTION
  2
TABLES
  0
TABLE
  2
VPORT
  5
8
330
0
100
AcDbSymbolTable
 70
     3
  0
VPORT
  5
282
330
8
100
AcDbSymbolTableRecord
100
AcDbViewportTableRecord
  2
*Active
 70
     0
 10
0.0
 20
0.0
 11
1.0
 21
1.0
 12
134.0
 22
145.5
 13
0.0
 23
0.0
 14
1.0
 24
1.0
 15
0.0
 25
0.0
 16
0.0
 26
0.0
 36
1.0
 17
0.0
 27
0.0
 37
0.0
 40
292.837894736842
 41
1.968387776606954
 42
50.0
 43
0.0
 44
0.0
 50
0.0
 51
0.0
 71
     0
 72
   100
 73
     1
 74
     3
 75
     0
 76
     0
 77
     0
 78
     0
281
     0
 65
     1
110
0.0
120
0.0
130
0.0
111
1.0
121
0.0
131
0.0
112
0.0
122
1.0
132
0.0
 79
     1
146
0.0
  0
ENDTAB
  0
TABLE
  2
LTYPE
  5
5
330
0
100
AcDbSymbolTable
 70
     1
  0
LTYPE
  5
13
330
5
100
AcDbSymbolTableRecord
100
AcDbLinetypeTableRecord
  2
ByBlock
 70
     0
  3

 72
    65
 73
     0
 40
0.0
  0
LTYPE
  5
14
330
5
100
AcDbSymbolTableRecord
100
AcDbLinetypeTableRecord
  2
ByLayer
 70
     0
  3

 72
    65
 73
     0
 40
0.0
  0
LTYPE
  5
15
330
5
100
AcDbSymbolTableRecord
100
AcDbLinetypeTableRecord
  2
Continuous
 70
     0
  3
Solid line
 72
    65
 73
     0
 40
0.0
  0
ENDTAB
  0
TABLE
  2
LAYER
  5
2
330
0
100
AcDbSymbolTable
 70
     1
  0
LAYER
  5
10
330
2
100
AcDbSymbolTableRecord
100
AcDbLayerTableRecord
  2
0
 70
     0
 62
     7
  6
Continuous
370
    -3
390
F
  0
ENDTAB
  0
TABLE
  2
STYLE
  5
3
330
0
100
AcDbSymbolTable
 70
     1
  0
STYLE
  5
11
330
3
100
AcDbSymbolTableRecord
100
AcDbTextStyleTableRecord
  2
Standard
 70
     0
 40
0.0
 41
1.0
 50
0.0
 71
     0
 42
0.2
  3
txt
  4

  0
ENDTAB
  0
TABLE
  2
VIEW
  5
6
330
0
100
AcDbSymbolTable
 70
     0
  0
ENDTAB
  0
TABLE
  2
UCS
  5
7
330
0
100
AcDbSymbolTable
 70
     0
  0
ENDTAB
  0
TABLE
  2
APPID
  5
9
330
0
100
AcDbSymbolTable
 70
     1
  0
APPID
  5
12
330
9
100
AcDbSymbolTableRecord
100
AcDbRegAppTableRecord
  2
ACAD
 70
     0
  0
ENDTAB
  0
TABLE
  2
DIMSTYLE
  5
A
330
0
100
AcDbSymbolTable
 70
     1
100
AcDbDimStyleTable
 71
     0
  0
DIMSTYLE
105
266
330
A
100
AcDbSymbolTableRecord
100
AcDbDimStyleTableRecord
  2
Standard
 70
     0
340
11
  0
ENDTAB
  0
TABLE
  2
BLOCK_RECORD
  5
1
330
0
100
AcDbSymbolTable
 70
     0
  0
BLOCK_RECORD
  5
1E
330
1
100
AcDbSymbolTableRecord
100
AcDbBlockTableRecord
  2
*Model_Space
340
21
  0
BLOCK_RECORD
  5
1A
330
1
100
AcDbSymbolTableRecord
100
AcDbBlockTableRecord
  2
*Paper_Space
340
1D
  0
ENDTAB
  0
ENDSEC
  0
SECTION
  2
BLOCKS
  0
BLOCK
  5
1F
330
1E
100
AcDbEntity
  8
0
100
AcDbBlockBegin
  2
*Model_Space
 70
     0
 10
0.0
 20
0.0
 30
0.0
  3
*Model_Space
  1

  0
ENDBLK
  5
20
330
1E
100
AcDbEntity
  8
0
100
AcDbBlockEnd
  0
BLOCK
  5
1B
330
1A
100
AcDbEntity
 67
     1
  8
0
100
AcDbBlockBegin
  2
*Paper_Space
 70
     0
 10
0.0
 20
0.0
 30
0.0
  3
*Paper_Space
  1

  0
ENDBLK
  5
1C
330
1A
100
AcDbEntity
 67
     1
  8
0
100
AcDbBlockEnd
  0
ENDSEC
  0
SECTION
  2
ENTITIES
  0
LINE
  5
22
330
1E
100
AcDbEntity
  8
0
100
AcDbLine
 10
129.9704999999999
 20
132.9129999999999
 30
0.0
 11
133.0745
 21
127.2809999999999
 31
0.0
  0
LINE
  5
23
330
1E
100
AcDbEntity
  8
0
100
AcDbLine
 10
135.3464999999999
 20
121.212
 30
0.0
 11
136.1644999999999
 21
115.0
 31
0.0
  0
LINE
  5
24
330
1E
100
AcDbEntity
  8
0
100
AcDbLine
 10
133.0745
 20
127.2809999999999
 30
0.0
 11
135.3464999999999
 21
121.212
 31
0.0
  0
LINE
  5
25
330
1E
100
AcDbEntity
  8
0
100
AcDbLine
 10
16.56449999999999
 20
143.0
 30
0.0
 11
18.06449999999999
 21
143.0
 31
0.0
  0
LINE
  5
26
330
1E
100
AcDbEntity
  8
0
100
AcDbLine
 10
15.5645
 20
143.0
 30
0.0
 11
16.56449999999999
 21
143.0
 31
0.0
  0
LINE
  5
27
330
1E
100
AcDbEntity
  8
0
100
AcDbLine
 10
14.76449999999999
 20
143.0
 30
0.0
 11
15.5645
 21
143.0
 31
0.0
  0
LINE
  5
28
330
1E
100
AcDbEntity
  8
0
100
AcDbLine
 10
18.06449999999999
 20
143.0
 30
0.0
 11
19.6645
 21
143.0
 31
0.0
  0
LINE
  5
29
330
1E
100
AcDbEntity
  8
0
100
AcDbLine
 10
19.6645
 20
143.0
 30
0.0
 11
21.4645
 21
143.0
 31
0.0
  0
LINE
  5
2A
330
1E
100
AcDbEntity
  8
0
100
AcDbLine
 10
21.4645
 20
143.0
 30
0.0
 11
23.5645
 21
143.0
 31
0.0
  0
LINE
  5
2B
330
1E
100
AcDbEntity
  8
0
100
AcDbLine
 10
20.4645
 20
143.0
 30
0.0
 11
21.8645
 21
143.0
 31
0.0
  0
LINE
  5
2C
330
1E
100
AcDbEntity
  8
0
100
AcDbLine
 10
19.2645
 20
143.0
 30
0.0
 11
20.4645
 21
143.0
 31
0.0
  0
LINE
  5
2D
330
1E
100
AcDbEntity
  8
0
100
AcDbLine
 10
18.3645
 20
143.0
 30
0.0
 11
19.2645
 21
143.0
 31
0.0
  0
LINE
  5
2E
330
1E
100
AcDbEntity
  8
0
100
AcDbLine
 10
17.6645
 20
143.0
 30
0.0
 11
18.3645
 21
143.0
 31
0.0
  0
LINE
  5
2F
330
1E
100
AcDbEntity
  8
0
100
AcDbLine
 10
17.1645
 20
143.0
 30
0.0
 11
17.2645
 21
143.0
 31
0.0
  0
LINE
  5
30
330
1E
100
AcDbEntity
  8
0
100
AcDbLine
 10
14.1645
 20
143.0
 30
0.0
 11
14.76449999999999
 21
143.0
 31
0.0
  0
LINE
  5
31
330
1E
100
AcDbEntity
  8
0
100
AcDbLine
 10
21.8645
 20
143.0
 30
0.0
 11
23.3645
 21
143.0
 31
0.0
  0
LINE
  5
32
330
1E
100
AcDbEntity
  8
0
100
AcDbLine
 10
23.5645
 20
143.0
 30
0.0
 11
25.7645
 21
143.0
 31
0.0
  0
LINE
  5
33
330
1E
100
AcDbEntity
  8
0
100
AcDbLine
 10
25.7645
 20
143.0
 30
0.0
 11
28.1645
 21
143.0
 31
0.0
  0
LINE
  5
34
330
1E
100
AcDbEntity
  8
0
100
AcDbLine
 10
23.3645
 20
143.0
 30
0.0
 11
25.1645
 21
143.0
 31
0.0
  0
LINE
  5
35
330
1E
100
AcDbEntity
  8
0
100
AcDbLine
 10
25.1645
 20
143.0
 30
0.0
 11
26.9645
 21
143.0
 31
0.0
  0
LINE
  5
36
330
1E
100
AcDbEntity
  8
0
100
AcDbLine
 10
28.1645
 20
143.0
 30
0.0
 11
30.56449999999999
 21
143.0
 31
0.0
  0
LINE
  5
37
330
1E
100
AcDbEntity
  8
0
100
AcDbLine
 10
30.56449999999999
 20
143.0
 30
0.0
 11
33.16449999999999
 21
143.0
 31
0.0
  0
LINE
  5
38
330
1E
100
AcDbEntity
  8
0
100
AcDbLine
 10
26.9645
 20
143.0
 30
0.0
 11
28.9645
 21
143.0
 31
0.0
  0
LINE
  5
39
330
1E
100
AcDbEntity
  8
0
100
AcDbLine
 10
28.9645
 20
143.0
 30
0.0
 11
31.0645
 21
143.0
 31
0.0
  0
LINE
  5
3A
330
1E
100
AcDbEntity
  8
0
100
AcDbLine
 10
100.3645
 20
143.0
 30
0.0
 11
102.1645
 21
143.0
 31
0.0
  0
LINE
  5
3B
330
1E
100
AcDbEntity
  8
0
100
AcDbLine
 10
98.36450000000001
 20
143.0
 30
0.0
 11
100.3645
 21
143.0
 31
0.0
  0
LINE
  5
3C
330
1E
100
AcDbEntity
  8
0
100
AcDbLine
 10
103.9644999999999
 20
143.0
 30
0.0
 11
105.4645
 21
143.0
 31
0.0
  0
LINE
  5
3D
330
1E
100
AcDbEntity
  8
0
100
AcDbLine
 10
102.1645
 20
143.0
 30
0.0
 11
103.9644999999999
 21
143.0
 31
0.0
  0
LINE
  5
3E
330
1E
100
AcDbEntity
  8
0
100
AcDbLine
 10
105.4645
 20
143.0
 30
0.0
 11
106.8645
 21
143.0
 31
0.0
  0
LINE
  5
3F
330
1E
100
AcDbEntity
  8
0
100
AcDbLine
 10
106.8645
 20
143.0
 30
0.0
 11
108.0645
 21
143.0
 31
0.0
  0
LINE
  5
40
330
1E
100
AcDbEntity
  8
0
100
AcDbLine
 10
107.6645
 20
143.0
 30
0.0
 11
109.2645
 21
143.0
 31
0.0
  0
LINE
  5
41
330
1E
100
AcDbEntity
  8
0
100
AcDbLine
 10
109.2645
 20
143.0
 30
0.0
 11
110.7644999999999
 21
143.0
 31
0.0
  0
LINE
  5
42
330
1E
100
AcDbEntity
  8
0
100
AcDbLine
 10
110.7644999999999
 20
143.0
 30
0.0
 11
112.1645
 21
143.0
 31
0.0
  0
LINE
  5
43
330
1E
100
AcDbEntity
  8
0
100
AcDbLine
 10
108.9644999999999
 20
143.0
 30
0.0
 11
109.6645
 21
143.0
 31
0.0
  0
LINE
  5
44
330
1E
100
AcDbEntity
  8
0
100
AcDbLine
 10
109.6645
 20
143.0
 30
0.0
 11
110.0644999999999
 21
143.0
 31
0.0
  0
LINE
  5
45
330
1E
100
AcDbEntity
  8
0
100
AcDbLine
 10
105.8645
 20
143.0
 30
0.0
 11
107.6645
 21
143.0
 31
0.0
  0
LINE
  5
46
330
1E
100
AcDbEntity
  8
0
100
AcDbLine
 10
103.7644999999999
 20
143.0
 30
0.0
 11
105.8645
 21
143.0
 31
0.0
  0
LINE
  5
47
330
1E
100
AcDbEntity
  8
0
100
AcDbLine
 10
101.5644999999999
 20
143.0
 30
0.0
 11
103.7644999999999
 21
143.0
 31
0.0
  0
LINE
  5
48
330
1E
100
AcDbEntity
  8
0
100
AcDbLine
 10
99.16450000000001
 20
143.0
 30
0.0
 11
101.5644999999999
 21
143.0
 31
0.0
  0
LINE
  5
49
330
1E
100
AcDbEntity
  8
0
100
AcDbLine
 10
96.2645
 20
143.0
 30
0.0
 11
98.36450000000001
 21
143.0
 31
0.0
  0
LINE
  5
4A
330
1E
100
AcDbEntity
  8
0
100
AcDbLine
 10
94.16450000000001
 20
143.0
 30
0.0
 11
96.7645
 21
143.0
 31
0.0
  0
LINE
  5
4B
330
1E
100
AcDbEntity
  8
0
100
AcDbLine
 10
94.16450000000001
 20
143.0
 30
0.0
 11
96.2645
 21
143.0
 31
0.0
  0
LINE
  5
4C
330
1E
100
AcDbEntity
  8
0
100
AcDbLine
 10
33.16449999999999
 20
143.0
 30
0.0
 11
94.16450000000001
 21
143.0
 31
0.0
  0
LINE
  5
4D
330
1E
100
AcDbEntity
  8
0
100
AcDbLine
 10
33.16449999999999
 20
143.0
 30
0.0
 11
94.16450000000001
 21
143.0
 31
0.0
  0
LINE
  5
4E
330
1E
100
AcDbEntity
  8
0
100
AcDbLine
 10
31.0645
 20
143.0
 30
0.0
 11
33.16449999999999
 21
143.0
 31
0.0
  0
LINE
  5
4F
330
1E
100
AcDbEntity
  8
0
100
AcDbLine
 10
13.1645
 20
144.0
 30
0.0
 11
13.46449999999999
 21
143.3
 31
0.0
  0
LINE
  5
50
330
1E
100
AcDbEntity
  8
0
100
AcDbLine
 10
13.1645
 20
144.0
 30
0.0
 11
13.1645
 21
154.0
 31
0.0
  0
LINE
  5
53
330
1E
100
AcDbEntity
  8
0
100
AcDbLine
 10
13.46449999999999
 20
143.3
 30
0.0
 11
14.1645
 21
143.0
 31
0.0
  0
LINE
  5
70
330
1E
100
AcDbEntity
  8
0
100
AcDbLine
 10
13.46449999999999
 20
154.6999999999999
 30
0.0
 11
14.1645
 21
155.0
 31
0.0
  0
LINE
  5
71
330
1E
100
AcDbEntity
  8
0
100
AcDbLine
 10
13.1645
 20
154.0
 30
0.0
 11
13.46449999999999
 21
154.6999999999999
 31
0.0
  0
LINE
  5
72
330
1E
100
AcDbEntity
  8
0
100
AcDbLine
 10
13.1645
 20
154.0
 30
0.0
 11
13.1645
 21
144.0
 31
0.0
  0
LINE
  5
74
330
1E
100
AcDbEntity
  8
0
100
AcDbLine
 10
14.3145
 20
155.0
 30
0.0
 11
14.6895
 21
155.0
 31
0.0
  0
LINE
  5
7F
330
1E
100
AcDbEntity
  8
0
100
AcDbLine
 10
0.164500000000002
 20
165.0
 30
0.0
 11
0.6645000000000021
 21
162.5
 31
0.0
  0
LINE
  5
80
330
1E
100
AcDbEntity
  8
0
100
AcDbLine
 10
0.164500000000002
 20
165.0
 30
0.0
 11
0.164500000000002
 21
167.5
 31
0.0
  0
LINE
  5
81
330
1E
100
AcDbEntity
  8
0
100
AcDbLine
 10
0.6645000000000021
 20
162.5
 30
0.0
 11
2.164499999999999
 21
160.0
 31
0.0
  0
LINE
  5
82
330
1E
100
AcDbEntity
  8
0
100
AcDbLine
 10
0.6645000000000021
 20
169.167
 30
0.0
 11
1.6645
 21
170.0
 31
0.0
  0
LINE
  5
83
330
1E
100
AcDbEntity
  8
0
100
AcDbLine
 10
2.164499999999999
 20
160.0
 30
0.0
 11
5.1645
 21
157.5
 31
0.0
  0
LINE
  5
84
330
1E
100
AcDbEntity
  8
0
100
AcDbLine
 10
5.1645
 20
157.5
 30
0.0
 11
9.6645
 21
155.8329999999999
 31
0.0
  0
LINE
  5
87
330
1E
100
AcDbEntity
  8
0
100
AcDbLine
 10
9.6645
 20
155.8329999999999
 30
0.0
 11
14.1645
 21
155.0
 31
0.0
  0
LINE
  5
95
330
1E
100
AcDbEntity
  8
0
100
AcDbLine
 10
114.5645
 20
170.0
 30
0.0
 11
116.3645
 21
170.0
 31
0.0
  0
LINE
  5
96
330
1E
100
AcDbEntity
  8
0
100
AcDbLine
 10
112.6145
 20
170.0
 30
0.0
 11
114.5645
 21
170.0
 31
0.0
  0
LINE
  5
97
330
1E
100
AcDbEntity
  8
0
100
AcDbLine
 10
110.6645
 20
170.0
 30
0.0
 11
112.6145
 21
170.0
 31
0.0
  0
LINE
  5
98
330
1E
100
AcDbEntity
  8
0
100
AcDbLine
 10
63.6645
 20
170.0
 30
0.0
 11
110.6645
 21
170.0
 31
0.0
  0
LINE
  5
99
330
1E
100
AcDbEntity
  8
0
100
AcDbLine
 10
16.6645
 20
170.0
 30
0.0
 11
63.6645
 21
170.0
 31
0.0
  0
LINE
  5
9A
330
1E
100
AcDbEntity
  8
0
100
AcDbLine
 10
16.6645
 20
170.0
 30
0.0
 11
63.6645
 21
170.0
 31
0.0
  0
LINE
  5
9B
330
1E
100
AcDbEntity
  8
0
100
AcDbLine
 10
2.1895
 20
170.0
 30
0.0
 11
16.6645
 21
170.0
 31
0.0
  0
LINE
  5
9E
330
1E
100
AcDbEntity
  8
0
100
AcDbLine
 10
1.814499999999999
 20
170.0
 30
0.0
 11
2.189499999999999
 21
170.0
 31
0.0
  0
LINE
  5
9F
330
1E
100
AcDbEntity
  8
0
100
AcDbLine
 10
1.6645
 20
170.0
 30
0.0
 11
1.814499999999999
 21
170.0
 31
0.0
  0
LINE
  5
A1
330
1E
100
AcDbEntity
  8
0
100
AcDbLine
 10
0.164500000000002
 20
167.5
 30
0.0
 11
0.164500000000002
 21
165.0
 31
0.0
  0
LINE
  5
A2
330
1E
100
AcDbEntity
  8
0
100
AcDbLine
 10
0.164500000000002
 20
167.5
 30
0.0
 11
0.6645000000000021
 21
169.167
 31
0.0
  0
LINE
  5
A3
330
1E
100
AcDbEntity
  8
0
100
AcDbLine
 10
14.1645
 20
155.0
 30
0.0
 11
115.1645
 21
155.0
 31
0.0
  0
LINE
  5
A6
330
1E
100
AcDbEntity
  8
0
100
AcDbLine
 10
116.3645
 20
170.0
 30
0.0
 11
124.4645
 21
170.0
 31
0.0
  0
LINE
  5
A7
330
1E
100
AcDbEntity
  8
0
100
AcDbLine
 10
115.1645
 20
155.0
 30
0.0
 11
117.9235
 21
154.866
 31
0.0
  0
LINE
  5
AA
330
1E
100
AcDbEntity
  8
0
100
AcDbLine
 10
117.9235
 20
154.866
 30
0.0
 11
120.5635
 21
154.593
 31
0.0
  0
LINE
  5
AC
330
1E
100
AcDbEntity
  8
0
100
AcDbLine
 10
112.1645
 20
143.0
 30
0.0
 11
119.1715
 21
141.684
 31
0.0
  0
LINE
  5
B2
330
1E
100
AcDbEntity
  8
0
100
AcDbLine
 10
120.5635
 20
154.593
 30
0.0
 11
123.5675
 21
154.138
 31
0.0
  0
LINE
  5
B6
330
1E
100
AcDbEntity
  8
0
100
AcDbLine
 10
124.4645
 20
170.0
 30
0.0
 11
125.1395
 21
170.0
 31
0.0
  0
LINE
  5
B7
330
1E
100
AcDbEntity
  8
0
100
AcDbLine
 10
125.1395
 20
170.0
 30
0.0
 11
125.5144999999999
 21
170.0
 31
0.0
  0
LINE
  5
B9
330
1E
100
AcDbEntity
  8
0
100
AcDbLine
 10
125.5144999999999
 20
170.0
 30
0.0
 11
125.6645
 21
170.0
 31
0.0
  0
LINE
  5
BA
330
1E
100
AcDbEntity
  8
0
100
AcDbLine
 10
126.6645
 20
162.5
 30
0.0
 11
127.1645
 21
165.0
 31
0.0
  0
LINE
  5
BB
330
1E
100
AcDbEntity
  8
0
100
AcDbLine
 10
126.6645
 20
169.167
 30
0.0
 11
127.1645
 21
167.5
 31
0.0
  0
LINE
  5
BC
330
1E
100
AcDbEntity
  8
0
100
AcDbLine
 10
125.6645
 20
170.0
 30
0.0
 11
126.6645
 21
169.167
 31
0.0
  0
LINE
  5
BD
330
1E
100
AcDbEntity
  8
0
100
AcDbLine
 10
123.5675
 20
154.138
 30
0.0
 11
127.0715
 21
153.464
 31
0.0
  0
LINE
  5
BF
330
1E
100
AcDbEntity
  8
0
100
AcDbLine
 10
127.1645
 20
165.0
 30
0.0
 11
127.1645
 21
167.5
 31
0.0
  0
LINE
  5
C0
330
1E
100
AcDbEntity
  8
0
100
AcDbLine
 10
127.1645
 20
167.5
 30
0.0
 11
127.1645
 21
165.0
 31
0.0
  0
LINE
  5
C1
330
1E
100
AcDbEntity
  8
0
100
AcDbLine
 10
127.0715
 20
153.464
 30
0.0
 11
130.4035
 21
152.7369999999999
 31
0.0
  0
LINE
  5
C3
330
1E
100
AcDbEntity
  8
0
100
AcDbLine
 10
130.4035
 20
152.7369999999999
 30
0.0
 11
133.9685
 21
152.263
 31
0.0
  0
LINE
  5
C5
330
1E
100
AcDbEntity
  8
0
100
AcDbLine
 10
133.9685
 20
152.263
 30
0.0
 11
136.1644999999999
 21
152.0
 31
0.0
  0
LINE
  5
C7
330
1E
100
AcDbEntity
  8
0
100
AcDbLine
 10
119.1715
 20
141.684
 30
0.0
 11
125.2805
 21
137.977
 31
0.0
  0
LINE
  5
C8
330
1E
100
AcDbEntity
  8
0
100
AcDbLine
 10
125.2805
 20
137.977
 30
0.0
 11
129.9704999999999
 21
132.9129999999999
 31
0.0
  0
LINE
  5
C9
330
1E
100
AcDbEntity
  8
0
100
AcDbLine
 10
156.8645
 20
-0.000000000000002
 30
0.0
 11
159.1644999999999
 21
-0.000000000000002
 31
0.0
  0
LINE
  5
CA
330
1E
100
AcDbEntity
  8
0
100
AcDbLine
 10
153.7644999999999
 20
-0.000000000000002
 30
0.0
 11
156.8645
 21
-0.000000000000002
 31
0.0
  0
LINE
  5
CB
330
1E
100
AcDbEntity
  8
0
100
AcDbLine
 10
150.1645
 20
-0.000000000000002
 30
0.0
 11
153.7644999999999
 21
-0.000000000000002
 31
0.0
  0
LINE
  5
CC
330
1E
100
AcDbEntity
  8
0
100
AcDbLine
 10
147.1645
 20
-0.000000000000002
 30
0.0
 11
150.1645
 21
-0.000000000000002
 31
0.0
  0
LINE
  5
CD
330
1E
100
AcDbEntity
  8
0
100
AcDbLine
 10
144.8644999999999
 20
-0.000000000000002
 30
0.0
 11
147.1645
 21
-0.000000000000002
 31
0.0
  0
LINE
  5
CE
330
1E
100
AcDbEntity
  8
0
100
AcDbLine
 10
142.7645
 20
-0.000000000000002
 30
0.0
 11
144.8644999999999
 21
-0.000000000000002
 31
0.0
  0
LINE
  5
CF
330
1E
100
AcDbEntity
  8
0
100
AcDbLine
 10
159.1644999999999
 20
-0.000000000000002
 30
0.0
 11
161.4644999999999
 21
-0.000000000000002
 31
0.0
  0
LINE
  5
D0
330
1E
100
AcDbEntity
  8
0
100
AcDbLine
 10
161.4644999999999
 20
-0.000000000000002
 30
0.0
 11
164.5645
 21
-0.000000000000002
 31
0.0
  0
LINE
  5
D1
330
1E
100
AcDbEntity
  8
0
100
AcDbLine
 10
164.5645
 20
-0.000000000000002
 30
0.0
 11
168.1645
 21
-0.000000000000002
 31
0.0
  0
LINE
  5
D2
330
1E
100
AcDbEntity
  8
0
100
AcDbLine
 10
168.1645
 20
-0.000000000000002
 30
0.0
 11
171.1645
 21
-0.000000000000002
 31
0.0
  0
LINE
  5
D3
330
1E
100
AcDbEntity
  8
0
100
AcDbLine
 10
171.1645
 20
-0.000000000000002
 30
0.0
 11
173.4644999999999
 21
-0.000000000000002
 31
0.0
  0
LINE
  5
D4
330
1E
100
AcDbEntity
  8
0
100
AcDbLine
 10
136.5145
 20
0.0
 30
0.0
 11
136.7644999999999
 21
0.0
 31
0.0
  0
LINE
  5
D5
330
1E
100
AcDbEntity
  8
0
100
AcDbLine
 10
136.7644999999999
 20
0.0
 30
0.0
 11
137.1645
 21
0.0
 31
0.0
  0
LINE
  5
D6
330
1E
100
AcDbEntity
  8
0
100
AcDbLine
 10
137.1645
 20
0.0
 30
0.0
 11
137.9644999999999
 21
0.0
 31
0.0
  0
LINE
  5
D7
330
1E
100
AcDbEntity
  8
0
100
AcDbLine
 10
140.8644999999999
 20
0.0
 30
0.0
 11
142.7645
 21
-0.000000000000002
 31
0.0
  0
LINE
  5
D8
330
1E
100
AcDbEntity
  8
0
100
AcDbLine
 10
139.1645
 20
0.0
 30
0.0
 11
140.8644999999999
 21
0.0
 31
0.0
  0
LINE
  5
D9
330
1E
100
AcDbEntity
  8
0
100
AcDbLine
 10
137.9644999999999
 20
0.0
 30
0.0
 11
139.1645
 21
0.0
 31
0.0
  0
LINE
  5
DA
330
1E
100
AcDbEntity
  8
0
100
AcDbLine
 10
173.4644999999999
 20
-0.000000000000002
 30
0.0
 11
175.5645
 21
-0.000000000000002
 31
0.0
  0
LINE
  5
DB
330
1E
100
AcDbEntity
  8
0
100
AcDbLine
 10
175.5645
 20
-0.000000000000002
 30
0.0
 11
177.4644999999999
 21
0.0
 31
0.0
  0
LINE
  5
DC
330
1E
100
AcDbEntity
  8
0
100
AcDbLine
 10
177.4644999999999
 20
0.0
 30
0.0
 11
179.1645
 21
0.0
 31
0.0
  0
LINE
  5
DD
330
1E
100
AcDbEntity
  8
0
100
AcDbLine
 10
181.8145
 20
0.0
 30
0.0
 11
182.0145
 21
0.0
 31
0.0
  0
LINE
  5
DE
330
1E
100
AcDbEntity
  8
0
100
AcDbLine
 10
181.5645
 20
0.0
 30
0.0
 11
181.8145
 21
0.0
 31
0.0
  0
LINE
  5
DF
330
1E
100
AcDbEntity
  8
0
100
AcDbLine
 10
181.1645
 20
0.0
 30
0.0
 11
181.5645
 21
0.0
 31
0.0
  0
LINE
  5
E0
330
1E
100
AcDbEntity
  8
0
100
AcDbLine
 10
180.3644999999999
 20
0.0
 30
0.0
 11
181.1645
 21
0.0
 31
0.0
  0
LINE
  5
E1
330
1E
100
AcDbEntity
  8
0
100
AcDbLine
 10
179.1645
 20
0.0
 30
0.0
 11
180.3644999999999
 21
0.0
 31
0.0
  0
LINE
  5
E2
330
1E
100
AcDbEntity
  8
0
100
AcDbLine
 10
182.0145
 20
0.0
 30
0.0
 11
182.1144999999999
 21
0.0
 31
0.0
  0
LINE
  5
E3
330
1E
100
AcDbEntity
  8
0
100
AcDbLine
 10
182.1645
 20
0.0
 30
0.0
 11
182.1645
 21
115.0
 31
0.0
  0
LINE
  5
E4
330
1E
100
AcDbEntity
  8
0
100
AcDbLine
 10
136.3145
 20
0.0
 30
0.0
 11
136.5145
 21
0.000000000000002
 31
0.0
  0
LINE
  5
E5
330
1E
100
AcDbEntity
  8
0
100
AcDbLine
 10
136.3145
 20
0.0
 30
0.0
 11
136.5145
 21
0.0
 31
0.0
  0
LINE
  5
E7
330
1E
100
AcDbEntity
  8
0
100
AcDbLine
 10
136.3145
 20
152.0
 30
0.0
 11
136.3145
 21
251.0
 31
0.0
  0
LINE
  5
E8
330
1E
100
AcDbEntity
  8
0
100
AcDbLine
 10
136.3145
 20
274.5
 30
0.0
 11
136.3145
 21
263.1639999999999
 31
0.0
  0
LINE
  5
E9
330
1E
100
AcDbEntity
  8
0
100
AcDbLine
 10
136.3145
 20
274.5
 30
0.0
 11
136.3145
 21
282.8749999999999
 31
0.0
  0
LINE
  5
EA
330
1E
100
AcDbEntity
  8
0
100
AcDbLine
 10
136.3145
 20
263.1639999999999
 30
0.0
 11
136.3145
 21
251.0
 31
0.0
  0
LINE
  5
EB
330
1E
100
AcDbEntity
  8
0
100
AcDbLine
 10
136.3145
 20
263.1639999999999
 30
0.0
 11
136.3145
 21
274.5
 31
0.0
  0
LINE
  5
EC
330
1E
100
AcDbEntity
  8
0
100
AcDbLine
 10
136.3145
 20
287.1059999999999
 30
0.0
 11
136.3145
 21
287.0
 31
0.0
  0
LINE
  5
ED
330
1E
100
AcDbEntity
  8
0
100
AcDbLine
 10
136.3145
 20
287.0
 30
0.0
 11
136.3145
 21
287.1059999999999
 31
0.0
  0
LINE
  5
EE
330
1E
100
AcDbEntity
  8
0
100
AcDbLine
 10
136.3145
 20
290.0
 30
0.0
 11
136.6125
 21
290.7
 31
0.0
  0
LINE
  5
EF
330
1E
100
AcDbEntity
  8
0
100
AcDbLine
 10
136.3145
 20
290.0
 30
0.0
 11
136.3145
 21
289.0
 31
0.0
  0
LINE
  5
F0
330
1E
100
AcDbEntity
  8
0
100
AcDbLine
 10
136.3145
 20
287.507
 30
0.0
 11
136.3145
 21
282.8749999999999
 31
0.0
  0
LINE
  5
F1
330
1E
100
AcDbEntity
  8
0
100
AcDbLine
 10
136.3145
 20
287.507
 30
0.0
 11
136.3145
 21
289.0
 31
0.0
  0
LINE
  5
F2
330
1E
100
AcDbEntity
  8
0
100
AcDbLine
 10
136.3145
 20
289.0
 30
0.0
 11
136.3145
 21
287.507
 31
0.0
  0
LINE
  5
F3
330
1E
100
AcDbEntity
  8
0
100
AcDbLine
 10
136.3145
 20
289.0
 30
0.0
 11
136.3145
 21
290.0
 31
0.0
  0
LINE
  5
F4
330
1E
100
AcDbEntity
  8
0
100
AcDbLine
 10
136.3145
 20
282.8749999999999
 30
0.0
 11
136.3145
 21
274.5
 31
0.0
  0
LINE
  5
F5
330
1E
100
AcDbEntity
  8
0
100
AcDbLine
 10
136.3145
 20
282.8749999999999
 30
0.0
 11
136.3145
 21
287.507
 31
0.0
  0
LINE
  5
F6
330
1E
100
AcDbEntity
  8
0
100
AcDbLine
 10
136.31966087126
 20
268.420863465119
 30
0.0
 11
136.3245
 21
251.0
 31
0.0
  0
LINE
  5
F7
330
1E
100
AcDbEntity
  8
0
100
AcDbLine
 10
136.3245
 20
251.0
 30
0.0
 11
136.3245
 21
262.569
 31
0.0
  0
LINE
  5
F8
330
1E
100
AcDbEntity
  8
0
100
AcDbLine
 10
136.3145
 20
251.0
 30
0.0
 11
136.3145
 21
152.0
 31
0.0
  0
LINE
  5
F9
330
1E
100
AcDbEntity
  8
0
100
AcDbLine
 10
136.3145
 20
251.0
 30
0.0
 11
136.3145
 21
263.1639999999999
 31
0.0
  0
LINE
  5
FA
330
1E
100
AcDbEntity
  8
0
100
AcDbLine
 10
136.1644999999999
 20
152.0
 30
0.0
 11
161.4644999999999
 21
152.0
 31
0.0
  0
LINE
  5
FB
330
1E
100
AcDbEntity
  8
0
100
AcDbLine
 10
159.1644999999999
 20
0.000000000000002
 30
0.0
 11
161.4644999999999
 21
0.000000000000002
 31
0.0
  0
LINE
  5
FC
330
1E
100
AcDbEntity
  8
0
100
AcDbLine
 10
161.4644999999999
 20
0.000000000000002
 30
0.0
 11
164.5645
 21
0.000000000000002
 31
0.0
  0
LINE
  5
FD
330
1E
100
AcDbEntity
  8
0
100
AcDbLine
 10
164.5645
 20
0.000000000000002
 30
0.0
 11
168.1645
 21
0.000000000000002
 31
0.0
  0
LINE
  5
FE
330
1E
100
AcDbEntity
  8
0
100
AcDbLine
 10
168.1645
 20
0.000000000000002
 30
0.0
 11
171.1645
 21
0.000000000000002
 31
0.0
  0
LINE
  5
FF
330
1E
100
AcDbEntity
  8
0
100
AcDbLine
 10
171.1645
 20
0.000000000000002
 30
0.0
 11
173.4644999999999
 21
0.000000000000002
 31
0.0
  0
LINE
  5
100
330
1E
100
AcDbEntity
  8
0
100
AcDbLine
 10
173.4644999999999
 20
0.000000000000002
 30
0.0
 11
175.5645
 21
0.000000000000002
 31
0.0
  0
LINE
  5
101
330
1E
100
AcDbEntity
  8
0
100
AcDbLine
 10
175.5645
 20
0.000000000000002
 30
0.0
 11
177.4644999999999
 21
0.000000000000002
 31
0.0
  0
LINE
  5
102
330
1E
100
AcDbEntity
  8
0
100
AcDbLine
 10
177.4644999999999
 20
0.000000000000002
 30
0.0
 11
179.1645
 21
0.000000000000002
 31
0.0
  0
LINE
  5
103
330
1E
100
AcDbEntity
  8
0
100
AcDbLine
 10
179.1645
 20
0.000000000000002
 30
0.0
 11
180.3644999999999
 21
0.000000000000002
 31
0.0
  0
LINE
  5
104
330
1E
100
AcDbEntity
  8
0
100
AcDbLine
 10
180.3644999999999
 20
0.000000000000002
 30
0.0
 11
181.1645
 21
0.000000000000002
 31
0.0
  0
LINE
  5
105
330
1E
100
AcDbEntity
  8
0
100
AcDbLine
 10
181.1645
 20
0.000000000000002
 30
0.0
 11
181.5645
 21
0.000000000000002
 31
0.0
  0
LINE
  5
106
330
1E
100
AcDbEntity
  8
0
100
AcDbLine
 10
181.5645
 20
0.000000000000002
 30
0.0
 11
181.8145
 21
0.000000000000002
 31
0.0
  0
LINE
  5
107
330
1E
100
AcDbEntity
  8
0
100
AcDbLine
 10
181.8145
 20
0.000000000000002
 30
0.0
 11
182.0145
 21
0.0
 31
0.0
  0
LINE
  5
108
330
1E
100
AcDbEntity
  8
0
100
AcDbLine
 10
156.8645
 20
0.000000000000002
 30
0.0
 11
159.1644999999999
 21
0.000000000000002
 31
0.0
  0
LINE
  5
109
330
1E
100
AcDbEntity
  8
0
100
AcDbLine
 10
153.7644999999999
 20
0.000000000000002
 30
0.0
 11
156.8645
 21
0.000000000000002
 31
0.0
  0
LINE
  5
10A
330
1E
100
AcDbEntity
  8
0
100
AcDbLine
 10
150.1645
 20
0.000000000000002
 30
0.0
 11
153.7644999999999
 21
0.000000000000002
 31
0.0
  0
LINE
  5
10B
330
1E
100
AcDbEntity
  8
0
100
AcDbLine
 10
147.1645
 20
0.000000000000002
 30
0.0
 11
150.1645
 21
0.000000000000002
 31
0.0
  0
LINE
  5
10C
330
1E
100
AcDbEntity
  8
0
100
AcDbLine
 10
144.8644999999999
 20
0.000000000000002
 30
0.0
 11
147.1645
 21
0.000000000000002
 31
0.0
  0
LINE
  5
10D
330
1E
100
AcDbEntity
  8
0
100
AcDbLine
 10
142.7645
 20
0.000000000000002
 30
0.0
 11
144.8644999999999
 21
0.000000000000002
 31
0.0
  0
LINE
  5
10E
330
1E
100
AcDbEntity
  8
0
100
AcDbLine
 10
140.8644999999999
 20
0.000000000000002
 30
0.0
 11
142.7645
 21
0.000000000000002
 31
0.0
  0
LINE
  5
10F
330
1E
100
AcDbEntity
  8
0
100
AcDbLine
 10
139.1645
 20
0.000000000000002
 30
0.0
 11
140.8644999999999
 21
0.000000000000002
 31
0.0
  0
LINE
  5
110
330
1E
100
AcDbEntity
  8
0
100
AcDbLine
 10
137.9644999999999
 20
0.000000000000002
 30
0.0
 11
139.1645
 21
0.000000000000002
 31
0.0
  0
LINE
  5
111
330
1E
100
AcDbEntity
  8
0
100
AcDbLine
 10
137.1645
 20
0.000000000000002
 30
0.0
 11
137.9644999999999
 21
0.000000000000002
 31
0.0
  0
LINE
  5
113
330
1E
100
AcDbEntity
  8
0
100
AcDbLine
 10
161.4555
 20
152.0
 30
0.0
 11
164.5364999999999
 21
152.0
 31
0.0
  0
LINE
  5
114
330
1E
100
AcDbEntity
  8
0
100
AcDbLine
 10
159.1695
 20
152.0
 30
0.0
 11
161.4555
 21
152.0
 31
0.0
  0
LINE
  5
115
330
1E
100
AcDbEntity
  8
0
100
AcDbLine
 10
156.8845
 20
152.0
 30
0.0
 11
159.1695
 21
152.0
 31
0.0
  0
LINE
  5
116
330
1E
100
AcDbEntity
  8
0
100
AcDbLine
 10
153.8035
 20
152.0
 30
0.0
 11
156.8845
 21
152.0
 31
0.0
  0
LINE
  5
117
330
1E
100
AcDbEntity
  8
0
100
AcDbLine
 10
150.2264999999999
 20
152.0
 30
0.0
 11
153.8035
 21
152.0
 31
0.0
  0
LINE
  5
118
330
1E
100
AcDbEntity
  8
0
100
AcDbLine
 10
147.2454999999999
 20
152.0
 30
0.0
 11
150.2264999999999
 21
152.0
 31
0.0
  0
LINE
  5
119
330
1E
100
AcDbEntity
  8
0
100
AcDbLine
 10
144.9594999999999
 20
152.0
 30
0.0
 11
147.2454999999999
 21
152.0
 31
0.0
  0
LINE
  5
11A
330
1E
100
AcDbEntity
  8
0
100
AcDbLine
 10
142.8735
 20
152.0
 30
0.0
 11
144.9594999999999
 21
152.0
 31
0.0
  0
LINE
  5
11F
330
1E
100
AcDbEntity
  8
0
100
AcDbLine
 10
164.5364999999999
 20
152.0
 30
0.0
 11
168.1134999999999
 21
152.0
 31
0.0
  0
LINE
  5
122
330
1E
100
AcDbEntity
  8
0
100
AcDbLine
 10
171.0945
 20
152.0
 30
0.0
 11
173.3805
 21
152.0
 31
0.0
  0
LINE
  5
123
330
1E
100
AcDbEntity
  8
0
100
AcDbLine
 10
168.1134999999999
 20
152.0
 30
0.0
 11
171.0945
 21
152.0
 31
0.0
  0
LINE
  5
126
330
1E
100
AcDbEntity
  8
0
100
AcDbLine
 10
175.4674999999999
 20
152.0
 30
0.0
 11
177.3554999999999
 21
152.0
 31
0.0
  0
LINE
  5
127
330
1E
100
AcDbEntity
  8
0
100
AcDbLine
 10
173.3805
 20
152.0
 30
0.0
 11
175.4674999999999
 21
152.0
 31
0.0
  0
LINE
  5
129
330
1E
100
AcDbEntity
  8
0
100
AcDbLine
 10
177.3554999999999
 20
152.0
 30
0.0
 11
179.0445
 21
152.0
 31
0.0
  0
LINE
  5
12B
330
1E
100
AcDbEntity
  8
0
100
AcDbLine
 10
176.4644999999999
 20
152.0
 30
0.0
 11
178.1645
 21
152.0
 31
0.0
  0
LINE
  5
12C
330
1E
100
AcDbEntity
  8
0
100
AcDbLine
 10
174.6605
 20
152.0
 30
0.0
 11
176.4644999999999
 21
152.0
 31
0.0
  0
LINE
  5
12D
330
1E
100
AcDbEntity
  8
0
100
AcDbLine
 10
172.6754999999999
 20
152.0
 30
0.0
 11
174.6605
 21
152.0
 31
0.0
  0
LINE
  5
12E
330
1E
100
AcDbEntity
  8
0
100
AcDbLine
 10
170.4745
 20
152.0
 30
0.0
 11
172.6754999999999
 21
152.0
 31
0.0
  0
LINE
  5
12F
330
1E
100
AcDbEntity
  8
0
100
AcDbLine
 10
167.9155
 20
152.0
 30
0.0
 11
170.4745
 21
152.0
 31
0.0
  0
LINE
  5
130
330
1E
100
AcDbEntity
  8
0
100
AcDbLine
 10
164.4875
 20
152.0
 30
0.0
 11
167.9155
 21
152.0
 31
0.0
  0
LINE
  5
131
330
1E
100
AcDbEntity
  8
0
100
AcDbLine
 10
161.4644999999999
 20
152.0
 30
0.0
 11
164.4875
 21
152.0
 31
0.0
  0
LINE
  5
137
330
1E
100
AcDbEntity
  8
0
100
AcDbLine
 10
139.2924999999999
 20
278.0
 30
0.0
 11
140.9354999999999
 21
276.8
 31
0.0
  0
LINE
  5
138
330
1E
100
AcDbEntity
  8
0
100
AcDbLine
 10
138.1024999999999
 20
279.7
 30
0.0
 11
139.2895
 21
278.0
 31
0.0
  0
LINE
  5
13C
330
1E
100
AcDbEntity
  8
0
100
AcDbLine
 10
137.3085
 20
291.0
 30
0.0
 11
145.6404999999999
 21
291.0
 31
0.0
  0
LINE
  5
13E
330
1E
100
AcDbEntity
  8
0
100
AcDbLine
 10
136.6125
 20
290.7
 30
0.0
 11
137.3085
 21
291.0
 31
0.0
  0
LINE
  5
13F
330
1E
100
AcDbEntity
  8
0
100
AcDbLine
 10
142.7725
 20
276.0
 30
0.0
 11
144.8025
 21
275.6
 31
0.0
  0
LINE
  5
140
330
1E
100
AcDbEntity
  8
0
100
AcDbLine
 10
148.6324999999999
 20
272.309
 30
0.0
 11
148.8945
 21
272.031
 31
0.0
  0
LINE
  5
141
330
1E
100
AcDbEntity
  8
0
100
AcDbLine
 10
148.8945
 20
272.031
 30
0.0
 11
149.9445
 21
271.37
 31
0.0
  0
LINE
  5
142
330
1E
100
AcDbEntity
  8
0
100
AcDbLine
 10
149.9445
 20
271.37
 30
0.0
 11
151.6494999999999
 21
270.7889999999999
 31
0.0
  0
LINE
  5
143
330
1E
100
AcDbEntity
  8
0
100
AcDbLine
 10
151.6494999999999
 20
270.7889999999999
 30
0.0
 11
153.8795
 21
270.345
 31
0.0
  0
LINE
  5
144
330
1E
100
AcDbEntity
  8
0
100
AcDbLine
 10
153.8795
 20
270.345
 30
0.0
 11
156.4155
 21
270.072
 31
0.0
  0
LINE
  5
145
330
1E
100
AcDbEntity
  8
0
100
AcDbLine
 10
156.4155
 20
270.072
 30
0.0
 11
159.1695
 21
269.9689999999999
 31
0.0
  0
LINE
  5
146
330
1E
100
AcDbEntity
  8
0
100
AcDbLine
 10
168.3955
 20
271.37
 30
0.0
 11
169.4455
 21
272.031
 31
0.0
  0
LINE
  5
147
330
1E
100
AcDbEntity
  8
0
100
AcDbLine
 10
169.4455
 20
272.031
 30
0.0
 11
169.7075
 21
272.309
 31
0.0
  0
LINE
  5
148
330
1E
100
AcDbEntity
  8
0
100
AcDbLine
 10
169.4455
 20
272.031
 30
0.0
 11
169.8385
 21
272.7479999999999
 31
0.0
  0
LINE
  5
149
330
1E
100
AcDbEntity
  8
0
100
AcDbLine
 10
166.6904999999999
 20
270.7889999999999
 30
0.0
 11
168.3955
 21
271.37
 31
0.0
  0
LINE
  5
14A
330
1E
100
AcDbEntity
  8
0
100
AcDbLine
 10
164.4605
 20
270.345
 30
0.0
 11
166.6904999999999
 21
270.7889999999999
 31
0.0
  0
LINE
  5
14B
330
1E
100
AcDbEntity
  8
0
100
AcDbLine
 10
161.9245
 20
270.072
 30
0.0
 11
164.4605
 21
270.345
 31
0.0
  0
LINE
  5
14C
330
1E
100
AcDbEntity
  8
0
100
AcDbLine
 10
159.1695
 20
269.9689999999999
 30
0.0
 11
161.9245
 21
270.072
 31
0.0
  0
LINE
  5
14D
330
1E
100
AcDbEntity
  8
0
100
AcDbLine
 10
148.5014999999999
 20
272.7479999999999
 30
0.0
 11
148.8945
 21
273.4649999999999
 31
0.0
  0
LINE
  5
14E
330
1E
100
AcDbEntity
  8
0
100
AcDbLine
 10
148.5014999999999
 20
272.7479999999999
 30
0.0
 11
148.8945
 21
272.031
 31
0.0
  0
LINE
  5
14F
330
1E
100
AcDbEntity
  8
0
100
AcDbLine
 10
148.2394999999999
 20
273.038
 30
0.0
 11
148.2394999999999
 21
276.1211482132399
 31
0.0
  0
LINE
  5
150
330
1E
100
AcDbEntity
  8
0
100
AcDbLine
 10
148.2394999999999
 20
273.038
 30
0.0
 11
148.6324999999999
 21
273.767
 31
0.0
  0
LINE
  5
151
330
1E
100
AcDbEntity
  8
0
100
AcDbLine
 10
148.2394999999999
 20
273.038
 30
0.0
 11
148.6324999999999
 21
272.309
 31
0.0
  0
LINE
  5
152
330
1E
100
AcDbEntity
  8
0
100
AcDbLine
 10
148.8945
 20
273.4649999999999
 30
0.0
 11
149.9445
 21
274.126
 31
0.0
  0
LINE
  5
153
330
1E
100
AcDbEntity
  8
0
100
AcDbLine
 10
149.9445
 20
274.126
 30
0.0
 11
151.6494999999999
 21
274.7069999999999
 31
0.0
  0
LINE
  5
154
330
1E
100
AcDbEntity
  8
0
100
AcDbLine
 10
148.6324999999999
 20
273.767
 30
0.0
 11
149.6825
 21
274.4499999999999
 31
0.0
  0
LINE
  5
155
330
1E
100
AcDbEntity
  8
0
100
AcDbLine
 10
151.6494999999999
 20
274.7069999999999
 30
0.0
 11
153.8795
 21
275.151
 31
0.0
  0
LINE
  5
156
330
1E
100
AcDbEntity
  8
0
100
AcDbLine
 10
149.6825
 20
274.4499999999999
 30
0.0
 11
151.4305
 21
275.0529999999999
 31
0.0
  0
LINE
  5
157
330
1E
100
AcDbEntity
  8
0
100
AcDbLine
 10
168.3955
 20
274.126
 30
0.0
 11
169.4455
 21
273.4649999999999
 31
0.0
  0
LINE
  5
158
330
1E
100
AcDbEntity
  8
0
100
AcDbLine
 10
151.4305
 20
275.0529999999999
 30
0.0
 11
153.7485
 21
275.509
 31
0.0
  0
LINE
  5
159
330
1E
100
AcDbEntity
  8
0
100
AcDbLine
 10
166.6904999999999
 20
274.7069999999999
 30
0.0
 11
168.3955
 21
274.126
 31
0.0
  0
LINE
  5
15A
330
1E
100
AcDbEntity
  8
0
100
AcDbLine
 10
169.4455
 20
273.4649999999999
 30
0.0
 11
169.8385
 21
272.7479999999999
 31
0.0
  0
LINE
  5
15B
330
1E
100
AcDbEntity
  8
0
100
AcDbLine
 10
169.7075
 20
273.767
 30
0.0
 11
170.1005
 21
273.038
 31
0.0
  0
LINE
  5
15C
330
1E
100
AcDbEntity
  8
0
100
AcDbLine
 10
168.6574999999999
 20
274.4499999999999
 30
0.0
 11
169.7075
 21
273.767
 31
0.0
  0
LINE
  5
15D
330
1E
100
AcDbEntity
  8
0
100
AcDbLine
 10
153.8795
 20
275.151
 30
0.0
 11
156.4155
 21
275.424
 31
0.0
  0
LINE
  5
15E
330
1E
100
AcDbEntity
  8
0
100
AcDbLine
 10
164.4605
 20
275.151
 30
0.0
 11
166.6904999999999
 21
274.7069999999999
 31
0.0
  0
LINE
  5
15F
330
1E
100
AcDbEntity
  8
0
100
AcDbLine
 10
166.9095
 20
275.0529999999999
 30
0.0
 11
168.6574999999999
 21
274.4499999999999
 31
0.0
  0
LINE
  5
160
330
1E
100
AcDbEntity
  8
0
100
AcDbLine
 10
170.1005
 20
273.038
 30
0.0
 11
170.1005
 21
276.1211482132399
 31
0.0
  0
LINE
  5
161
330
1E
100
AcDbEntity
  8
0
100
AcDbLine
 10
169.7075
 20
272.309
 30
0.0
 11
170.1005
 21
273.038
 31
0.0
  0
LINE
  5
164
330
1E
100
AcDbEntity
  8
0
100
AcDbLine
 10
156.4155
 20
275.424
 30
0.0
 11
159.1695
 21
275.5269999999999
 31
0.0
  0
LINE
  5
165
330
1E
100
AcDbEntity
  8
0
100
AcDbLine
 10
161.9245
 20
275.424
 30
0.0
 11
164.4605
 21
275.151
 31
0.0
  0
LINE
  5
169
330
1E
100
AcDbEntity
  8
0
100
AcDbLine
 10
153.7485
 20
275.509
 30
0.0
 11
156.3715
 21
275.7819999999999
 31
0.0
  0
LINE
  5
16A
330
1E
100
AcDbEntity
  8
0
100
AcDbLine
 10
159.1695
 20
275.5269999999999
 30
0.0
 11
161.9245
 21
275.424
 31
0.0
  0
LINE
  5
16B
330
1E
100
AcDbEntity
  8
0
100
AcDbLine
 10
164.5915
 20
275.509
 30
0.0
 11
166.9095
 21
275.0529999999999
 31
0.0
  0
LINE
  5
16F
330
1E
100
AcDbEntity
  8
0
100
AcDbLine
 10
148.2394999999999
 20
276.1211482132399
 30
0.0
 11
148.2394999999999
 21
273.038
 31
0.0
  0
LINE
  5
170
330
1E
100
AcDbEntity
  8
0
100
AcDbLine
 10
156.3715
 20
275.7819999999999
 30
0.0
 11
159.1695
 21
275.8849999999999
 31
0.0
  0
LINE
  5
171
330
1E
100
AcDbEntity
  8
0
100
AcDbLine
 10
170.1005
 20
276.1211482132399
 30
0.0
 11
170.1005
 21
273.038
 31
0.0
  0
LINE
  5
172
330
1E
100
AcDbEntity
  8
0
100
AcDbLine
 10
161.9685
 20
275.7819999999999
 30
0.0
 11
164.5915
 21
275.509
 31
0.0
  0
LINE
  5
173
330
1E
100
AcDbEntity
  8
0
100
AcDbLine
 10
159.1695
 20
275.8849999999999
 30
0.0
 11
161.9685
 21
275.7819999999999
 31
0.0
  0
LINE
  5
174
330
1E
100
AcDbEntity
  8
0
100
AcDbLine
 10
173.5374999999999
 20
275.6
 30
0.0
 11
175.5675
 21
276.0
 31
0.0
  0
LINE
  5
175
330
1E
100
AcDbEntity
  8
0
100
AcDbLine
 10
175.5675
 20
276.0
 30
0.0
 11
177.4045
 21
276.8
 31
0.0
  0
LINE
  5
179
330
1E
100
AcDbEntity
  8
0
100
AcDbLine
 10
140.9354999999999
 20
276.8
 30
0.0
 11
142.7725
 21
276.0
 31
0.0
  0
LINE
  5
17E
330
1E
100
AcDbEntity
  8
0
100
AcDbLine
 10
147.7764999999999
 20
291.0
 30
0.0
 11
150.3305
 21
291.0
 31
0.0
  0
LINE
  5
17F
330
1E
100
AcDbEntity
  8
0
100
AcDbLine
 10
145.6404999999999
 20
291.0
 30
0.0
 11
147.7764999999999
 21
291.0
 31
0.0
  0
LINE
  5
187
330
1E
100
AcDbEntity
  8
0
100
AcDbLine
 10
177.4045
 20
276.8
 30
0.0
 11
179.0475
 21
278.0
 31
0.0
  0
LINE
  5
192
330
1E
100
AcDbEntity
  8
0
100
AcDbLine
 10
178.0504999999999
 20
291.0
 30
0.0
 11
179.2435
 21
291.0
 31
0.0
  0
LINE
  5
193
330
1E
100
AcDbEntity
  8
0
100
AcDbLine
 10
174.5684999999999
 20
291.0
 30
0.0
 11
178.0504999999999
 21
291.0
 31
0.0
  0
LINE
  5
194
330
1E
100
AcDbEntity
  8
0
100
AcDbLine
 10
172.6995
 20
291.0
 30
0.0
 11
174.5684999999999
 21
291.0
 31
0.0
  0
LINE
  5
195
330
1E
100
AcDbEntity
  8
0
100
AcDbLine
 10
170.5635
 20
291.0
 30
0.0
 11
172.6995
 21
291.0
 31
0.0
  0
LINE
  5
196
330
1E
100
AcDbEntity
  8
0
100
AcDbLine
 10
168.0095
 20
291.0
 30
0.0
 11
170.5635
 21
291.0
 31
0.0
  0
LINE
  5
197
330
1E
100
AcDbEntity
  8
0
100
AcDbLine
 10
164.5355
 20
291.0
 30
0.0
 11
168.0095
 21
291.0
 31
0.0
  0
LINE
  5
198
330
1E
100
AcDbEntity
  8
0
100
AcDbLine
 10
161.4404999999999
 20
291.0
 30
0.0
 11
164.5355
 21
291.0
 31
0.0
  0
LINE
  5
199
330
1E
100
AcDbEntity
  8
0
100
AcDbLine
 10
159.1695
 20
291.0
 30
0.0
 11
161.4404999999999
 21
291.0
 31
0.0
  0
LINE
  5
19A
330
1E
100
AcDbEntity
  8
0
100
AcDbLine
 10
156.8994999999999
 20
291.0
 30
0.0
 11
159.1695
 21
291.0
 31
0.0
  0
LINE
  5
19C
330
1E
100
AcDbEntity
  8
0
100
AcDbLine
 10
153.8044999999999
 20
291.0
 30
0.0
 11
156.8994999999999
 21
291.0
 31
0.0
  0
LINE
  5
19E
330
1E
100
AcDbEntity
  8
0
100
AcDbLine
 10
150.3305
 20
291.0
 30
0.0
 11
153.8044999999999
 21
291.0
 31
0.0
  0
LINE
  5
1A3
330
1E
100
AcDbEntity
  8
0
100
AcDbLine
 10
178.1645
 20
152.0
 30
0.0
 11
179.3644999999999
 21
152.0
 31
0.0
  0
LINE
  5
1A4
330
1E
100
AcDbEntity
  8
0
100
AcDbLine
 10
182.1645
 20
151.0
 30
0.0
 11
182.1645
 21
115.0
 31
0.0
  0
LINE
  5
1A5
330
1E
100
AcDbEntity
  8
0
100
AcDbLine
 10
182.1645
 20
115.0
 30
0.0
 11
182.1645
 21
151.0
 31
0.0
  0
LINE
  5
1A6
330
1E
100
AcDbEntity
  8
0
100
AcDbLine
 10
182.1645
 20
115.0
 30
0.0
 11
182.1645
 21
0.0
 31
0.0
  0
LINE
  5
1A7
330
1E
100
AcDbEntity
  8
0
100
AcDbLine
 10
181.8645
 20
151.6999999999999
 30
0.0
 11
182.1645
 21
151.0
 31
0.0
  0
LINE
  5
1AD
330
1E
100
AcDbEntity
  8
0
100
AcDbLine
 10
179.0505
 20
278.0
 30
0.0
 11
180.2374999999999
 21
279.7
 31
0.0
  0
LINE
  5
1AE
330
1E
100
AcDbEntity
  8
0
100
AcDbLine
 10
179.2435
 20
291.0
 30
0.0
 11
180.0455
 21
291.0
 31
0.0
  0
LINE
  5
1AF
330
1E
100
AcDbEntity
  8
0
100
AcDbLine
 10
179.0445
 20
152.0
 30
0.0
 11
180.2364999999999
 21
152.0
 31
0.0
  0
LINE
  5
1B0
330
1E
100
AcDbEntity
  8
0
100
AcDbLine
 10
180.2364999999999
 20
152.0
 30
0.0
 11
181.0314999999999
 21
152.0
 31
0.0
  0
LINE
  5
1B1
330
1E
100
AcDbEntity
  8
0
100
AcDbLine
 10
181.0314999999999
 20
152.0
 30
0.0
 11
181.4294999999999
 21
152.0
 31
0.0
  0
LINE
  5
1B2
330
1E
100
AcDbEntity
  8
0
100
AcDbLine
 10
182.0254999999999
 20
152.0
 30
0.0
 11
182.0254999999999
 21
164.0
 31
0.0
  0
LINE
  5
1B3
330
1E
100
AcDbEntity
  8
0
100
AcDbLine
 10
181.8764999999999
 20
152.0
 30
0.0
 11
181.9755
 21
152.0
 31
0.0
  0
LINE
  5
1B4
330
1E
100
AcDbEntity
  8
0
100
AcDbLine
 10
181.6774999999999
 20
152.0
 30
0.0
 11
181.8764999999999
 21
152.0
 31
0.0
  0
LINE
  5
1B5
330
1E
100
AcDbEntity
  8
0
100
AcDbLine
 10
181.4294999999999
 20
152.0
 30
0.0
 11
181.6774999999999
 21
152.0
 31
0.0
  0
LINE
  5
1B6
330
1E
100
AcDbEntity
  8
0
100
AcDbLine
 10
181.1645
 20
152.0
 30
0.0
 11
181.8645
 21
151.6999999999999
 31
0.0
  0
LINE
  5
1B7
330
1E
100
AcDbEntity
  8
0
100
AcDbLine
 10
181.1645
 20
152.0
 30
0.0
 11
181.4294999999999
 21
152.0
 31
0.0
  0
LINE
  5
1B8
330
1E
100
AcDbEntity
  8
0
100
AcDbLine
 10
180.8214999999999
 20
152.0
 30
0.0
 11
180.9844999999999
 21
152.0
 31
0.0
  0
LINE
  5
1B9
330
1E
100
AcDbEntity
  8
0
100
AcDbLine
 10
180.5685
 20
152.0
 30
0.0
 11
180.8214999999999
 21
152.0
 31
0.0
  0
LINE
  5
1BA
330
1E
100
AcDbEntity
  8
0
100
AcDbLine
 10
182.0254999999999
 20
164.0
 30
0.0
 11
182.3495
 21
167.2529999999999
 31
0.0
  0
LINE
  5
1BB
330
1E
100
AcDbEntity
  8
0
100
AcDbLine
 10
182.0254999999999
 20
164.0
 30
0.0
 11
182.0254999999999
 21
152.0
 31
0.0
  0
LINE
  5
1BC
330
1E
100
AcDbEntity
  8
0
100
AcDbLine
 10
182.3495
 20
167.2529999999999
 30
0.0
 11
183.6624999999999
 21
173.805
 31
0.0
  0
LINE
  5
1BD
330
1E
100
AcDbEntity
  8
0
100
AcDbLine
 10
183.6624999999999
 20
173.805
 30
0.0
 11
186.7745
 21
179.6969999999999
 31
0.0
  0
LINE
  5
1BE
330
1E
100
AcDbEntity
  8
0
100
AcDbLine
 10
186.7745
 20
179.6969999999999
 30
0.0
 11
191.0154999999999
 21
184.462
 31
0.0
  0
LINE
  5
1BF
330
1E
100
AcDbEntity
  8
0
100
AcDbLine
 10
191.0154999999999
 20
184.462
 30
0.0
 11
195.7225
 21
187.844
 31
0.0
  0
LINE
  5
1C0
330
1E
100
AcDbEntity
  8
0
100
AcDbLine
 10
200.1504999999999
 20
190.114
 30
0.0
 11
209.9415
 21
195.137
 31
0.0
  0
LINE
  5
1C1
330
1E
100
AcDbEntity
  8
0
100
AcDbLine
 10
200.1504999999999
 20
190.114
 30
0.0
 11
209.9415
 21
195.137
 31
0.0
  0
LINE
  5
1C2
330
1E
100
AcDbEntity
  8
0
100
AcDbLine
 10
195.7225
 20
187.844
 30
0.0
 11
200.1504999999999
 21
190.114
 31
0.0
  0
LINE
  5
1C3
330
1E
100
AcDbEntity
  8
0
100
AcDbLine
 10
209.9415
 20
195.137
 30
0.0
 11
210.3795
 21
196.475
 31
0.0
  0
LINE
  5
1C8
330
1E
100
AcDbEntity
  8
0
100
AcDbLine
 10
210.3254999999999
 20
196.5819999999999
 30
0.0
 11
210.3594999999999
 21
196.514
 31
0.0
  0
LINE
  5
1C9
330
1E
100
AcDbEntity
  8
0
100
AcDbLine
 10
210.2485
 20
196.733
 30
0.0
 11
210.3254999999999
 21
196.5819999999999
 31
0.0
  0
LINE
  5
1CA
330
1E
100
AcDbEntity
  8
0
100
AcDbLine
 10
210.1875
 20
196.854
 30
0.0
 11
210.2485
 21
196.733
 31
0.0
  0
LINE
  5
1CB
330
1E
100
AcDbEntity
  8
0
100
AcDbLine
 10
213.8665
 20
200.172
 30
0.0
 11
215.0164278640939
 21
202.9011362315059
 31
0.0
  0
LINE
  5
1CC
330
1E
100
AcDbEntity
  8
0
100
AcDbLine
 10
212.1855
 20
198.451
 30
0.0
 11
213.8665
 21
200.172
 31
0.0
  0
LINE
  5
1CD
330
1E
100
AcDbEntity
  8
0
100
AcDbLine
 10
210.031366474273
 20
197.162519601986
 30
0.0
 11
212.1855
 21
198.451
 31
0.0
  0
LINE
  5
1CE
330
1E
100
AcDbEntity
  8
0
100
AcDbLine
 10
210.0654999999999
 20
197.095
 30
0.0
 11
210.1875
 21
196.854
 31
0.0
  0
LINE
  5
1CF
330
1E
100
AcDbEntity
  8
0
100
AcDbLine
 10
209.9285
 20
197.3659999999999
 30
0.0
 11
210.0654999999999
 21
197.095
 31
0.0
  0
LINE
  5
1D2
330
1E
100
AcDbEntity
  8
0
100
AcDbLine
 10
202.1895
 20
212.354
 30
0.0
 11
209.9285
 21
197.3659999999999
 31
0.0
  0
LINE
  5
1D3
330
1E
100
AcDbEntity
  8
0
100
AcDbLine
 10
215.0940407811869
 20
202.83562785531
 30
0.0
 11
218.8375
 21
199.6759999999999
 31
0.0
  0
LINE
  5
1D6
330
1E
100
AcDbEntity
  8
0
100
AcDbLine
 10
218.8375
 20
199.6759999999999
 30
0.0
 11
264.5624999999999
 21
226.678
 31
0.0
  0
LINE
  5
1D8
330
1E
100
AcDbEntity
  8
0
100
AcDbLine
 10
236.4314999999999
 20
214.9259999999999
 30
0.0
 11
237.3275
 21
214.7089999999999
 31
0.0
  0
LINE
  5
1D9
330
1E
100
AcDbEntity
  8
0
100
AcDbLine
 10
237.3275
 20
214.7089999999999
 30
0.0
 11
238.1765
 21
214.805
 31
0.0
  0
LINE
  5
1DA
330
1E
100
AcDbEntity
  8
0
100
AcDbLine
 10
239.0695
 20
215.0349999999999
 30
0.0
 11
263.5634999999999
 21
228.638
 31
0.0
  0
LINE
  5
1DB
330
1E
100
AcDbEntity
  8
0
100
AcDbLine
 10
238.1765
 20
214.805
 30
0.0
 11
239.0695
 21
215.0349999999999
 31
0.0
  0
LINE
  5
1DD
330
1E
100
AcDbEntity
  8
0
100
AcDbLine
 10
235.5795
 20
215.277
 30
0.0
 11
236.4314999999999
 21
214.9259999999999
 31
0.0
  0
LINE
  5
1DE
330
1E
100
AcDbEntity
  8
0
100
AcDbLine
 10
234.9485
 20
215.854
 30
0.0
 11
235.5795
 21
215.277
 31
0.0
  0
LINE
  5
1DF
330
1E
100
AcDbEntity
  8
0
100
AcDbLine
 10
234.3615
 20
216.5649999999999
 30
0.0
 11
234.9485
 21
215.854
 31
0.0
  0
LINE
  5
1E0
330
1E
100
AcDbEntity
  8
0
100
AcDbLine
 10
194.2375
 20
228.356
 30
0.0
 11
194.2915
 21
228.248
 31
0.0
  0
LINE
  5
1E1
330
1E
100
AcDbEntity
  8
0
100
AcDbLine
 10
194.2915
 20
228.248
 30
0.0
 11
194.3685
 21
228.098
 31
0.0
  0
LINE
  5
1E2
330
1E
100
AcDbEntity
  8
0
100
AcDbLine
 10
194.3685
 20
228.098
 30
0.0
 11
194.4294999999999
 21
227.977
 31
0.0
  0
LINE
  5
1E3
330
1E
100
AcDbEntity
  8
0
100
AcDbLine
 10
194.4294999999999
 20
227.977
 30
0.0
 11
194.5515
 21
227.7359999999999
 31
0.0
  0
LINE
  5
1E4
330
1E
100
AcDbEntity
  8
0
100
AcDbLine
 10
191.8035
 20
228.1609999999999
 30
0.0
 11
192.9265
 21
228.743
 31
0.0
  0
LINE
  5
1E6
330
1E
100
AcDbEntity
  8
0
100
AcDbLine
 10
192.9265
 20
228.743
 30
0.0
 11
194.2375
 21
228.356
 31
0.0
  0
LINE
  5
1E9
330
1E
100
AcDbEntity
  8
0
100
AcDbLine
 10
190.7015
 20
227.719
 30
0.0
 11
191.8035
 21
228.1609999999999
 31
0.0
  0
LINE
  5
1EA
330
1E
100
AcDbEntity
  8
0
100
AcDbLine
 10
188.6395
 20
227.3099999999999
 30
0.0
 11
190.7015
 21
227.719
 31
0.0
  0
LINE
  5
1EB
330
1E
100
AcDbEntity
  8
0
100
AcDbLine
 10
185.9495
 20
227.6759999999999
 30
0.0
 11
188.6395
 21
227.3099999999999
 31
0.0
  0
LINE
  5
1EC
330
1E
100
AcDbEntity
  8
0
100
AcDbLine
 10
183.9345
 20
229.3109999999999
 30
0.0
 11
185.9495
 21
227.6759999999999
 31
0.0
  0
LINE
  5
1ED
330
1E
100
AcDbEntity
  8
0
100
AcDbLine
 10
182.3625
 20
231.313
 30
0.0
 11
183.9345
 21
229.3109999999999
 31
0.0
  0
LINE
  5
1EE
330
1E
100
AcDbEntity
  8
0
100
AcDbLine
 10
182.0115
 20
233.4559999999999
 30
0.0
 11
182.0254999999999
 21
251.0
 31
0.0
  0
LINE
  5
1EF
330
1E
100
AcDbEntity
  8
0
100
AcDbLine
 10
182.0115
 20
233.4559999999999
 30
0.0
 11
182.3625
 21
231.313
 31
0.0
  0
LINE
  5
1F0
330
1E
100
AcDbEntity
  8
0
100
AcDbLine
 10
194.5515
 20
227.7359999999999
 30
0.0
 11
194.6885
 21
227.465
 31
0.0
  0
LINE
  5
1F1
330
1E
100
AcDbEntity
  8
0
100
AcDbLine
 10
194.859956120709
 20
227.119596261827
 30
0.0
 11
195.6814580776839
 21
227.499914873972
 31
0.0
  0
LINE
  5
1F2
330
1E
100
AcDbEntity
  8
0
100
AcDbLine
 10
194.6885
 20
227.465
 30
0.0
 11
202.1895
 21
212.354
 31
0.0
  0
LINE
  5
1F5
330
1E
100
AcDbEntity
  8
0
100
AcDbLine
 10
194.4575
 20
229.902
 30
0.0
 11
250.1705
 21
254.923
 31
0.0
  0
LINE
  5
1F7
330
1E
100
AcDbEntity
  8
0
100
AcDbLine
 10
194.4575
 20
229.902
 30
0.0
 11
195.6814580776839
 21
227.499914873972
 31
0.0
  0
LINE
  5
1F8
330
1E
100
AcDbEntity
  8
0
100
AcDbLine
 10
229.3674999999999
 20
226.3659999999999
 30
0.0
 11
234.3615
 21
216.5649999999999
 31
0.0
  0
LINE
  5
202
330
1E
100
AcDbEntity
  8
0
100
AcDbLine
 10
264.5624999999999
 20
226.678
 30
0.0
 11
265.7185
 21
227.492
 31
0.0
  0
LINE
  5
203
330
1E
100
AcDbEntity
  8
0
100
AcDbLine
 10
264.2745
 20
229.225
 30
0.0
 11
264.8514999999999
 21
229.855
 31
0.0
  0
LINE
  5
204
330
1E
100
AcDbEntity
  8
0
100
AcDbLine
 10
263.5634999999999
 20
228.638
 30
0.0
 11
264.2745
 21
229.225
 31
0.0
  0
LINE
  5
206
330
1E
100
AcDbEntity
  8
0
100
AcDbLine
 10
265.2025
 20
230.708
 30
0.0
 11
265.4195
 21
231.604
 31
0.0
  0
LINE
  5
207
330
1E
100
AcDbEntity
  8
0
100
AcDbLine
 10
264.8514999999999
 20
229.855
 30
0.0
 11
265.2025
 21
230.708
 31
0.0
  0
LINE
  5
20B
330
1E
100
AcDbEntity
  8
0
100
AcDbLine
 10
265.3235
 20
232.453
 30
0.0
 11
265.4195
 21
231.604
 31
0.0
  0
LINE
  5
20D
330
1E
100
AcDbEntity
  8
0
100
AcDbLine
 10
265.0935
 20
233.345
 30
0.0
 11
265.3235
 21
232.453
 31
0.0
  0
LINE
  5
212
330
1E
100
AcDbEntity
  8
0
100
AcDbLine
 10
224.1435
 20
237.06
 30
0.0
 11
224.3745
 21
236.167
 31
0.0
  0
LINE
  5
213
330
1E
100
AcDbEntity
  8
0
100
AcDbLine
 10
224.0474999999999
 20
237.909
 30
0.0
 11
224.2644999999999
 21
238.805
 31
0.0
  0
LINE
  5
214
330
1E
100
AcDbEntity
  8
0
100
AcDbLine
 10
224.0474999999999
 20
237.909
 30
0.0
 11
224.1435
 21
237.06
 31
0.0
  0
LINE
  5
21B
330
1E
100
AcDbEntity
  8
0
100
AcDbLine
 10
224.3745
 20
236.167
 30
0.0
 11
229.3674999999999
 21
226.3659999999999
 31
0.0
  0
LINE
  5
21C
330
1E
100
AcDbEntity
  8
0
100
AcDbLine
 10
224.2644999999999
 20
238.805
 30
0.0
 11
224.6154999999999
 21
239.657
 31
0.0
  0
LINE
  5
21D
330
1E
100
AcDbEntity
  8
0
100
AcDbLine
 10
224.6154999999999
 20
239.657
 30
0.0
 11
225.1924999999999
 21
240.2879999999999
 31
0.0
  0
LINE
  5
220
330
1E
100
AcDbEntity
  8
0
100
AcDbLine
 10
225.1924999999999
 20
240.2879999999999
 30
0.0
 11
225.9035
 21
240.874
 31
0.0
  0
LINE
  5
221
330
1E
100
AcDbEntity
  8
0
100
AcDbLine
 10
182.0154999999999
 20
251.0
 30
0.0
 11
182.02033912874
 21
268.420863465119
 31
0.0
  0
LINE
  5
222
330
1E
100
AcDbEntity
  8
0
100
AcDbLine
 10
182.0254999999999
 20
251.0
 30
0.0
 11
182.0254999999999
 21
263.1639999999999
 31
0.0
  0
LINE
  5
223
330
1E
100
AcDbEntity
  8
0
100
AcDbLine
 10
251.3055
 20
252.6949999999999
 30
0.0
 11
252.1984999999999
 21
252.9259999999999
 31
0.0
  0
LINE
  5
225
330
1E
100
AcDbEntity
  8
0
100
AcDbLine
 10
255.4265
 20
251.8769999999999
 30
0.0
 11
256.0135
 21
251.166
 31
0.0
  0
LINE
  5
227
330
1E
100
AcDbEntity
  8
0
100
AcDbLine
 10
254.7965
 20
252.4529999999999
 30
0.0
 11
255.4265
 21
251.8769999999999
 31
0.0
  0
LINE
  5
22A
330
1E
100
AcDbEntity
  8
0
100
AcDbLine
 10
252.1984999999999
 20
252.9259999999999
 30
0.0
 11
253.0475
 21
253.0209999999999
 31
0.0
  0
LINE
  5
22B
330
1E
100
AcDbEntity
  8
0
100
AcDbLine
 10
253.0475
 20
253.0209999999999
 30
0.0
 11
253.9435
 21
252.8049999999999
 31
0.0
  0
LINE
  5
22C
330
1E
100
AcDbEntity
  8
0
100
AcDbLine
 10
253.9435
 20
252.8049999999999
 30
0.0
 11
254.7965
 21
252.4529999999999
 31
0.0
  0
LINE
  5
231
330
1E
100
AcDbEntity
  8
0
100
AcDbLine
 10
180.0455
 20
291.0
 30
0.0
 11
180.4395
 21
291.0
 31
0.0
  0
LINE
  5
232
330
1E
100
AcDbEntity
  8
0
100
AcDbLine
 10
180.4395
 20
291.0
 30
0.0
 11
180.6915
 21
291.0
 31
0.0
  0
LINE
  5
234
330
1E
100
AcDbEntity
  8
0
100
AcDbLine
 10
180.6915
 20
291.0
 30
0.0
 11
180.8524999999999
 21
291.0
 31
0.0
  0
LINE
  5
235
330
1E
100
AcDbEntity
  8
0
100
AcDbLine
 10
180.8524999999999
 20
291.0
 30
0.0
 11
181.0314999999999
 21
291.0
 31
0.0
  0
LINE
  5
236
330
1E
100
AcDbEntity
  8
0
100
AcDbLine
 10
182.0254999999999
 20
274.5
 30
0.0
 11
182.0254999999999
 21
282.8749999999999
 31
0.0
  0
LINE
  5
237
330
1E
100
AcDbEntity
  8
0
100
AcDbLine
 10
182.0254999999999
 20
274.5
 30
0.0
 11
182.0254999999999
 21
263.1639999999999
 31
0.0
  0
LINE
  5
238
330
1E
100
AcDbEntity
  8
0
100
AcDbLine
 10
182.0254999999999
 20
263.1639999999999
 30
0.0
 11
182.0254999999999
 21
274.5
 31
0.0
  0
LINE
  5
239
330
1E
100
AcDbEntity
  8
0
100
AcDbLine
 10
182.0254999999999
 20
263.1639999999999
 30
0.0
 11
182.0254999999999
 21
251.0
 31
0.0
  0
LINE
  5
23A
330
1E
100
AcDbEntity
  8
0
100
AcDbLine
 10
182.0254999999999
 20
287.507
 30
0.0
 11
182.0254999999999
 21
282.8749999999999
 31
0.0
  0
LINE
  5
23B
330
1E
100
AcDbEntity
  8
0
100
AcDbLine
 10
182.0254999999999
 20
287.507
 30
0.0
 11
182.0254999999999
 21
289.0
 31
0.0
  0
LINE
  5
23C
330
1E
100
AcDbEntity
  8
0
100
AcDbLine
 10
182.0254999999999
 20
282.8749999999999
 30
0.0
 11
182.0254999999999
 21
274.5
 31
0.0
  0
LINE
  5
23D
330
1E
100
AcDbEntity
  8
0
100
AcDbLine
 10
182.0254999999999
 20
282.8749999999999
 30
0.0
 11
182.0254999999999
 21
287.507
 31
0.0
  0
LINE
  5
23E
330
1E
100
AcDbEntity
  8
0
100
AcDbLine
 10
182.0254999999999
 20
289.0
 30
0.0
 11
182.0254999999999
 21
290.0
 31
0.0
  0
LINE
  5
23F
330
1E
100
AcDbEntity
  8
0
100
AcDbLine
 10
182.0254999999999
 20
289.0
 30
0.0
 11
182.0254999999999
 21
287.507
 31
0.0
  0
LINE
  5
244
330
1E
100
AcDbEntity
  8
0
100
AcDbLine
 10
181.0314999999999
 20
291.0
 30
0.0
 11
181.7275
 21
290.7
 31
0.0
  0
LINE
  5
245
330
1E
100
AcDbEntity
  8
0
100
AcDbLine
 10
181.7275
 20
290.7
 30
0.0
 11
182.0254999999999
 21
290.0
 31
0.0
  0
LINE
  5
246
330
1E
100
AcDbEntity
  8
0
100
AcDbLine
 10
182.0254999999999
 20
290.0
 30
0.0
 11
182.0254999999999
 21
289.0
 31
0.0
  0
LINE
  5
24A
330
1E
100
AcDbEntity
  8
0
100
AcDbLine
 10
254.7305
 20
255.2259999999999
 30
0.0
 11
256.1224999999999
 21
254.476
 31
0.0
  0
LINE
  5
24B
330
1E
100
AcDbEntity
  8
0
100
AcDbLine
 10
253.1635
 20
255.437
 30
0.0
 11
254.7305
 21
255.2259999999999
 31
0.0
  0
LINE
  5
24C
330
1E
100
AcDbEntity
  8
0
100
AcDbLine
 10
251.6434999999999
 20
255.336
 30
0.0
 11
253.1635
 21
255.437
 31
0.0
  0
LINE
  5
24D
330
1E
100
AcDbEntity
  8
0
100
AcDbLine
 10
250.1705
 20
254.923
 30
0.0
 11
251.6434999999999
 21
255.336
 31
0.0
  0
LINE
  5
250
330
1E
100
AcDbEntity
  8
0
100
AcDbLine
 10
257.2925
 20
253.5009999999999
 30
0.0
 11
258.2405
 21
252.3009999999999
 31
0.0
  0
LINE
  5
251
330
1E
100
AcDbEntity
  8
0
100
AcDbLine
 10
256.1224999999999
 20
254.476
 30
0.0
 11
257.2925
 21
253.5009999999999
 31
0.0
  0
LINE
  5
252
330
1E
100
AcDbEntity
  8
0
100
AcDbLine
 10
258.2405
 20
252.3009999999999
 30
0.0
 11
262.7805
 21
243.391
 31
0.0
  0
LINE
  5
254
330
1E
100
AcDbEntity
  8
0
100
AcDbLine
 10
256.0135
 20
251.166
 30
0.0
 11
260.5534999999999
 21
242.2559999999999
 31
0.0
  0
LINE
  5
256
330
1E
100
AcDbEntity
  8
0
100
AcDbLine
 10
225.9035
 20
240.874
 30
0.0
 11
251.3055
 21
252.6949999999999
 31
0.0
  0
LINE
  5
257
330
1E
100
AcDbEntity
  8
0
100
AcDbLine
 10
262.7805
 20
243.391
 30
0.0
 11
267.3204999999999
 21
234.4799999999999
 31
0.0
  0
LINE
  5
259
330
1E
100
AcDbEntity
  8
0
100
AcDbLine
 10
260.5534999999999
 20
242.2559999999999
 30
0.0
 11
265.0935
 21
233.345
 31
0.0
  0
LINE
  5
25B
330
1E
100
AcDbEntity
  8
0
100
AcDbLine
 10
267.3204999999999
 20
234.4799999999999
 30
0.0
 11
267.7345
 21
233.0079999999999
 31
0.0
  0
LINE
  5
25C
330
1E
100
AcDbEntity
  8
0
100
AcDbLine
 10
267.7345
 20
233.0079999999999
 30
0.0
 11
267.8355
 21
231.488
 31
0.0
  0
LINE
  5
25D
330
1E
100
AcDbEntity
  8
0
100
AcDbLine
 10
180.1715
 20
152.0
 30
0.0
 11
180.5685
 21
152.0
 31
0.0
  0
LINE
  5
25E
330
1E
100
AcDbEntity
  8
0
100
AcDbLine
 10
179.3644999999999
 20
152.0
 30
0.0
 11
180.1715
 21
152.0
 31
0.0
  0
LINE
  5
261
330
1E
100
AcDbEntity
  8
0
100
AcDbLine
 10
136.7644999999999
 20
0.000000000000002
 30
0.0
 11
137.1645
 21
0.000000000000002
 31
0.0
  0
LINE
  5
262
330
1E
100
AcDbEntity
  8
0
100
AcDbLine
 10
136.5145
 20
0.000000000000002
 30
0.0
 11
136.7644999999999
 21
0.000000000000002
 31
0.0
  0
LINE
  5
263
330
1E
100
AcDbEntity
  8
0
100
AcDbLine
 10
136.2144999999999
 20
0.0
 30
0.0
 11
136.3145
 21
0.0
 31
0.0
  0
LINE
  5
264
330
1E
100
AcDbEntity
  8
0
100
AcDbLine
 10
136.1545
 20
0.0
 30
0.0
 11
136.2144999999999
 21
0.0
 31
0.0
  0
LINE
  5
265
330
1E
100
AcDbEntity
  8
0
100
AcDbLine
 10
136.1545
 20
0.0
 30
0.0
 11
136.1744999999999
 21
115.0
 31
0.0
  0
LINE
  5
26A
330
1E
100
AcDbEntity
  8
0
100
AcDbLine
 10
126.6645
 20
162.5
 30
0.0
 11
125.0860275001987
 21
159.983834051061
 31
0.0
  0
LINE
  5
26B
330
1E
100
AcDbEntity
  8
0
100
AcDbLine
 10
125.0860275001987
 20
159.983834051061
 30
0.0
 11
122.2980181252485
 21
157.8939101027317
 31
0.0
  0
LINE
  5
26C
330
1E
100
AcDbEntity
  8
0
100
AcDbLine
 10
122.2980181252485
 20
157.8939101027317
 30
0.0
 11
119.0221066735059
 21
156.2219702622519
 31
0.0
  0
LINE
  5
26D
330
1E
100
AcDbEntity
  8
0
100
AcDbLine
 10
119.0221066735059
 20
156.2219702622519
 30
0.0
 11
115.1645
 21
155.0
 31
0.0
  0
LINE
  5
26E
330
1E
100
AcDbEntity
  8
0
100
AcDbLine
 10
144.8025
 20
275.6
 30
0.0
 11
147.9754730625652
 21
275.3160979014877
 31
0.0
  0
LINE
  5
26F
330
1E
100
AcDbEntity
  8
0
100
AcDbLine
 10
147.9754730625652
 20
275.3160979014877
 30
0.0
 11
148.2394999999999
 21
275.3160979014877
 31
0.0
  0
LINE
  5
270
330
1E
100
AcDbEntity
  8
0
100
AcDbLine
 10
138.1024999999999
 20
279.7
 30
0.0
 11
137.1470631460842
 21
282.5578337343218
 31
0.0
  0
LINE
  5
271
330
1E
100
AcDbEntity
  8
0
100
AcDbLine
 10
137.1470631460842
 20
282.5578337343218
 30
0.0
 11
136.3145
 21
290.0
 31
0.0
  0
LINE
  5
272
330
1E
100
AcDbEntity
  8
0
100
AcDbLine
 10
173.5374999999999
 20
275.6
 30
0.0
 11
171.4689440855265
 21
275.3533175745352
 31
0.0
  0
LINE
  5
273
330
1E
100
AcDbEntity
  8
0
100
AcDbLine
 10
171.4689440855265
 20
275.3533175745352
 30
0.0
 11
170.4428361275891
 21
275.2869502522768
 31
0.0
  0
LINE
  5
274
330
1E
100
AcDbEntity
  8
0
100
AcDbLine
 10
170.4428361275891
 20
275.2869502522768
 30
0.0
 11
170.1005
 21
275.2869502522768
 31
0.0
  0
LINE
  5
275
330
1E
100
AcDbEntity
  8
0
100
AcDbLine
 10
180.2374999999999
 20
279.7
 30
0.0
 11
181.1062253546854
 21
281.8063589287005
 31
0.0
  0
LINE
  5
276
330
1E
100
AcDbEntity
  8
0
100
AcDbLine
 10
181.1062253546854
 20
281.8063589287005
 30
0.0
 11
181.5990421247045
 21
284.8776238852173
 31
0.0
  0
LINE
  5
277
330
1E
100
AcDbEntity
  8
0
100
AcDbLine
 10
181.5990421247045
 20
284.8776238852173
 30
0.0
 11
182.0254999999999
 21
290.0
 31
0.0
  0
LINE
  5
278
330
1E
100
AcDbEntity
  8
0
100
AcDbLine
 10
203.3505
 20
213.1089999999999
 30
0.0
 11
215.0164278640939
 21
202.9011362315059
 31
0.0
  0
LINE
  5
279
330
1E
100
AcDbEntity
  8
0
100
AcDbLine
 10
195.6814580776839
 20
227.499914873972
 30
0.0
 11
203.3505
 21
213.1089999999999
 31
0.0
  0
LINE
  5
27A
330
1E
100
AcDbEntity
  8
0
100
AcDbLine
 10
267.8355
 20
231.488
 30
0.0
 11
267.6586488893069
 21
230.6540563766714
 31
0.0
  0
LINE
  5
27B
330
1E
100
AcDbEntity
  8
0
100
AcDbLine
 10
267.6586488893069
 20
230.6540563766714
 30
0.0
 11
267.4050845391723
 21
229.8404006012162
 31
0.0
  0
LINE
  5
27C
330
1E
100
AcDbEntity
  8
0
100
AcDbLine
 10
267.4050845391723
 20
229.8404006012162
 30
0.0
 11
266.9379900548967
 21
228.8533418810691
 31
0.0
  0
LINE
  5
27D
330
1E
100
AcDbEntity
  8
0
100
AcDbLine
 10
266.9379900548967
 20
228.8533418810691
 30
0.0
 11
266.4842412040048
 21
228.239764433411
 31
0.0
  0
LINE
  5
27E
330
1E
100
AcDbEntity
  8
0
100
AcDbLine
 10
266.4842412040048
 20
228.239764433411
 30
0.0
 11
265.7185
 21
227.492
 31
0.0
  0
ENDSEC
  0
SECTION
  2
OBJECTS
  0
DICTIONARY
  5
C
330
0
100
AcDbDictionary
281
     1
  3
ACAD_GROUP
350
D
  3
ACAD_LAYOUT
350
19
  3
ACAD_MLINESTYLE
350
16
  3
ACAD_PLOTSETTINGS
350
18
  3
ACAD_PLOTSTYLENAME
350
E
  3
AcDbVariableDictionary
350
27F
  0
DICTIONARY
  5
D
102
{ACAD_REACTORS
330
C
102
}
330
C
100
AcDbDictionary
281
     1
  0
DICTIONARY
  5
19
102
{ACAD_REACTORS
330
C
102
}
330
C
100
AcDbDictionary
281
     1
  3
Layout1
350
1D
  3
Model
350
21
  0
DICTIONARY
  5
16
102
{ACAD_REACTORS
330
C
102
}
330
C
100
AcDbDictionary
281
     1
  3
Standard
350
17
  0
DICTIONARY
  5
18
102
{ACAD_REACTORS
330
C
102
}
330
C
100
AcDbDictionary
281
     1
  0
ACDBDICTIONARYWDFLT
  5
E
102
{ACAD_REACTORS
330
C
102
}
330
C
100
AcDbDictionary
281
     1
  3
Normal
350
F
100
AcDbDictionaryWithDefault
340
F
  0
DICTIONARY
  5
27F
102
{ACAD_REACTORS
330
C
102
}
330
C
100
AcDbDictionary
281
     1
  3
DIMASSOC
350
280
  0
LAYOUT
  5
1D
102
{ACAD_REACTORS
330
19
102
}
330
19
100
AcDbPlotSettings
  1

  2
hp deskjet 980c series
  4

  6

 40
0.0
 41
0.0
 42
0.0
 43
0.0
 44
0.0
 45
0.0
 46
0.0
 47
0.0
 48
0.0
 49
0.0
140
0.0
141
0.0
142
1.0
143
1.0
 70
   688
 72
     0
 73
     0
 74
     5
  7

 75
    16
147
1.0
148
0.0
149
0.0
100
AcDbLayout
  1
Layout1
 70
     1
 71
     1
 10
0.0
 20
0.0
 11
12.0
 21
9.0
 12
0.0
 22
0.0
 32
0.0
 14
1.000000000000000E+20
 24
1.000000000000000E+20
 34
1.000000000000000E+20
 15
-1.000000000000000E+20
 25
-1.000000000000000E+20
 35
-1.000000000000000E+20
146
0.0
 13
0.0
 23
0.0
 33
0.0
 16
1.0
 26
0.0
 36
0.0
 17
0.0
 27
1.0
 37
0.0
 76
     0
330
1A
  0
LAYOUT
  5
21
102
{ACAD_REACTORS
330
19
102
}
330
19
100
AcDbPlotSettings
  1

  2
hp deskjet 980c series
  4

  6

 40
0.0
 41
0.0
 42
0.0
 43
0.0
 44
0.0
 45
0.0
 46
0.0
 47
0.0
 48
0.0
 49
0.0
140
0.0
141
0.0
142
1.0
143
1.0
 70
  1712
 72
     0
 73
     0
 74
     0
  7

 75
     0
147
1.0
148
0.0
149
0.0
100
AcDbLayout
  1
Model
 70
     1
 71
     0
 10
0.0
 20
0.0
 11
12.0
 21
9.0
 12
0.0
 22
0.0
 32
0.0
 14
0.0
 24
0.0
 34
0.0
 15
0.0
 25
0.0
 35
0.0
146
0.0
 13
0.0
 23
0.0
 33
0.0
 16
1.0
 26
0.0
 36
0.0
 17
0.0
 27
1.0
 37
0.0
 76
     0
330
1E
  0
MLINESTYLE
  5
17
102
{ACAD_REACTORS
330
16
102
}
330
16
100
AcDbMlineStyle
  2
STANDARD
 70
     0
  3

 62
   256
 51
90.0
 52
90.0
 71
     2
 49
0.5
 62
   256
  6
BYLAYER
 49
-0.5
 62
   256
  6
BYLAYER
  0
ACDBPLACEHOLDER
  5
F
102
{ACAD_REACTORS
330
E
102
}
330
E
  0
DICTIONARYVAR
  5
280
102
{ACAD_REACTORS
330
27F
102
}
330
27F
100
DictionaryVariables
280
     0
  1
1
  0
ENDSEC
  0
EOF
