  0
SECTION
  2
HEADER
  9
$ACADVER
  1
AC1015
  9
$ACADMAINTVER
 70
    13
  9
$DWGCODEPAGE
  3
ANSI_1252
  9
$INSBASE
 10
0.0
 20
0.0
 30
0.0
  9
$EXTMIN
 10
0.23949999999999
 20
-0.0000000000000172
 30
0.0
  9
$EXTMAX
 10
131.7605
 20
155.0
 30
0.0
  9
$LIMMIN
 10
0.0
 20
0.0
  9
$LIMMAX
 10
12.0
 20
9.0
  9
$ORTHOMODE
 70
     0
  9
$REGENMODE
 70
     1
  9
$FILLMODE
 70
     1
  9
$QTEXTMODE
 70
     0
  9
$MIRRTEXT
 70
     1
  9
$LTSCALE
 40
1.0
  9
$ATTMODE
 70
     1
  9
$TEXTSIZE
 40
0.2
  9
$TRACEWID
 40
0.05
  9
$TEXTSTYLE
  7
Standard
  9
$CLAYER
  8
0
  9
$CELTYPE
  6
Continuous
  9
$CECOLOR
 62
   256
  9
$CELTSCALE
 40
1.0
  9
$DISPSILH
 70
     0
  9
$DIMSCALE
 40
1.0
  9
$DIMASZ
 40
0.18
  9
$DIMEXO
 40
0.0625
  9
$DIMDLI
 40
0.38
  9
$DIMRND
 40
0.0
  9
$DIMDLE
 40
0.0
  9
$DIMEXE
 40
0.18
  9
$DIMTP
 40
0.0
  9
$DIMTM
 40
0.0
  9
$DIMTXT
 40
0.18
  9
$DIMCEN
 40
0.09
  9
$DIMTSZ
 40
0.0
  9
$DIMTOL
 70
     0
  9
$DIMLIM
 70
     0
  9
$DIMTIH
 70
     1
  9
$DIMTOH
 70
     1
  9
$DIMSE1
 70
     0
  9
$DIMSE2
 70
     0
  9
$DIMTAD
 70
     0
  9
$DIMZIN
 70
     0
  9
$DIMBLK
  1

  9
$DIMASO
 70
     1
  9
$DIMSHO
 70
     1
  9
$DIMPOST
  1

  9
$DIMAPOST
  1

  9
$DIMALT
 70
     0
  9
$DIMALTD
 70
     2
  9
$DIMALTF
 40
25.4
  9
$DIMLFAC
 40
1.0
  9
$DIMTOFL
 70
     0
  9
$DIMTVP
 40
0.0
  9
$DIMTIX
 70
     0
  9
$DIMSOXD
 70
     0
  9
$DIMSAH
 70
     0
  9
$DIMBLK1
  1

  9
$DIMBLK2
  1

  9
$DIMSTYLE
  2
Standard
  9
$DIMCLRD
 70
     0
  9
$DIMCLRE
 70
     0
  9
$DIMCLRT
 70
     0
  9
$DIMTFAC
 40
1.0
  9
$DIMGAP
 40
0.09
  9
$DIMJUST
 70
     0
  9
$DIMSD1
 70
     0
  9
$DIMSD2
 70
     0
  9
$DIMTOLJ
 70
     1
  9
$DIMTZIN
 70
     0
  9
$DIMALTZ
 70
     0
  9
$DIMALTTZ
 70
     0
  9
$DIMUPT
 70
     0
  9
$DIMDEC
 70
     4
  9
$DIMTDEC
 70
     4
  9
$DIMALTU
 70
     2
  9
$DIMALTTD
 70
     2
  9
$DIMTXSTY
  7
Standard
  9
$DIMAUNIT
 70
     0
  9
$DIMADEC
 70
     0
  9
$DIMALTRND
 40
0.0
  9
$DIMAZIN
 70
     0
  9
$DIMDSEP
 70
    46
  9
$DIMATFIT
 70
     3
  9
$DIMFRAC
 70
     0
  9
$DIMLDRBLK
  1

  9
$DIMLUNIT
 70
     2
  9
$DIMLWD
 70
    -2
  9
$DIMLWE
 70
    -2
  9
$DIMTMOVE
 70
     0
  9
$LUNITS
 70
     2
  9
$LUPREC
 70
     4
  9
$SKETCHINC
 40
0.1
  9
$FILLETRAD
 40
0.0
  9
$AUNITS
 70
     0
  9
$AUPREC
 70
     0
  9
$MENU
  1
.
  9
$ELEVATION
 40
0.0
  9
$PELEVATION
 40
0.0
  9
$THICKNESS
 40
0.0
  9
$LIMCHECK
 70
     0
  9
$CHAMFERA
 40
0.0
  9
$CHAMFERB
 40
0.0
  9
$CHAMFERC
 40
0.0
  9
$CHAMFERD
 40
0.0
  9
$SKPOLY
 70
     0
  9
$TDCREATE
 40
2454873.822892974
  9
$TDUCREATE
 40
2454873.781226308
  9
$TDUPDATE
 40
2454873.845272349
  9
$TDUUPDATE
 40
2454873.803605682
  9
$TDINDWG
 40
0.0223793750
  9
$TDUSRTIMER
 40
0.0223793750
  9
$USRTIMER
 70
     1
  9
$ANGBASE
 50
0.0
  9
$ANGDIR
 70
     0
  9
$PDMODE
 70
     0
  9
$PDSIZE
 40
0.0
  9
$PLINEWID
 40
0.0
  9
$SPLFRAME
 70
     0
  9
$SPLINETYPE
 70
     6
  9
$SPLINESEGS
 70
     8
  9
$HANDSEED
  5
1AC
  9
$SURFTAB1
 70
     6
  9
$SURFTAB2
 70
     6
  9
$SURFTYPE
 70
     6
  9
$SURFU
 70
     6
  9
$SURFV
 70
     6
  9
$UCSBASE
  2

  9
$UCSNAME
  2

  9
$UCSORG
 10
0.0
 20
0.0
 30
0.0
  9
$UCSXDIR
 10
1.0
 20
0.0
 30
0.0
  9
$UCSYDIR
 10
0.0
 20
1.0
 30
0.0
  9
$UCSORTHOREF
  2

  9
$UCSORTHOVIEW
 70
     1
  9
$UCSORGTOP
 10
0.0
 20
0.0
 30
0.0
  9
$UCSORGBOTTOM
 10
0.0
 20
0.0
 30
0.0
  9
$UCSORGLEFT
 10
0.0
 20
0.0
 30
0.0
  9
$UCSORGRIGHT
 10
0.0
 20
0.0
 30
0.0
  9
$UCSORGFRONT
 10
0.0
 20
0.0
 30
0.0
  9
$UCSORGBACK
 10
0.0
 20
0.0
 30
0.0
  9
$PUCSBASE
  2

  9
$PUCSNAME
  2

  9
$PUCSORG
 10
0.0
 20
0.0
 30
0.0
  9
$PUCSXDIR
 10
1.0
 20
0.0
 30
0.0
  9
$PUCSYDIR
 10
0.0
 20
1.0
 30
0.0
  9
$PUCSORTHOREF
  2

  9
$PUCSORTHOVIEW
 70
     0
  9
$PUCSORGTOP
 10
0.0
 20
0.0
 30
0.0
  9
$PUCSORGBOTTOM
 10
0.0
 20
0.0
 30
0.0
  9
$PUCSORGLEFT
 10
0.0
 20
0.0
 30
0.0
  9
$PUCSORGRIGHT
 10
0.0
 20
0.0
 30
0.0
  9
$PUCSORGFRONT
 10
0.0
 20
0.0
 30
0.0
  9
$PUCSORGBACK
 10
0.0
 20
0.0
 30
0.0
  9
$USERI1
 70
     0
  9
$USERI2
 70
     0
  9
$USERI3
 70
     0
  9
$USERI4
 70
     0
  9
$USERI5
 70
     0
  9
$USERR1
 40
0.0
  9
$USERR2
 40
0.0
  9
$USERR3
 40
0.0
  9
$USERR4
 40
0.0
  9
$USERR5
 40
0.0
  9
$WORLDVIEW
 70
     1
  9
$SHADEDGE
 70
     3
  9
$SHADEDIF
 70
    70
  9
$TILEMODE
 70
     1
  9
$MAXACTVP
 70
    64
  9
$PINSBASE
 10
0.0
 20
0.0
 30
0.0
  9
$PLIMCHECK
 70
     0
  9
$PEXTMIN
 10
1.000000000000000E+20
 20
1.000000000000000E+20
 30
1.000000000000000E+20
  9
$PEXTMAX
 10
-1.000000000000000E+20
 20
-1.000000000000000E+20
 30
-1.000000000000000E+20
  9
$PLIMMIN
 10
0.0
 20
0.0
  9
$PLIMMAX
 10
12.0
 20
9.0
  9
$UNITMODE
 70
     0
  9
$VISRETAIN
 70
     1
  9
$PLINEGEN
 70
     0
  9
$PSLTSCALE
 70
     1
  9
$TREEDEPTH
 70
  3020
  9
$CMLSTYLE
  2
Standard
  9
$CMLJUST
 70
     0
  9
$CMLSCALE
 40
1.0
  9
$PROXYGRAPHICS
 70
     1
  9
$MEASUREMENT
 70
     0
  9
$CELWEIGHT
370
    -1
  9
$ENDCAPS
280
     0
  9
$JOINSTYLE
280
     0
  9
$LWDISPLAY
290
     0
  9
$INSUNITS
 70
     0
  9
$HYPERLINKBASE
  1

  9
$STYLESHEET
  1

  9
$XEDIT
290
     1
  9
$CEPSNTYPE
380
     0
  9
$PSTYLEMODE
290
     1
  9
$FINGERPRINTGUID
  2
{11432DD9-B1B8-4881-9773-835133278046}
  9
$VERSIONGUID
  2
{A423A18E-356C-4C5F-AF28-5B9C23539685}
  9
$EXTNAMES
290
     1
  9
$PSVPSCALE
 40
0.0
  9
$OLESTARTUP
290
     0
  0
ENDSEC
  0
SECTION
  2
CLASSES
  0
CLASS
  1
ACDBDICTIONARYWDFLT
  2
AcDbDictionaryWithDefault
  3
AutoCAD 2000
 90
        0
280
     0
281
     0
  0
CLASS
  1
ACDBPLACEHOLDER
  2
AcDbPlaceHolder
  3
AutoCAD 2000
 90
        0
280
     0
281
     0
  0
CLASS
  1
LAYOUT
  2
AcDbLayout
  3
AutoCAD 2000
 90
        0
280
     0
281
     0
  0
CLASS
  1
DICTIONARYVAR
  2
AcDbDictionaryVar
  3
AutoCAD 2000
 90
        0
280
     0
281
     0
  0
ENDSEC
  0
SECTION
  2
TABLES
  0
TABLE
  2
VPORT
  5
8
330
0
100
AcDbSymbolTable
 70
     2
  0
VPORT
  5
1AB
330
8
100
AcDbSymbolTableRecord
100
AcDbViewportTableRecord
  2
*Active
 70
     0
 10
0.0
 20
0.0
 11
1.0
 21
1.0
 12
66.0
 22
77.5
 13
0.0
 23
0.0
 14
1.0
 24
1.0
 15
0.0
 25
0.0
 16
0.0
 26
0.0
 36
1.0
 17
0.0
 27
0.0
 37
0.0
 40
155.978947368421
 41
1.968387776606954
 42
50.0
 43
0.0
 44
0.0
 50
0.0
 51
0.0
 71
     0
 72
   100
 73
     1
 74
     3
 75
     0
 76
     0
 77
     0
 78
     0
281
     0
 65
     1
110
0.0
120
0.0
130
0.0
111
1.0
121
0.0
131
0.0
112
0.0
122
1.0
132
0.0
 79
     1
146
0.0
  0
ENDTAB
  0
TABLE
  2
LTYPE
  5
5
330
0
100
AcDbSymbolTable
 70
     1
  0
LTYPE
  5
13
330
5
100
AcDbSymbolTableRecord
100
AcDbLinetypeTableRecord
  2
ByBlock
 70
     0
  3

 72
    65
 73
     0
 40
0.0
  0
LTYPE
  5
14
330
5
100
AcDbSymbolTableRecord
100
AcDbLinetypeTableRecord
  2
ByLayer
 70
     0
  3

 72
    65
 73
     0
 40
0.0
  0
LTYPE
  5
15
330
5
100
AcDbSymbolTableRecord
100
AcDbLinetypeTableRecord
  2
Continuous
 70
     0
  3
Solid line
 72
    65
 73
     0
 40
0.0
  0
ENDTAB
  0
TABLE
  2
LAYER
  5
2
330
0
100
AcDbSymbolTable
 70
     1
  0
LAYER
  5
10
330
2
100
AcDbSymbolTableRecord
100
AcDbLayerTableRecord
  2
0
 70
     0
 62
     7
  6
Continuous
370
    -3
390
F
  0
ENDTAB
  0
TABLE
  2
STYLE
  5
3
330
0
100
AcDbSymbolTable
 70
     1
  0
STYLE
  5
11
330
3
100
AcDbSymbolTableRecord
100
AcDbTextStyleTableRecord
  2
Standard
 70
     0
 40
0.0
 41
1.0
 50
0.0
 71
     0
 42
0.2
  3
txt
  4

  0
ENDTAB
  0
TABLE
  2
VIEW
  5
6
330
0
100
AcDbSymbolTable
 70
     0
  0
ENDTAB
  0
TABLE
  2
UCS
  5
7
330
0
100
AcDbSymbolTable
 70
     0
  0
ENDTAB
  0
TABLE
  2
APPID
  5
9
330
0
100
AcDbSymbolTable
 70
     1
  0
APPID
  5
12
330
9
100
AcDbSymbolTableRecord
100
AcDbRegAppTableRecord
  2
ACAD
 70
     0
  0
ENDTAB
  0
TABLE
  2
DIMSTYLE
  5
A
330
0
100
AcDbSymbolTable
 70
     1
100
AcDbDimStyleTable
 71
     0
  0
DIMSTYLE
105
197
330
A
100
AcDbSymbolTableRecord
100
AcDbDimStyleTableRecord
  2
Standard
 70
     0
340
11
  0
ENDTAB
  0
TABLE
  2
BLOCK_RECORD
  5
1
330
0
100
AcDbSymbolTable
 70
     0
  0
BLOCK_RECORD
  5
1E
330
1
100
AcDbSymbolTableRecord
100
AcDbBlockTableRecord
  2
*Model_Space
340
21
  0
BLOCK_RECORD
  5
1A
330
1
100
AcDbSymbolTableRecord
100
AcDbBlockTableRecord
  2
*Paper_Space
340
1D
  0
ENDTAB
  0
ENDSEC
  0
SECTION
  2
BLOCKS
  0
BLOCK
  5
1F
330
1E
100
AcDbEntity
  8
0
100
AcDbBlockBegin
  2
*Model_Space
 70
     0
 10
0.0
 20
0.0
 30
0.0
  3
*Model_Space
  1

  0
ENDBLK
  5
20
330
1E
100
AcDbEntity
  8
0
100
AcDbBlockEnd
  0
BLOCK
  5
1B
330
1A
100
AcDbEntity
 67
     1
  8
0
100
AcDbBlockBegin
  2
*Paper_Space
 70
     0
 10
0.0
 20
0.0
 30
0.0
  3
*Paper_Space
  1

  0
ENDBLK
  5
1C
330
1A
100
AcDbEntity
 67
     1
  8
0
100
AcDbBlockEnd
  0
ENDSEC
  0
SECTION
  2
ENTITIES
  0
LINE
  5
22
330
1E
100
AcDbEntity
  8
0
100
AcDbLine
 10
0.28949999999999
 20
-0.0000000000000101
 30
0.0
 11
0.38949999999999
 21
-0.0000000000000103
 31
0.0
  0
LINE
  5
23
330
1E
100
AcDbEntity
  8
0
100
AcDbLine
 10
0.23949999999999
 20
-0.0000000000000097
 30
0.0
 11
0.23949999999999
 21
115.0
 31
0.0
  0
LINE
  5
24
330
1E
100
AcDbEntity
  8
0
100
AcDbLine
 10
0.38949999999999
 20
-0.0000000000000103
 30
0.0
 11
0.58949999999999
 21
-0.0000000000000105
 31
0.0
  0
LINE
  5
25
330
1E
100
AcDbEntity
  8
0
100
AcDbLine
 10
0.58949999999999
 20
-0.0000000000000105
 30
0.0
 11
0.83949999999999
 21
-0.0000000000000106
 31
0.0
  0
LINE
  5
26
330
1E
100
AcDbEntity
  8
0
100
AcDbLine
 10
0.28949999999999
 20
-0.0000000000000094
 30
0.0
 11
0.38949999999999
 21
-0.0000000000000092
 31
0.0
  0
LINE
  5
27
330
1E
100
AcDbEntity
  8
0
100
AcDbLine
 10
0.38949999999999
 20
-0.0000000000000092
 30
0.0
 11
0.58949999999999
 21
-0.000000000000009
 31
0.0
  0
LINE
  5
28
330
1E
100
AcDbEntity
  8
0
100
AcDbLine
 10
0.83949999999999
 20
-0.0000000000000106
 30
0.0
 11
1.23949999999999
 21
-0.0000000000000107
 31
0.0
  0
LINE
  5
29
330
1E
100
AcDbEntity
  8
0
100
AcDbLine
 10
1.23949999999999
 20
-0.0000000000000107
 30
0.0
 11
2.039499999999989
 21
-0.0000000000000109
 31
0.0
  0
LINE
  5
2A
330
1E
100
AcDbEntity
  8
0
100
AcDbLine
 10
0.58949999999999
 20
-0.000000000000009
 30
0.0
 11
0.83949999999999
 21
-0.0000000000000089
 31
0.0
  0
LINE
  5
2B
330
1E
100
AcDbEntity
  8
0
100
AcDbLine
 10
0.83949999999999
 20
-0.0000000000000089
 30
0.0
 11
1.23949999999999
 21
-0.0000000000000087
 31
0.0
  0
LINE
  5
2C
330
1E
100
AcDbEntity
  8
0
100
AcDbLine
 10
3.23949999999999
 20
-0.000000000000011
 30
0.0
 11
4.93949999999999
 21
-0.000000000000011
 31
0.0
  0
LINE
  5
2D
330
1E
100
AcDbEntity
  8
0
100
AcDbLine
 10
2.039499999999989
 20
-0.0000000000000109
 30
0.0
 11
3.23949999999999
 21
-0.000000000000011
 31
0.0
  0
LINE
  5
2E
330
1E
100
AcDbEntity
  8
0
100
AcDbLine
 10
1.23949999999999
 20
-0.0000000000000087
 30
0.0
 11
2.039499999999989
 21
-0.0000000000000086
 31
0.0
  0
LINE
  5
2F
330
1E
100
AcDbEntity
  8
0
100
AcDbLine
 10
0.23949999999999
 20
138.5
 30
0.0
 11
0.23949999999999
 21
127.164
 31
0.0
  0
LINE
  5
30
330
1E
100
AcDbEntity
  8
0
100
AcDbLine
 10
0.23949999999999
 20
138.5
 30
0.0
 11
0.23949999999999
 21
146.875
 31
0.0
  0
LINE
  5
31
330
1E
100
AcDbEntity
  8
0
100
AcDbLine
 10
0.23949999999999
 20
127.164
 30
0.0
 11
0.23949999999999
 21
115.0
 31
0.0
  0
LINE
  5
32
330
1E
100
AcDbEntity
  8
0
100
AcDbLine
 10
0.23949999999999
 20
127.164
 30
0.0
 11
0.23949999999999
 21
138.5
 31
0.0
  0
LINE
  5
33
330
1E
100
AcDbEntity
  8
0
100
AcDbLine
 10
0.23949999999999
 20
151.106
 30
0.0
 11
0.23949999999999
 21
151.0
 31
0.0
  0
LINE
  5
34
330
1E
100
AcDbEntity
  8
0
100
AcDbLine
 10
0.23949999999999
 20
151.0
 30
0.0
 11
0.23949999999999
 21
151.106
 31
0.0
  0
LINE
  5
35
330
1E
100
AcDbEntity
  8
0
100
AcDbLine
 10
0.23949999999999
 20
154.0
 30
0.0
 11
0.53949999999999
 21
154.6999999999999
 31
0.0
  0
LINE
  5
36
330
1E
100
AcDbEntity
  8
0
100
AcDbLine
 10
0.23949999999999
 20
154.0
 30
0.0
 11
0.23949999999999
 21
153.0
 31
0.0
  0
LINE
  5
37
330
1E
100
AcDbEntity
  8
0
100
AcDbLine
 10
0.23949999999999
 20
151.507
 30
0.0
 11
0.23949999999999
 21
146.875
 31
0.0
  0
LINE
  5
38
330
1E
100
AcDbEntity
  8
0
100
AcDbLine
 10
0.23949999999999
 20
151.507
 30
0.0
 11
0.23949999999999
 21
153.0
 31
0.0
  0
LINE
  5
39
330
1E
100
AcDbEntity
  8
0
100
AcDbLine
 10
0.23949999999999
 20
153.0
 30
0.0
 11
0.23949999999999
 21
151.507
 31
0.0
  0
LINE
  5
3A
330
1E
100
AcDbEntity
  8
0
100
AcDbLine
 10
0.23949999999999
 20
153.0
 30
0.0
 11
0.5256999999999901
 21
149.9679999999999
 31
0.0
  0
LINE
  5
3B
330
1E
100
AcDbEntity
  8
0
100
AcDbLine
 10
0.23949999999999
 20
153.0
 30
0.0
 11
0.52565799999999
 21
149.9679999999999
 31
0.0
  0
LINE
  5
3C
330
1E
100
AcDbEntity
  8
0
100
AcDbLine
 10
0.23949999999999
 20
153.0
 30
0.0
 11
0.23949999999999
 21
154.0
 31
0.0
  0
LINE
  5
3D
330
1E
100
AcDbEntity
  8
0
100
AcDbLine
 10
0.23949999999999
 20
146.875
 30
0.0
 11
0.23949999999999
 21
138.5
 31
0.0
  0
LINE
  5
3E
330
1E
100
AcDbEntity
  8
0
100
AcDbLine
 10
0.23949999999999
 20
146.875
 30
0.0
 11
0.23949999999999
 21
151.507
 31
0.0
  0
LINE
  5
3F
330
1E
100
AcDbEntity
  8
0
100
AcDbLine
 10
3.03189222316143
 20
142.2941110171879
 30
0.0
 11
3.11656422018345
 21
142.174159021407
 31
0.0
  0
LINE
  5
40
330
1E
100
AcDbEntity
  8
0
100
AcDbLine
 10
2.03881999999999
 20
143.6999999999999
 30
0.0
 11
3.23335999999999
 21
142.0
 31
0.0
  0
LINE
  5
41
330
1E
100
AcDbEntity
  8
0
100
AcDbLine
 10
0.52565799999999
 20
149.9679999999999
 30
0.0
 11
0.83949999999999
 21
147.6999999999999
 31
0.0
  0
LINE
  5
42
330
1E
100
AcDbEntity
  8
0
100
AcDbLine
 10
3.23614999999999
 20
142.0
 30
0.0
 11
4.88982999999999
 21
140.8
 31
0.0
  0
LINE
  5
43
330
1E
100
AcDbEntity
  8
0
100
AcDbLine
 10
3.03189222316143
 20
142.2941110171879
 30
0.0
 11
3.11656422018345
 21
142.174159021407
 31
0.0
  0
LINE
  5
50
330
1E
100
AcDbEntity
  8
0
100
AcDbLine
 10
0.53949999999999
 20
154.6999999999999
 30
0.0
 11
1.23949999999999
 21
155.0
 31
0.0
  0
LINE
  5
51
330
1E
100
AcDbEntity
  8
0
100
AcDbLine
 10
0.5256999999999901
 20
149.9679999999999
 30
0.0
 11
0.83949999999999
 21
147.6999999999999
 31
0.0
  0
LINE
  5
52
330
1E
100
AcDbEntity
  8
0
100
AcDbLine
 10
0.23949999999999
 20
115.0
 30
0.0
 11
0.23949999999999
 21
-0.0000000000000172
 31
0.0
  0
LINE
  5
53
330
1E
100
AcDbEntity
  8
0
100
AcDbLine
 10
0.23949999999999
 20
115.0
 30
0.0
 11
0.23949999999999
 21
127.164
 31
0.0
  0
LINE
  5
54
330
1E
100
AcDbEntity
  8
0
100
AcDbLine
 10
2.039499999999989
 20
-0.0000000000000086
 30
0.0
 11
3.23949999999999
 21
-0.0000000000000085
 31
0.0
  0
LINE
  5
55
330
1E
100
AcDbEntity
  8
0
100
AcDbLine
 10
20.93949999999999
 20
-0.0000000000000111
 30
0.0
 11
23.23949999999999
 21
-0.0000000000000111
 31
0.0
  0
LINE
  5
56
330
1E
100
AcDbEntity
  8
0
100
AcDbLine
 10
23.23949999999999
 20
-0.0000000000000111
 30
0.0
 11
25.5395
 21
-0.0000000000000111
 31
0.0
  0
LINE
  5
57
330
1E
100
AcDbEntity
  8
0
100
AcDbLine
 10
14.2395
 20
-0.0000000000000111
 30
0.0
 11
17.8395
 21
-0.0000000000000111
 31
0.0
  0
LINE
  5
58
330
1E
100
AcDbEntity
  8
0
100
AcDbLine
 10
17.8395
 20
-0.0000000000000111
 30
0.0
 11
20.93949999999999
 21
-0.0000000000000111
 31
0.0
  0
LINE
  5
59
330
1E
100
AcDbEntity
  8
0
100
AcDbLine
 10
25.5395
 20
-0.0000000000000111
 30
0.0
 11
28.6395
 21
-0.0000000000000111
 31
0.0
  0
LINE
  5
5A
330
1E
100
AcDbEntity
  8
0
100
AcDbLine
 10
28.6395
 20
-0.0000000000000111
 30
0.0
 11
32.2395
 21
-0.0000000000000111
 31
0.0
  0
LINE
  5
5B
330
1E
100
AcDbEntity
  8
0
100
AcDbLine
 10
8.93949999999999
 20
-0.0000000000000111
 30
0.0
 11
11.2395
 21
-0.0000000000000111
 31
0.0
  0
LINE
  5
5C
330
1E
100
AcDbEntity
  8
0
100
AcDbLine
 10
11.2395
 20
-0.0000000000000111
 30
0.0
 11
14.2395
 21
-0.0000000000000111
 31
0.0
  0
LINE
  5
5D
330
1E
100
AcDbEntity
  8
0
100
AcDbLine
 10
32.2395
 20
-0.0000000000000111
 30
0.0
 11
35.2395
 21
-0.0000000000000111
 31
0.0
  0
LINE
  5
5E
330
1E
100
AcDbEntity
  8
0
100
AcDbLine
 10
35.2395
 20
-0.0000000000000111
 30
0.0
 11
37.53949999999999
 21
-0.0000000000000111
 31
0.0
  0
LINE
  5
5F
330
1E
100
AcDbEntity
  8
0
100
AcDbLine
 10
4.93949999999999
 20
-0.000000000000011
 30
0.0
 11
6.83949999999999
 21
-0.0000000000000111
 31
0.0
  0
LINE
  5
60
330
1E
100
AcDbEntity
  8
0
100
AcDbLine
 10
6.83949999999999
 20
-0.0000000000000111
 30
0.0
 11
8.93949999999999
 21
-0.0000000000000111
 31
0.0
  0
LINE
  5
61
330
1E
100
AcDbEntity
  8
0
100
AcDbLine
 10
37.53949999999999
 20
-0.0000000000000111
 30
0.0
 11
39.6395
 21
-0.0000000000000111
 31
0.0
  0
LINE
  5
62
330
1E
100
AcDbEntity
  8
0
100
AcDbLine
 10
39.6395
 20
-0.0000000000000111
 30
0.0
 11
41.5395
 21
-0.000000000000011
 31
0.0
  0
LINE
  5
63
330
1E
100
AcDbEntity
  8
0
100
AcDbLine
 10
41.5395
 20
-0.000000000000011
 30
0.0
 11
43.23949999999999
 21
-0.000000000000011
 31
0.0
  0
LINE
  5
64
330
1E
100
AcDbEntity
  8
0
100
AcDbLine
 10
44.4395
 20
-0.0000000000000109
 30
0.0
 11
45.2395
 21
-0.0000000000000107
 31
0.0
  0
LINE
  5
65
330
1E
100
AcDbEntity
  8
0
100
AcDbLine
 10
43.23949999999999
 20
-0.000000000000011
 30
0.0
 11
44.4395
 21
-0.0000000000000109
 31
0.0
  0
LINE
  5
66
330
1E
100
AcDbEntity
  8
0
100
AcDbLine
 10
45.6395
 20
-0.0000000000000106
 30
0.0
 11
45.88949999999999
 21
-0.0000000000000105
 31
0.0
  0
LINE
  5
67
330
1E
100
AcDbEntity
  8
0
100
AcDbLine
 10
45.2395
 20
-0.0000000000000107
 30
0.0
 11
45.6395
 21
-0.0000000000000106
 31
0.0
  0
LINE
  5
68
330
1E
100
AcDbEntity
  8
0
100
AcDbLine
 10
46.0895
 20
-0.0000000000000103
 30
0.0
 11
46.1895
 21
-0.0000000000000101
 31
0.0
  0
LINE
  5
69
330
1E
100
AcDbEntity
  8
0
100
AcDbLine
 10
45.88949999999999
 20
-0.0000000000000105
 30
0.0
 11
46.0895
 21
-0.0000000000000103
 31
0.0
  0
LINE
  5
6A
330
1E
100
AcDbEntity
  8
0
100
AcDbLine
 10
46.23949999999999
 20
-0.0000000000000097
 30
0.0
 11
46.23949999999999
 21
12.0
 31
0.0
  0
LINE
  5
6B
330
1E
100
AcDbEntity
  8
0
100
AcDbLine
 10
46.0895
 20
-0.0000000000000092
 30
0.0
 11
46.1895
 21
-0.0000000000000094
 31
0.0
  0
LINE
  5
6C
330
1E
100
AcDbEntity
  8
0
100
AcDbLine
 10
45.88949999999999
 20
-0.000000000000009
 30
0.0
 11
46.0895
 21
-0.0000000000000092
 31
0.0
  0
LINE
  5
6D
330
1E
100
AcDbEntity
  8
0
100
AcDbLine
 10
45.6395
 20
-0.0000000000000089
 30
0.0
 11
45.88949999999999
 21
-0.000000000000009
 31
0.0
  0
LINE
  5
6E
330
1E
100
AcDbEntity
  8
0
100
AcDbLine
 10
45.2395
 20
-0.0000000000000087
 30
0.0
 11
45.6395
 21
-0.0000000000000089
 31
0.0
  0
LINE
  5
6F
330
1E
100
AcDbEntity
  8
0
100
AcDbLine
 10
44.4395
 20
-0.0000000000000086
 30
0.0
 11
45.2395
 21
-0.0000000000000087
 31
0.0
  0
LINE
  5
70
330
1E
100
AcDbEntity
  8
0
100
AcDbLine
 10
43.23949999999999
 20
-0.0000000000000085
 30
0.0
 11
44.4395
 21
-0.0000000000000086
 31
0.0
  0
LINE
  5
71
330
1E
100
AcDbEntity
  8
0
100
AcDbLine
 10
41.5395
 20
-0.0000000000000084
 30
0.0
 11
43.23949999999999
 21
-0.0000000000000085
 31
0.0
  0
LINE
  5
72
330
1E
100
AcDbEntity
  8
0
100
AcDbLine
 10
4.88982999999999
 20
140.8
 30
0.0
 11
6.73805999999999
 21
140.0
 31
0.0
  0
LINE
  5
73
330
1E
100
AcDbEntity
  8
0
100
AcDbLine
 10
6.73805999999999
 20
140.0
 30
0.0
 11
8.78083999999999
 21
139.5999999999999
 31
0.0
  0
LINE
  5
77
330
1E
100
AcDbEntity
  8
0
100
AcDbLine
 10
39.6395
 20
-0.0000000000000084
 30
0.0
 11
41.5395
 21
-0.0000000000000084
 31
0.0
  0
LINE
  5
78
330
1E
100
AcDbEntity
  8
0
100
AcDbLine
 10
37.53949999999999
 20
-0.0000000000000084
 30
0.0
 11
39.6395
 21
-0.0000000000000084
 31
0.0
  0
LINE
  5
79
330
1E
100
AcDbEntity
  8
0
100
AcDbLine
 10
8.78083999999999
 20
139.5999999999999
 30
0.0
 11
8.907409999999989
 21
139.5999999999999
 31
0.0
  0
LINE
  5
7A
330
1E
100
AcDbEntity
  8
0
100
AcDbLine
 10
8.907409999999989
 20
139.5999999999999
 30
0.0
 11
9.209818850168009
 21
139.566875857088
 31
0.0
  0
LINE
  5
7B
330
1E
100
AcDbEntity
  8
0
100
AcDbLine
 10
9.785551174879159
 20
139.503813417637
 30
0.0
 11
11.1898
 21
139.3499999999999
 31
0.0
  0
LINE
  5
80
330
1E
100
AcDbEntity
  8
0
100
AcDbLine
 10
35.2395
 20
-0.0000000000000083
 30
0.0
 11
37.53949999999999
 21
-0.0000000000000084
 31
0.0
  0
LINE
  5
81
330
1E
100
AcDbEntity
  8
0
100
AcDbLine
 10
32.2395
 20
-0.0000000000000083
 30
0.0
 11
35.2395
 21
-0.0000000000000083
 31
0.0
  0
LINE
  5
82
330
1E
100
AcDbEntity
  8
0
100
AcDbLine
 10
12.6355
 20
136.3089999999999
 30
0.0
 11
12.8995
 21
136.031
 31
0.0
  0
LINE
  5
83
330
1E
100
AcDbEntity
  8
0
100
AcDbLine
 10
12.5035
 20
136.748
 30
0.0
 11
12.8995
 21
137.465
 31
0.0
  0
LINE
  5
84
330
1E
100
AcDbEntity
  8
0
100
AcDbLine
 10
12.5035
 20
136.748
 30
0.0
 11
12.8995
 21
136.031
 31
0.0
  0
LINE
  5
85
330
1E
100
AcDbEntity
  8
0
100
AcDbLine
 10
12.2395
 20
137.0379999999999
 30
0.0
 11
12.6355
 21
137.7669999999999
 31
0.0
  0
LINE
  5
86
330
1E
100
AcDbEntity
  8
0
100
AcDbLine
 10
12.2395
 20
137.0379999999999
 30
0.0
 11
12.6355
 21
136.3089999999999
 31
0.0
  0
LINE
  5
87
330
1E
100
AcDbEntity
  8
0
100
AcDbLine
 10
12.2395
 20
137.0379999999999
 30
0.0
 11
12.2395
 21
140.0
 31
0.0
  0
LINE
  5
88
330
1E
100
AcDbEntity
  8
0
100
AcDbLine
 10
12.8995
 20
136.031
 30
0.0
 11
13.9555
 21
135.37
 31
0.0
  0
LINE
  5
89
330
1E
100
AcDbEntity
  8
0
100
AcDbLine
 10
13.9555
 20
135.37
 30
0.0
 11
15.67149999999999
 21
134.7889999999999
 31
0.0
  0
LINE
  5
8A
330
1E
100
AcDbEntity
  8
0
100
AcDbLine
 10
12.8995
 20
137.465
 30
0.0
 11
13.9555
 21
138.126
 31
0.0
  0
LINE
  5
8B
330
1E
100
AcDbEntity
  8
0
100
AcDbLine
 10
13.9555
 20
138.126
 30
0.0
 11
15.67149999999999
 21
138.707
 31
0.0
  0
LINE
  5
8C
330
1E
100
AcDbEntity
  8
0
100
AcDbLine
 10
12.6355
 20
137.7669999999999
 30
0.0
 11
13.6915
 21
138.4499999999999
 31
0.0
  0
LINE
  5
8D
330
1E
100
AcDbEntity
  8
0
100
AcDbLine
 10
12.2395
 20
140.0
 30
0.0
 11
12.2395
 21
137.0379999999999
 31
0.0
  0
LINE
  5
8E
330
1E
100
AcDbEntity
  8
0
100
AcDbLine
 10
13.6915
 20
138.4499999999999
 30
0.0
 11
15.4515
 21
139.053
 31
0.0
  0
LINE
  5
8F
330
1E
100
AcDbEntity
  8
0
100
AcDbLine
 10
15.67149999999999
 20
134.7889999999999
 30
0.0
 11
17.9155
 21
134.345
 31
0.0
  0
LINE
  5
90
330
1E
100
AcDbEntity
  8
0
100
AcDbLine
 10
15.67149999999999
 20
138.707
 30
0.0
 11
17.9155
 21
139.151
 31
0.0
  0
LINE
  5
91
330
1E
100
AcDbEntity
  8
0
100
AcDbLine
 10
15.4515
 20
139.053
 30
0.0
 11
17.7835
 21
139.5089999999999
 31
0.0
  0
LINE
  5
93
330
1E
100
AcDbEntity
  8
0
100
AcDbLine
 10
17.7835
 20
139.5089999999999
 30
0.0
 11
20.4235
 21
139.782
 31
0.0
  0
LINE
  5
9B
330
1E
100
AcDbEntity
  8
0
100
AcDbLine
 10
17.9155
 20
134.345
 30
0.0
 11
20.4675
 21
134.072
 31
0.0
  0
LINE
  5
9C
330
1E
100
AcDbEntity
  8
0
100
AcDbLine
 10
17.9155
 20
139.151
 30
0.0
 11
20.4675
 21
139.424
 31
0.0
  0
LINE
  5
9D
330
1E
100
AcDbEntity
  8
0
100
AcDbLine
 10
20.4675
 20
134.072
 30
0.0
 11
23.23949999999999
 21
133.969
 31
0.0
  0
LINE
  5
9E
330
1E
100
AcDbEntity
  8
0
100
AcDbLine
 10
20.4675
 20
139.424
 30
0.0
 11
23.23949999999999
 21
139.527
 31
0.0
  0
LINE
  5
9F
330
1E
100
AcDbEntity
  8
0
100
AcDbLine
 10
20.4235
 20
139.782
 30
0.0
 11
23.23949999999999
 21
139.8849999999999
 31
0.0
  0
LINE
  5
A0
330
1E
100
AcDbEntity
  8
0
100
AcDbLine
 10
20.93949999999999
 20
-0.0000000000000083
 30
0.0
 11
23.23949999999999
 21
-0.0000000000000083
 31
0.0
  0
LINE
  5
A1
330
1E
100
AcDbEntity
  8
0
100
AcDbLine
 10
23.23949999999999
 20
139.527
 30
0.0
 11
26.0115
 21
139.424
 31
0.0
  0
LINE
  5
A2
330
1E
100
AcDbEntity
  8
0
100
AcDbLine
 10
23.23949999999999
 20
139.8849999999999
 30
0.0
 11
26.0555
 21
139.782
 31
0.0
  0
LINE
  5
A3
330
1E
100
AcDbEntity
  8
0
100
AcDbLine
 10
23.23949999999999
 20
133.969
 30
0.0
 11
26.0115
 21
134.072
 31
0.0
  0
LINE
  5
A6
330
1E
100
AcDbEntity
  8
0
100
AcDbLine
 10
28.6395
 20
-0.0000000000000083
 30
0.0
 11
32.2395
 21
-0.0000000000000083
 31
0.0
  0
LINE
  5
A7
330
1E
100
AcDbEntity
  8
0
100
AcDbLine
 10
28.5635
 20
139.151
 30
0.0
 11
30.8075
 21
138.707
 31
0.0
  0
LINE
  5
A8
330
1E
100
AcDbEntity
  8
0
100
AcDbLine
 10
32.52349999999999
 20
138.126
 30
0.0
 11
33.5795
 21
137.465
 31
0.0
  0
LINE
  5
A9
330
1E
100
AcDbEntity
  8
0
100
AcDbLine
 10
30.8075
 20
138.707
 30
0.0
 11
32.52349999999999
 21
138.126
 31
0.0
  0
LINE
  5
AA
330
1E
100
AcDbEntity
  8
0
100
AcDbLine
 10
31.0275
 20
139.053
 30
0.0
 11
32.7875
 21
138.4499999999999
 31
0.0
  0
LINE
  5
AB
330
1E
100
AcDbEntity
  8
0
100
AcDbLine
 10
33.5795
 20
137.465
 30
0.0
 11
33.97549999999999
 21
136.748
 31
0.0
  0
LINE
  5
AC
330
1E
100
AcDbEntity
  8
0
100
AcDbLine
 10
33.84349999999999
 20
137.7669999999999
 30
0.0
 11
34.2395
 21
137.0379999999999
 31
0.0
  0
LINE
  5
AD
330
1E
100
AcDbEntity
  8
0
100
AcDbLine
 10
32.7875
 20
138.4499999999999
 30
0.0
 11
33.84349999999999
 21
137.7669999999999
 31
0.0
  0
LINE
  5
AE
330
1E
100
AcDbEntity
  8
0
100
AcDbLine
 10
33.5795
 20
136.031
 30
0.0
 11
33.84349999999999
 21
136.3089999999999
 31
0.0
  0
LINE
  5
AF
330
1E
100
AcDbEntity
  8
0
100
AcDbLine
 10
33.5795
 20
136.031
 30
0.0
 11
33.97549999999999
 21
136.748
 31
0.0
  0
LINE
  5
B0
330
1E
100
AcDbEntity
  8
0
100
AcDbLine
 10
32.52349999999999
 20
135.37
 30
0.0
 11
33.5795
 21
136.031
 31
0.0
  0
LINE
  5
B1
330
1E
100
AcDbEntity
  8
0
100
AcDbLine
 10
30.8075
 20
134.7889999999999
 30
0.0
 11
32.52349999999999
 21
135.37
 31
0.0
  0
LINE
  5
B2
330
1E
100
AcDbEntity
  8
0
100
AcDbLine
 10
28.5635
 20
134.345
 30
0.0
 11
30.8075
 21
134.7889999999999
 31
0.0
  0
LINE
  5
B3
330
1E
100
AcDbEntity
  8
0
100
AcDbLine
 10
26.0115
 20
134.072
 30
0.0
 11
28.5635
 21
134.345
 31
0.0
  0
LINE
  5
B4
330
1E
100
AcDbEntity
  8
0
100
AcDbLine
 10
34.2395
 20
137.0379999999999
 30
0.0
 11
34.2395
 21
140.0
 31
0.0
  0
LINE
  5
B5
330
1E
100
AcDbEntity
  8
0
100
AcDbLine
 10
33.84349999999999
 20
136.3089999999999
 30
0.0
 11
34.2395
 21
137.0379999999999
 31
0.0
  0
LINE
  5
B6
330
1E
100
AcDbEntity
  8
0
100
AcDbLine
 10
26.0115
 20
139.424
 30
0.0
 11
28.5635
 21
139.151
 31
0.0
  0
LINE
  5
B7
330
1E
100
AcDbEntity
  8
0
100
AcDbLine
 10
28.6955
 20
139.5089999999999
 30
0.0
 11
31.0275
 21
139.053
 31
0.0
  0
LINE
  5
B8
330
1E
100
AcDbEntity
  8
0
100
AcDbLine
 10
36.6933269300912
 20
139.503799392097
 30
0.0
 11
37.57159999999999
 21
139.5999999999999
 31
0.0
  0
LINE
  5
B9
330
1E
100
AcDbEntity
  8
0
100
AcDbLine
 10
35.2892
 20
139.3499999999999
 30
0.0
 11
36.6933269300912
 21
139.503799392097
 31
0.0
  0
LINE
  5
BA
330
1E
100
AcDbEntity
  8
0
100
AcDbLine
 10
26.0555
 20
139.782
 30
0.0
 11
28.6955
 21
139.5089999999999
 31
0.0
  0
LINE
  5
BB
330
1E
100
AcDbEntity
  8
0
100
AcDbLine
 10
34.2395
 20
140.0
 30
0.0
 11
34.2395
 21
137.0379999999999
 31
0.0
  0
LINE
  5
BC
330
1E
100
AcDbEntity
  8
0
100
AcDbLine
 10
37.57159999999999
 20
139.5999999999999
 30
0.0
 11
37.6982
 21
139.5999999999999
 31
0.0
  0
LINE
  5
BD
330
1E
100
AcDbEntity
  8
0
100
AcDbLine
 10
37.6982
 20
139.5999999999999
 30
0.0
 11
39.7409
 21
140.0
 31
0.0
  0
LINE
  5
D0
330
1E
100
AcDbEntity
  8
0
100
AcDbLine
 10
39.7409
 20
140.0
 30
0.0
 11
41.5892
 21
140.8
 31
0.0
  0
LINE
  5
D1
330
1E
100
AcDbEntity
  8
0
100
AcDbLine
 10
46.23949999999999
 20
12.0
 30
0.0
 11
46.5658
 21
15.25249999999999
 31
0.0
  0
LINE
  5
D2
330
1E
100
AcDbEntity
  8
0
100
AcDbLine
 10
46.23949999999999
 20
12.0
 30
0.0
 11
46.23949999999999
 21
-0.0000000000000108
 31
0.0
  0
LINE
  5
D3
330
1E
100
AcDbEntity
  8
0
100
AcDbLine
 10
46.2253
 20
81.45599999999999
 30
0.0
 11
46.23949999999999
 21
115.0
 31
0.0
  0
LINE
  5
D4
330
1E
100
AcDbEntity
  8
0
100
AcDbLine
 10
46.2253
 20
81.45599999999999
 30
0.0
 11
46.5789
 21
79.31270000000001
 31
0.0
  0
LINE
  5
D5
330
1E
100
AcDbEntity
  8
0
100
AcDbLine
 10
46.23949999999999
 20
138.5
 30
0.0
 11
46.23949999999999
 21
146.875
 31
0.0
  0
LINE
  5
D6
330
1E
100
AcDbEntity
  8
0
100
AcDbLine
 10
46.23949999999999
 20
138.5
 30
0.0
 11
46.23949999999999
 21
127.164
 31
0.0
  0
LINE
  5
D7
330
1E
100
AcDbEntity
  8
0
100
AcDbLine
 10
46.23949999999999
 20
115.0
 30
0.0
 11
46.23949999999999
 21
127.164
 31
0.0
  0
LINE
  5
D8
330
1E
100
AcDbEntity
  8
0
100
AcDbLine
 10
46.5658
 20
15.25249999999999
 30
0.0
 11
47.887
 21
21.8053
 31
0.0
  0
LINE
  5
D9
330
1E
100
AcDbEntity
  8
0
100
AcDbLine
 10
47.887
 20
21.8053
 30
0.0
 11
51.0189
 21
27.6965
 31
0.0
  0
LINE
  5
DA
330
1E
100
AcDbEntity
  8
0
100
AcDbLine
 10
51.0189
 20
27.6965
 30
0.0
 11
55.286
 21
32.4615
 31
0.0
  0
LINE
  5
DB
330
1E
100
AcDbEntity
  8
0
100
AcDbLine
 10
55.286
 20
32.4615
 30
0.0
 11
60.02349999999999
 21
35.8441
 31
0.0
  0
LINE
  5
DC
330
1E
100
AcDbEntity
  8
0
100
AcDbLine
 10
64.4786
 20
38.1141
 30
0.0
 11
72.5504
 21
42.2285
 31
0.0
  0
LINE
  5
DD
330
1E
100
AcDbEntity
  8
0
100
AcDbLine
 10
60.02349999999999
 20
35.8441
 30
0.0
 11
64.4786
 21
38.1141
 31
0.0
  0
LINE
  5
DE
330
1E
100
AcDbEntity
  8
0
100
AcDbLine
 10
74.33240000000001
 20
43.13649999999999
 30
0.0
 11
74.7728
 21
44.4749
 31
0.0
  0
LINE
  5
E2
330
1E
100
AcDbEntity
  8
0
100
AcDbLine
 10
74.71810000000001
 20
44.58239999999999
 30
0.0
 11
74.7526
 21
44.5145
 31
0.0
  0
LINE
  5
E3
330
1E
100
AcDbEntity
  8
0
100
AcDbLine
 10
74.6413
 20
44.733
 30
0.0
 11
74.71810000000001
 21
44.58239999999999
 31
0.0
  0
LINE
  5
E4
330
1E
100
AcDbEntity
  8
0
100
AcDbLine
 10
74.57989999999999
 20
44.8536
 30
0.0
 11
74.6413
 21
44.733
 31
0.0
  0
LINE
  5
E7
330
1E
100
AcDbEntity
  8
0
100
AcDbLine
 10
76.58979999999999
 20
46.4508
 30
0.0
 11
78.28149999999999
 21
48.1719
 31
0.0
  0
LINE
  5
E8
330
1E
100
AcDbEntity
  8
0
100
AcDbLine
 10
74.42223287189659
 20
45.1629260864085
 30
0.0
 11
76.58979999999999
 21
46.4508
 31
0.0
  0
LINE
  5
E9
330
1E
100
AcDbEntity
  8
0
100
AcDbLine
 10
74.45699999999999
 20
45.0947
 30
0.0
 11
74.57989999999999
 21
44.8536
 31
0.0
  0
LINE
  5
EA
330
1E
100
AcDbEntity
  8
0
100
AcDbLine
 10
74.31879999999999
 20
45.3659
 30
0.0
 11
74.45699999999999
 21
45.0947
 31
0.0
  0
LINE
  5
EB
330
1E
100
AcDbEntity
  8
0
100
AcDbLine
 10
78.28149999999999
 20
48.1719
 30
0.0
 11
79.30789298111871
 21
50.5915562325627
 31
0.0
  0
LINE
  5
EC
330
1E
100
AcDbEntity
  8
0
100
AcDbLine
 10
73.61422360458741
 20
46.7218309560725
 30
0.0
 11
74.31879999999999
 21
45.3659
 31
0.0
  0
LINE
  5
ED
330
1E
100
AcDbEntity
  8
0
100
AcDbLine
 10
73.61422360458741
 20
46.7218309560725
 30
0.0
 11
74.31879999999999
 21
45.3659
 31
0.0
  0
LINE
  5
EE
330
1E
100
AcDbEntity
  8
0
100
AcDbLine
 10
66.5305
 20
60.354
 30
0.0
 11
74.31879999999999
 21
45.3659
 31
0.0
  0
LINE
  5
F0
330
1E
100
AcDbEntity
  8
0
100
AcDbLine
 10
79.37692691069779
 20
50.53328717716739
 30
0.0
 11
82.7622
 21
47.6759
 31
0.0
  0
LINE
  5
F8
330
1E
100
AcDbEntity
  8
0
100
AcDbLine
 10
101.3384999999999
 20
63.2016
 30
0.0
 11
102.0985
 21
63.2521
 31
0.0
  0
LINE
  5
FC
330
1E
100
AcDbEntity
  8
0
100
AcDbLine
 10
56.0798
 20
76.16089999999999
 30
0.0
 11
57.20909999999999
 21
76.7429
 31
0.0
  0
LINE
  5
FE
330
1E
100
AcDbEntity
  8
0
100
AcDbLine
 10
57.20909999999999
 20
76.7429
 30
0.0
 11
58.5287
 21
76.35559999999999
 31
0.0
  0
LINE
  5
101
330
1E
100
AcDbEntity
  8
0
100
AcDbLine
 10
54.9704
 20
75.71850000000001
 30
0.0
 11
56.0798
 21
76.16089999999999
 31
0.0
  0
LINE
  5
102
330
1E
100
AcDbEntity
  8
0
100
AcDbLine
 10
52.895
 20
75.3104
 30
0.0
 11
54.9704
 21
75.71850000000001
 31
0.0
  0
LINE
  5
103
330
1E
100
AcDbEntity
  8
0
100
AcDbLine
 10
50.1884
 20
75.6759
 30
0.0
 11
52.895
 21
75.3104
 31
0.0
  0
LINE
  5
104
330
1E
100
AcDbEntity
  8
0
100
AcDbLine
 10
48.1611
 20
77.31069999999999
 30
0.0
 11
50.1884
 21
75.6759
 31
0.0
  0
LINE
  5
105
330
1E
100
AcDbEntity
  8
0
100
AcDbLine
 10
58.5287
 20
76.35559999999999
 30
0.0
 11
58.5835
 21
76.24819999999999
 31
0.0
  0
LINE
  5
106
330
1E
100
AcDbEntity
  8
0
100
AcDbLine
 10
58.5835
 20
76.24819999999999
 30
0.0
 11
58.6603
 21
76.0975
 31
0.0
  0
LINE
  5
107
330
1E
100
AcDbEntity
  8
0
100
AcDbLine
 10
58.6603
 20
76.0975
 30
0.0
 11
58.7217
 21
75.9769
 31
0.0
  0
LINE
  5
108
330
1E
100
AcDbEntity
  8
0
100
AcDbLine
 10
58.7217
 20
75.9769
 30
0.0
 11
58.8446
 21
75.73579999999999
 31
0.0
  0
LINE
  5
109
330
1E
100
AcDbEntity
  8
0
100
AcDbLine
 10
58.8446
 20
75.73579999999999
 30
0.0
 11
58.98279999999999
 21
75.4646
 31
0.0
  0
LINE
  5
10A
330
1E
100
AcDbEntity
  8
0
100
AcDbLine
 10
59.1551692534589
 20
75.1195143657914
 30
0.0
 11
59.677839334479
 21
75.36005126627919
 31
0.0
  0
LINE
  5
10B
330
1E
100
AcDbEntity
  8
0
100
AcDbLine
 10
58.98279999999999
 20
75.4646
 30
0.0
 11
66.5305
 21
60.354
 31
0.0
  0
LINE
  5
10C
330
1E
100
AcDbEntity
  8
0
100
AcDbLine
 10
58.98279999999999
 20
75.4646
 30
0.0
 11
59.1551711103397
 21
75.11951522034259
 31
0.0
  0
LINE
  5
10F
330
1E
100
AcDbEntity
  8
0
100
AcDbLine
 10
58.3825
 20
77.9023
 30
0.0
 11
114.0954999999999
 21
102.9229999999999
 31
0.0
  0
LINE
  5
111
330
1E
100
AcDbEntity
  8
0
100
AcDbLine
 10
58.3825
 20
77.9023
 30
0.0
 11
59.677839334479
 21
75.36005126627919
 31
0.0
  0
LINE
  5
112
330
1E
100
AcDbEntity
  8
0
100
AcDbLine
 10
58.3825
 20
77.9023
 30
0.0
 11
59.677839334479
 21
75.36005126627919
 31
0.0
  0
LINE
  5
114
330
1E
100
AcDbEntity
  8
0
100
AcDbLine
 10
93.7385
 20
74.5929
 30
0.0
 11
98.7324
 21
64.79179999999999
 31
0.0
  0
LINE
  5
115
330
1E
100
AcDbEntity
  8
0
100
AcDbLine
 10
98.7324
 20
64.79179999999999
 30
0.0
 11
99.1393
 21
64.2135
 31
0.0
  0
LINE
  5
116
330
1E
100
AcDbEntity
  8
0
100
AcDbLine
 10
99.1393
 20
64.2135
 30
0.0
 11
99.7244
 21
63.72600000000001
 31
0.0
  0
LINE
  5
117
330
1E
100
AcDbEntity
  8
0
100
AcDbLine
 10
99.7244
 20
63.72600000000001
 30
0.0
 11
100.4874999999999
 21
63.32930000000001
 31
0.0
  0
LINE
  5
118
330
1E
100
AcDbEntity
  8
0
100
AcDbLine
 10
102.7674999999999
 20
63.48069999999999
 30
0.0
 11
127.2615
 21
77.0835
 31
0.0
  0
LINE
  5
119
330
1E
100
AcDbEntity
  8
0
100
AcDbLine
 10
100.4874999999999
 20
63.32930000000001
 30
0.0
 11
101.3384999999999
 21
63.2016
 31
0.0
  0
LINE
  5
11A
330
1E
100
AcDbEntity
  8
0
100
AcDbLine
 10
102.0985
 20
63.2521
 30
0.0
 11
102.7674999999999
 21
63.48069999999999
 31
0.0
  0
LINE
  5
121
330
1E
100
AcDbEntity
  8
0
100
AcDbLine
 10
127.8394999999999
 20
77.49039999999999
 30
0.0
 11
128.3274999999999
 21
78.0755
 31
0.0
  0
LINE
  5
122
330
1E
100
AcDbEntity
  8
0
100
AcDbLine
 10
127.8394999999999
 20
77.49039999999999
 30
0.0
 11
128.3274999999999
 21
78.0755
 31
0.0
  0
LINE
  5
123
330
1E
100
AcDbEntity
  8
0
100
AcDbLine
 10
127.2615
 20
77.0835
 30
0.0
 11
127.8394999999999
 21
77.49039999999999
 31
0.0
  0
LINE
  5
124
330
1E
100
AcDbEntity
  8
0
100
AcDbLine
 10
46.5789
 20
79.31270000000001
 30
0.0
 11
48.1611
 21
77.31069999999999
 31
0.0
  0
LINE
  5
128
330
1E
100
AcDbEntity
  8
0
100
AcDbLine
 10
128.5725
 20
81.1185
 30
0.0
 11
128.8015
 21
80.4494
 31
0.0
  0
LINE
  5
129
330
1E
100
AcDbEntity
  8
0
100
AcDbLine
 10
128.5725
 20
81.1185
 30
0.0
 11
128.8015
 21
80.4494
 31
0.0
  0
LINE
  5
12A
330
1E
100
AcDbEntity
  8
0
100
AcDbLine
 10
128.8015
 20
80.4494
 30
0.0
 11
128.8514999999999
 21
79.68949999999999
 31
0.0
  0
LINE
  5
12B
330
1E
100
AcDbEntity
  8
0
100
AcDbLine
 10
128.8015
 20
80.4494
 30
0.0
 11
128.8514999999999
 21
79.68949999999999
 31
0.0
  0
LINE
  5
130
330
1E
100
AcDbEntity
  8
0
100
AcDbLine
 10
128.7245
 20
78.83880000000001
 30
0.0
 11
128.8514999999999
 21
79.68949999999999
 31
0.0
  0
LINE
  5
131
330
1E
100
AcDbEntity
  8
0
100
AcDbLine
 10
128.3274999999999
 20
78.0755
 30
0.0
 11
128.7245
 21
78.83880000000001
 31
0.0
  0
LINE
  5
133
330
1E
100
AcDbEntity
  8
0
100
AcDbLine
 10
88.51589999999999
 20
85.06299999999999
 30
0.0
 11
88.7446
 21
84.39390000000001
 31
0.0
  0
LINE
  5
134
330
1E
100
AcDbEntity
  8
0
100
AcDbLine
 10
88.4654
 20
85.8229
 30
0.0
 11
88.5931
 21
86.6736
 31
0.0
  0
LINE
  5
135
330
1E
100
AcDbEntity
  8
0
100
AcDbLine
 10
88.4654
 20
85.8229
 30
0.0
 11
88.51589999999999
 21
85.06299999999999
 31
0.0
  0
LINE
  5
13A
330
1E
100
AcDbEntity
  8
0
100
AcDbLine
 10
88.5931
 20
86.6736
 30
0.0
 11
88.98979999999999
 21
87.43689999999999
 31
0.0
  0
LINE
  5
13B
330
1E
100
AcDbEntity
  8
0
100
AcDbLine
 10
88.5931
 20
86.6736
 30
0.0
 11
88.98979999999999
 21
87.43689999999999
 31
0.0
  0
LINE
  5
13C
330
1E
100
AcDbEntity
  8
0
100
AcDbLine
 10
88.98979999999999
 20
87.43689999999999
 30
0.0
 11
89.47729999999999
 21
88.022
 31
0.0
  0
LINE
  5
13D
330
1E
100
AcDbEntity
  8
0
100
AcDbLine
 10
88.98979999999999
 20
87.43689999999999
 30
0.0
 11
89.47729999999999
 21
88.022
 31
0.0
  0
LINE
  5
13E
330
1E
100
AcDbEntity
  8
0
100
AcDbLine
 10
89.47729999999999
 20
88.022
 30
0.0
 11
90.0556
 21
88.4289
 31
0.0
  0
LINE
  5
13F
330
1E
100
AcDbEntity
  8
0
100
AcDbLine
 10
89.47729999999999
 20
88.022
 30
0.0
 11
90.0556
 21
88.4289
 31
0.0
  0
LINE
  5
140
330
1E
100
AcDbEntity
  8
0
100
AcDbLine
 10
88.7446
 20
84.39390000000001
 30
0.0
 11
93.7385
 21
74.5929
 31
0.0
  0
LINE
  5
143
330
1E
100
AcDbEntity
  8
0
100
AcDbLine
 10
90.0556
 20
88.4289
 30
0.0
 11
115.4574999999999
 21
100.2499999999999
 31
0.0
  0
LINE
  5
144
330
1E
100
AcDbEntity
  8
0
100
AcDbLine
 10
90.0556
 20
88.4289
 30
0.0
 11
115.4574999999999
 21
100.2499999999999
 31
0.0
  0
LINE
  5
146
330
1E
100
AcDbEntity
  8
0
100
AcDbLine
 10
114.0954999999999
 20
102.9229999999999
 30
0.0
 11
115.5685
 21
103.336
 31
0.0
  0
LINE
  5
147
330
1E
100
AcDbEntity
  8
0
100
AcDbLine
 10
115.4574999999999
 20
100.2499999999999
 30
0.0
 11
116.1264999999999
 21
100.478
 31
0.0
  0
LINE
  5
149
330
1E
100
AcDbEntity
  8
0
100
AcDbLine
 10
119.0854999999999
 20
99.51690000000001
 30
0.0
 11
119.4925
 21
98.9386
 31
0.0
  0
LINE
  5
14A
330
1E
100
AcDbEntity
  8
0
100
AcDbLine
 10
119.0854999999999
 20
99.51690000000001
 30
0.0
 11
119.4925
 21
98.9386
 31
0.0
  0
LINE
  5
14B
330
1E
100
AcDbEntity
  8
0
100
AcDbLine
 10
118.5005
 20
100.0039999999999
 30
0.0
 11
119.0854999999999
 21
99.51690000000001
 31
0.0
  0
LINE
  5
14C
330
1E
100
AcDbEntity
  8
0
100
AcDbLine
 10
118.5005
 20
100.0039999999999
 30
0.0
 11
119.0854999999999
 21
99.51690000000001
 31
0.0
  0
LINE
  5
14D
330
1E
100
AcDbEntity
  8
0
100
AcDbLine
 10
117.7375
 20
100.401
 30
0.0
 11
118.5005
 21
100.0039999999999
 31
0.0
  0
LINE
  5
14F
330
1E
100
AcDbEntity
  8
0
100
AcDbLine
 10
117.7375
 20
100.401
 30
0.0
 11
118.5005
 21
100.0039999999999
 31
0.0
  0
LINE
  5
150
330
1E
100
AcDbEntity
  8
0
100
AcDbLine
 10
116.1264999999999
 20
100.478
 30
0.0
 11
116.8865
 21
100.529
 31
0.0
  0
LINE
  5
151
330
1E
100
AcDbEntity
  8
0
100
AcDbLine
 10
116.8865
 20
100.529
 30
0.0
 11
117.7375
 21
100.401
 31
0.0
  0
LINE
  5
152
330
1E
100
AcDbEntity
  8
0
100
AcDbLine
 10
116.8865
 20
100.529
 30
0.0
 11
117.7375
 21
100.401
 31
0.0
  0
LINE
  5
153
330
1E
100
AcDbEntity
  8
0
100
AcDbLine
 10
116.1264999999999
 20
100.478
 30
0.0
 11
116.8865
 21
100.529
 31
0.0
  0
LINE
  5
154
330
1E
100
AcDbEntity
  8
0
100
AcDbLine
 10
115.4574999999999
 20
100.2499999999999
 30
0.0
 11
116.1264999999999
 21
100.478
 31
0.0
  0
LINE
  5
155
330
1E
100
AcDbEntity
  8
0
100
AcDbLine
 10
119.4925
 20
98.9386
 30
0.0
 11
124.0325
 21
90.0285
 31
0.0
  0
LINE
  5
156
330
1E
100
AcDbEntity
  8
0
100
AcDbLine
 10
122.1654999999999
 20
100.3009999999999
 30
0.0
 11
126.7055
 21
91.39050000000001
 31
0.0
  0
LINE
  5
159
330
1E
100
AcDbEntity
  8
0
100
AcDbLine
 10
119.4925
 20
98.9386
 30
0.0
 11
124.0325
 21
90.0285
 31
0.0
  0
LINE
  5
164
330
1E
100
AcDbEntity
  8
0
100
AcDbLine
 10
121.2175
 20
101.5009999999999
 30
0.0
 11
122.1654999999999
 21
100.3009999999999
 31
0.0
  0
LINE
  5
165
330
1E
100
AcDbEntity
  8
0
100
AcDbLine
 10
120.0474999999999
 20
102.476
 30
0.0
 11
121.2175
 21
101.5009999999999
 31
0.0
  0
LINE
  5
166
330
1E
100
AcDbEntity
  8
0
100
AcDbLine
 10
118.6555
 20
103.2259999999999
 30
0.0
 11
120.0474999999999
 21
102.476
 31
0.0
  0
LINE
  5
167
330
1E
100
AcDbEntity
  8
0
100
AcDbLine
 10
117.0884999999999
 20
103.437
 30
0.0
 11
118.6555
 21
103.2259999999999
 31
0.0
  0
LINE
  5
168
330
1E
100
AcDbEntity
  8
0
100
AcDbLine
 10
115.5685
 20
103.336
 30
0.0
 11
117.0884999999999
 21
103.437
 31
0.0
  0
LINE
  5
169
330
1E
100
AcDbEntity
  8
0
100
AcDbLine
 10
124.0325
 20
90.0285
 30
0.0
 11
128.5725
 21
81.1185
 31
0.0
  0
LINE
  5
16A
330
1E
100
AcDbEntity
  8
0
100
AcDbLine
 10
126.7055
 20
91.39050000000001
 30
0.0
 11
131.2454999999999
 21
82.48040000000001
 31
0.0
  0
LINE
  5
16D
330
1E
100
AcDbEntity
  8
0
100
AcDbLine
 10
124.0325
 20
90.0285
 30
0.0
 11
128.5725
 21
81.1185
 31
0.0
  0
LINE
  5
16E
330
1E
100
AcDbEntity
  8
0
100
AcDbLine
 10
131.2454999999999
 20
82.48040000000001
 30
0.0
 11
131.6595
 21
81.0077
 31
0.0
  0
LINE
  5
16F
330
1E
100
AcDbEntity
  8
0
100
AcDbLine
 10
131.6595
 20
81.0077
 30
0.0
 11
131.7605
 21
79.48789999999999
 31
0.0
  0
LINE
  5
170
330
1E
100
AcDbEntity
  8
0
100
AcDbLine
 10
131.5485
 20
77.92100000000001
 30
0.0
 11
131.7605
 21
79.48789999999999
 31
0.0
  0
LINE
  5
171
330
1E
100
AcDbEntity
  8
0
100
AcDbLine
 10
46.23949999999999
 20
127.164
 30
0.0
 11
46.23949999999999
 21
138.5
 31
0.0
  0
LINE
  5
172
330
1E
100
AcDbEntity
  8
0
100
AcDbLine
 10
46.23949999999999
 20
127.164
 30
0.0
 11
46.23949999999999
 21
115.0
 31
0.0
  0
LINE
  5
173
330
1E
100
AcDbEntity
  8
0
100
AcDbLine
 10
43.2456
 20
142.0
 30
0.0
 11
44.4402
 21
143.6999999999999
 31
0.0
  0
LINE
  5
17B
330
1E
100
AcDbEntity
  8
0
100
AcDbLine
 10
1.239499999999992
 20
155.0
 30
0.0
 11
45.0591
 21
155.0
 31
0.0
  0
LINE
  5
17C
330
1E
100
AcDbEntity
  8
0
100
AcDbLine
 10
45.0591
 20
155.0
 30
0.0
 11
45.2395
 21
155.0
 31
0.0
  0
LINE
  5
17D
330
1E
100
AcDbEntity
  8
0
100
AcDbLine
 10
46.23949999999999
 20
151.507
 30
0.0
 11
46.23949999999999
 21
146.875
 31
0.0
  0
LINE
  5
17E
330
1E
100
AcDbEntity
  8
0
100
AcDbLine
 10
46.23949999999999
 20
151.507
 30
0.0
 11
46.23949999999999
 21
153.0
 31
0.0
  0
LINE
  5
17F
330
1E
100
AcDbEntity
  8
0
100
AcDbLine
 10
46.23949999999999
 20
146.875
 30
0.0
 11
46.23949999999999
 21
138.5
 31
0.0
  0
LINE
  5
180
330
1E
100
AcDbEntity
  8
0
100
AcDbLine
 10
46.23949999999999
 20
146.875
 30
0.0
 11
46.23949999999999
 21
151.507
 31
0.0
  0
LINE
  5
181
330
1E
100
AcDbEntity
  8
0
100
AcDbLine
 10
46.23949999999999
 20
153.0
 30
0.0
 11
46.23949999999999
 21
154.0
 31
0.0
  0
LINE
  5
182
330
1E
100
AcDbEntity
  8
0
100
AcDbLine
 10
46.23949999999999
 20
153.0
 30
0.0
 11
46.23949999999999
 21
151.507
 31
0.0
  0
LINE
  5
187
330
1E
100
AcDbEntity
  8
0
100
AcDbLine
 10
45.2395
 20
155.0
 30
0.0
 11
45.9395
 21
154.6999999999999
 31
0.0
  0
LINE
  5
188
330
1E
100
AcDbEntity
  8
0
100
AcDbLine
 10
45.9395
 20
154.6999999999999
 30
0.0
 11
46.23949999999999
 21
154.0
 31
0.0
  0
LINE
  5
189
330
1E
100
AcDbEntity
  8
0
100
AcDbLine
 10
46.23949999999999
 20
154.0
 30
0.0
 11
46.23949999999999
 21
153.0
 31
0.0
  0
LINE
  5
18A
330
1E
100
AcDbEntity
  8
0
100
AcDbLine
 10
41.5892
 20
140.8
 30
0.0
 11
43.2428
 21
142.0
 31
0.0
  0
LINE
  5
18B
330
1E
100
AcDbEntity
  8
0
100
AcDbLine
 10
25.5395
 20
-0.0000000000000083
 30
0.0
 11
28.6395
 21
-0.0000000000000083
 31
0.0
  0
LINE
  5
18C
330
1E
100
AcDbEntity
  8
0
100
AcDbLine
 10
23.23949999999999
 20
-0.0000000000000083
 30
0.0
 11
25.5395
 21
-0.0000000000000083
 31
0.0
  0
LINE
  5
190
330
1E
100
AcDbEntity
  8
0
100
AcDbLine
 10
17.8395
 20
-0.0000000000000083
 30
0.0
 11
20.93949999999999
 21
-0.0000000000000083
 31
0.0
  0
LINE
  5
191
330
1E
100
AcDbEntity
  8
0
100
AcDbLine
 10
14.2395
 20
-0.0000000000000083
 30
0.0
 11
17.8395
 21
-0.0000000000000083
 31
0.0
  0
LINE
  5
192
330
1E
100
AcDbEntity
  8
0
100
AcDbLine
 10
11.2395
 20
-0.0000000000000083
 30
0.0
 11
14.2395
 21
-0.0000000000000083
 31
0.0
  0
LINE
  5
193
330
1E
100
AcDbEntity
  8
0
100
AcDbLine
 10
8.93949999999999
 20
-0.0000000000000084
 30
0.0
 11
11.2395
 21
-0.0000000000000083
 31
0.0
  0
LINE
  5
194
330
1E
100
AcDbEntity
  8
0
100
AcDbLine
 10
6.83949999999999
 20
-0.0000000000000084
 30
0.0
 11
8.93949999999999
 21
-0.0000000000000084
 31
0.0
  0
LINE
  5
195
330
1E
100
AcDbEntity
  8
0
100
AcDbLine
 10
4.93949999999999
 20
-0.0000000000000084
 30
0.0
 11
6.83949999999999
 21
-0.0000000000000084
 31
0.0
  0
LINE
  5
196
330
1E
100
AcDbEntity
  8
0
100
AcDbLine
 10
3.23949999999999
 20
-0.0000000000000085
 30
0.0
 11
4.93949999999999
 21
-0.0000000000000084
 31
0.0
  0
LINE
  5
19B
330
1E
100
AcDbEntity
  8
0
100
AcDbLine
 10
131.5485
 20
77.92100000000001
 30
0.0
 11
130.8526621021522
 21
76.56803830310082
 31
0.0
  0
LINE
  5
19C
330
1E
100
AcDbEntity
  8
0
100
AcDbLine
 10
130.8526621021522
 20
76.56803830310082
 30
0.0
 11
129.8223500979495
 21
75.36150708029288
 31
0.0
  0
LINE
  5
19D
330
1E
100
AcDbEntity
  8
0
100
AcDbLine
 10
129.8223500979495
 20
75.36150708029288
 30
0.0
 11
128.6117585843539
 21
74.56828399378991
 31
0.0
  0
LINE
  5
19E
330
1E
100
AcDbEntity
  8
0
100
AcDbLine
 10
128.6117585843539
 20
74.56828399378991
 30
0.0
 11
82.7622
 21
47.6759
 31
0.0
  0
LINE
  5
19F
330
1E
100
AcDbEntity
  8
0
100
AcDbLine
 10
74.33240000000001
 20
43.13649999999999
 30
0.0
 11
72.5504
 21
42.2285
 31
0.0
  0
LINE
  5
1A0
330
1E
100
AcDbEntity
  8
0
100
AcDbLine
 10
79.30789298111871
 20
50.5915562325627
 30
0.0
 11
59.677839334479
 21
75.36005126627919
 31
0.0
  0
LINE
  5
1A1
330
1E
100
AcDbEntity
  8
0
100
AcDbLine
 10
9.785551174879159
 20
139.503813417637
 30
0.0
 11
9.209818850168009
 21
139.566875857088
 31
0.0
  0
LINE
  5
1A2
330
1E
100
AcDbEntity
  8
0
100
AcDbLine
 10
2.03881999999999
 20
143.6999999999999
 30
0.0
 11
1.187778565458302
 21
145.768531593916
 31
0.0
  0
LINE
  5
1A3
330
1E
100
AcDbEntity
  8
0
100
AcDbLine
 10
1.187778565458302
 20
145.768531593916
 30
0.0
 11
0.8395000000000296
 21
147.6999999999996
 31
0.0
  0
LINE
  5
1A4
330
1E
100
AcDbEntity
  8
0
100
AcDbLine
 10
11.1898
 20
139.3499999999999
 30
0.0
 11
12.2395
 21
139.3499999999999
 31
0.0
  0
LINE
  5
1A5
330
1E
100
AcDbEntity
  8
0
100
AcDbLine
 10
35.2892
 20
139.3499999999999
 30
0.0
 11
34.2395
 21
139.3499999999999
 31
0.0
  0
LINE
  5
1A6
330
1E
100
AcDbEntity
  8
0
100
AcDbLine
 10
44.4402
 20
143.6999999999999
 30
0.0
 11
45.31525368003451
 21
146.0450159167116
 31
0.0
  0
LINE
  5
1A7
330
1E
100
AcDbEntity
  8
0
100
AcDbLine
 10
45.31525368003451
 20
146.0450159167116
 30
0.0
 11
45.71421817975386
 21
148.3727229091038
 31
0.0
  0
LINE
  5
1A8
330
1E
100
AcDbEntity
  8
0
100
AcDbLine
 10
45.71421817975386
 20
148.3727229091038
 30
0.0
 11
46.23949999999999
 21
154.0
 31
0.0
  0
ENDSEC
  0
SECTION
  2
OBJECTS
  0
DICTIONARY
  5
C
330
0
100
AcDbDictionary
281
     1
  3
ACAD_GROUP
350
D
  3
ACAD_LAYOUT
350
19
  3
ACAD_MLINESTYLE
350
16
  3
ACAD_PLOTSETTINGS
350
18
  3
ACAD_PLOTSTYLENAME
350
E
  3
AcDbVariableDictionary
350
1A9
  0
DICTIONARY
  5
D
102
{ACAD_REACTORS
330
C
102
}
330
C
100
AcDbDictionary
281
     1
  0
DICTIONARY
  5
19
102
{ACAD_REACTORS
330
C
102
}
330
C
100
AcDbDictionary
281
     1
  3
Layout1
350
1D
  3
Model
350
21
  0
DICTIONARY
  5
16
102
{ACAD_REACTORS
330
C
102
}
330
C
100
AcDbDictionary
281
     1
  3
Standard
350
17
  0
DICTIONARY
  5
18
102
{ACAD_REACTORS
330
C
102
}
330
C
100
AcDbDictionary
281
     1
  0
ACDBDICTIONARYWDFLT
  5
E
102
{ACAD_REACTORS
330
C
102
}
330
C
100
AcDbDictionary
281
     1
  3
Normal
350
F
100
AcDbDictionaryWithDefault
340
F
  0
DICTIONARY
  5
1A9
102
{ACAD_REACTORS
330
C
102
}
330
C
100
AcDbDictionary
281
     1
  3
DIMASSOC
350
1AA
  0
LAYOUT
  5
1D
102
{ACAD_REACTORS
330
19
102
}
330
19
100
AcDbPlotSettings
  1

  2
hp deskjet 980c series
  4

  6

 40
0.0
 41
0.0
 42
0.0
 43
0.0
 44
0.0
 45
0.0
 46
0.0
 47
0.0
 48
0.0
 49
0.0
140
0.0
141
0.0
142
1.0
143
1.0
 70
   688
 72
     0
 73
     0
 74
     5
  7

 75
    16
147
1.0
148
0.0
149
0.0
100
AcDbLayout
  1
Layout1
 70
     1
 71
     1
 10
0.0
 20
0.0
 11
12.0
 21
9.0
 12
0.0
 22
0.0
 32
0.0
 14
1.000000000000000E+20
 24
1.000000000000000E+20
 34
1.000000000000000E+20
 15
-1.000000000000000E+20
 25
-1.000000000000000E+20
 35
-1.000000000000000E+20
146
0.0
 13
0.0
 23
0.0
 33
0.0
 16
1.0
 26
0.0
 36
0.0
 17
0.0
 27
1.0
 37
0.0
 76
     0
330
1A
  0
LAYOUT
  5
21
102
{ACAD_REACTORS
330
19
102
}
330
19
100
AcDbPlotSettings
  1

  2
hp deskjet 980c series
  4

  6

 40
0.0
 41
0.0
 42
0.0
 43
0.0
 44
0.0
 45
0.0
 46
0.0
 47
0.0
 48
0.0
 49
0.0
140
0.0
141
0.0
142
1.0
143
1.0
 70
  1712
 72
     0
 73
     0
 74
     0
  7

 75
     0
147
1.0
148
0.0
149
0.0
100
AcDbLayout
  1
Model
 70
     1
 71
     0
 10
0.0
 20
0.0
 11
12.0
 21
9.0
 12
0.0
 22
0.0
 32
0.0
 14
0.0
 24
0.0
 34
0.0
 15
0.0
 25
0.0
 35
0.0
146
0.0
 13
0.0
 23
0.0
 33
0.0
 16
1.0
 26
0.0
 36
0.0
 17
0.0
 27
1.0
 37
0.0
 76
     0
330
1E
  0
MLINESTYLE
  5
17
102
{ACAD_REACTORS
330
16
102
}
330
16
100
AcDbMlineStyle
  2
STANDARD
 70
     0
  3

 62
   256
 51
90.0
 52
90.0
 71
     2
 49
0.5
 62
   256
  6
BYLAYER
 49
-0.5
 62
   256
  6
BYLAYER
  0
ACDBPLACEHOLDER
  5
F
102
{ACAD_REACTORS
330
E
102
}
330
E
  0
DICTIONARYVAR
  5
1AA
102
{ACAD_REACTORS
330
1A9
102
}
330
1A9
100
DictionaryVariables
280
     0
  1
1
  0
ENDSEC
  0
EOF
