  0
SECTION
  2
HEADER
  9
$ACADVER
  1
AC1015
  9
$ACADMAINTVER
 70
    13
  9
$DWGCODEPAGE
  3
ANSI_1252
  9
$INSBASE
 10
0.0
 20
0.0
 30
0.0
  9
$EXTMIN
 10
-0.0000000000000072
 20
-0.000000000000012
 30
0.0
  9
$EXTMAX
 10
66.0
 20
314.0
 30
0.0
  9
$LIMMIN
 10
0.0
 20
0.0
  9
$LIMMAX
 10
12.0
 20
9.0
  9
$ORTHOMODE
 70
     0
  9
$REGENMODE
 70
     1
  9
$FILLMODE
 70
     1
  9
$QTEXTMODE
 70
     0
  9
$MIRRTEXT
 70
     1
  9
$LTSCALE
 40
1.0
  9
$ATTMODE
 70
     1
  9
$TEXTSIZE
 40
0.2
  9
$TRACEWID
 40
0.05
  9
$TEXTSTYLE
  7
Standard
  9
$CLAYER
  8
0
  9
$CELTYPE
  6
Continuous
  9
$CECOLOR
 62
   256
  9
$CELTSCALE
 40
1.0
  9
$DISPSILH
 70
     0
  9
$DIMSCALE
 40
1.0
  9
$DIMASZ
 40
0.18
  9
$DIMEXO
 40
0.0625
  9
$DIMDLI
 40
0.38
  9
$DIMRND
 40
0.0
  9
$DIMDLE
 40
0.0
  9
$DIMEXE
 40
0.18
  9
$DIMTP
 40
0.0
  9
$DIMTM
 40
0.0
  9
$DIMTXT
 40
0.18
  9
$DIMCEN
 40
0.09
  9
$DIMTSZ
 40
0.0
  9
$DIMTOL
 70
     0
  9
$DIMLIM
 70
     0
  9
$DIMTIH
 70
     1
  9
$DIMTOH
 70
     1
  9
$DIMSE1
 70
     0
  9
$DIMSE2
 70
     0
  9
$DIMTAD
 70
     0
  9
$DIMZIN
 70
     0
  9
$DIMBLK
  1

  9
$DIMASO
 70
     1
  9
$DIMSHO
 70
     1
  9
$DIMPOST
  1

  9
$DIMAPOST
  1

  9
$DIMALT
 70
     0
  9
$DIMALTD
 70
     2
  9
$DIMALTF
 40
25.4
  9
$DIMLFAC
 40
1.0
  9
$DIMTOFL
 70
     0
  9
$DIMTVP
 40
0.0
  9
$DIMTIX
 70
     0
  9
$DIMSOXD
 70
     0
  9
$DIMSAH
 70
     0
  9
$DIMBLK1
  1

  9
$DIMBLK2
  1

  9
$DIMSTYLE
  2
Standard
  9
$DIMCLRD
 70
     0
  9
$DIMCLRE
 70
     0
  9
$DIMCLRT
 70
     0
  9
$DIMTFAC
 40
1.0
  9
$DIMGAP
 40
0.09
  9
$DIMJUST
 70
     0
  9
$DIMSD1
 70
     0
  9
$DIMSD2
 70
     0
  9
$DIMTOLJ
 70
     1
  9
$DIMTZIN
 70
     0
  9
$DIMALTZ
 70
     0
  9
$DIMALTTZ
 70
     0
  9
$DIMUPT
 70
     0
  9
$DIMDEC
 70
     4
  9
$DIMTDEC
 70
     4
  9
$DIMALTU
 70
     2
  9
$DIMALTTD
 70
     2
  9
$DIMTXSTY
  7
Standard
  9
$DIMAUNIT
 70
     0
  9
$DIMADEC
 70
     0
  9
$DIMALTRND
 40
0.0
  9
$DIMAZIN
 70
     0
  9
$DIMDSEP
 70
    46
  9
$DIMATFIT
 70
     3
  9
$DIMFRAC
 70
     0
  9
$DIMLDRBLK
  1

  9
$DIMLUNIT
 70
     2
  9
$DIMLWD
 70
    -2
  9
$DIMLWE
 70
    -2
  9
$DIMTMOVE
 70
     0
  9
$LUNITS
 70
     2
  9
$LUPREC
 70
     4
  9
$SKETCHINC
 40
0.1
  9
$FILLETRAD
 40
0.0
  9
$AUNITS
 70
     0
  9
$AUPREC
 70
     0
  9
$MENU
  1
.
  9
$ELEVATION
 40
0.0
  9
$PELEVATION
 40
0.0
  9
$THICKNESS
 40
0.0
  9
$LIMCHECK
 70
     0
  9
$CHAMFERA
 40
0.0
  9
$CHAMFERB
 40
0.0
  9
$CHAMFERC
 40
0.0
  9
$CHAMFERD
 40
0.0
  9
$SKPOLY
 70
     0
  9
$TDCREATE
 40
2454748.406971886
  9
$TDUCREATE
 40
2454748.323638553
  9
$TDUPDATE
 40
2454748.407538287
  9
$TDUUPDATE
 40
2454748.324204953
  9
$TDINDWG
 40
0.0005664005
  9
$TDUSRTIMER
 40
0.0005664005
  9
$USRTIMER
 70
     1
  9
$ANGBASE
 50
0.0
  9
$ANGDIR
 70
     0
  9
$PDMODE
 70
     0
  9
$PDSIZE
 40
0.0
  9
$PLINEWID
 40
0.0
  9
$SPLFRAME
 70
     0
  9
$SPLINETYPE
 70
     6
  9
$SPLINESEGS
 70
     8
  9
$HANDSEED
  5
49E
  9
$SURFTAB1
 70
     6
  9
$SURFTAB2
 70
     6
  9
$SURFTYPE
 70
     6
  9
$SURFU
 70
     6
  9
$SURFV
 70
     6
  9
$UCSBASE
  2

  9
$UCSNAME
  2

  9
$UCSORG
 10
0.0
 20
0.0
 30
0.0
  9
$UCSXDIR
 10
1.0
 20
0.0
 30
0.0
  9
$UCSYDIR
 10
0.0
 20
1.0
 30
0.0
  9
$UCSORTHOREF
  2

  9
$UCSORTHOVIEW
 70
     1
  9
$UCSORGTOP
 10
0.0
 20
0.0
 30
0.0
  9
$UCSORGBOTTOM
 10
0.0
 20
0.0
 30
0.0
  9
$UCSORGLEFT
 10
0.0
 20
0.0
 30
0.0
  9
$UCSORGRIGHT
 10
0.0
 20
0.0
 30
0.0
  9
$UCSORGFRONT
 10
0.0
 20
0.0
 30
0.0
  9
$UCSORGBACK
 10
0.0
 20
0.0
 30
0.0
  9
$PUCSBASE
  2

  9
$PUCSNAME
  2

  9
$PUCSORG
 10
0.0
 20
0.0
 30
0.0
  9
$PUCSXDIR
 10
1.0
 20
0.0
 30
0.0
  9
$PUCSYDIR
 10
0.0
 20
1.0
 30
0.0
  9
$PUCSORTHOREF
  2

  9
$PUCSORTHOVIEW
 70
     0
  9
$PUCSORGTOP
 10
0.0
 20
0.0
 30
0.0
  9
$PUCSORGBOTTOM
 10
0.0
 20
0.0
 30
0.0
  9
$PUCSORGLEFT
 10
0.0
 20
0.0
 30
0.0
  9
$PUCSORGRIGHT
 10
0.0
 20
0.0
 30
0.0
  9
$PUCSORGFRONT
 10
0.0
 20
0.0
 30
0.0
  9
$PUCSORGBACK
 10
0.0
 20
0.0
 30
0.0
  9
$USERI1
 70
     0
  9
$USERI2
 70
     0
  9
$USERI3
 70
     0
  9
$USERI4
 70
     0
  9
$USERI5
 70
     0
  9
$USERR1
 40
0.0
  9
$USERR2
 40
0.0
  9
$USERR3
 40
0.0
  9
$USERR4
 40
0.0
  9
$USERR5
 40
0.0
  9
$WORLDVIEW
 70
     1
  9
$SHADEDGE
 70
     3
  9
$SHADEDIF
 70
    70
  9
$TILEMODE
 70
     1
  9
$MAXACTVP
 70
    64
  9
$PINSBASE
 10
0.0
 20
0.0
 30
0.0
  9
$PLIMCHECK
 70
     0
  9
$PEXTMIN
 10
1.000000000000000E+20
 20
1.000000000000000E+20
 30
1.000000000000000E+20
  9
$PEXTMAX
 10
-1.000000000000000E+20
 20
-1.000000000000000E+20
 30
-1.000000000000000E+20
  9
$PLIMMIN
 10
0.0
 20
0.0
  9
$PLIMMAX
 10
12.0
 20
9.0
  9
$UNITMODE
 70
     0
  9
$VISRETAIN
 70
     1
  9
$PLINEGEN
 70
     0
  9
$PSLTSCALE
 70
     1
  9
$TREEDEPTH
 70
  3020
  9
$CMLSTYLE
  2
Standard
  9
$CMLJUST
 70
     0
  9
$CMLSCALE
 40
1.0
  9
$PROXYGRAPHICS
 70
     1
  9
$MEASUREMENT
 70
     0
  9
$CELWEIGHT
370
    -1
  9
$ENDCAPS
280
     0
  9
$JOINSTYLE
280
     0
  9
$LWDISPLAY
290
     0
  9
$INSUNITS
 70
     0
  9
$HYPERLINKBASE
  1

  9
$STYLESHEET
  1

  9
$XEDIT
290
     1
  9
$CEPSNTYPE
380
     0
  9
$PSTYLEMODE
290
     1
  9
$FINGERPRINTGUID
  2
{0782B09D-DC5B-4C74-82C6-6B2B92B6E0E0}
  9
$VERSIONGUID
  2
{DF76FBFD-A23D-43E1-82BD-0C9FA74065C8}
  9
$EXTNAMES
290
     1
  9
$PSVPSCALE
 40
0.0
  9
$OLESTARTUP
290
     0
  0
ENDSEC
  0
SECTION
  2
CLASSES
  0
CLASS
  1
ACDBDICTIONARYWDFLT
  2
AcDbDictionaryWithDefault
  3
AutoCAD 2000
 90
        0
280
     0
281
     0
  0
CLASS
  1
ACDBPLACEHOLDER
  2
AcDbPlaceHolder
  3
AutoCAD 2000
 90
        0
280
     0
281
     0
  0
CLASS
  1
LAYOUT
  2
AcDbLayout
  3
AutoCAD 2000
 90
        0
280
     0
281
     0
  0
CLASS
  1
DICTIONARYVAR
  2
AcDbDictionaryVar
  3
AutoCAD 2000
 90
        0
280
     0
281
     0
  0
ENDSEC
  0
SECTION
  2
TABLES
  0
TABLE
  2
VPORT
  5
8
330
0
100
AcDbSymbolTable
 70
     2
  0
VPORT
  5
49D
330
8
100
AcDbSymbolTableRecord
100
AcDbViewportTableRecord
  2
*Active
 70
     0
 10
0.0
 20
0.0
 11
1.0
 21
1.0
 12
33.0
 22
157.0
 13
0.0
 23
0.0
 14
1.0
 24
1.0
 15
0.0
 25
0.0
 16
0.0
 26
0.0
 36
1.0
 17
0.0
 27
0.0
 37
0.0
 40
316.4092071611253
 41
2.078104993597951
 42
50.0
 43
0.0
 44
0.0
 50
0.0
 51
0.0
 71
     0
 72
   100
 73
     1
 74
     3
 75
     0
 76
     0
 77
     0
 78
     0
281
     0
 65
     1
110
0.0
120
0.0
130
0.0
111
1.0
121
0.0
131
0.0
112
0.0
122
1.0
132
0.0
 79
     1
146
0.0
  0
ENDTAB
  0
TABLE
  2
LTYPE
  5
5
330
0
100
AcDbSymbolTable
 70
     1
  0
LTYPE
  5
13
330
5
100
AcDbSymbolTableRecord
100
AcDbLinetypeTableRecord
  2
ByBlock
 70
     0
  3

 72
    65
 73
     0
 40
0.0
  0
LTYPE
  5
14
330
5
100
AcDbSymbolTableRecord
100
AcDbLinetypeTableRecord
  2
ByLayer
 70
     0
  3

 72
    65
 73
     0
 40
0.0
  0
LTYPE
  5
15
330
5
100
AcDbSymbolTableRecord
100
AcDbLinetypeTableRecord
  2
Continuous
 70
     0
  3
Solid line
 72
    65
 73
     0
 40
0.0
  0
ENDTAB
  0
TABLE
  2
LAYER
  5
2
330
0
100
AcDbSymbolTable
 70
     1
  0
LAYER
  5
10
330
2
100
AcDbSymbolTableRecord
100
AcDbLayerTableRecord
  2
0
 70
     0
 62
     7
  6
Continuous
370
    -3
390
F
  0
ENDTAB
  0
TABLE
  2
STYLE
  5
3
330
0
100
AcDbSymbolTable
 70
     1
  0
STYLE
  5
11
330
3
100
AcDbSymbolTableRecord
100
AcDbTextStyleTableRecord
  2
Standard
 70
     0
 40
0.0
 41
1.0
 50
0.0
 71
     0
 42
0.2
  3
txt
  4

  0
ENDTAB
  0
TABLE
  2
VIEW
  5
6
330
0
100
AcDbSymbolTable
 70
     0
  0
ENDTAB
  0
TABLE
  2
UCS
  5
7
330
0
100
AcDbSymbolTable
 70
     0
  0
ENDTAB
  0
TABLE
  2
APPID
  5
9
330
0
100
AcDbSymbolTable
 70
     1
  0
APPID
  5
12
330
9
100
AcDbSymbolTableRecord
100
AcDbRegAppTableRecord
  2
ACAD
 70
     0
  0
ENDTAB
  0
TABLE
  2
DIMSTYLE
  5
A
330
0
100
AcDbSymbolTable
 70
     1
100
AcDbDimStyleTable
 71
     0
  0
DIMSTYLE
105
497
330
A
100
AcDbSymbolTableRecord
100
AcDbDimStyleTableRecord
  2
Standard
 70
     0
340
11
  0
ENDTAB
  0
TABLE
  2
BLOCK_RECORD
  5
1
330
0
100
AcDbSymbolTable
 70
     0
  0
BLOCK_RECORD
  5
1E
330
1
100
AcDbSymbolTableRecord
100
AcDbBlockTableRecord
  2
*Model_Space
340
21
  0
BLOCK_RECORD
  5
1A
330
1
100
AcDbSymbolTableRecord
100
AcDbBlockTableRecord
  2
*Paper_Space
340
1D
  0
ENDTAB
  0
ENDSEC
  0
SECTION
  2
BLOCKS
  0
BLOCK
  5
1F
330
1E
100
AcDbEntity
  8
0
100
AcDbBlockBegin
  2
*Model_Space
 70
     0
 10
0.0
 20
0.0
 30
0.0
  3
*Model_Space
  1

  0
ENDBLK
  5
20
330
1E
100
AcDbEntity
  8
0
100
AcDbBlockEnd
  0
BLOCK
  5
1B
330
1A
100
AcDbEntity
 67
     1
  8
0
100
AcDbBlockBegin
  2
*Paper_Space
 70
     0
 10
0.0
 20
0.0
 30
0.0
  3
*Paper_Space
  1

  0
ENDBLK
  5
1C
330
1A
100
AcDbEntity
 67
     1
  8
0
100
AcDbBlockEnd
  0
ENDSEC
  0
SECTION
  2
ENTITIES
  0
LINE
  5
22
330
1E
100
AcDbEntity
  8
0
100
AcDbLine
 10
1.999999999999989
 20
12.3333
 30
0.0
 11
3.29999999999999
 21
12.3333
 31
0.0
  0
LINE
  5
23
330
1E
100
AcDbEntity
  8
0
100
AcDbLine
 10
1.499999999999989
 20
12.3333
 30
0.0
 11
1.999999999999989
 21
12.3333
 31
0.0
  0
LINE
  5
24
330
1E
100
AcDbEntity
  8
0
100
AcDbLine
 10
2.99999999999999
 20
12.3333
 30
0.0
 11
4.19999999999999
 21
12.3333
 31
0.0
  0
LINE
  5
25
330
1E
100
AcDbEntity
  8
0
100
AcDbLine
 10
-0.0000000000000072
 20
13.6667
 30
0.0
 11
-0.0000000000000072
 21
14.1111
 31
0.0
  0
LINE
  5
26
330
1E
100
AcDbEntity
  8
0
100
AcDbLine
 10
-0.0000000000000072
 20
13.6667
 30
0.0
 11
0.499999999999993
 21
12.77779999999999
 31
0.0
  0
LINE
  5
27
330
1E
100
AcDbEntity
  8
0
100
AcDbLine
 10
-0.0000000000000072
 20
14.1111
 30
0.0
 11
0.499999999999993
 21
15.0
 31
0.0
  0
LINE
  5
28
330
1E
100
AcDbEntity
  8
0
100
AcDbLine
 10
-0.0000000000000072
 20
14.1111
 30
0.0
 11
0.499999999999993
 21
15.0
 31
0.0
  0
LINE
  5
29
330
1E
100
AcDbEntity
  8
0
100
AcDbLine
 10
-0.0000000000000072
 20
13.6667
 30
0.0
 11
0.499999999999993
 21
12.77779999999999
 31
0.0
  0
LINE
  5
2A
330
1E
100
AcDbEntity
  8
0
100
AcDbLine
 10
0.9999999999999928
 20
12.77779999999999
 30
0.0
 11
2.39999999999999
 21
12.77779999999999
 31
0.0
  0
LINE
  5
2B
330
1E
100
AcDbEntity
  8
0
100
AcDbLine
 10
2.39999999999999
 20
15.0
 30
0.0
 11
4.79999999999999
 21
15.0
 31
0.0
  0
LINE
  5
2C
330
1E
100
AcDbEntity
  8
0
100
AcDbLine
 10
0.9999999999999928
 20
15.0
 30
0.0
 11
2.39999999999999
 21
15.0
 31
0.0
  0
LINE
  5
2D
330
1E
100
AcDbEntity
  8
0
100
AcDbLine
 10
2.39999999999999
 20
12.77779999999999
 30
0.0
 11
4.79999999999999
 21
12.77779999999999
 31
0.0
  0
LINE
  5
2E
330
1E
100
AcDbEntity
  8
0
100
AcDbLine
 10
0.9999999999999928
 20
12.77779999999999
 30
0.0
 11
2.39999999999999
 21
12.77779999999999
 31
0.0
  0
LINE
  5
2F
330
1E
100
AcDbEntity
  8
0
100
AcDbLine
 10
1.999999999999989
 20
15.4445
 30
0.0
 11
3.29999999999999
 21
15.4445
 31
0.0
  0
LINE
  5
30
330
1E
100
AcDbEntity
  8
0
100
AcDbLine
 10
1.999999999999989
 20
16.3333
 30
0.0
 11
1.999999999999989
 21
37.66669999999999
 31
0.0
  0
LINE
  5
31
330
1E
100
AcDbEntity
  8
0
100
AcDbLine
 10
1.499999999999989
 20
15.4445
 30
0.0
 11
1.999999999999989
 21
16.3333
 31
0.0
  0
LINE
  5
32
330
1E
100
AcDbEntity
  8
0
100
AcDbLine
 10
1.499999999999989
 20
15.4445
 30
0.0
 11
1.999999999999989
 21
15.4445
 31
0.0
  0
LINE
  5
33
330
1E
100
AcDbEntity
  8
0
100
AcDbLine
 10
0.499999999999993
 20
15.0
 30
0.0
 11
1.499999999999989
 21
15.4445
 31
0.0
  0
LINE
  5
34
330
1E
100
AcDbEntity
  8
0
100
AcDbLine
 10
0.499999999999993
 20
15.0
 30
0.0
 11
0.9999999999999928
 21
15.0
 31
0.0
  0
LINE
  5
35
330
1E
100
AcDbEntity
  8
0
100
AcDbLine
 10
0.499999999999993
 20
12.77779999999999
 30
0.0
 11
1.499999999999989
 21
12.3333
 31
0.0
  0
LINE
  5
36
330
1E
100
AcDbEntity
  8
0
100
AcDbLine
 10
0.499999999999993
 20
12.77779999999999
 30
0.0
 11
0.9999999999999928
 21
12.77779999999999
 31
0.0
  0
LINE
  5
37
330
1E
100
AcDbEntity
  8
0
100
AcDbLine
 10
2.49999999999999
 20
12.3333
 30
0.0
 11
2.99999999999999
 21
11.4444
 31
0.0
  0
LINE
  5
38
330
1E
100
AcDbEntity
  8
0
100
AcDbLine
 10
2.49999999999999
 20
12.3333
 30
0.0
 11
2.99999999999999
 21
12.3333
 31
0.0
  0
LINE
  5
39
330
1E
100
AcDbEntity
  8
0
100
AcDbLine
 10
7.19999999999999
 20
11.0
 30
0.0
 11
9.499999999999991
 21
11.0
 31
0.0
  0
LINE
  5
3A
330
1E
100
AcDbEntity
  8
0
100
AcDbLine
 10
9.499999999999991
 20
11.0
 30
0.0
 11
12.19999999999999
 21
11.0
 31
0.0
  0
LINE
  5
3B
330
1E
100
AcDbEntity
  8
0
100
AcDbLine
 10
22.8
 20
11.0
 30
0.0
 11
24.5
 21
11.0
 31
0.0
  0
LINE
  5
3C
330
1E
100
AcDbEntity
  8
0
100
AcDbLine
 10
24.5
 20
11.0
 30
0.0
 11
25.6
 21
11.0
 31
0.0
  0
LINE
  5
3D
330
1E
100
AcDbEntity
  8
0
100
AcDbLine
 10
26.0
 20
11.0
 30
0.0
 11
27.0
 21
11.4444
 31
0.0
  0
LINE
  5
3E
330
1E
100
AcDbEntity
  8
0
100
AcDbLine
 10
25.6
 20
11.0
 30
0.0
 11
26.0
 21
11.0
 31
0.0
  0
LINE
  5
3F
330
1E
100
AcDbEntity
  8
0
100
AcDbLine
 10
20.5
 20
11.0
 30
0.0
 11
22.8
 21
11.0
 31
0.0
  0
LINE
  5
40
330
1E
100
AcDbEntity
  8
0
100
AcDbLine
 10
17.8
 20
11.0
 30
0.0
 11
20.5
 21
11.0
 31
0.0
  0
LINE
  5
41
330
1E
100
AcDbEntity
  8
0
100
AcDbLine
 10
15.0
 20
11.0
 30
0.0
 11
17.8
 21
11.0
 31
0.0
  0
LINE
  5
42
330
1E
100
AcDbEntity
  8
0
100
AcDbLine
 10
12.19999999999999
 20
11.0
 30
0.0
 11
15.0
 21
11.0
 31
0.0
  0
LINE
  5
43
330
1E
100
AcDbEntity
  8
0
100
AcDbLine
 10
5.49999999999999
 20
11.0
 30
0.0
 11
7.19999999999999
 21
11.0
 31
0.0
  0
LINE
  5
44
330
1E
100
AcDbEntity
  8
0
100
AcDbLine
 10
4.39999999999999
 20
11.0
 30
0.0
 11
5.49999999999999
 21
11.0
 31
0.0
  0
LINE
  5
45
330
1E
100
AcDbEntity
  8
0
100
AcDbLine
 10
3.29999999999999
 20
15.4445
 30
0.0
 11
5.49999999999999
 21
15.4445
 31
0.0
  0
LINE
  5
46
330
1E
100
AcDbEntity
  8
0
100
AcDbLine
 10
3.29999999999999
 20
12.3333
 30
0.0
 11
5.49999999999999
 21
12.3333
 31
0.0
  0
LINE
  5
47
330
1E
100
AcDbEntity
  8
0
100
AcDbLine
 10
6.49999999999999
 20
11.4444
 30
0.0
 11
8.999999999999991
 21
11.4444
 31
0.0
  0
LINE
  5
48
330
1E
100
AcDbEntity
  8
0
100
AcDbLine
 10
8.999999999999991
 20
11.4444
 30
0.0
 11
11.9
 21
11.4444
 31
0.0
  0
LINE
  5
49
330
1E
100
AcDbEntity
  8
0
100
AcDbLine
 10
23.5
 20
11.4444
 30
0.0
 11
25.4
 21
11.4444
 31
0.0
  0
LINE
  5
4A
330
1E
100
AcDbEntity
  8
0
100
AcDbLine
 10
25.4
 20
11.4444
 30
0.0
 11
26.6
 21
11.4444
 31
0.0
  0
LINE
  5
4B
330
1E
100
AcDbEntity
  8
0
100
AcDbLine
 10
27.0
 20
11.4444
 30
0.0
 11
27.5
 21
12.3333
 31
0.0
  0
LINE
  5
4C
330
1E
100
AcDbEntity
  8
0
100
AcDbLine
 10
26.6
 20
11.4444
 30
0.0
 11
27.0
 21
11.4444
 31
0.0
  0
LINE
  5
4D
330
1E
100
AcDbEntity
  8
0
100
AcDbLine
 10
21.0
 20
11.4444
 30
0.0
 11
23.5
 21
11.4444
 31
0.0
  0
LINE
  5
4E
330
1E
100
AcDbEntity
  8
0
100
AcDbLine
 10
18.1
 20
11.4444
 30
0.0
 11
21.0
 21
11.4444
 31
0.0
  0
LINE
  5
4F
330
1E
100
AcDbEntity
  8
0
100
AcDbLine
 10
15.0
 20
11.4444
 30
0.0
 11
18.1
 21
11.4444
 31
0.0
  0
LINE
  5
50
330
1E
100
AcDbEntity
  8
0
100
AcDbLine
 10
11.9
 20
11.4444
 30
0.0
 11
15.0
 21
11.4444
 31
0.0
  0
LINE
  5
51
330
1E
100
AcDbEntity
  8
0
100
AcDbLine
 10
5.49999999999999
 20
12.3333
 30
0.0
 11
8.29999999999999
 21
12.3333
 31
0.0
  0
LINE
  5
52
330
1E
100
AcDbEntity
  8
0
100
AcDbLine
 10
8.29999999999999
 20
12.3333
 30
0.0
 11
11.5
 21
12.3333
 31
0.0
  0
LINE
  5
53
330
1E
100
AcDbEntity
  8
0
100
AcDbLine
 10
6.19999999999999
 20
12.3333
 30
0.0
 11
8.79999999999999
 21
12.3333
 31
0.0
  0
LINE
  5
54
330
1E
100
AcDbEntity
  8
0
100
AcDbLine
 10
18.5
 20
12.3333
 30
0.0
 11
21.69999999999999
 21
12.3333
 31
0.0
  0
LINE
  5
55
330
1E
100
AcDbEntity
  8
0
100
AcDbLine
 10
24.5
 20
12.3333
 30
0.0
 11
26.69999999999999
 21
12.3333
 31
0.0
  0
LINE
  5
56
330
1E
100
AcDbEntity
  8
0
100
AcDbLine
 10
26.69999999999999
 20
12.3333
 30
0.0
 11
28.0
 21
12.3333
 31
0.0
  0
LINE
  5
57
330
1E
100
AcDbEntity
  8
0
100
AcDbLine
 10
23.8
 20
12.3333
 30
0.0
 11
25.8
 21
12.3333
 31
0.0
  0
LINE
  5
58
330
1E
100
AcDbEntity
  8
0
100
AcDbLine
 10
25.8
 20
12.3333
 30
0.0
 11
27.0
 21
12.3333
 31
0.0
  0
LINE
  5
59
330
1E
100
AcDbEntity
  8
0
100
AcDbLine
 10
28.5
 20
12.3333
 30
0.0
 11
29.5
 21
12.77779999999999
 31
0.0
  0
LINE
  5
5A
330
1E
100
AcDbEntity
  8
0
100
AcDbLine
 10
28.0
 20
12.3333
 30
0.0
 11
28.5
 21
12.3333
 31
0.0
  0
LINE
  5
5B
330
1E
100
AcDbEntity
  8
0
100
AcDbLine
 10
27.0
 20
12.3333
 30
0.0
 11
27.5
 21
12.3333
 31
0.0
  0
LINE
  5
5C
330
1E
100
AcDbEntity
  8
0
100
AcDbLine
 10
21.69999999999999
 20
12.3333
 30
0.0
 11
24.5
 21
12.3333
 31
0.0
  0
LINE
  5
5D
330
1E
100
AcDbEntity
  8
0
100
AcDbLine
 10
21.2
 20
12.3333
 30
0.0
 11
23.8
 21
12.3333
 31
0.0
  0
LINE
  5
5E
330
1E
100
AcDbEntity
  8
0
100
AcDbLine
 10
18.2
 20
12.3333
 30
0.0
 11
21.2
 21
12.3333
 31
0.0
  0
LINE
  5
5F
330
1E
100
AcDbEntity
  8
0
100
AcDbLine
 10
15.0
 20
12.3333
 30
0.0
 11
18.2
 21
12.3333
 31
0.0
  0
LINE
  5
60
330
1E
100
AcDbEntity
  8
0
100
AcDbLine
 10
15.0
 20
12.3333
 30
0.0
 11
18.5
 21
12.3333
 31
0.0
  0
LINE
  5
61
330
1E
100
AcDbEntity
  8
0
100
AcDbLine
 10
11.5
 20
12.3333
 30
0.0
 11
15.0
 21
12.3333
 31
0.0
  0
LINE
  5
62
330
1E
100
AcDbEntity
  8
0
100
AcDbLine
 10
8.79999999999999
 20
12.3333
 30
0.0
 11
11.8
 21
12.3333
 31
0.0
  0
LINE
  5
63
330
1E
100
AcDbEntity
  8
0
100
AcDbLine
 10
4.79999999999999
 20
12.77779999999999
 30
0.0
 11
7.79999999999999
 21
12.77779999999999
 31
0.0
  0
LINE
  5
64
330
1E
100
AcDbEntity
  8
0
100
AcDbLine
 10
4.79999999999999
 20
15.0
 30
0.0
 11
7.79999999999999
 21
15.0
 31
0.0
  0
LINE
  5
65
330
1E
100
AcDbEntity
  8
0
100
AcDbLine
 10
5.49999999999999
 20
15.4445
 30
0.0
 11
8.29999999999999
 21
15.4445
 31
0.0
  0
LINE
  5
66
330
1E
100
AcDbEntity
  8
0
100
AcDbLine
 10
8.29999999999999
 20
15.4445
 30
0.0
 11
11.5
 21
15.4445
 31
0.0
  0
LINE
  5
67
330
1E
100
AcDbEntity
  8
0
100
AcDbLine
 10
7.79999999999999
 20
15.0
 30
0.0
 11
11.3
 21
15.0
 31
0.0
  0
LINE
  5
68
330
1E
100
AcDbEntity
  8
0
100
AcDbLine
 10
11.3
 20
15.0
 30
0.0
 11
15.0
 21
15.0
 31
0.0
  0
LINE
  5
69
330
1E
100
AcDbEntity
  8
0
100
AcDbLine
 10
7.79999999999999
 20
12.77779999999999
 30
0.0
 11
11.3
 21
12.77779999999999
 31
0.0
  0
LINE
  5
6A
330
1E
100
AcDbEntity
  8
0
100
AcDbLine
 10
15.0
 20
15.4445
 30
0.0
 11
18.5
 21
15.4445
 31
0.0
  0
LINE
  5
6B
330
1E
100
AcDbEntity
  8
0
100
AcDbLine
 10
15.0
 20
15.0
 30
0.0
 11
18.7
 21
15.0
 31
0.0
  0
LINE
  5
6C
330
1E
100
AcDbEntity
  8
0
100
AcDbLine
 10
25.2
 20
12.77779999999999
 30
0.0
 11
27.6
 21
12.77779999999999
 31
0.0
  0
LINE
  5
6D
330
1E
100
AcDbEntity
  8
0
100
AcDbLine
 10
29.5
 20
12.77779999999999
 30
0.0
 11
30.0
 21
13.6667
 31
0.0
  0
LINE
  5
6E
330
1E
100
AcDbEntity
  8
0
100
AcDbLine
 10
27.6
 20
12.77779999999999
 30
0.0
 11
29.0
 21
12.77779999999999
 31
0.0
  0
LINE
  5
6F
330
1E
100
AcDbEntity
  8
0
100
AcDbLine
 10
29.0
 20
12.77779999999999
 30
0.0
 11
29.5
 21
12.77779999999999
 31
0.0
  0
LINE
  5
70
330
1E
100
AcDbEntity
  8
0
100
AcDbLine
 10
22.2
 20
12.77779999999999
 30
0.0
 11
25.2
 21
12.77779999999999
 31
0.0
  0
LINE
  5
71
330
1E
100
AcDbEntity
  8
0
100
AcDbLine
 10
18.5
 20
15.4445
 30
0.0
 11
21.69999999999999
 21
15.4445
 31
0.0
  0
LINE
  5
72
330
1E
100
AcDbEntity
  8
0
100
AcDbLine
 10
27.6
 20
15.0
 30
0.0
 11
29.0
 21
15.0
 31
0.0
  0
LINE
  5
73
330
1E
100
AcDbEntity
  8
0
100
AcDbLine
 10
30.0
 20
14.1111
 30
0.0
 11
30.0
 21
13.6667
 31
0.0
  0
LINE
  5
74
330
1E
100
AcDbEntity
  8
0
100
AcDbLine
 10
29.5
 20
15.0
 30
0.0
 11
30.0
 21
14.1111
 31
0.0
  0
LINE
  5
75
330
1E
100
AcDbEntity
  8
0
100
AcDbLine
 10
25.2
 20
15.0
 30
0.0
 11
27.6
 21
15.0
 31
0.0
  0
LINE
  5
76
330
1E
100
AcDbEntity
  8
0
100
AcDbLine
 10
29.0
 20
15.0
 30
0.0
 11
29.5
 21
15.0
 31
0.0
  0
LINE
  5
77
330
1E
100
AcDbEntity
  8
0
100
AcDbLine
 10
30.0
 20
13.6667
 30
0.0
 11
30.0
 21
14.1111
 31
0.0
  0
LINE
  5
78
330
1E
100
AcDbEntity
  8
0
100
AcDbLine
 10
24.5
 20
15.4445
 30
0.0
 11
26.69999999999999
 21
15.4445
 31
0.0
  0
LINE
  5
79
330
1E
100
AcDbEntity
  8
0
100
AcDbLine
 10
26.69999999999999
 20
15.4445
 30
0.0
 11
28.0
 21
15.4445
 31
0.0
  0
LINE
  5
7A
330
1E
100
AcDbEntity
  8
0
100
AcDbLine
 10
28.5
 20
15.4445
 30
0.0
 11
29.5
 21
15.0
 31
0.0
  0
LINE
  5
7B
330
1E
100
AcDbEntity
  8
0
100
AcDbLine
 10
28.0
 20
15.4445
 30
0.0
 11
28.5
 21
15.4445
 31
0.0
  0
LINE
  5
7C
330
1E
100
AcDbEntity
  8
0
100
AcDbLine
 10
21.69999999999999
 20
15.4445
 30
0.0
 11
24.5
 21
15.4445
 31
0.0
  0
LINE
  5
7D
330
1E
100
AcDbEntity
  8
0
100
AcDbLine
 10
22.2
 20
15.0
 30
0.0
 11
25.2
 21
15.0
 31
0.0
  0
LINE
  5
7E
330
1E
100
AcDbEntity
  8
0
100
AcDbLine
 10
18.7
 20
15.0
 30
0.0
 11
22.2
 21
15.0
 31
0.0
  0
LINE
  5
7F
330
1E
100
AcDbEntity
  8
0
100
AcDbLine
 10
18.7
 20
12.77779999999999
 30
0.0
 11
22.2
 21
12.77779999999999
 31
0.0
  0
LINE
  5
80
330
1E
100
AcDbEntity
  8
0
100
AcDbLine
 10
15.0
 20
12.77779999999999
 30
0.0
 11
18.7
 21
12.77779999999999
 31
0.0
  0
LINE
  5
81
330
1E
100
AcDbEntity
  8
0
100
AcDbLine
 10
28.0
 20
16.3333
 30
0.0
 11
28.5
 21
15.4445
 31
0.0
  0
LINE
  5
82
330
1E
100
AcDbEntity
  8
0
100
AcDbLine
 10
28.0
 20
16.3333
 30
0.0
 11
28.0
 21
22.0285714285714
 31
0.0
  0
LINE
  5
83
330
1E
100
AcDbEntity
  8
0
100
AcDbLine
 10
11.5
 20
15.4445
 30
0.0
 11
15.0
 21
15.4445
 31
0.0
  0
LINE
  5
84
330
1E
100
AcDbEntity
  8
0
100
AcDbLine
 10
11.3
 20
12.77779999999999
 30
0.0
 11
15.0
 21
12.77779999999999
 31
0.0
  0
LINE
  5
85
330
1E
100
AcDbEntity
  8
0
100
AcDbLine
 10
11.8
 20
12.3333
 30
0.0
 11
15.0
 21
12.3333
 31
0.0
  0
LINE
  5
86
330
1E
100
AcDbEntity
  8
0
100
AcDbLine
 10
4.19999999999999
 20
12.3333
 30
0.0
 11
6.19999999999999
 21
12.3333
 31
0.0
  0
LINE
  5
87
330
1E
100
AcDbEntity
  8
0
100
AcDbLine
 10
4.59999999999999
 20
11.4444
 30
0.0
 11
6.49999999999999
 21
11.4444
 31
0.0
  0
LINE
  5
88
330
1E
100
AcDbEntity
  8
0
100
AcDbLine
 10
3.39999999999999
 20
11.4444
 30
0.0
 11
4.59999999999999
 21
11.4444
 31
0.0
  0
LINE
  5
89
330
1E
100
AcDbEntity
  8
0
100
AcDbLine
 10
3.99999999999999
 20
11.0
 30
0.0
 11
4.39999999999999
 21
11.0
 31
0.0
  0
LINE
  5
8A
330
1E
100
AcDbEntity
  8
0
100
AcDbLine
 10
2.99999999999999
 20
11.4444
 30
0.0
 11
3.99999999999999
 21
11.0
 31
0.0
  0
LINE
  5
8B
330
1E
100
AcDbEntity
  8
0
100
AcDbLine
 10
2.99999999999999
 20
11.4444
 30
0.0
 11
3.39999999999999
 21
11.4444
 31
0.0
  0
LINE
  5
8C
330
1E
100
AcDbEntity
  8
0
100
AcDbLine
 10
28.0
 20
22.0285714285714
 30
0.0
 11
28.0
 21
16.3333
 31
0.0
  0
LINE
  5
8D
330
1E
100
AcDbEntity
  8
0
100
AcDbLine
 10
34.0
 20
22.0
 30
0.0
 11
34.0
 21
22.2
 31
0.0
  0
LINE
  5
8E
330
1E
100
AcDbEntity
  8
0
100
AcDbLine
 10
34.0
 20
22.2
 30
0.0
 11
34.0
 21
22.7
 31
0.0
  0
LINE
  5
8F
330
1E
100
AcDbEntity
  8
0
100
AcDbLine
 10
34.0
 20
22.7
 30
0.0
 11
34.0
 21
23.5
 31
0.0
  0
LINE
  5
90
330
1E
100
AcDbEntity
  8
0
100
AcDbLine
 10
34.0
 20
23.5
 30
0.0
 11
34.0
 21
24.5
 31
0.0
  0
LINE
  5
91
330
1E
100
AcDbEntity
  8
0
100
AcDbLine
 10
34.0
 20
24.5
 30
0.0
 11
34.0
 21
25.7
 31
0.0
  0
LINE
  5
92
330
1E
100
AcDbEntity
  8
0
100
AcDbLine
 10
34.0
 20
31.8
 30
0.0
 11
34.0
 21
32.0
 31
0.0
  0
LINE
  5
93
330
1E
100
AcDbEntity
  8
0
100
AcDbLine
 10
34.0
 20
31.3
 30
0.0
 11
34.0
 21
31.8
 31
0.0
  0
LINE
  5
94
330
1E
100
AcDbEntity
  8
0
100
AcDbLine
 10
34.0
 20
29.5
 30
0.0
 11
34.0
 21
30.5
 31
0.0
  0
LINE
  5
95
330
1E
100
AcDbEntity
  8
0
100
AcDbLine
 10
34.0
 20
28.3
 30
0.0
 11
34.0
 21
29.5
 31
0.0
  0
LINE
  5
96
330
1E
100
AcDbEntity
  8
0
100
AcDbLine
 10
34.0
 20
27.0
 30
0.0
 11
34.0
 21
28.3
 31
0.0
  0
LINE
  5
97
330
1E
100
AcDbEntity
  8
0
100
AcDbLine
 10
34.0
 20
25.7
 30
0.0
 11
34.0
 21
27.0
 31
0.0
  0
LINE
  5
98
330
1E
100
AcDbEntity
  8
0
100
AcDbLine
 10
28.0
 20
22.0
 30
0.0
 11
34.0
 21
22.0
 31
0.0
  0
LINE
  5
99
330
1E
100
AcDbEntity
  8
0
100
AcDbLine
 10
28.0
 20
32.0
 30
0.0
 11
34.0
 21
32.0
 31
0.0
  0
LINE
  5
9A
330
1E
100
AcDbEntity
  8
0
100
AcDbLine
 10
28.0
 20
32.0
 30
0.0
 11
28.0
 21
37.66669999999999
 31
0.0
  0
LINE
  5
9B
330
1E
100
AcDbEntity
  8
0
100
AcDbLine
 10
34.0
 20
31.89999999999999
 30
0.0
 11
34.0
 21
30.5
 31
0.0
  0
LINE
  5
9C
330
1E
100
AcDbEntity
  8
0
100
AcDbLine
 10
34.0
 20
30.5
 30
0.0
 11
34.0
 21
31.89999999999999
 31
0.0
  0
LINE
  5
9D
330
1E
100
AcDbEntity
  8
0
100
AcDbLine
 10
34.0
 20
30.5
 30
0.0
 11
34.0
 21
31.3
 31
0.0
  0
LINE
  5
9E
330
1E
100
AcDbEntity
  8
0
100
AcDbLine
 10
34.0
 20
32.0
 30
0.0
 11
34.0
 21
33.7
 31
0.0
  0
LINE
  5
9F
330
1E
100
AcDbEntity
  8
0
100
AcDbLine
 10
34.0
 20
33.7
 30
0.0
 11
34.0
 21
32.0
 31
0.0
  0
LINE
  5
A0
330
1E
100
AcDbEntity
  8
0
100
AcDbLine
 10
34.0
 20
33.7
 30
0.0
 11
34.0
 21
34.0
 31
0.0
  0
LINE
  5
A1
330
1E
100
AcDbEntity
  8
0
100
AcDbLine
 10
0.9999999999999948
 20
39.0
 30
0.0
 11
2.39999999999999
 21
39.0
 31
0.0
  0
LINE
  5
A2
330
1E
100
AcDbEntity
  8
0
100
AcDbLine
 10
3.29999999999999
 20
38.5555
 30
0.0
 11
5.49999999999999
 21
38.5555
 31
0.0
  0
LINE
  5
A3
330
1E
100
AcDbEntity
  8
0
100
AcDbLine
 10
1.999999999999989
 20
38.5555
 30
0.0
 11
3.29999999999999
 21
38.5555
 31
0.0
  0
LINE
  5
A4
330
1E
100
AcDbEntity
  8
0
100
AcDbLine
 10
1.499999999999989
 20
38.5555
 30
0.0
 11
1.999999999999989
 21
38.5555
 31
0.0
  0
LINE
  5
A5
330
1E
100
AcDbEntity
  8
0
100
AcDbLine
 10
1.499999999999989
 20
38.5555
 30
0.0
 11
1.999999999999989
 21
37.66669999999999
 31
0.0
  0
LINE
  5
A6
330
1E
100
AcDbEntity
  8
0
100
AcDbLine
 10
2.39999999999999
 20
39.0
 30
0.0
 11
4.79999999999999
 21
39.0
 31
0.0
  0
LINE
  5
A7
330
1E
100
AcDbEntity
  8
0
100
AcDbLine
 10
0.9999999999999939
 20
39.0
 30
0.0
 11
2.39999999999999
 21
39.0
 31
0.0
  0
LINE
  5
A8
330
1E
100
AcDbEntity
  8
0
100
AcDbLine
 10
0.499999999999994
 20
39.0
 30
0.0
 11
0.9999999999999939
 21
39.0
 31
0.0
  0
LINE
  5
A9
330
1E
100
AcDbEntity
  8
0
100
AcDbLine
 10
0.499999999999994
 20
39.0
 30
0.0
 11
1.499999999999989
 21
38.5555
 31
0.0
  0
LINE
  5
AA
330
1E
100
AcDbEntity
  8
0
100
AcDbLine
 10
5.49999999999999
 20
38.5555
 30
0.0
 11
8.3
 21
38.5555
 31
0.0
  0
LINE
  5
AB
330
1E
100
AcDbEntity
  8
0
100
AcDbLine
 10
-0.0000000000000056
 20
39.88889999999999
 30
0.0
 11
0.499999999999994
 21
39.0
 31
0.0
  0
LINE
  5
AC
330
1E
100
AcDbEntity
  8
0
100
AcDbLine
 10
-0.0000000000000056
 20
40.3333
 30
0.0
 11
0.4999999999999951
 21
41.2222
 31
0.0
  0
LINE
  5
AD
330
1E
100
AcDbEntity
  8
0
100
AcDbLine
 10
-0.0000000000000056
 20
39.88889999999999
 30
0.0
 11
-0.0000000000000056
 21
40.3333
 31
0.0
  0
LINE
  5
AE
330
1E
100
AcDbEntity
  8
0
100
AcDbLine
 10
-0.0000000000000056
 20
39.88889999999999
 30
0.0
 11
0.499999999999994
 21
39.0
 31
0.0
  0
LINE
  5
AF
330
1E
100
AcDbEntity
  8
0
100
AcDbLine
 10
-0.0000000000000056
 20
40.3333
 30
0.0
 11
0.4999999999999951
 21
41.2222
 31
0.0
  0
LINE
  5
B0
330
1E
100
AcDbEntity
  8
0
100
AcDbLine
 10
2.39999999999999
 20
41.2222
 30
0.0
 11
4.79999999999999
 21
41.2222
 31
0.0
  0
LINE
  5
B1
330
1E
100
AcDbEntity
  8
0
100
AcDbLine
 10
0.9999999999999948
 20
41.2222
 30
0.0
 11
2.39999999999999
 21
41.2222
 31
0.0
  0
LINE
  5
B2
330
1E
100
AcDbEntity
  8
0
100
AcDbLine
 10
0.4999999999999951
 20
41.2222
 30
0.0
 11
0.9999999999999948
 21
41.2222
 31
0.0
  0
LINE
  5
B3
330
1E
100
AcDbEntity
  8
0
100
AcDbLine
 10
0.4999999999999951
 20
41.2222
 30
0.0
 11
1.499999999999989
 21
41.66669999999999
 31
0.0
  0
LINE
  5
B4
330
1E
100
AcDbEntity
  8
0
100
AcDbLine
 10
4.79999999999999
 20
39.0
 30
0.0
 11
7.79999999999999
 21
39.0
 31
0.0
  0
LINE
  5
B5
330
1E
100
AcDbEntity
  8
0
100
AcDbLine
 10
7.79999999999999
 20
39.0
 30
0.0
 11
11.3
 21
39.0
 31
0.0
  0
LINE
  5
B6
330
1E
100
AcDbEntity
  8
0
100
AcDbLine
 10
1.999999999999989
 20
41.66669999999999
 30
0.0
 11
3.29999999999999
 21
41.66669999999999
 31
0.0
  0
LINE
  5
B7
330
1E
100
AcDbEntity
  8
0
100
AcDbLine
 10
1.499999999999989
 20
41.66669999999999
 30
0.0
 11
1.999999999999989
 21
41.66669999999999
 31
0.0
  0
LINE
  5
B8
330
1E
100
AcDbEntity
  8
0
100
AcDbLine
 10
3.29999999999999
 20
41.66669999999999
 30
0.0
 11
5.49999999999999
 21
41.66669999999999
 31
0.0
  0
LINE
  5
B9
330
1E
100
AcDbEntity
  8
0
100
AcDbLine
 10
2.49999999999999
 20
41.66669999999999
 30
0.0
 11
2.99999999999999
 21
42.5555
 31
0.0
  0
LINE
  5
BA
330
1E
100
AcDbEntity
  8
0
100
AcDbLine
 10
4.79999999999999
 20
41.2222
 30
0.0
 11
7.79999999999999
 21
41.2222
 31
0.0
  0
LINE
  5
BB
330
1E
100
AcDbEntity
  8
0
100
AcDbLine
 10
8.3
 20
38.5555
 30
0.0
 11
11.5
 21
38.5555
 31
0.0
  0
LINE
  5
BC
330
1E
100
AcDbEntity
  8
0
100
AcDbLine
 10
7.79999999999999
 20
41.2222
 30
0.0
 11
11.3
 21
41.2222
 31
0.0
  0
LINE
  5
BD
330
1E
100
AcDbEntity
  8
0
100
AcDbLine
 10
4.59999999999999
 20
42.5555
 30
0.0
 11
6.5
 21
42.5555
 31
0.0
  0
LINE
  5
BE
330
1E
100
AcDbEntity
  8
0
100
AcDbLine
 10
3.39999999999999
 20
42.5555
 30
0.0
 11
4.59999999999999
 21
42.5555
 31
0.0
  0
LINE
  5
BF
330
1E
100
AcDbEntity
  8
0
100
AcDbLine
 10
2.99999999999999
 20
42.5555
 30
0.0
 11
3.39999999999999
 21
42.5555
 31
0.0
  0
LINE
  5
C0
330
1E
100
AcDbEntity
  8
0
100
AcDbLine
 10
2.99999999999999
 20
42.5555
 30
0.0
 11
3.99999999999999
 21
43.0
 31
0.0
  0
LINE
  5
C1
330
1E
100
AcDbEntity
  8
0
100
AcDbLine
 10
5.49999999999999
 20
41.66669999999999
 30
0.0
 11
8.3
 21
41.66669999999999
 31
0.0
  0
LINE
  5
C2
330
1E
100
AcDbEntity
  8
0
100
AcDbLine
 10
8.3
 20
41.66669999999999
 30
0.0
 11
11.5
 21
41.66669999999999
 31
0.0
  0
LINE
  5
C3
330
1E
100
AcDbEntity
  8
0
100
AcDbLine
 10
5.49999999999999
 20
43.0
 30
0.0
 11
7.19999999999999
 21
43.0
 31
0.0
  0
LINE
  5
C4
330
1E
100
AcDbEntity
  8
0
100
AcDbLine
 10
4.4
 20
43.0
 30
0.0
 11
5.49999999999999
 21
43.0
 31
0.0
  0
LINE
  5
C5
330
1E
100
AcDbEntity
  8
0
100
AcDbLine
 10
3.99999999999999
 20
43.0
 30
0.0
 11
4.4
 21
43.0
 31
0.0
  0
LINE
  5
C6
330
1E
100
AcDbEntity
  8
0
100
AcDbLine
 10
6.5
 20
42.5555
 30
0.0
 11
9.0
 21
42.5555
 31
0.0
  0
LINE
  5
C7
330
1E
100
AcDbEntity
  8
0
100
AcDbLine
 10
9.0
 20
42.5555
 30
0.0
 11
11.9
 21
42.5555
 31
0.0
  0
LINE
  5
C8
330
1E
100
AcDbEntity
  8
0
100
AcDbLine
 10
7.19999999999999
 20
43.0
 30
0.0
 11
9.499999999999991
 21
43.0
 31
0.0
  0
LINE
  5
C9
330
1E
100
AcDbEntity
  8
0
100
AcDbLine
 10
11.5
 20
38.5555
 30
0.0
 11
15.0
 21
38.5555
 31
0.0
  0
LINE
  5
CA
330
1E
100
AcDbEntity
  8
0
100
AcDbLine
 10
11.3
 20
39.0
 30
0.0
 11
15.0
 21
39.0
 31
0.0
  0
LINE
  5
CB
330
1E
100
AcDbEntity
  8
0
100
AcDbLine
 10
11.3
 20
41.2222
 30
0.0
 11
15.0
 21
41.2222
 31
0.0
  0
LINE
  5
CC
330
1E
100
AcDbEntity
  8
0
100
AcDbLine
 10
15.0
 20
38.5555
 30
0.0
 11
18.5
 21
38.5555
 31
0.0
  0
LINE
  5
CD
330
1E
100
AcDbEntity
  8
0
100
AcDbLine
 10
15.0
 20
39.0
 30
0.0
 11
18.7
 21
39.0
 31
0.0
  0
LINE
  5
CE
330
1E
100
AcDbEntity
  8
0
100
AcDbLine
 10
15.0
 20
41.2222
 30
0.0
 11
18.7
 21
41.2222
 31
0.0
  0
LINE
  5
CF
330
1E
100
AcDbEntity
  8
0
100
AcDbLine
 10
15.0
 20
41.66669999999999
 30
0.0
 11
18.5
 21
41.66669999999999
 31
0.0
  0
LINE
  5
D0
330
1E
100
AcDbEntity
  8
0
100
AcDbLine
 10
18.5
 20
38.5555
 30
0.0
 11
21.69999999999999
 21
38.5555
 31
0.0
  0
LINE
  5
D1
330
1E
100
AcDbEntity
  8
0
100
AcDbLine
 10
18.7
 20
39.0
 30
0.0
 11
22.2
 21
39.0
 31
0.0
  0
LINE
  5
D2
330
1E
100
AcDbEntity
  8
0
100
AcDbLine
 10
21.69999999999999
 20
38.5555
 30
0.0
 11
24.5
 21
38.5555
 31
0.0
  0
LINE
  5
D3
330
1E
100
AcDbEntity
  8
0
100
AcDbLine
 10
22.2
 20
39.0
 30
0.0
 11
25.2
 21
39.0
 31
0.0
  0
LINE
  5
D4
330
1E
100
AcDbEntity
  8
0
100
AcDbLine
 10
22.2
 20
41.2222
 30
0.0
 11
25.2
 21
41.2222
 31
0.0
  0
LINE
  5
D5
330
1E
100
AcDbEntity
  8
0
100
AcDbLine
 10
18.7
 20
41.2222
 30
0.0
 11
22.2
 21
41.2222
 31
0.0
  0
LINE
  5
D6
330
1E
100
AcDbEntity
  8
0
100
AcDbLine
 10
21.69999999999999
 20
41.66669999999999
 30
0.0
 11
24.5
 21
41.66669999999999
 31
0.0
  0
LINE
  5
D7
330
1E
100
AcDbEntity
  8
0
100
AcDbLine
 10
18.5
 20
41.66669999999999
 30
0.0
 11
21.69999999999999
 21
41.66669999999999
 31
0.0
  0
LINE
  5
D8
330
1E
100
AcDbEntity
  8
0
100
AcDbLine
 10
21.0
 20
42.5555
 30
0.0
 11
23.5
 21
42.5555
 31
0.0
  0
LINE
  5
D9
330
1E
100
AcDbEntity
  8
0
100
AcDbLine
 10
18.1
 20
42.5555
 30
0.0
 11
21.0
 21
42.5555
 31
0.0
  0
LINE
  5
DA
330
1E
100
AcDbEntity
  8
0
100
AcDbLine
 10
15.0
 20
42.5555
 30
0.0
 11
18.1
 21
42.5555
 31
0.0
  0
LINE
  5
DB
330
1E
100
AcDbEntity
  8
0
100
AcDbLine
 10
24.5
 20
38.5555
 30
0.0
 11
26.69999999999999
 21
38.5555
 31
0.0
  0
LINE
  5
DC
330
1E
100
AcDbEntity
  8
0
100
AcDbLine
 10
25.2
 20
39.0
 30
0.0
 11
27.6
 21
39.0
 31
0.0
  0
LINE
  5
DD
330
1E
100
AcDbEntity
  8
0
100
AcDbLine
 10
25.2
 20
41.2222
 30
0.0
 11
27.6
 21
41.2222
 31
0.0
  0
LINE
  5
DE
330
1E
100
AcDbEntity
  8
0
100
AcDbLine
 10
24.5
 20
41.66669999999999
 30
0.0
 11
26.69999999999999
 21
41.66669999999999
 31
0.0
  0
LINE
  5
DF
330
1E
100
AcDbEntity
  8
0
100
AcDbLine
 10
23.5
 20
42.5555
 30
0.0
 11
25.4
 21
42.5555
 31
0.0
  0
LINE
  5
E0
330
1E
100
AcDbEntity
  8
0
100
AcDbLine
 10
25.4
 20
42.5555
 30
0.0
 11
26.6
 21
42.5555
 31
0.0
  0
LINE
  5
E1
330
1E
100
AcDbEntity
  8
0
100
AcDbLine
 10
26.69999999999999
 20
38.5555
 30
0.0
 11
28.0
 21
38.5555
 31
0.0
  0
LINE
  5
E2
330
1E
100
AcDbEntity
  8
0
100
AcDbLine
 10
27.6
 20
39.0
 30
0.0
 11
29.0
 21
39.0
 31
0.0
  0
LINE
  5
E3
330
1E
100
AcDbEntity
  8
0
100
AcDbLine
 10
28.0
 20
38.5555
 30
0.0
 11
28.5
 21
38.5555
 31
0.0
  0
LINE
  5
E4
330
1E
100
AcDbEntity
  8
0
100
AcDbLine
 10
27.6
 20
41.2222
 30
0.0
 11
29.0
 21
41.2222
 31
0.0
  0
LINE
  5
E5
330
1E
100
AcDbEntity
  8
0
100
AcDbLine
 10
26.69999999999999
 20
41.66669999999999
 30
0.0
 11
28.0
 21
41.66669999999999
 31
0.0
  0
LINE
  5
E6
330
1E
100
AcDbEntity
  8
0
100
AcDbLine
 10
26.6
 20
42.5555
 30
0.0
 11
27.0
 21
42.5555
 31
0.0
  0
LINE
  5
E7
330
1E
100
AcDbEntity
  8
0
100
AcDbLine
 10
27.0
 20
42.5555
 30
0.0
 11
27.5
 21
41.66669999999999
 31
0.0
  0
LINE
  5
E8
330
1E
100
AcDbEntity
  8
0
100
AcDbLine
 10
11.5
 20
41.66669999999999
 30
0.0
 11
15.0
 21
41.66669999999999
 31
0.0
  0
LINE
  5
E9
330
1E
100
AcDbEntity
  8
0
100
AcDbLine
 10
9.999999999999991
 20
43.0
 30
0.0
 11
10.0
 21
74.5
 31
0.0
  0
LINE
  5
EA
330
1E
100
AcDbEntity
  8
0
100
AcDbLine
 10
20.0
 20
43.0
 30
0.0
 11
20.0
 21
74.5
 31
0.0
  0
LINE
  5
EB
330
1E
100
AcDbEntity
  8
0
100
AcDbLine
 10
20.5
 20
43.0
 30
0.0
 11
22.8
 21
43.0
 31
0.0
  0
LINE
  5
EC
330
1E
100
AcDbEntity
  8
0
100
AcDbLine
 10
17.8
 20
43.0
 30
0.0
 11
20.5
 21
43.0
 31
0.0
  0
LINE
  5
ED
330
1E
100
AcDbEntity
  8
0
100
AcDbLine
 10
15.0
 20
43.0
 30
0.0
 11
17.8
 21
43.0
 31
0.0
  0
LINE
  5
EE
330
1E
100
AcDbEntity
  8
0
100
AcDbLine
 10
22.8
 20
43.0
 30
0.0
 11
24.5
 21
43.0
 31
0.0
  0
LINE
  5
EF
330
1E
100
AcDbEntity
  8
0
100
AcDbLine
 10
24.5
 20
43.0
 30
0.0
 11
25.6
 21
43.0
 31
0.0
  0
LINE
  5
F0
330
1E
100
AcDbEntity
  8
0
100
AcDbLine
 10
25.6
 20
43.0
 30
0.0
 11
26.0
 21
43.0
 31
0.0
  0
LINE
  5
F1
330
1E
100
AcDbEntity
  8
0
100
AcDbLine
 10
26.0
 20
43.0
 30
0.0
 11
27.0
 21
42.5555
 31
0.0
  0
LINE
  5
F2
330
1E
100
AcDbEntity
  8
0
100
AcDbLine
 10
11.9
 20
42.5555
 30
0.0
 11
15.0
 21
42.5555
 31
0.0
  0
LINE
  5
F3
330
1E
100
AcDbEntity
  8
0
100
AcDbLine
 10
9.499999999999991
 20
43.0
 30
0.0
 11
12.19999999999999
 21
43.0
 31
0.0
  0
LINE
  5
F4
330
1E
100
AcDbEntity
  8
0
100
AcDbLine
 10
2.0
 20
132.333
 30
0.0
 11
3.299999999999999
 21
132.333
 31
0.0
  0
LINE
  5
F5
330
1E
100
AcDbEntity
  8
0
100
AcDbLine
 10
1.5
 20
132.333
 30
0.0
 11
2.0
 21
132.333
 31
0.0
  0
LINE
  5
F6
330
1E
100
AcDbEntity
  8
0
100
AcDbLine
 10
3.0
 20
132.333
 30
0.0
 11
4.2
 21
132.333
 31
0.0
  0
LINE
  5
F7
330
1E
100
AcDbEntity
  8
0
100
AcDbLine
 10
0.0000000000000002
 20
133.667
 30
0.0
 11
0.0000000000000002
 21
134.111
 31
0.0
  0
LINE
  5
F8
330
1E
100
AcDbEntity
  8
0
100
AcDbLine
 10
0.0000000000000002
 20
133.667
 30
0.0
 11
0.5
 21
132.7779999999999
 31
0.0
  0
LINE
  5
F9
330
1E
100
AcDbEntity
  8
0
100
AcDbLine
 10
0.0000000000000002
 20
134.111
 30
0.0
 11
0.5
 21
135.0
 31
0.0
  0
LINE
  5
FA
330
1E
100
AcDbEntity
  8
0
100
AcDbLine
 10
0.0000000000000018
 20
159.889
 30
0.0
 11
0.500000000000002
 21
159.0
 31
0.0
  0
LINE
  5
FB
330
1E
100
AcDbEntity
  8
0
100
AcDbLine
 10
0.0000000000000018
 20
160.3329999999999
 30
0.0
 11
0.500000000000002
 21
161.222
 31
0.0
  0
LINE
  5
FC
330
1E
100
AcDbEntity
  8
0
100
AcDbLine
 10
0.0000000000000018
 20
159.889
 30
0.0
 11
0.0000000000000018
 21
160.3329999999999
 31
0.0
  0
LINE
  5
FD
330
1E
100
AcDbEntity
  8
0
100
AcDbLine
 10
0.0000000000000018
 20
159.889
 30
0.0
 11
0.500000000000002
 21
159.0
 31
0.0
  0
LINE
  5
FE
330
1E
100
AcDbEntity
  8
0
100
AcDbLine
 10
0.0000000000000018
 20
160.3329999999999
 30
0.0
 11
0.500000000000002
 21
161.222
 31
0.0
  0
LINE
  5
FF
330
1E
100
AcDbEntity
  8
0
100
AcDbLine
 10
0.0000000000000002
 20
134.111
 30
0.0
 11
0.5
 21
135.0
 31
0.0
  0
LINE
  5
100
330
1E
100
AcDbEntity
  8
0
100
AcDbLine
 10
0.0000000000000002
 20
133.667
 30
0.0
 11
0.5
 21
132.7779999999999
 31
0.0
  0
LINE
  5
101
330
1E
100
AcDbEntity
  8
0
100
AcDbLine
 10
1.0
 20
132.7779999999999
 30
0.0
 11
2.399999999999999
 21
132.7779999999999
 31
0.0
  0
LINE
  5
102
330
1E
100
AcDbEntity
  8
0
100
AcDbLine
 10
2.399999999999999
 20
135.0
 30
0.0
 11
4.799999999999999
 21
135.0
 31
0.0
  0
LINE
  5
103
330
1E
100
AcDbEntity
  8
0
100
AcDbLine
 10
1.0
 20
135.0
 30
0.0
 11
2.399999999999999
 21
135.0
 31
0.0
  0
LINE
  5
104
330
1E
100
AcDbEntity
  8
0
100
AcDbLine
 10
2.399999999999999
 20
132.7779999999999
 30
0.0
 11
4.799999999999999
 21
132.7779999999999
 31
0.0
  0
LINE
  5
105
330
1E
100
AcDbEntity
  8
0
100
AcDbLine
 10
1.0
 20
132.7779999999999
 30
0.0
 11
2.399999999999999
 21
132.7779999999999
 31
0.0
  0
LINE
  5
106
330
1E
100
AcDbEntity
  8
0
100
AcDbLine
 10
1.0
 20
159.0
 30
0.0
 11
2.399999999999999
 21
159.0
 31
0.0
  0
LINE
  5
107
330
1E
100
AcDbEntity
  8
0
100
AcDbLine
 10
1.0
 20
159.0
 30
0.0
 11
2.399999999999999
 21
159.0
 31
0.0
  0
LINE
  5
108
330
1E
100
AcDbEntity
  8
0
100
AcDbLine
 10
0.500000000000002
 20
159.0
 30
0.0
 11
1.0
 21
159.0
 31
0.0
  0
LINE
  5
109
330
1E
100
AcDbEntity
  8
0
100
AcDbLine
 10
0.500000000000002
 20
159.0
 30
0.0
 11
1.5
 21
158.555
 31
0.0
  0
LINE
  5
10A
330
1E
100
AcDbEntity
  8
0
100
AcDbLine
 10
1.0
 20
161.222
 30
0.0
 11
2.399999999999999
 21
161.222
 31
0.0
  0
LINE
  5
10B
330
1E
100
AcDbEntity
  8
0
100
AcDbLine
 10
0.500000000000002
 20
161.222
 30
0.0
 11
1.0
 21
161.222
 31
0.0
  0
LINE
  5
10C
330
1E
100
AcDbEntity
  8
0
100
AcDbLine
 10
0.500000000000002
 20
161.222
 30
0.0
 11
1.5
 21
161.667
 31
0.0
  0
LINE
  5
10D
330
1E
100
AcDbEntity
  8
0
100
AcDbLine
 10
2.0
 20
135.4439999999999
 30
0.0
 11
3.299999999999999
 21
135.4439999999999
 31
0.0
  0
LINE
  5
10E
330
1E
100
AcDbEntity
  8
0
100
AcDbLine
 10
2.0
 20
158.555
 30
0.0
 11
3.299999999999999
 21
158.555
 31
0.0
  0
LINE
  5
10F
330
1E
100
AcDbEntity
  8
0
100
AcDbLine
 10
1.5
 20
158.555
 30
0.0
 11
2.0
 21
158.555
 31
0.0
  0
LINE
  5
110
330
1E
100
AcDbEntity
  8
0
100
AcDbLine
 10
1.5
 20
158.555
 30
0.0
 11
2.0
 21
157.667
 31
0.0
  0
LINE
  5
111
330
1E
100
AcDbEntity
  8
0
100
AcDbLine
 10
2.399999999999999
 20
159.0
 30
0.0
 11
4.799999999999999
 21
159.0
 31
0.0
  0
LINE
  5
112
330
1E
100
AcDbEntity
  8
0
100
AcDbLine
 10
2.399999999999999
 20
161.222
 30
0.0
 11
4.799999999999999
 21
161.222
 31
0.0
  0
LINE
  5
113
330
1E
100
AcDbEntity
  8
0
100
AcDbLine
 10
2.0
 20
161.667
 30
0.0
 11
3.299999999999999
 21
161.667
 31
0.0
  0
LINE
  5
114
330
1E
100
AcDbEntity
  8
0
100
AcDbLine
 10
1.5
 20
161.667
 30
0.0
 11
2.0
 21
161.667
 31
0.0
  0
LINE
  5
115
330
1E
100
AcDbEntity
  8
0
100
AcDbLine
 10
2.5
 20
161.667
 30
0.0
 11
3.0
 21
162.555
 31
0.0
  0
LINE
  5
116
330
1E
100
AcDbEntity
  8
0
100
AcDbLine
 10
2.0
 20
136.3329999999999
 30
0.0
 11
2.0
 21
157.667
 31
0.0
  0
LINE
  5
117
330
1E
100
AcDbEntity
  8
0
100
AcDbLine
 10
1.5
 20
135.4439999999999
 30
0.0
 11
2.0
 21
136.3329999999999
 31
0.0
  0
LINE
  5
118
330
1E
100
AcDbEntity
  8
0
100
AcDbLine
 10
1.5
 20
135.4439999999999
 30
0.0
 11
2.0
 21
135.4439999999999
 31
0.0
  0
LINE
  5
119
330
1E
100
AcDbEntity
  8
0
100
AcDbLine
 10
0.5
 20
135.0
 30
0.0
 11
1.5
 21
135.4439999999999
 31
0.0
  0
LINE
  5
11A
330
1E
100
AcDbEntity
  8
0
100
AcDbLine
 10
0.5
 20
135.0
 30
0.0
 11
1.0
 21
135.0
 31
0.0
  0
LINE
  5
11B
330
1E
100
AcDbEntity
  8
0
100
AcDbLine
 10
0.5
 20
132.7779999999999
 30
0.0
 11
1.5
 21
132.333
 31
0.0
  0
LINE
  5
11C
330
1E
100
AcDbEntity
  8
0
100
AcDbLine
 10
0.5
 20
132.7779999999999
 30
0.0
 11
1.0
 21
132.7779999999999
 31
0.0
  0
LINE
  5
11D
330
1E
100
AcDbEntity
  8
0
100
AcDbLine
 10
2.5
 20
132.333
 30
0.0
 11
3.0
 21
131.4439999999999
 31
0.0
  0
LINE
  5
11E
330
1E
100
AcDbEntity
  8
0
100
AcDbLine
 10
2.5
 20
132.333
 30
0.0
 11
3.0
 21
132.333
 31
0.0
  0
LINE
  5
11F
330
1E
100
AcDbEntity
  8
0
100
AcDbLine
 10
5.0
 20
98.9872
 30
0.0
 11
5.24
 21
99.50000000000001
 31
0.0
  0
LINE
  5
120
330
1E
100
AcDbEntity
  8
0
100
AcDbLine
 10
5.0
 20
75.0128
 30
0.0
 11
5.0
 21
98.9872
 31
0.0
  0
LINE
  5
121
330
1E
100
AcDbEntity
  8
0
100
AcDbLine
 10
5.0
 20
75.0128
 30
0.0
 11
5.24
 21
74.5
 31
0.0
  0
LINE
  5
122
330
1E
100
AcDbEntity
  8
0
100
AcDbLine
 10
5.0
 20
100.0129999999999
 30
0.0
 11
5.0
 21
123.987
 31
0.0
  0
LINE
  5
123
330
1E
100
AcDbEntity
  8
0
100
AcDbLine
 10
5.0
 20
100.0129999999999
 30
0.0
 11
5.24
 21
99.50000000000001
 31
0.0
  0
LINE
  5
124
330
1E
100
AcDbEntity
  8
0
100
AcDbLine
 10
5.0
 20
123.987
 30
0.0
 11
5.24
 21
124.5
 31
0.0
  0
LINE
  5
125
330
1E
100
AcDbEntity
  8
0
100
AcDbLine
 10
5.24
 20
74.5
 30
0.0
 11
5.599999999999999
 21
74.5
 31
0.0
  0
LINE
  5
126
330
1E
100
AcDbEntity
  8
0
100
AcDbLine
 10
5.24
 20
124.5
 30
0.0
 11
5.599999999999999
 21
124.5
 31
0.0
  0
LINE
  5
127
330
1E
100
AcDbEntity
  8
0
100
AcDbLine
 10
5.24
 20
99.50000000000001
 30
0.0
 11
5.599999999999999
 21
99.50000000000001
 31
0.0
  0
LINE
  5
128
330
1E
100
AcDbEntity
  8
0
100
AcDbLine
 10
5.599999999999999
 20
124.5
 30
0.0
 11
6.559999999999999
 21
124.5
 31
0.0
  0
LINE
  5
129
330
1E
100
AcDbEntity
  8
0
100
AcDbLine
 10
5.599999999999999
 20
99.50000000000001
 30
0.0
 11
6.559999999999999
 21
99.50000000000001
 31
0.0
  0
LINE
  5
12A
330
1E
100
AcDbEntity
  8
0
100
AcDbLine
 10
5.599999999999999
 20
74.5
 30
0.0
 11
6.559999999999999
 21
74.5
 31
0.0
  0
LINE
  5
12B
330
1E
100
AcDbEntity
  8
0
100
AcDbLine
 10
5.0
 20
125.122
 30
0.0
 11
5.24
 21
124.5
 31
0.0
  0
LINE
  5
12C
330
1E
100
AcDbEntity
  8
0
100
AcDbLine
 10
5.0
 20
125.122
 30
0.0
 11
5.0
 21
127.5339999999999
 31
0.0
  0
LINE
  5
12D
330
1E
100
AcDbEntity
  8
0
100
AcDbLine
 10
5.24
 20
128.157
 30
0.0
 11
5.599999999999999
 21
128.157
 31
0.0
  0
LINE
  5
12E
330
1E
100
AcDbEntity
  8
0
100
AcDbLine
 10
5.0
 20
127.5339999999999
 30
0.0
 11
5.24
 21
128.157
 31
0.0
  0
LINE
  5
12F
330
1E
100
AcDbEntity
  8
0
100
AcDbLine
 10
5.0
 20
127.5339999999999
 30
0.0
 11
5.0
 21
125.122
 31
0.0
  0
LINE
  5
130
330
1E
100
AcDbEntity
  8
0
100
AcDbLine
 10
6.559999999999999
 20
74.5
 30
0.0
 11
8.119999999999999
 21
74.5
 31
0.0
  0
LINE
  5
131
330
1E
100
AcDbEntity
  8
0
100
AcDbLine
 10
6.559999999999999
 20
124.5
 30
0.0
 11
8.119999999999999
 21
124.5
 31
0.0
  0
LINE
  5
132
330
1E
100
AcDbEntity
  8
0
100
AcDbLine
 10
6.559999999999999
 20
99.50000000000001
 30
0.0
 11
8.119999999999999
 21
99.50000000000001
 31
0.0
  0
LINE
  5
133
330
1E
100
AcDbEntity
  8
0
100
AcDbLine
 10
8.119999999999999
 20
124.5
 30
0.0
 11
10.16
 21
124.5
 31
0.0
  0
LINE
  5
134
330
1E
100
AcDbEntity
  8
0
100
AcDbLine
 10
8.119999999999999
 20
99.50000000000001
 30
0.0
 11
10.16
 21
99.50000000000001
 31
0.0
  0
LINE
  5
135
330
1E
100
AcDbEntity
  8
0
100
AcDbLine
 10
8.119999999999999
 20
74.5
 30
0.0
 11
10.16
 21
74.5
 31
0.0
  0
LINE
  5
136
330
1E
100
AcDbEntity
  8
0
100
AcDbLine
 10
8.119999999999999
 20
74.5
 30
0.0
 11
10.0
 21
74.5
 31
0.0
  0
LINE
  5
137
330
1E
100
AcDbEntity
  8
0
100
AcDbLine
 10
5.599999999999999
 20
128.157
 30
0.0
 11
6.559999999999999
 21
128.157
 31
0.0
  0
LINE
  5
138
330
1E
100
AcDbEntity
  8
0
100
AcDbLine
 10
6.559999999999999
 20
128.157
 30
0.0
 11
8.119999999999999
 21
128.157
 31
0.0
  0
LINE
  5
139
330
1E
100
AcDbEntity
  8
0
100
AcDbLine
 10
8.119999999999999
 20
128.157
 30
0.0
 11
10.16
 21
128.157
 31
0.0
  0
LINE
  5
13A
330
1E
100
AcDbEntity
  8
0
100
AcDbLine
 10
7.2
 20
131.0
 30
0.0
 11
9.5
 21
131.0
 31
0.0
  0
LINE
  5
13B
330
1E
100
AcDbEntity
  8
0
100
AcDbLine
 10
10.0
 20
128.157
 30
0.0
 11
10.0
 21
131.0
 31
0.0
  0
LINE
  5
13C
330
1E
100
AcDbEntity
  8
0
100
AcDbLine
 10
10.0
 20
128.157
 30
0.0
 11
10.0
 21
140.0
 31
0.0
  0
LINE
  5
13D
330
1E
100
AcDbEntity
  8
0
100
AcDbLine
 10
10.16
 20
124.5
 30
0.0
 11
12.48
 21
124.5
 31
0.0
  0
LINE
  5
13E
330
1E
100
AcDbEntity
  8
0
100
AcDbLine
 10
10.16
 20
99.50000000000001
 30
0.0
 11
12.48
 21
99.50000000000001
 31
0.0
  0
LINE
  5
13F
330
1E
100
AcDbEntity
  8
0
100
AcDbLine
 10
10.16
 20
74.5
 30
0.0
 11
12.48
 21
74.5
 31
0.0
  0
LINE
  5
140
330
1E
100
AcDbEntity
  8
0
100
AcDbLine
 10
17.51999999999999
 20
74.5
 30
0.0
 11
19.83999999999999
 21
74.5
 31
0.0
  0
LINE
  5
141
330
1E
100
AcDbEntity
  8
0
100
AcDbLine
 10
15.0
 20
74.5
 30
0.0
 11
17.51999999999999
 21
74.5
 31
0.0
  0
LINE
  5
142
330
1E
100
AcDbEntity
  8
0
100
AcDbLine
 10
17.51999999999999
 20
99.50000000000001
 30
0.0
 11
19.83999999999999
 21
99.50000000000001
 31
0.0
  0
LINE
  5
143
330
1E
100
AcDbEntity
  8
0
100
AcDbLine
 10
17.51999999999999
 20
124.5
 30
0.0
 11
19.83999999999999
 21
124.5
 31
0.0
  0
LINE
  5
144
330
1E
100
AcDbEntity
  8
0
100
AcDbLine
 10
15.0
 20
124.5
 30
0.0
 11
17.51999999999999
 21
124.5
 31
0.0
  0
LINE
  5
145
330
1E
100
AcDbEntity
  8
0
100
AcDbLine
 10
12.48
 20
124.5
 30
0.0
 11
15.0
 21
124.5
 31
0.0
  0
LINE
  5
146
330
1E
100
AcDbEntity
  8
0
100
AcDbLine
 10
15.0
 20
99.50000000000001
 30
0.0
 11
17.51999999999999
 21
99.50000000000001
 31
0.0
  0
LINE
  5
147
330
1E
100
AcDbEntity
  8
0
100
AcDbLine
 10
12.48
 20
99.50000000000001
 30
0.0
 11
15.0
 21
99.50000000000001
 31
0.0
  0
LINE
  5
148
330
1E
100
AcDbEntity
  8
0
100
AcDbLine
 10
12.48
 20
74.5
 30
0.0
 11
15.0
 21
74.5
 31
0.0
  0
LINE
  5
149
330
1E
100
AcDbEntity
  8
0
100
AcDbLine
 10
19.83999999999999
 20
124.5
 30
0.0
 11
21.88
 21
124.5
 31
0.0
  0
LINE
  5
14A
330
1E
100
AcDbEntity
  8
0
100
AcDbLine
 10
20.0
 20
128.157
 30
0.0
 11
20.0
 21
138.0
 31
0.0
  0
LINE
  5
14B
330
1E
100
AcDbEntity
  8
0
100
AcDbLine
 10
19.83999999999999
 20
99.50000000000001
 30
0.0
 11
21.88
 21
99.50000000000001
 31
0.0
  0
LINE
  5
14C
330
1E
100
AcDbEntity
  8
0
100
AcDbLine
 10
20.0
 20
74.5
 30
0.0
 11
21.88
 21
74.5
 31
0.0
  0
LINE
  5
14D
330
1E
100
AcDbEntity
  8
0
100
AcDbLine
 10
19.83999999999999
 20
74.5
 30
0.0
 11
21.88
 21
74.5
 31
0.0
  0
LINE
  5
14E
330
1E
100
AcDbEntity
  8
0
100
AcDbLine
 10
19.83999999999999
 20
128.157
 30
0.0
 11
21.88
 21
128.157
 31
0.0
  0
LINE
  5
14F
330
1E
100
AcDbEntity
  8
0
100
AcDbLine
 10
17.51999999999999
 20
128.157
 30
0.0
 11
19.83999999999999
 21
128.157
 31
0.0
  0
LINE
  5
150
330
1E
100
AcDbEntity
  8
0
100
AcDbLine
 10
15.0
 20
128.157
 30
0.0
 11
17.51999999999999
 21
128.157
 31
0.0
  0
LINE
  5
151
330
1E
100
AcDbEntity
  8
0
100
AcDbLine
 10
10.16
 20
128.157
 30
0.0
 11
12.48
 21
128.157
 31
0.0
  0
LINE
  5
152
330
1E
100
AcDbEntity
  8
0
100
AcDbLine
 10
12.48
 20
128.157
 30
0.0
 11
15.0
 21
128.157
 31
0.0
  0
LINE
  5
153
330
1E
100
AcDbEntity
  8
0
100
AcDbLine
 10
21.88
 20
124.5
 30
0.0
 11
23.44
 21
124.5
 31
0.0
  0
LINE
  5
154
330
1E
100
AcDbEntity
  8
0
100
AcDbLine
 10
21.88
 20
99.50000000000001
 30
0.0
 11
23.44
 21
99.50000000000001
 31
0.0
  0
LINE
  5
155
330
1E
100
AcDbEntity
  8
0
100
AcDbLine
 10
21.88
 20
74.5
 30
0.0
 11
23.44
 21
74.5
 31
0.0
  0
LINE
  5
156
330
1E
100
AcDbEntity
  8
0
100
AcDbLine
 10
24.39999999999999
 20
74.5
 30
0.0
 11
24.76
 21
74.5
 31
0.0
  0
LINE
  5
157
330
1E
100
AcDbEntity
  8
0
100
AcDbLine
 10
23.44
 20
124.5
 30
0.0
 11
24.39999999999999
 21
124.5
 31
0.0
  0
LINE
  5
158
330
1E
100
AcDbEntity
  8
0
100
AcDbLine
 10
24.39999999999999
 20
124.5
 30
0.0
 11
24.76
 21
124.5
 31
0.0
  0
LINE
  5
159
330
1E
100
AcDbEntity
  8
0
100
AcDbLine
 10
24.39999999999999
 20
99.50000000000001
 30
0.0
 11
24.76
 21
99.50000000000001
 31
0.0
  0
LINE
  5
15A
330
1E
100
AcDbEntity
  8
0
100
AcDbLine
 10
23.44
 20
99.50000000000001
 30
0.0
 11
24.39999999999999
 21
99.50000000000001
 31
0.0
  0
LINE
  5
15B
330
1E
100
AcDbEntity
  8
0
100
AcDbLine
 10
23.44
 20
74.5
 30
0.0
 11
24.39999999999999
 21
74.5
 31
0.0
  0
LINE
  5
15C
330
1E
100
AcDbEntity
  8
0
100
AcDbLine
 10
24.39999999999999
 20
128.157
 30
0.0
 11
24.76
 21
128.157
 31
0.0
  0
LINE
  5
15D
330
1E
100
AcDbEntity
  8
0
100
AcDbLine
 10
23.44
 20
128.157
 30
0.0
 11
24.39999999999999
 21
128.157
 31
0.0
  0
LINE
  5
15E
330
1E
100
AcDbEntity
  8
0
100
AcDbLine
 10
21.88
 20
128.157
 30
0.0
 11
23.44
 21
128.157
 31
0.0
  0
LINE
  5
15F
330
1E
100
AcDbEntity
  8
0
100
AcDbLine
 10
22.8
 20
131.0
 30
0.0
 11
24.5
 21
131.0
 31
0.0
  0
LINE
  5
160
330
1E
100
AcDbEntity
  8
0
100
AcDbLine
 10
24.76
 20
74.5
 30
0.0
 11
25.0
 21
75.0128
 31
0.0
  0
LINE
  5
161
330
1E
100
AcDbEntity
  8
0
100
AcDbLine
 10
24.76
 20
99.50000000000001
 30
0.0
 11
25.0
 21
98.9872
 31
0.0
  0
LINE
  5
162
330
1E
100
AcDbEntity
  8
0
100
AcDbLine
 10
24.76
 20
99.50000000000001
 30
0.0
 11
25.0
 21
100.0129999999999
 31
0.0
  0
LINE
  5
163
330
1E
100
AcDbEntity
  8
0
100
AcDbLine
 10
24.76
 20
124.5
 30
0.0
 11
25.0
 21
125.122
 31
0.0
  0
LINE
  5
164
330
1E
100
AcDbEntity
  8
0
100
AcDbLine
 10
24.76
 20
124.5
 30
0.0
 11
25.0
 21
123.987
 31
0.0
  0
LINE
  5
165
330
1E
100
AcDbEntity
  8
0
100
AcDbLine
 10
25.0
 20
123.987
 30
0.0
 11
25.0
 21
100.0129999999999
 31
0.0
  0
LINE
  5
166
330
1E
100
AcDbEntity
  8
0
100
AcDbLine
 10
25.0
 20
100.0129999999999
 30
0.0
 11
25.0
 21
123.987
 31
0.0
  0
LINE
  5
167
330
1E
100
AcDbEntity
  8
0
100
AcDbLine
 10
25.0
 20
75.0128
 30
0.0
 11
25.0
 21
98.9872
 31
0.0
  0
LINE
  5
168
330
1E
100
AcDbEntity
  8
0
100
AcDbLine
 10
25.0
 20
127.5339999999999
 30
0.0
 11
25.0
 21
125.122
 31
0.0
  0
LINE
  5
169
330
1E
100
AcDbEntity
  8
0
100
AcDbLine
 10
25.0
 20
125.122
 30
0.0
 11
25.0
 21
127.5339999999999
 31
0.0
  0
LINE
  5
16A
330
1E
100
AcDbEntity
  8
0
100
AcDbLine
 10
24.76
 20
128.157
 30
0.0
 11
25.0
 21
127.5339999999999
 31
0.0
  0
LINE
  5
16B
330
1E
100
AcDbEntity
  8
0
100
AcDbLine
 10
26.0
 20
131.0
 30
0.0
 11
27.0
 21
131.4439999999999
 31
0.0
  0
LINE
  5
16C
330
1E
100
AcDbEntity
  8
0
100
AcDbLine
 10
24.5
 20
131.0
 30
0.0
 11
25.6
 21
131.0
 31
0.0
  0
LINE
  5
16D
330
1E
100
AcDbEntity
  8
0
100
AcDbLine
 10
25.6
 20
131.0
 30
0.0
 11
26.0
 21
131.0
 31
0.0
  0
LINE
  5
16E
330
1E
100
AcDbEntity
  8
0
100
AcDbLine
 10
20.5
 20
131.0
 30
0.0
 11
22.8
 21
131.0
 31
0.0
  0
LINE
  5
16F
330
1E
100
AcDbEntity
  8
0
100
AcDbLine
 10
20.0
 20
131.0
 30
0.0
 11
20.5
 21
131.0
 31
0.0
  0
LINE
  5
170
330
1E
100
AcDbEntity
  8
0
100
AcDbLine
 10
9.5
 20
131.0
 30
0.0
 11
10.0
 21
131.0
 31
0.0
  0
LINE
  5
171
330
1E
100
AcDbEntity
  8
0
100
AcDbLine
 10
5.5
 20
131.0
 30
0.0
 11
7.2
 21
131.0
 31
0.0
  0
LINE
  5
172
330
1E
100
AcDbEntity
  8
0
100
AcDbLine
 10
4.4
 20
131.0
 30
0.0
 11
5.5
 21
131.0
 31
0.0
  0
LINE
  5
173
330
1E
100
AcDbEntity
  8
0
100
AcDbLine
 10
3.0
 20
162.555
 30
0.0
 11
3.399999999999999
 21
162.555
 31
0.0
  0
LINE
  5
174
330
1E
100
AcDbEntity
  8
0
100
AcDbLine
 10
3.0
 20
162.555
 30
0.0
 11
4.0
 21
163.0
 31
0.0
  0
LINE
  5
175
330
1E
100
AcDbEntity
  8
0
100
AcDbLine
 10
3.299999999999999
 20
158.555
 30
0.0
 11
5.5
 21
158.555
 31
0.0
  0
LINE
  5
176
330
1E
100
AcDbEntity
  8
0
100
AcDbLine
 10
3.299999999999999
 20
161.667
 30
0.0
 11
5.5
 21
161.667
 31
0.0
  0
LINE
  5
177
330
1E
100
AcDbEntity
  8
0
100
AcDbLine
 10
3.299999999999999
 20
135.4439999999999
 30
0.0
 11
5.5
 21
135.4439999999999
 31
0.0
  0
LINE
  5
178
330
1E
100
AcDbEntity
  8
0
100
AcDbLine
 10
3.299999999999999
 20
132.333
 30
0.0
 11
5.5
 21
132.333
 31
0.0
  0
LINE
  5
179
330
1E
100
AcDbEntity
  8
0
100
AcDbLine
 10
6.5
 20
131.4439999999999
 30
0.0
 11
9.0
 21
131.4439999999999
 31
0.0
  0
LINE
  5
17A
330
1E
100
AcDbEntity
  8
0
100
AcDbLine
 10
23.5
 20
131.4439999999999
 30
0.0
 11
25.4
 21
131.4439999999999
 31
0.0
  0
LINE
  5
17B
330
1E
100
AcDbEntity
  8
0
100
AcDbLine
 10
27.0
 20
131.4439999999999
 30
0.0
 11
27.5
 21
132.333
 31
0.0
  0
LINE
  5
17C
330
1E
100
AcDbEntity
  8
0
100
AcDbLine
 10
25.4
 20
131.4439999999999
 30
0.0
 11
26.6
 21
131.4439999999999
 31
0.0
  0
LINE
  5
17D
330
1E
100
AcDbEntity
  8
0
100
AcDbLine
 10
26.6
 20
131.4439999999999
 30
0.0
 11
27.0
 21
131.4439999999999
 31
0.0
  0
LINE
  5
17E
330
1E
100
AcDbEntity
  8
0
100
AcDbLine
 10
21.0
 20
131.4439999999999
 30
0.0
 11
23.5
 21
131.4439999999999
 31
0.0
  0
LINE
  5
17F
330
1E
100
AcDbEntity
  8
0
100
AcDbLine
 10
20.0
 20
131.4439999999999
 30
0.0
 11
21.0
 21
131.4439999999999
 31
0.0
  0
LINE
  5
180
330
1E
100
AcDbEntity
  8
0
100
AcDbLine
 10
9.0
 20
131.4439999999999
 30
0.0
 11
10.0
 21
131.4439999999999
 31
0.0
  0
LINE
  5
181
330
1E
100
AcDbEntity
  8
0
100
AcDbLine
 10
3.399999999999999
 20
162.555
 30
0.0
 11
4.599999999999999
 21
162.555
 31
0.0
  0
LINE
  5
182
330
1E
100
AcDbEntity
  8
0
100
AcDbLine
 10
4.0
 20
163.0
 30
0.0
 11
4.4
 21
163.0
 31
0.0
  0
LINE
  5
183
330
1E
100
AcDbEntity
  8
0
100
AcDbLine
 10
5.5
 20
132.333
 30
0.0
 11
8.3
 21
132.333
 31
0.0
  0
LINE
  5
184
330
1E
100
AcDbEntity
  8
0
100
AcDbLine
 10
24.5
 20
132.333
 30
0.0
 11
26.69999999999999
 21
132.333
 31
0.0
  0
LINE
  5
185
330
1E
100
AcDbEntity
  8
0
100
AcDbLine
 10
23.8
 20
132.333
 30
0.0
 11
25.8
 21
132.333
 31
0.0
  0
LINE
  5
186
330
1E
100
AcDbEntity
  8
0
100
AcDbLine
 10
26.69999999999999
 20
132.333
 30
0.0
 11
28.0
 21
132.333
 31
0.0
  0
LINE
  5
187
330
1E
100
AcDbEntity
  8
0
100
AcDbLine
 10
25.8
 20
132.333
 30
0.0
 11
27.0
 21
132.333
 31
0.0
  0
LINE
  5
188
330
1E
100
AcDbEntity
  8
0
100
AcDbLine
 10
27.0
 20
132.333
 30
0.0
 11
27.5
 21
132.333
 31
0.0
  0
LINE
  5
189
330
1E
100
AcDbEntity
  8
0
100
AcDbLine
 10
21.69999999999999
 20
132.333
 30
0.0
 11
24.5
 21
132.333
 31
0.0
  0
LINE
  5
18A
330
1E
100
AcDbEntity
  8
0
100
AcDbLine
 10
21.2
 20
132.333
 30
0.0
 11
23.8
 21
132.333
 31
0.0
  0
LINE
  5
18B
330
1E
100
AcDbEntity
  8
0
100
AcDbLine
 10
20.0
 20
132.333
 30
0.0
 11
21.2
 21
132.333
 31
0.0
  0
LINE
  5
18C
330
1E
100
AcDbEntity
  8
0
100
AcDbLine
 10
20.0
 20
132.333
 30
0.0
 11
21.69999999999999
 21
132.333
 31
0.0
  0
LINE
  5
18D
330
1E
100
AcDbEntity
  8
0
100
AcDbLine
 10
8.3
 20
132.333
 30
0.0
 11
10.0
 21
132.333
 31
0.0
  0
LINE
  5
18E
330
1E
100
AcDbEntity
  8
0
100
AcDbLine
 10
6.2
 20
132.333
 30
0.0
 11
8.8
 21
132.333
 31
0.0
  0
LINE
  5
18F
330
1E
100
AcDbEntity
  8
0
100
AcDbLine
 10
4.799999999999999
 20
159.0
 30
0.0
 11
7.799999999999999
 21
159.0
 31
0.0
  0
LINE
  5
190
330
1E
100
AcDbEntity
  8
0
100
AcDbLine
 10
4.599999999999999
 20
162.555
 30
0.0
 11
6.5
 21
162.555
 31
0.0
  0
LINE
  5
191
330
1E
100
AcDbEntity
  8
0
100
AcDbLine
 10
4.4
 20
163.0
 30
0.0
 11
5.5
 21
163.0
 31
0.0
  0
LINE
  5
192
330
1E
100
AcDbEntity
  8
0
100
AcDbLine
 10
4.799999999999999
 20
161.222
 30
0.0
 11
7.799999999999999
 21
161.222
 31
0.0
  0
LINE
  5
193
330
1E
100
AcDbEntity
  8
0
100
AcDbLine
 10
5.5
 20
158.555
 30
0.0
 11
8.3
 21
158.555
 31
0.0
  0
LINE
  5
194
330
1E
100
AcDbEntity
  8
0
100
AcDbLine
 10
5.5
 20
163.0
 30
0.0
 11
7.2
 21
163.0
 31
0.0
  0
LINE
  5
195
330
1E
100
AcDbEntity
  8
0
100
AcDbLine
 10
5.5
 20
161.667
 30
0.0
 11
8.3
 21
161.667
 31
0.0
  0
LINE
  5
196
330
1E
100
AcDbEntity
  8
0
100
AcDbLine
 10
6.5
 20
162.555
 30
0.0
 11
9.0
 21
162.555
 31
0.0
  0
LINE
  5
197
330
1E
100
AcDbEntity
  8
0
100
AcDbLine
 10
7.192000000000009
 20
229.0
 30
0.0
 11
7.480000000000009
 21
226.984
 31
0.0
  0
LINE
  5
198
330
1E
100
AcDbEntity
  8
0
100
AcDbLine
 10
7.192000000000009
 20
229.0
 30
0.0
 11
7.480000000000009
 21
231.0159999999999
 31
0.0
  0
LINE
  5
199
330
1E
100
AcDbEntity
  8
0
100
AcDbLine
 10
7.000000000000009
 20
229.0
 30
0.0
 11
7.288000000000009
 21
226.9519999999999
 31
0.0
  0
LINE
  5
19A
330
1E
100
AcDbEntity
  8
0
100
AcDbLine
 10
7.000000000000009
 20
229.0
 30
0.0
 11
7.288000000000009
 21
231.048
 31
0.0
  0
LINE
  5
19B
330
1E
100
AcDbEntity
  8
0
100
AcDbLine
 10
7.288000000000009
 20
231.048
 30
0.0
 11
8.056000000000009
 21
232.9679999999999
 31
0.0
  0
LINE
  5
19C
330
1E
100
AcDbEntity
  8
0
100
AcDbLine
 10
7.480000000000009
 20
231.0159999999999
 30
0.0
 11
8.247999999999999
 21
232.872
 31
0.0
  0
LINE
  5
19D
330
1E
100
AcDbEntity
  8
0
100
AcDbLine
 10
7.480000000000009
 20
226.984
 30
0.0
 11
8.247999999999999
 21
225.1279999999999
 31
0.0
  0
LINE
  5
19E
330
1E
100
AcDbEntity
  8
0
100
AcDbLine
 10
7.288000000000009
 20
226.9519999999999
 30
0.0
 11
8.056000000000009
 21
225.032
 31
0.0
  0
LINE
  5
19F
330
1E
100
AcDbEntity
  8
0
100
AcDbLine
 10
7.2
 20
163.0
 30
0.0
 11
9.5
 21
163.0
 31
0.0
  0
LINE
  5
1A0
330
1E
100
AcDbEntity
  8
0
100
AcDbLine
 10
5.5
 20
135.4439999999999
 30
0.0
 11
8.3
 21
135.4439999999999
 31
0.0
  0
LINE
  5
1A1
330
1E
100
AcDbEntity
  8
0
100
AcDbLine
 10
4.799999999999999
 20
135.0
 30
0.0
 11
7.799999999999999
 21
135.0
 31
0.0
  0
LINE
  5
1A2
330
1E
100
AcDbEntity
  8
0
100
AcDbLine
 10
7.799999999999999
 20
135.0
 30
0.0
 11
10.0
 21
135.0
 31
0.0
  0
LINE
  5
1A3
330
1E
100
AcDbEntity
  8
0
100
AcDbLine
 10
4.799999999999999
 20
132.7779999999999
 30
0.0
 11
7.799999999999999
 21
132.7779999999999
 31
0.0
  0
LINE
  5
1A4
330
1E
100
AcDbEntity
  8
0
100
AcDbLine
 10
20.0
 20
135.4439999999999
 30
0.0
 11
21.69999999999999
 21
135.4439999999999
 31
0.0
  0
LINE
  5
1A5
330
1E
100
AcDbEntity
  8
0
100
AcDbLine
 10
20.0
 20
135.0
 30
0.0
 11
22.2
 21
135.0
 31
0.0
  0
LINE
  5
1A6
330
1E
100
AcDbEntity
  8
0
100
AcDbLine
 10
25.2
 20
132.7779999999999
 30
0.0
 11
27.6
 21
132.7779999999999
 31
0.0
  0
LINE
  5
1A7
330
1E
100
AcDbEntity
  8
0
100
AcDbLine
 10
27.6
 20
132.7779999999999
 30
0.0
 11
29.0
 21
132.7779999999999
 31
0.0
  0
LINE
  5
1A8
330
1E
100
AcDbEntity
  8
0
100
AcDbLine
 10
21.69999999999999
 20
135.4439999999999
 30
0.0
 11
24.5
 21
135.4439999999999
 31
0.0
  0
LINE
  5
1A9
330
1E
100
AcDbEntity
  8
0
100
AcDbLine
 10
25.2
 20
135.0
 30
0.0
 11
27.6
 21
135.0
 31
0.0
  0
LINE
  5
1AA
330
1E
100
AcDbEntity
  8
0
100
AcDbLine
 10
24.5
 20
135.4439999999999
 30
0.0
 11
26.69999999999999
 21
135.4439999999999
 31
0.0
  0
LINE
  5
1AB
330
1E
100
AcDbEntity
  8
0
100
AcDbLine
 10
26.69999999999999
 20
135.4439999999999
 30
0.0
 11
28.0
 21
135.4439999999999
 31
0.0
  0
LINE
  5
1AC
330
1E
100
AcDbEntity
  8
0
100
AcDbLine
 10
27.6
 20
135.0
 30
0.0
 11
29.0
 21
135.0
 31
0.0
  0
LINE
  5
1AD
330
1E
100
AcDbEntity
  8
0
100
AcDbLine
 10
22.2
 20
135.0
 30
0.0
 11
25.2
 21
135.0
 31
0.0
  0
LINE
  5
1AE
330
1E
100
AcDbEntity
  8
0
100
AcDbLine
 10
22.2
 20
132.7779999999999
 30
0.0
 11
25.2
 21
132.7779999999999
 31
0.0
  0
LINE
  5
1AF
330
1E
100
AcDbEntity
  8
0
100
AcDbLine
 10
20.0
 20
132.7779999999999
 30
0.0
 11
22.2
 21
132.7779999999999
 31
0.0
  0
LINE
  5
1B0
330
1E
100
AcDbEntity
  8
0
100
AcDbLine
 10
8.3
 20
158.555
 30
0.0
 11
10.0
 21
158.555
 31
0.0
  0
LINE
  5
1B1
330
1E
100
AcDbEntity
  8
0
100
AcDbLine
 10
7.799999999999999
 20
159.0
 30
0.0
 11
10.0
 21
159.0
 31
0.0
  0
LINE
  5
1B2
330
1E
100
AcDbEntity
  8
0
100
AcDbLine
 10
7.799999999999999
 20
161.222
 30
0.0
 11
10.0
 21
161.222
 31
0.0
  0
LINE
  5
1B3
330
1E
100
AcDbEntity
  8
0
100
AcDbLine
 10
8.3
 20
161.667
 30
0.0
 11
10.0
 21
161.667
 31
0.0
  0
LINE
  5
1B4
330
1E
100
AcDbEntity
  8
0
100
AcDbLine
 10
9.496000000000009
 20
234.504
 30
0.0
 11
11.128
 21
235.752
 31
0.0
  0
LINE
  5
1B5
330
1E
100
AcDbEntity
  8
0
100
AcDbLine
 10
8.247999999999999
 20
232.872
 30
0.0
 11
9.496000000000009
 21
234.504
 31
0.0
  0
LINE
  5
1B6
330
1E
100
AcDbEntity
  8
0
100
AcDbLine
 10
9.496000000000009
 20
223.496
 30
0.0
 11
11.128
 21
222.248
 31
0.0
  0
LINE
  5
1B7
330
1E
100
AcDbEntity
  8
0
100
AcDbLine
 10
8.247999999999999
 20
225.1279999999999
 30
0.0
 11
9.496000000000009
 21
223.496
 31
0.0
  0
LINE
  5
1B8
330
1E
100
AcDbEntity
  8
0
100
AcDbLine
 10
9.336000000000009
 20
234.664
 30
0.0
 11
11.03199999999999
 21
235.944
 31
0.0
  0
LINE
  5
1B9
330
1E
100
AcDbEntity
  8
0
100
AcDbLine
 10
8.056000000000009
 20
232.9679999999999
 30
0.0
 11
9.336000000000009
 21
234.664
 31
0.0
  0
LINE
  5
1BA
330
1E
100
AcDbEntity
  8
0
100
AcDbLine
 10
9.336000000000009
 20
223.3359999999999
 30
0.0
 11
10.0
 21
222.834867924528
 31
0.0
  0
LINE
  5
1BB
330
1E
100
AcDbEntity
  8
0
100
AcDbLine
 10
9.336000000000009
 20
223.3359999999999
 30
0.0
 11
11.03199999999999
 21
222.0559999999999
 31
0.0
  0
LINE
  5
1BC
330
1E
100
AcDbEntity
  8
0
100
AcDbLine
 10
8.056000000000009
 20
225.032
 30
0.0
 11
9.336000000000009
 21
223.3359999999999
 31
0.0
  0
LINE
  5
1BD
330
1E
100
AcDbEntity
  8
0
100
AcDbLine
 10
9.0
 20
162.555
 30
0.0
 11
10.0
 21
162.555
 31
0.0
  0
LINE
  5
1BE
330
1E
100
AcDbEntity
  8
0
100
AcDbLine
 10
10.0
 20
140.0
 30
0.0
 11
10.0
 21
128.157
 31
0.0
  0
LINE
  5
1BF
330
1E
100
AcDbEntity
  8
0
100
AcDbLine
 10
10.0
 20
138.0
 30
0.0
 11
10.0
 21
138.9
 31
0.0
  0
LINE
  5
1C0
330
1E
100
AcDbEntity
  8
0
100
AcDbLine
 10
10.0
 20
141.3
 30
0.0
 11
10.0
 21
138.9
 31
0.0
  0
LINE
  5
1C1
330
1E
100
AcDbEntity
  8
0
100
AcDbLine
 10
10.0
 20
141.3
 30
0.0
 11
10.0
 21
145.1
 31
0.0
  0
LINE
  5
1C2
330
1E
100
AcDbEntity
  8
0
100
AcDbLine
 10
10.0
 20
141.0
 30
0.0
 11
10.0
 21
141.9
 31
0.0
  0
LINE
  5
1C3
330
1E
100
AcDbEntity
  8
0
100
AcDbLine
 10
10.0
 20
138.9
 30
0.0
 11
10.0
 21
138.0
 31
0.0
  0
LINE
  5
1C4
330
1E
100
AcDbEntity
  8
0
100
AcDbLine
 10
10.0
 20
138.9
 30
0.0
 11
10.0
 21
141.3
 31
0.0
  0
LINE
  5
1C5
330
1E
100
AcDbEntity
  8
0
100
AcDbLine
 10
10.0
 20
145.0
 30
0.0
 11
10.0
 21
145.8
 31
0.0
  0
LINE
  5
1C6
330
1E
100
AcDbEntity
  8
0
100
AcDbLine
 10
10.0
 20
145.8
 30
0.0
 11
10.0
 21
145.0
 31
0.0
  0
LINE
  5
1C7
330
1E
100
AcDbEntity
  8
0
100
AcDbLine
 10
10.0
 20
145.1
 30
0.0
 11
10.0
 21
141.3
 31
0.0
  0
LINE
  5
1C8
330
1E
100
AcDbEntity
  8
0
100
AcDbLine
 10
10.0
 20
145.1
 30
0.0
 11
10.0
 21
150.1999999999999
 31
0.0
  0
LINE
  5
1C9
330
1E
100
AcDbEntity
  8
0
100
AcDbLine
 10
10.0
 20
144.1999999999999
 30
0.0
 11
10.0
 21
141.9
 31
0.0
  0
LINE
  5
1CA
330
1E
100
AcDbEntity
  8
0
100
AcDbLine
 10
10.0
 20
144.1999999999999
 30
0.0
 11
10.0
 21
145.1
 31
0.0
  0
LINE
  5
1CB
330
1E
100
AcDbEntity
  8
0
100
AcDbLine
 10
10.0
 20
150.9
 30
0.0
 11
10.0
 21
150.1999999999999
 31
0.0
  0
LINE
  5
1CC
330
1E
100
AcDbEntity
  8
0
100
AcDbLine
 10
10.0
 20
150.9
 30
0.0
 11
10.0
 21
154.3
 31
0.0
  0
LINE
  5
1CD
330
1E
100
AcDbEntity
  8
0
100
AcDbLine
 10
10.0
 20
151.6
 30
0.0
 11
10.0
 21
150.1999999999999
 31
0.0
  0
LINE
  5
1CE
330
1E
100
AcDbEntity
  8
0
100
AcDbLine
 10
10.0
 20
151.6
 30
0.0
 11
10.0
 21
156.1999999999999
 31
0.0
  0
LINE
  5
1CF
330
1E
100
AcDbEntity
  8
0
100
AcDbLine
 10
20.0
 20
138.0
 30
0.0
 11
20.0
 21
138.9
 31
0.0
  0
LINE
  5
1D0
330
1E
100
AcDbEntity
  8
0
100
AcDbLine
 10
20.0
 20
138.0
 30
0.0
 11
20.0
 21
128.157
 31
0.0
  0
LINE
  5
1D1
330
1E
100
AcDbEntity
  8
0
100
AcDbLine
 10
20.0
 20
150.1999999999999
 30
0.0
 11
20.0
 21
145.1
 31
0.0
  0
LINE
  5
1D2
330
1E
100
AcDbEntity
  8
0
100
AcDbLine
 10
20.0
 20
150.1999999999999
 30
0.0
 11
20.0
 21
156.9
 31
0.0
  0
LINE
  5
1D3
330
1E
100
AcDbEntity
  8
0
100
AcDbLine
 10
20.0
 20
145.1
 30
0.0
 11
20.0
 21
141.3
 31
0.0
  0
LINE
  5
1D4
330
1E
100
AcDbEntity
  8
0
100
AcDbLine
 10
20.0
 20
145.1
 30
0.0
 11
20.0
 21
150.1999999999999
 31
0.0
  0
LINE
  5
1D5
330
1E
100
AcDbEntity
  8
0
100
AcDbLine
 10
20.0
 20
141.3
 30
0.0
 11
20.0
 21
138.9
 31
0.0
  0
LINE
  5
1D6
330
1E
100
AcDbEntity
  8
0
100
AcDbLine
 10
20.0
 20
141.3
 30
0.0
 11
20.0
 21
145.1
 31
0.0
  0
LINE
  5
1D7
330
1E
100
AcDbEntity
  8
0
100
AcDbLine
 10
20.0
 20
138.9
 30
0.0
 11
20.0
 21
138.0
 31
0.0
  0
LINE
  5
1D8
330
1E
100
AcDbEntity
  8
0
100
AcDbLine
 10
20.0
 20
138.9
 30
0.0
 11
20.0
 21
141.3
 31
0.0
  0
LINE
  5
1D9
330
1E
100
AcDbEntity
  8
0
100
AcDbLine
 10
10.0
 20
150.1999999999999
 30
0.0
 11
10.0
 21
152.8
 31
0.0
  0
LINE
  5
1DA
330
1E
100
AcDbEntity
  8
0
100
AcDbLine
 10
10.0
 20
150.1999999999999
 30
0.0
 11
10.0
 21
156.9
 31
0.0
  0
LINE
  5
1DB
330
1E
100
AcDbEntity
  8
0
100
AcDbLine
 10
10.0
 20
150.1999999999999
 30
0.0
 11
10.0
 21
151.6
 31
0.0
  0
LINE
  5
1DC
330
1E
100
AcDbEntity
  8
0
100
AcDbLine
 10
10.0
 20
150.1999999999999
 30
0.0
 11
10.0
 21
150.9
 31
0.0
  0
LINE
  5
1DD
330
1E
100
AcDbEntity
  8
0
100
AcDbLine
 10
10.0
 20
154.3
 30
0.0
 11
10.0
 21
150.9
 31
0.0
  0
LINE
  5
1DE
330
1E
100
AcDbEntity
  8
0
100
AcDbLine
 10
10.0
 20
154.3
 30
0.0
 11
10.0
 21
158.8
 31
0.0
  0
LINE
  5
1DF
330
1E
100
AcDbEntity
  8
0
100
AcDbLine
 10
10.0
 20
156.1999999999999
 30
0.0
 11
10.0
 21
151.6
 31
0.0
  0
LINE
  5
1E0
330
1E
100
AcDbEntity
  8
0
100
AcDbLine
 10
10.0
 20
156.1999999999999
 30
0.0
 11
10.0
 21
162.5
 31
0.0
  0
LINE
  5
1E1
330
1E
100
AcDbEntity
  8
0
100
AcDbLine
 10
20.0
 20
156.9
 30
0.0
 11
20.0
 21
161.6999999999999
 31
0.0
  0
LINE
  5
1E2
330
1E
100
AcDbEntity
  8
0
100
AcDbLine
 10
20.0
 20
156.9
 30
0.0
 11
20.0
 21
150.1999999999999
 31
0.0
  0
LINE
  5
1E3
330
1E
100
AcDbEntity
  8
0
100
AcDbLine
 10
20.0
 20
156.9
 30
0.0
 11
20.0
 21
164.7
 31
0.0
  0
LINE
  5
1E4
330
1E
100
AcDbEntity
  8
0
100
AcDbLine
 10
10.0
 20
156.9
 30
0.0
 11
10.0
 21
150.1999999999999
 31
0.0
  0
LINE
  5
1E5
330
1E
100
AcDbEntity
  8
0
100
AcDbLine
 10
10.0
 20
156.9
 30
0.0
 11
10.0
 21
164.7
 31
0.0
  0
LINE
  5
1E6
330
1E
100
AcDbEntity
  8
0
100
AcDbLine
 10
10.0
 20
152.8
 30
0.0
 11
10.0
 21
150.1999999999999
 31
0.0
  0
LINE
  5
1E7
330
1E
100
AcDbEntity
  8
0
100
AcDbLine
 10
10.0
 20
152.8
 30
0.0
 11
10.0
 21
159.3
 31
0.0
  0
LINE
  5
1E8
330
1E
100
AcDbEntity
  8
0
100
AcDbLine
 10
10.0
 20
141.9
 30
0.0
 11
10.0
 21
141.0
 31
0.0
  0
LINE
  5
1E9
330
1E
100
AcDbEntity
  8
0
100
AcDbLine
 10
10.0
 20
141.9
 30
0.0
 11
10.0
 21
144.1999999999999
 31
0.0
  0
LINE
  5
1EA
330
1E
100
AcDbEntity
  8
0
100
AcDbLine
 10
10.0
 20
158.8
 30
0.0
 11
10.0
 21
154.3
 31
0.0
  0
LINE
  5
1EB
330
1E
100
AcDbEntity
  8
0
100
AcDbLine
 10
10.0
 20
158.8
 30
0.0
 11
10.0
 21
164.9
 31
0.0
  0
LINE
  5
1EC
330
1E
100
AcDbEntity
  8
0
100
AcDbLine
 10
10.0
 20
159.3
 30
0.0
 11
10.0
 21
152.8
 31
0.0
  0
LINE
  5
1ED
330
1E
100
AcDbEntity
  8
0
100
AcDbLine
 10
10.0
 20
159.3
 30
0.0
 11
10.0
 21
166.9
 31
0.0
  0
LINE
  5
1EE
330
1E
100
AcDbEntity
  8
0
100
AcDbLine
 10
20.0
 20
158.555
 30
0.0
 11
21.69999999999999
 21
158.555
 31
0.0
  0
LINE
  5
1EF
330
1E
100
AcDbEntity
  8
0
100
AcDbLine
 10
20.0
 20
159.0
 30
0.0
 11
22.2
 21
159.0
 31
0.0
  0
LINE
  5
1F0
330
1E
100
AcDbEntity
  8
0
100
AcDbLine
 10
20.0
 20
161.6999999999999
 30
0.0
 11
20.0
 21
164.7
 31
0.0
  0
LINE
  5
1F1
330
1E
100
AcDbEntity
  8
0
100
AcDbLine
 10
10.0
 20
162.5
 30
0.0
 11
10.0
 21
156.1999999999999
 31
0.0
  0
LINE
  5
1F2
330
1E
100
AcDbEntity
  8
0
100
AcDbLine
 10
10.0
 20
162.5
 30
0.0
 11
10.0
 21
169.6999999999999
 31
0.0
  0
LINE
  5
1F3
330
1E
100
AcDbEntity
  8
0
100
AcDbLine
 10
20.0
 20
161.222
 30
0.0
 11
22.2
 21
161.222
 31
0.0
  0
LINE
  5
1F4
330
1E
100
AcDbEntity
  8
0
100
AcDbLine
 10
20.0
 20
161.667
 30
0.0
 11
21.69999999999999
 21
161.667
 31
0.0
  0
LINE
  5
1F5
330
1E
100
AcDbEntity
  8
0
100
AcDbLine
 10
20.0
 20
162.555
 30
0.0
 11
21.0
 21
162.555
 31
0.0
  0
LINE
  5
1F6
330
1E
100
AcDbEntity
  8
0
100
AcDbLine
 10
21.69999999999999
 20
158.555
 30
0.0
 11
24.5
 21
158.555
 31
0.0
  0
LINE
  5
1F7
330
1E
100
AcDbEntity
  8
0
100
AcDbLine
 10
22.2
 20
159.0
 30
0.0
 11
25.2
 21
159.0
 31
0.0
  0
LINE
  5
1F8
330
1E
100
AcDbEntity
  8
0
100
AcDbLine
 10
22.2
 20
161.222
 30
0.0
 11
25.2
 21
161.222
 31
0.0
  0
LINE
  5
1F9
330
1E
100
AcDbEntity
  8
0
100
AcDbLine
 10
21.69999999999999
 20
161.667
 30
0.0
 11
24.5
 21
161.667
 31
0.0
  0
LINE
  5
1FA
330
1E
100
AcDbEntity
  8
0
100
AcDbLine
 10
21.0
 20
162.555
 30
0.0
 11
23.5
 21
162.555
 31
0.0
  0
LINE
  5
1FB
330
1E
100
AcDbEntity
  8
0
100
AcDbLine
 10
20.5
 20
163.0
 30
0.0
 11
22.8
 21
163.0
 31
0.0
  0
LINE
  5
1FC
330
1E
100
AcDbEntity
  8
0
100
AcDbLine
 10
20.0
 20
163.0
 30
0.0
 11
20.5
 21
163.0
 31
0.0
  0
LINE
  5
1FD
330
1E
100
AcDbEntity
  8
0
100
AcDbLine
 10
24.5
 20
158.555
 30
0.0
 11
26.69999999999999
 21
158.555
 31
0.0
  0
LINE
  5
1FE
330
1E
100
AcDbEntity
  8
0
100
AcDbLine
 10
24.5
 20
161.667
 30
0.0
 11
26.69999999999999
 21
161.667
 31
0.0
  0
LINE
  5
1FF
330
1E
100
AcDbEntity
  8
0
100
AcDbLine
 10
23.5
 20
162.555
 30
0.0
 11
25.4
 21
162.555
 31
0.0
  0
LINE
  5
200
330
1E
100
AcDbEntity
  8
0
100
AcDbLine
 10
22.8
 20
163.0
 30
0.0
 11
24.5
 21
163.0
 31
0.0
  0
LINE
  5
201
330
1E
100
AcDbEntity
  8
0
100
AcDbLine
 10
25.2
 20
159.0
 30
0.0
 11
27.6
 21
159.0
 31
0.0
  0
LINE
  5
202
330
1E
100
AcDbEntity
  8
0
100
AcDbLine
 10
25.2
 20
161.222
 30
0.0
 11
27.6
 21
161.222
 31
0.0
  0
LINE
  5
203
330
1E
100
AcDbEntity
  8
0
100
AcDbLine
 10
26.69999999999999
 20
158.555
 30
0.0
 11
28.0
 21
158.555
 31
0.0
  0
LINE
  5
204
330
1E
100
AcDbEntity
  8
0
100
AcDbLine
 10
26.69999999999999
 20
161.667
 30
0.0
 11
28.0
 21
161.667
 31
0.0
  0
LINE
  5
205
330
1E
100
AcDbEntity
  8
0
100
AcDbLine
 10
25.4
 20
162.555
 30
0.0
 11
26.6
 21
162.555
 31
0.0
  0
LINE
  5
206
330
1E
100
AcDbEntity
  8
0
100
AcDbLine
 10
26.6
 20
162.555
 30
0.0
 11
27.0
 21
162.555
 31
0.0
  0
LINE
  5
207
330
1E
100
AcDbEntity
  8
0
100
AcDbLine
 10
24.5
 20
163.0
 30
0.0
 11
25.6
 21
163.0
 31
0.0
  0
LINE
  5
208
330
1E
100
AcDbEntity
  8
0
100
AcDbLine
 10
25.6
 20
163.0
 30
0.0
 11
26.0
 21
163.0
 31
0.0
  0
LINE
  5
209
330
1E
100
AcDbEntity
  8
0
100
AcDbLine
 10
27.6
 20
159.0
 30
0.0
 11
29.0
 21
159.0
 31
0.0
  0
LINE
  5
20A
330
1E
100
AcDbEntity
  8
0
100
AcDbLine
 10
27.6
 20
161.222
 30
0.0
 11
29.0
 21
161.222
 31
0.0
  0
LINE
  5
20B
330
1E
100
AcDbEntity
  8
0
100
AcDbLine
 10
27.0
 20
162.555
 30
0.0
 11
27.5
 21
161.667
 31
0.0
  0
LINE
  5
20C
330
1E
100
AcDbEntity
  8
0
100
AcDbLine
 10
10.0
 20
164.9
 30
0.0
 11
10.0
 21
158.8
 31
0.0
  0
LINE
  5
20D
330
1E
100
AcDbEntity
  8
0
100
AcDbLine
 10
10.0
 20
164.9
 30
0.0
 11
10.0
 21
171.8
 31
0.0
  0
LINE
  5
20E
330
1E
100
AcDbEntity
  8
0
100
AcDbLine
 10
10.0
 20
164.7
 30
0.0
 11
10.0
 21
173.6999999999999
 31
0.0
  0
LINE
  5
20F
330
1E
100
AcDbEntity
  8
0
100
AcDbLine
 10
10.0
 20
164.7
 30
0.0
 11
10.0
 21
156.9
 31
0.0
  0
LINE
  5
210
330
1E
100
AcDbEntity
  8
0
100
AcDbLine
 10
10.0
 20
166.9
 30
0.0
 11
10.0
 21
175.5
 31
0.0
  0
LINE
  5
211
330
1E
100
AcDbEntity
  8
0
100
AcDbLine
 10
10.0
 20
166.9
 30
0.0
 11
10.0
 21
159.3
 31
0.0
  0
LINE
  5
212
330
1E
100
AcDbEntity
  8
0
100
AcDbLine
 10
10.0
 20
173.6999999999999
 30
0.0
 11
10.0
 21
175.5
 31
0.0
  0
LINE
  5
213
330
1E
100
AcDbEntity
  8
0
100
AcDbLine
 10
10.0
 20
173.6999999999999
 30
0.0
 11
10.0
 21
164.7
 31
0.0
  0
LINE
  5
214
330
1E
100
AcDbEntity
  8
0
100
AcDbLine
 10
10.0
 20
173.6999999999999
 30
0.0
 11
10.0
 21
183.6999999999999
 31
0.0
  0
LINE
  5
215
330
1E
100
AcDbEntity
  8
0
100
AcDbLine
 10
10.0
 20
175.5
 30
0.0
 11
10.0
 21
185.1999999999999
 31
0.0
  0
LINE
  5
216
330
1E
100
AcDbEntity
  8
0
100
AcDbLine
 10
10.0
 20
175.5
 30
0.0
 11
10.0
 21
166.9
 31
0.0
  0
LINE
  5
217
330
1E
100
AcDbEntity
  8
0
100
AcDbLine
 10
10.0
 20
171.8
 30
0.0
 11
10.0
 21
173.6999999999999
 31
0.0
  0
LINE
  5
218
330
1E
100
AcDbEntity
  8
0
100
AcDbLine
 10
10.0
 20
171.8
 30
0.0
 11
10.0
 21
164.9
 31
0.0
  0
LINE
  5
219
330
1E
100
AcDbEntity
  8
0
100
AcDbLine
 10
10.0
 20
183.6999999999999
 30
0.0
 11
10.0
 21
194.1999999999999
 31
0.0
  0
LINE
  5
21A
330
1E
100
AcDbEntity
  8
0
100
AcDbLine
 10
10.0
 20
185.1999999999999
 30
0.0
 11
10.0
 21
187.1999999999999
 31
0.0
  0
LINE
  5
21B
330
1E
100
AcDbEntity
  8
0
100
AcDbLine
 10
10.0
 20
185.1999999999999
 30
0.0
 11
10.0
 21
188.7
 31
0.0
  0
LINE
  5
21C
330
1E
100
AcDbEntity
  8
0
100
AcDbLine
 10
10.0
 20
185.1999999999999
 30
0.0
 11
10.0
 21
195.4
 31
0.0
  0
LINE
  5
21D
330
1E
100
AcDbEntity
  8
0
100
AcDbLine
 10
10.0
 20
185.1999999999999
 30
0.0
 11
10.0
 21
194.1999999999999
 31
0.0
  0
LINE
  5
21E
330
1E
100
AcDbEntity
  8
0
100
AcDbLine
 10
10.0
 20
169.6999999999999
 30
0.0
 11
10.0
 21
171.8
 31
0.0
  0
LINE
  5
21F
330
1E
100
AcDbEntity
  8
0
100
AcDbLine
 10
10.0
 20
169.6999999999999
 30
0.0
 11
10.0
 21
162.5
 31
0.0
  0
LINE
  5
220
330
1E
100
AcDbEntity
  8
0
100
AcDbLine
 10
10.0
 20
169.6999999999999
 30
0.0
 11
10.0
 21
173.6999999999999
 31
0.0
  0
LINE
  5
221
330
1E
100
AcDbEntity
  8
0
100
AcDbLine
 10
10.0
 20
194.1999999999999
 30
0.0
 11
10.0
 21
185.1999999999999
 31
0.0
  0
LINE
  5
222
330
1E
100
AcDbEntity
  8
0
100
AcDbLine
 10
10.0
 20
194.1999999999999
 30
0.0
 11
10.0
 21
205.5
 31
0.0
  0
LINE
  5
223
330
1E
100
AcDbEntity
  8
0
100
AcDbLine
 10
10.0
 20
194.1999999999999
 30
0.0
 11
10.0
 21
183.6999999999999
 31
0.0
  0
LINE
  5
224
330
1E
100
AcDbEntity
  8
0
100
AcDbLine
 10
10.0
 20
205.5
 30
0.0
 11
10.0
 21
194.1999999999999
 31
0.0
  0
LINE
  5
225
330
1E
100
AcDbEntity
  8
0
100
AcDbLine
 10
10.0
 20
205.5
 30
0.0
 11
10.0
 21
217.2
 31
0.0
  0
LINE
  5
226
330
1E
100
AcDbEntity
  8
0
100
AcDbLine
 10
10.0
 20
195.4
 30
0.0
 11
10.0
 21
185.1999999999999
 31
0.0
  0
LINE
  5
227
330
1E
100
AcDbEntity
  8
0
100
AcDbLine
 10
10.0
 20
195.4
 30
0.0
 11
10.0
 21
205.5
 31
0.0
  0
LINE
  5
228
330
1E
100
AcDbEntity
  8
0
100
AcDbLine
 10
10.0
 20
188.7
 30
0.0
 11
10.0
 21
185.1999999999999
 31
0.0
  0
LINE
  5
229
330
1E
100
AcDbEntity
  8
0
100
AcDbLine
 10
10.0
 20
188.7
 30
0.0
 11
10.0
 21
198.1
 31
0.0
  0
LINE
  5
22A
330
1E
100
AcDbEntity
  8
0
100
AcDbLine
 10
10.0
 20
198.1
 30
0.0
 11
10.0
 21
188.7
 31
0.0
  0
LINE
  5
22B
330
1E
100
AcDbEntity
  8
0
100
AcDbLine
 10
10.0
 20
198.1
 30
0.0
 11
10.0
 21
205.5
 31
0.0
  0
LINE
  5
22C
330
1E
100
AcDbEntity
  8
0
100
AcDbLine
 10
10.0
 20
187.1999999999999
 30
0.0
 11
10.0
 21
185.1999999999999
 31
0.0
  0
LINE
  5
22D
330
1E
100
AcDbEntity
  8
0
100
AcDbLine
 10
10.0
 20
187.1999999999999
 30
0.0
 11
10.0
 21
196.9
 31
0.0
  0
LINE
  5
22E
330
1E
100
AcDbEntity
  8
0
100
AcDbLine
 10
10.0
 20
217.6
 30
0.0
 11
10.0
 21
217.2
 31
0.0
  0
LINE
  5
22F
330
1E
100
AcDbEntity
  8
0
100
AcDbLine
 10
10.0
 20
217.6
 30
0.0
 11
10.0
 21
222.834867924528
 31
0.0
  0
LINE
  5
230
330
1E
100
AcDbEntity
  8
0
100
AcDbLine
 10
10.0
 20
217.2
 30
0.0
 11
10.0
 21
218.1
 31
0.0
  0
LINE
  5
231
330
1E
100
AcDbEntity
  8
0
100
AcDbLine
 10
10.0
 20
217.2
 30
0.0
 11
10.0
 21
218.5
 31
0.0
  0
LINE
  5
232
330
1E
100
AcDbEntity
  8
0
100
AcDbLine
 10
10.0
 20
217.2
 30
0.0
 11
10.0
 21
217.6
 31
0.0
  0
LINE
  5
233
330
1E
100
AcDbEntity
  8
0
100
AcDbLine
 10
10.0
 20
217.2
 30
0.0
 11
10.0
 21
222.834867924528
 31
0.0
  0
LINE
  5
234
330
1E
100
AcDbEntity
  8
0
100
AcDbLine
 10
10.0
 20
196.9
 30
0.0
 11
10.0
 21
187.1999999999999
 31
0.0
  0
LINE
  5
235
330
1E
100
AcDbEntity
  8
0
100
AcDbLine
 10
10.0
 20
196.9
 30
0.0
 11
10.0
 21
205.5
 31
0.0
  0
LINE
  5
236
330
1E
100
AcDbEntity
  8
0
100
AcDbLine
 10
10.0
 20
218.5
 30
0.0
 11
10.0
 21
217.2
 31
0.0
  0
LINE
  5
237
330
1E
100
AcDbEntity
  8
0
100
AcDbLine
 10
10.0
 20
218.5
 30
0.0
 11
10.0
 21
222.834867924528
 31
0.0
  0
LINE
  5
238
330
1E
100
AcDbEntity
  8
0
100
AcDbLine
 10
10.0
 20
218.1
 30
0.0
 11
10.0
 21
217.2
 31
0.0
  0
LINE
  5
239
330
1E
100
AcDbEntity
  8
0
100
AcDbLine
 10
10.0
 20
218.1
 30
0.0
 11
10.0
 21
222.834867924528
 31
0.0
  0
LINE
  5
23A
330
1E
100
AcDbEntity
  8
0
100
AcDbLine
 10
20.0
 20
173.6999999999999
 30
0.0
 11
20.0
 21
164.7
 31
0.0
  0
LINE
  5
23B
330
1E
100
AcDbEntity
  8
0
100
AcDbLine
 10
20.0
 20
173.6999999999999
 30
0.0
 11
20.0
 21
183.6999999999999
 31
0.0
  0
LINE
  5
23C
330
1E
100
AcDbEntity
  8
0
100
AcDbLine
 10
20.0
 20
183.6999999999999
 30
0.0
 11
20.0
 21
173.6999999999999
 31
0.0
  0
LINE
  5
23D
330
1E
100
AcDbEntity
  8
0
100
AcDbLine
 10
20.0
 20
183.6999999999999
 30
0.0
 11
20.0
 21
194.1999999999999
 31
0.0
  0
LINE
  5
23E
330
1E
100
AcDbEntity
  8
0
100
AcDbLine
 10
20.0
 20
194.1999999999999
 30
0.0
 11
20.0
 21
183.6999999999999
 31
0.0
  0
LINE
  5
23F
330
1E
100
AcDbEntity
  8
0
100
AcDbLine
 10
20.0
 20
194.1999999999999
 30
0.0
 11
20.0
 21
205.5
 31
0.0
  0
LINE
  5
240
330
1E
100
AcDbEntity
  8
0
100
AcDbLine
 10
10.0
 20
236.0
 30
0.0
 11
11.17200000000009
 21
236.0
 31
0.0
  0
LINE
  5
241
330
1E
100
AcDbEntity
  8
0
100
AcDbLine
 10
12.952
 20
221.2879999999999
 30
0.0
 11
15.0
 21
221.0
 31
0.0
  0
LINE
  5
242
330
1E
100
AcDbEntity
  8
0
100
AcDbLine
 10
15.0
 20
221.192
 30
0.0
 11
17.016
 21
221.4799999999999
 31
0.0
  0
LINE
  5
243
330
1E
100
AcDbEntity
  8
0
100
AcDbLine
 10
15.0
 20
221.0
 30
0.0
 11
17.04799999999999
 21
221.2879999999999
 31
0.0
  0
LINE
  5
244
330
1E
100
AcDbEntity
  8
0
100
AcDbLine
 10
12.984
 20
221.4799999999999
 30
0.0
 11
15.0
 21
221.192
 31
0.0
  0
LINE
  5
245
330
1E
100
AcDbEntity
  8
0
100
AcDbLine
 10
11.128
 20
222.248
 30
0.0
 11
12.984
 21
221.4799999999999
 31
0.0
  0
LINE
  5
246
330
1E
100
AcDbEntity
  8
0
100
AcDbLine
 10
11.03199999999999
 20
222.0559999999999
 30
0.0
 11
12.952
 21
221.2879999999999
 31
0.0
  0
LINE
  5
247
330
1E
100
AcDbEntity
  8
0
100
AcDbLine
 10
17.016
 20
221.4799999999999
 30
0.0
 11
18.87199999999999
 21
222.248
 31
0.0
  0
LINE
  5
248
330
1E
100
AcDbEntity
  8
0
100
AcDbLine
 10
18.87199999999999
 20
222.248
 30
0.0
 11
20.504
 21
223.496
 31
0.0
  0
LINE
  5
249
330
1E
100
AcDbEntity
  8
0
100
AcDbLine
 10
17.04799999999999
 20
221.2879999999999
 30
0.0
 11
18.96799999999999
 21
222.0559999999999
 31
0.0
  0
LINE
  5
24A
330
1E
100
AcDbEntity
  8
0
100
AcDbLine
 10
18.96799999999999
 20
222.0559999999999
 30
0.0
 11
20.664
 21
223.3359999999999
 31
0.0
  0
LINE
  5
24B
330
1E
100
AcDbEntity
  8
0
100
AcDbLine
 10
11.128
 20
235.752
 30
0.0
 11
12.984
 21
236.52
 31
0.0
  0
LINE
  5
24C
330
1E
100
AcDbEntity
  8
0
100
AcDbLine
 10
11.03199999999999
 20
235.944
 30
0.0
 11
12.952
 21
236.712
 31
0.0
  0
LINE
  5
24D
330
1E
100
AcDbEntity
  8
0
100
AcDbLine
 10
18.87199999999999
 20
235.752
 30
0.0
 11
20.504
 21
234.504
 31
0.0
  0
LINE
  5
24E
330
1E
100
AcDbEntity
  8
0
100
AcDbLine
 10
18.96799999999999
 20
235.944
 30
0.0
 11
20.664
 21
234.664
 31
0.0
  0
LINE
  5
24F
330
1E
100
AcDbEntity
  8
0
100
AcDbLine
 10
18.82799999999989
 20
236.0
 30
0.0
 11
20.0
 21
236.0
 31
0.0
  0
LINE
  5
250
330
1E
100
AcDbEntity
  8
0
100
AcDbLine
 10
20.0
 20
222.834867924528
 30
0.0
 11
20.664
 21
223.3359999999999
 31
0.0
  0
LINE
  5
251
330
1E
100
AcDbEntity
  8
0
100
AcDbLine
 10
10.0
 20
235.165132075472
 30
0.0
 11
10.0
 21
239.9
 31
0.0
  0
LINE
  5
252
330
1E
100
AcDbEntity
  8
0
100
AcDbLine
 10
10.0
 20
235.165132075472
 30
0.0
 11
10.0
 21
239.5
 31
0.0
  0
LINE
  5
253
330
1E
100
AcDbEntity
  8
0
100
AcDbLine
 10
10.0
 20
235.165132075472
 30
0.0
 11
10.0
 21
236.0
 31
0.0
  0
LINE
  5
254
330
1E
100
AcDbEntity
  8
0
100
AcDbLine
 10
10.0
 20
259.8999999999999
 30
0.0
 11
10.0
 21
261.1
 31
0.0
  0
LINE
  5
255
330
1E
100
AcDbEntity
  8
0
100
AcDbLine
 10
10.0
 20
259.8999999999999
 30
0.0
 11
10.0
 21
249.9
 31
0.0
  0
LINE
  5
256
330
1E
100
AcDbEntity
  8
0
100
AcDbLine
 10
10.0
 20
249.9
 30
0.0
 11
10.0
 21
259.8999999999999
 31
0.0
  0
LINE
  5
257
330
1E
100
AcDbEntity
  8
0
100
AcDbLine
 10
10.0
 20
249.9
 30
0.0
 11
10.0
 21
239.9
 31
0.0
  0
LINE
  5
258
330
1E
100
AcDbEntity
  8
0
100
AcDbLine
 10
10.0
 20
261.1
 30
0.0
 11
10.0
 21
270.8
 31
0.0
  0
LINE
  5
259
330
1E
100
AcDbEntity
  8
0
100
AcDbLine
 10
10.0
 20
261.1
 30
0.0
 11
10.0
 21
250.7
 31
0.0
  0
LINE
  5
25A
330
1E
100
AcDbEntity
  8
0
100
AcDbLine
 10
10.0
 20
293.1
 30
0.0
 11
10.0
 21
295.5
 31
0.0
  0
LINE
  5
25B
330
1E
100
AcDbEntity
  8
0
100
AcDbLine
 10
10.0
 20
293.1
 30
0.0
 11
10.0
 21
286.2
 31
0.0
  0
LINE
  5
25C
330
1E
100
AcDbEntity
  8
0
100
AcDbLine
 10
10.0
 20
295.5
 30
0.0
 11
10.0
 21
301.8
 31
0.0
  0
LINE
  5
25D
330
1E
100
AcDbEntity
  8
0
100
AcDbLine
 10
10.0
 20
295.5
 30
0.0
 11
10.0
 21
288.3
 31
0.0
  0
LINE
  5
25E
330
1E
100
AcDbEntity
  8
0
100
AcDbLine
 10
10.0
 20
286.2
 30
0.0
 11
10.0
 21
278.3
 31
0.0
  0
LINE
  5
25F
330
1E
100
AcDbEntity
  8
0
100
AcDbLine
 10
10.0
 20
286.2
 30
0.0
 11
10.0
 21
293.1
 31
0.0
  0
LINE
  5
260
330
1E
100
AcDbEntity
  8
0
100
AcDbLine
 10
10.0
 20
288.3
 30
0.0
 11
10.0
 21
280.1
 31
0.0
  0
LINE
  5
261
330
1E
100
AcDbEntity
  8
0
100
AcDbLine
 10
10.0
 20
288.3
 30
0.0
 11
10.0
 21
295.5
 31
0.0
  0
LINE
  5
262
330
1E
100
AcDbEntity
  8
0
100
AcDbLine
 10
10.0
 20
278.3
 30
0.0
 11
10.0
 21
286.2
 31
0.0
  0
LINE
  5
263
330
1E
100
AcDbEntity
  8
0
100
AcDbLine
 10
10.0
 20
278.3
 30
0.0
 11
10.0
 21
270.8
 31
0.0
  0
LINE
  5
264
330
1E
100
AcDbEntity
  8
0
100
AcDbLine
 10
10.0
 20
303.6999999999999
 30
0.0
 11
10.0
 21
307.1
 31
0.0
  0
LINE
  5
265
330
1E
100
AcDbEntity
  8
0
100
AcDbLine
 10
10.0
 20
303.6999999999999
 30
0.0
 11
10.0
 21
301.8
 31
0.0
  0
LINE
  5
266
330
1E
100
AcDbEntity
  8
0
100
AcDbLine
 10
10.0
 20
307.1
 30
0.0
 11
10.0
 21
309.2
 31
0.0
  0
LINE
  5
267
330
1E
100
AcDbEntity
  8
0
100
AcDbLine
 10
10.0
 20
307.1
 30
0.0
 11
10.0
 21
303.6999999999999
 31
0.0
  0
LINE
  5
268
330
1E
100
AcDbEntity
  8
0
100
AcDbLine
 10
10.0
 20
309.2
 30
0.0
 11
10.0
 21
310.0
 31
0.0
  0
LINE
  5
269
330
1E
100
AcDbEntity
  8
0
100
AcDbLine
 10
10.0
 20
309.2
 30
0.0
 11
10.0
 21
307.1
 31
0.0
  0
LINE
  5
26A
330
1E
100
AcDbEntity
  8
0
100
AcDbLine
 10
10.0
 20
301.8
 30
0.0
 11
10.0
 21
306.4
 31
0.0
  0
LINE
  5
26B
330
1E
100
AcDbEntity
  8
0
100
AcDbLine
 10
10.0
 20
301.8
 30
0.0
 11
10.0
 21
303.6999999999999
 31
0.0
  0
LINE
  5
26C
330
1E
100
AcDbEntity
  8
0
100
AcDbLine
 10
10.0
 20
306.4
 30
0.0
 11
10.0
 21
310.0
 31
0.0
  0
LINE
  5
26D
330
1E
100
AcDbEntity
  8
0
100
AcDbLine
 10
10.0
 20
306.4
 30
0.0
 11
10.0
 21
301.8
 31
0.0
  0
LINE
  5
26E
330
1E
100
AcDbEntity
  8
0
100
AcDbLine
 10
10.0
 20
310.0
 30
0.0
 11
10.0
 21
312.1999999999999
 31
0.0
  0
LINE
  5
26F
330
1E
100
AcDbEntity
  8
0
100
AcDbLine
 10
10.0
 20
310.0
 30
0.0
 11
10.0
 21
306.4
 31
0.0
  0
LINE
  5
270
330
1E
100
AcDbEntity
  8
0
100
AcDbLine
 10
10.0
 20
310.0
 30
0.0
 11
10.0
 21
309.2
 31
0.0
  0
LINE
  5
271
330
1E
100
AcDbEntity
  8
0
100
AcDbLine
 10
10.0
 20
312.1999999999999
 30
0.0
 11
10.0
 21
313.0
 31
0.0
  0
LINE
  5
272
330
1E
100
AcDbEntity
  8
0
100
AcDbLine
 10
10.0
 20
312.1999999999999
 30
0.0
 11
10.0
 21
310.0
 31
0.0
  0
LINE
  5
273
330
1E
100
AcDbEntity
  8
0
100
AcDbLine
 10
10.0
 20
313.0
 30
0.0
 11
11.0
 21
314.0
 31
0.0
  0
LINE
  5
274
330
1E
100
AcDbEntity
  8
0
100
AcDbLine
 10
10.0
 20
313.0
 30
0.0
 11
10.0
 21
312.1999999999999
 31
0.0
  0
LINE
  5
275
330
1E
100
AcDbEntity
  8
0
100
AcDbLine
 10
10.0
 20
280.1
 30
0.0
 11
10.0
 21
288.3
 31
0.0
  0
LINE
  5
276
330
1E
100
AcDbEntity
  8
0
100
AcDbLine
 10
10.0
 20
280.1
 30
0.0
 11
10.0
 21
270.8
 31
0.0
  0
LINE
  5
277
330
1E
100
AcDbEntity
  8
0
100
AcDbLine
 10
10.0
 20
270.8
 30
0.0
 11
10.0
 21
280.1
 31
0.0
  0
LINE
  5
278
330
1E
100
AcDbEntity
  8
0
100
AcDbLine
 10
10.0
 20
270.8
 30
0.0
 11
10.0
 21
278.3
 31
0.0
  0
LINE
  5
279
330
1E
100
AcDbEntity
  8
0
100
AcDbLine
 10
10.0
 20
250.7
 30
0.0
 11
10.0
 21
261.1
 31
0.0
  0
LINE
  5
27A
330
1E
100
AcDbEntity
  8
0
100
AcDbLine
 10
10.0
 20
250.7
 30
0.0
 11
10.0
 21
239.9
 31
0.0
  0
LINE
  5
27B
330
1E
100
AcDbEntity
  8
0
100
AcDbLine
 10
10.0
 20
239.9
 30
0.0
 11
10.0
 21
250.7
 31
0.0
  0
LINE
  5
27C
330
1E
100
AcDbEntity
  8
0
100
AcDbLine
 10
10.0
 20
239.9
 30
0.0
 11
10.0
 21
249.9
 31
0.0
  0
LINE
  5
27D
330
1E
100
AcDbEntity
  8
0
100
AcDbLine
 10
17.016
 20
236.52
 30
0.0
 11
18.87199999999999
 21
235.752
 31
0.0
  0
LINE
  5
27E
330
1E
100
AcDbEntity
  8
0
100
AcDbLine
 10
15.0
 20
236.8079999999999
 30
0.0
 11
17.016
 21
236.52
 31
0.0
  0
LINE
  5
27F
330
1E
100
AcDbEntity
  8
0
100
AcDbLine
 10
17.04799999999999
 20
236.712
 30
0.0
 11
18.96799999999999
 21
235.944
 31
0.0
  0
LINE
  5
280
330
1E
100
AcDbEntity
  8
0
100
AcDbLine
 10
12.984
 20
236.52
 30
0.0
 11
15.0
 21
236.8079999999999
 31
0.0
  0
LINE
  5
281
330
1E
100
AcDbEntity
  8
0
100
AcDbLine
 10
15.0
 20
237.0
 30
0.0
 11
17.04799999999999
 21
236.712
 31
0.0
  0
LINE
  5
282
330
1E
100
AcDbEntity
  8
0
100
AcDbLine
 10
12.952
 20
236.712
 30
0.0
 11
15.0
 21
237.0
 31
0.0
  0
LINE
  5
28C
330
1E
100
AcDbEntity
  8
0
100
AcDbLine
 10
11.0
 20
314.0
 30
0.0
 11
20.0
 21
314.0
 31
0.0
  0
LINE
  5
299
330
1E
100
AcDbEntity
  8
0
100
AcDbLine
 10
20.0
 20
217.6
 30
0.0
 11
20.0
 21
222.834867924528
 31
0.0
  0
LINE
  5
29A
330
1E
100
AcDbEntity
  8
0
100
AcDbLine
 10
20.0
 20
205.5
 30
0.0
 11
20.0
 21
194.1999999999999
 31
0.0
  0
LINE
  5
29B
330
1E
100
AcDbEntity
  8
0
100
AcDbLine
 10
20.0
 20
205.5
 30
0.0
 11
20.0
 21
217.2
 31
0.0
  0
LINE
  5
29C
330
1E
100
AcDbEntity
  8
0
100
AcDbLine
 10
20.504
 20
234.504
 30
0.0
 11
21.75199999999999
 21
232.872
 31
0.0
  0
LINE
  5
29D
330
1E
100
AcDbEntity
  8
0
100
AcDbLine
 10
20.664
 20
234.664
 30
0.0
 11
21.944
 21
232.9679999999999
 31
0.0
  0
LINE
  5
29E
330
1E
100
AcDbEntity
  8
0
100
AcDbLine
 10
20.504
 20
223.496
 30
0.0
 11
21.75199999999999
 21
225.1279999999999
 31
0.0
  0
LINE
  5
29F
330
1E
100
AcDbEntity
  8
0
100
AcDbLine
 10
20.0
 20
235.165132075472
 30
0.0
 11
20.0
 21
236.0
 31
0.0
  0
LINE
  5
2A0
330
1E
100
AcDbEntity
  8
0
100
AcDbLine
 10
21.75199999999999
 20
225.1279999999999
 30
0.0
 11
22.52
 21
226.984
 31
0.0
  0
LINE
  5
2A1
330
1E
100
AcDbEntity
  8
0
100
AcDbLine
 10
21.944
 20
225.032
 30
0.0
 11
22.71199999999999
 21
226.9519999999999
 31
0.0
  0
LINE
  5
2A2
330
1E
100
AcDbEntity
  8
0
100
AcDbLine
 10
21.75199999999999
 20
232.872
 30
0.0
 11
22.52
 21
231.0159999999999
 31
0.0
  0
LINE
  5
2A3
330
1E
100
AcDbEntity
  8
0
100
AcDbLine
 10
22.52
 20
231.0159999999999
 30
0.0
 11
22.808
 21
229.0
 31
0.0
  0
LINE
  5
2A4
330
1E
100
AcDbEntity
  8
0
100
AcDbLine
 10
21.944
 20
232.9679999999999
 30
0.0
 11
22.71199999999999
 21
231.048
 31
0.0
  0
LINE
  5
2A5
330
1E
100
AcDbEntity
  8
0
100
AcDbLine
 10
22.71199999999999
 20
231.048
 30
0.0
 11
23.0
 21
229.0
 31
0.0
  0
LINE
  5
2A6
330
1E
100
AcDbEntity
  8
0
100
AcDbLine
 10
22.52
 20
226.984
 30
0.0
 11
22.808
 21
229.0
 31
0.0
  0
LINE
  5
2A7
330
1E
100
AcDbEntity
  8
0
100
AcDbLine
 10
22.71199999999999
 20
226.9519999999999
 30
0.0
 11
23.0
 21
229.0
 31
0.0
  0
LINE
  5
2A8
330
1E
100
AcDbEntity
  8
0
100
AcDbLine
 10
20.664
 20
223.3359999999999
 30
0.0
 11
21.944
 21
225.032
 31
0.0
  0
LINE
  5
2A9
330
1E
100
AcDbEntity
  8
0
100
AcDbLine
 10
20.0
 20
271.3
 30
0.0
 11
20.0
 21
280.7
 31
0.0
  0
LINE
  5
2AA
330
1E
100
AcDbEntity
  8
0
100
AcDbLine
 10
20.0
 20
271.3
 30
0.0
 11
20.0
 21
261.5
 31
0.0
  0
LINE
  5
2AB
330
1E
100
AcDbEntity
  8
0
100
AcDbLine
 10
20.0
 20
261.5
 30
0.0
 11
20.0
 21
271.3
 31
0.0
  0
LINE
  5
2AC
330
1E
100
AcDbEntity
  8
0
100
AcDbLine
 10
20.0
 20
261.5
 30
0.0
 11
20.0
 21
250.8999999999999
 31
0.0
  0
LINE
  5
2AD
330
1E
100
AcDbEntity
  8
0
100
AcDbLine
 10
20.0
 20
250.8999999999999
 30
0.0
 11
20.0
 21
261.5
 31
0.0
  0
LINE
  5
2AE
330
1E
100
AcDbEntity
  8
0
100
AcDbLine
 10
20.0
 20
250.8999999999999
 30
0.0
 11
20.0
 21
241.1
 31
0.0
  0
LINE
  5
2AF
330
1E
100
AcDbEntity
  8
0
100
AcDbLine
 10
20.0
 20
296.3
 30
0.0
 11
20.0
 21
302.6
 31
0.0
  0
LINE
  5
2B0
330
1E
100
AcDbEntity
  8
0
100
AcDbLine
 10
20.0
 20
296.3
 30
0.0
 11
20.0
 21
289.0
 31
0.0
  0
LINE
  5
2B1
330
1E
100
AcDbEntity
  8
0
100
AcDbLine
 10
20.0
 20
302.6
 30
0.0
 11
20.0
 21
307.3999999999999
 31
0.0
  0
LINE
  5
2B2
330
1E
100
AcDbEntity
  8
0
100
AcDbLine
 10
20.0
 20
302.6
 30
0.0
 11
20.0
 21
296.3
 31
0.0
  0
LINE
  5
2B3
330
1E
100
AcDbEntity
  8
0
100
AcDbLine
 10
20.0
 20
307.3999999999999
 30
0.0
 11
20.0
 21
310.8999999999999
 31
0.0
  0
LINE
  5
2B4
330
1E
100
AcDbEntity
  8
0
100
AcDbLine
 10
20.0
 20
307.3999999999999
 30
0.0
 11
20.0
 21
302.6
 31
0.0
  0
LINE
  5
2B5
330
1E
100
AcDbEntity
  8
0
100
AcDbLine
 10
20.0
 20
310.8999999999999
 30
0.0
 11
20.0
 21
313.1
 31
0.0
  0
LINE
  5
2B6
330
1E
100
AcDbEntity
  8
0
100
AcDbLine
 10
20.0
 20
310.8999999999999
 30
0.0
 11
20.0
 21
307.3999999999999
 31
0.0
  0
LINE
  5
2B7
330
1E
100
AcDbEntity
  8
0
100
AcDbLine
 10
20.0
 20
314.0
 30
0.0
 11
20.0
 21
313.1
 31
0.0
  0
LINE
  5
2B8
330
1E
100
AcDbEntity
  8
0
100
AcDbLine
 10
20.0
 20
313.1
 30
0.0
 11
20.0
 21
314.0
 31
0.0
  0
LINE
  5
2B9
330
1E
100
AcDbEntity
  8
0
100
AcDbLine
 10
20.0
 20
313.1
 30
0.0
 11
20.0
 21
310.8999999999999
 31
0.0
  0
LINE
  5
2BA
330
1E
100
AcDbEntity
  8
0
100
AcDbLine
 10
20.0
 20
289.0
 30
0.0
 11
20.0
 21
280.7
 31
0.0
  0
LINE
  5
2BB
330
1E
100
AcDbEntity
  8
0
100
AcDbLine
 10
20.0
 20
289.0
 30
0.0
 11
20.0
 21
296.3
 31
0.0
  0
LINE
  5
2BC
330
1E
100
AcDbEntity
  8
0
100
AcDbLine
 10
20.0
 20
280.7
 30
0.0
 11
20.0
 21
289.0
 31
0.0
  0
LINE
  5
2BD
330
1E
100
AcDbEntity
  8
0
100
AcDbLine
 10
20.0
 20
241.1
 30
0.0
 11
20.0
 21
250.8999999999999
 31
0.0
  0
LINE
  5
2BE
330
1E
100
AcDbEntity
  8
0
100
AcDbLine
 10
20.0
 20
241.1
 30
0.0
 11
20.0
 21
236.0
 31
0.0
  0
LINE
  5
2BF
330
1E
100
AcDbEntity
  8
0
100
AcDbLine
 10
20.0
 20
236.0
 30
0.0
 11
20.0
 21
241.1
 31
0.0
  0
LINE
  5
2C0
330
1E
100
AcDbEntity
  8
0
100
AcDbLine
 10
20.0
 20
236.0
 30
0.0
 11
20.0
 21
235.165132075472
 31
0.0
  0
LINE
  5
2C1
330
1E
100
AcDbEntity
  8
0
100
AcDbLine
 10
20.0
 20
217.2
 30
0.0
 11
20.0
 21
222.834867924528
 31
0.0
  0
LINE
  5
2C2
330
1E
100
AcDbEntity
  8
0
100
AcDbLine
 10
20.0
 20
217.2
 30
0.0
 11
20.0
 21
205.5
 31
0.0
  0
LINE
  5
2C3
330
1E
100
AcDbEntity
  8
0
100
AcDbLine
 10
20.0
 20
164.7
 30
0.0
 11
20.0
 21
161.6999999999999
 31
0.0
  0
LINE
  5
2C4
330
1E
100
AcDbEntity
  8
0
100
AcDbLine
 10
20.0
 20
164.7
 30
0.0
 11
20.0
 21
173.6999999999999
 31
0.0
  0
LINE
  5
2C5
330
1E
100
AcDbEntity
  8
0
100
AcDbLine
 10
10.0
 20
222.834867924528
 30
0.0
 11
10.0
 21
218.1
 31
0.0
  0
LINE
  5
2C6
330
1E
100
AcDbEntity
  8
0
100
AcDbLine
 10
10.0
 20
222.834867924528
 30
0.0
 11
10.0
 21
218.5
 31
0.0
  0
LINE
  5
2C7
330
1E
100
AcDbEntity
  8
0
100
AcDbLine
 10
10.0
 20
222.834867924528
 30
0.0
 11
10.0
 21
217.6
 31
0.0
  0
LINE
  5
2C8
330
1E
100
AcDbEntity
  8
0
100
AcDbLine
 10
10.0
 20
222.834867924528
 30
0.0
 11
10.0
 21
217.2
 31
0.0
  0
LINE
  5
2C9
330
1E
100
AcDbEntity
  8
0
100
AcDbLine
 10
26.0
 20
163.0
 30
0.0
 11
27.0
 21
162.555
 31
0.0
  0
LINE
  5
2CA
330
1E
100
AcDbEntity
  8
0
100
AcDbLine
 10
9.5
 20
163.0
 30
0.0
 11
10.0
 21
163.0
 31
0.0
  0
LINE
  5
2CB
330
1E
100
AcDbEntity
  8
0
100
AcDbLine
 10
8.3
 20
135.4439999999999
 30
0.0
 11
10.0
 21
135.4439999999999
 31
0.0
  0
LINE
  5
2CC
330
1E
100
AcDbEntity
  8
0
100
AcDbLine
 10
7.799999999999999
 20
132.7779999999999
 30
0.0
 11
10.0
 21
132.7779999999999
 31
0.0
  0
LINE
  5
2CD
330
1E
100
AcDbEntity
  8
0
100
AcDbLine
 10
8.8
 20
132.333
 30
0.0
 11
10.0
 21
132.333
 31
0.0
  0
LINE
  5
2CE
330
1E
100
AcDbEntity
  8
0
100
AcDbLine
 10
4.2
 20
132.333
 30
0.0
 11
6.2
 21
132.333
 31
0.0
  0
LINE
  5
2CF
330
1E
100
AcDbEntity
  8
0
100
AcDbLine
 10
4.599999999999999
 20
131.4439999999999
 30
0.0
 11
6.5
 21
131.4439999999999
 31
0.0
  0
LINE
  5
2D0
330
1E
100
AcDbEntity
  8
0
100
AcDbLine
 10
3.399999999999999
 20
131.4439999999999
 30
0.0
 11
4.599999999999999
 21
131.4439999999999
 31
0.0
  0
LINE
  5
2D1
330
1E
100
AcDbEntity
  8
0
100
AcDbLine
 10
4.0
 20
131.0
 30
0.0
 11
4.4
 21
131.0
 31
0.0
  0
LINE
  5
2D2
330
1E
100
AcDbEntity
  8
0
100
AcDbLine
 10
3.0
 20
131.4439999999999
 30
0.0
 11
4.0
 21
131.0
 31
0.0
  0
LINE
  5
2D3
330
1E
100
AcDbEntity
  8
0
100
AcDbLine
 10
3.0
 20
131.4439999999999
 30
0.0
 11
3.399999999999999
 21
131.4439999999999
 31
0.0
  0
LINE
  5
2D4
330
1E
100
AcDbEntity
  8
0
100
AcDbLine
 10
12.19999999999999
 20
43.0
 30
0.0
 11
15.0
 21
43.0
 31
0.0
  0
LINE
  5
2D5
330
1E
100
AcDbEntity
  8
0
100
AcDbLine
 10
29.0
 20
39.0
 30
0.0
 11
29.5
 21
39.0
 31
0.0
  0
LINE
  5
2D6
330
1E
100
AcDbEntity
  8
0
100
AcDbLine
 10
28.5
 20
38.5555
 30
0.0
 11
29.5
 21
39.0
 31
0.0
  0
LINE
  5
2D7
330
1E
100
AcDbEntity
  8
0
100
AcDbLine
 10
29.0
 20
41.2222
 30
0.0
 11
29.5
 21
41.2222
 31
0.0
  0
LINE
  5
2D8
330
1E
100
AcDbEntity
  8
0
100
AcDbLine
 10
28.0
 20
41.66669999999999
 30
0.0
 11
28.5
 21
41.66669999999999
 31
0.0
  0
LINE
  5
2D9
330
1E
100
AcDbEntity
  8
0
100
AcDbLine
 10
29.5
 20
39.0
 30
0.0
 11
30.0
 21
39.88889999999999
 31
0.0
  0
LINE
  5
2DA
330
1E
100
AcDbEntity
  8
0
100
AcDbLine
 10
30.0
 20
39.88889999999999
 30
0.0
 11
30.0
 21
40.3333
 31
0.0
  0
LINE
  5
2DB
330
1E
100
AcDbEntity
  8
0
100
AcDbLine
 10
30.0
 20
40.3333
 30
0.0
 11
30.0
 21
39.88889999999999
 31
0.0
  0
LINE
  5
2DC
330
1E
100
AcDbEntity
  8
0
100
AcDbLine
 10
29.5
 20
41.2222
 30
0.0
 11
30.0
 21
40.3333
 31
0.0
  0
LINE
  5
2DD
330
1E
100
AcDbEntity
  8
0
100
AcDbLine
 10
28.0
 20
151.971428571429
 30
0.0
 11
28.0
 21
157.667
 31
0.0
  0
LINE
  5
2DE
330
1E
100
AcDbEntity
  8
0
100
AcDbLine
 10
28.0
 20
136.3329999999999
 30
0.0
 11
28.5
 21
135.4439999999999
 31
0.0
  0
LINE
  5
2DF
330
1E
100
AcDbEntity
  8
0
100
AcDbLine
 10
28.0
 20
136.3329999999999
 30
0.0
 11
28.0
 21
142.0
 31
0.0
  0
LINE
  5
2E0
330
1E
100
AcDbEntity
  8
0
100
AcDbLine
 10
28.0
 20
135.4439999999999
 30
0.0
 11
28.5
 21
135.4439999999999
 31
0.0
  0
LINE
  5
2E1
330
1E
100
AcDbEntity
  8
0
100
AcDbLine
 10
28.0
 20
132.333
 30
0.0
 11
28.5
 21
132.333
 31
0.0
  0
LINE
  5
2E2
330
1E
100
AcDbEntity
  8
0
100
AcDbLine
 10
28.0
 20
158.555
 30
0.0
 11
28.5
 21
158.555
 31
0.0
  0
LINE
  5
2E3
330
1E
100
AcDbEntity
  8
0
100
AcDbLine
 10
28.0
 20
157.667
 30
0.0
 11
28.0
 21
151.971428571429
 31
0.0
  0
LINE
  5
2E4
330
1E
100
AcDbEntity
  8
0
100
AcDbLine
 10
28.0
 20
157.667
 30
0.0
 11
28.5
 21
158.555
 31
0.0
  0
LINE
  5
2E5
330
1E
100
AcDbEntity
  8
0
100
AcDbLine
 10
28.0
 20
152.0
 30
0.0
 11
34.0
 21
152.0
 31
0.0
  0
LINE
  5
2E6
330
1E
100
AcDbEntity
  8
0
100
AcDbLine
 10
29.5
 20
132.7779999999999
 30
0.0
 11
30.0
 21
133.667
 31
0.0
  0
LINE
  5
2E7
330
1E
100
AcDbEntity
  8
0
100
AcDbLine
 10
28.5
 20
132.333
 30
0.0
 11
29.5
 21
132.7779999999999
 31
0.0
  0
LINE
  5
2E8
330
1E
100
AcDbEntity
  8
0
100
AcDbLine
 10
30.0
 20
134.111
 30
0.0
 11
30.0
 21
133.667
 31
0.0
  0
LINE
  5
2E9
330
1E
100
AcDbEntity
  8
0
100
AcDbLine
 10
29.5
 20
135.0
 30
0.0
 11
30.0
 21
134.111
 31
0.0
  0
LINE
  5
2EA
330
1E
100
AcDbEntity
  8
0
100
AcDbLine
 10
28.0
 20
161.667
 30
0.0
 11
28.5
 21
161.667
 31
0.0
  0
LINE
  5
2EB
330
1E
100
AcDbEntity
  8
0
100
AcDbLine
 10
29.0
 20
159.0
 30
0.0
 11
29.5
 21
159.0
 31
0.0
  0
LINE
  5
2EC
330
1E
100
AcDbEntity
  8
0
100
AcDbLine
 10
28.5
 20
158.555
 30
0.0
 11
29.5
 21
159.0
 31
0.0
  0
LINE
  5
2ED
330
1E
100
AcDbEntity
  8
0
100
AcDbLine
 10
29.0
 20
161.222
 30
0.0
 11
29.5
 21
161.222
 31
0.0
  0
LINE
  5
2EE
330
1E
100
AcDbEntity
  8
0
100
AcDbLine
 10
29.5
 20
159.0
 30
0.0
 11
30.0
 21
159.889
 31
0.0
  0
LINE
  5
2EF
330
1E
100
AcDbEntity
  8
0
100
AcDbLine
 10
30.0
 20
159.889
 30
0.0
 11
30.0
 21
160.3329999999999
 31
0.0
  0
LINE
  5
2F0
330
1E
100
AcDbEntity
  8
0
100
AcDbLine
 10
30.0
 20
160.3329999999999
 30
0.0
 11
30.0
 21
159.889
 31
0.0
  0
LINE
  5
2F1
330
1E
100
AcDbEntity
  8
0
100
AcDbLine
 10
29.5
 20
161.222
 30
0.0
 11
30.0
 21
160.3329999999999
 31
0.0
  0
LINE
  5
2F2
330
1E
100
AcDbEntity
  8
0
100
AcDbLine
 10
28.5
 20
161.667
 30
0.0
 11
29.5
 21
161.222
 31
0.0
  0
LINE
  5
2F3
330
1E
100
AcDbEntity
  8
0
100
AcDbLine
 10
28.5
 20
135.4439999999999
 30
0.0
 11
29.5
 21
135.0
 31
0.0
  0
LINE
  5
2F4
330
1E
100
AcDbEntity
  8
0
100
AcDbLine
 10
29.0
 20
135.0
 30
0.0
 11
29.5
 21
135.0
 31
0.0
  0
LINE
  5
2F5
330
1E
100
AcDbEntity
  8
0
100
AcDbLine
 10
30.0
 20
133.667
 30
0.0
 11
30.0
 21
134.111
 31
0.0
  0
LINE
  5
2F6
330
1E
100
AcDbEntity
  8
0
100
AcDbLine
 10
29.0
 20
132.7779999999999
 30
0.0
 11
29.5
 21
132.7779999999999
 31
0.0
  0
LINE
  5
2F7
330
1E
100
AcDbEntity
  8
0
100
AcDbLine
 10
28.0
 20
142.0
 30
0.0
 11
34.0
 21
142.0
 31
0.0
  0
LINE
  5
2F8
330
1E
100
AcDbEntity
  8
0
100
AcDbLine
 10
28.0
 20
142.0
 30
0.0
 11
28.0
 21
136.3329999999999
 31
0.0
  0
LINE
  5
2F9
330
1E
100
AcDbEntity
  8
0
100
AcDbLine
 10
28.5
 20
41.66669999999999
 30
0.0
 11
29.5
 21
41.2222
 31
0.0
  0
LINE
  5
2FA
330
1E
100
AcDbEntity
  8
0
100
AcDbLine
 10
28.0
 20
37.66669999999999
 30
0.0
 11
28.0
 21
32.0
 31
0.0
  0
LINE
  5
2FB
330
1E
100
AcDbEntity
  8
0
100
AcDbLine
 10
28.0
 20
37.66669999999999
 30
0.0
 11
28.5
 21
38.5555
 31
0.0
  0
LINE
  5
2FC
330
1E
100
AcDbEntity
  8
0
100
AcDbLine
 10
34.0
 20
34.0
 30
0.0
 11
34.0
 21
33.7
 31
0.0
  0
LINE
  5
2FD
330
1E
100
AcDbEntity
  8
0
100
AcDbLine
 10
34.0
 20
34.0
 30
0.0
 11
34.5
 21
35.5
 31
0.0
  0
LINE
  5
2FE
330
1E
100
AcDbEntity
  8
0
100
AcDbLine
 10
34.0
 20
22.0
 30
0.0
 11
34.0
 21
20.3
 31
0.0
  0
LINE
  5
2FF
330
1E
100
AcDbEntity
  8
0
100
AcDbLine
 10
34.0
 20
20.3
 30
0.0
 11
34.0
 21
20.0
 31
0.0
  0
LINE
  5
300
330
1E
100
AcDbEntity
  8
0
100
AcDbLine
 10
34.0
 20
20.3
 30
0.0
 11
34.0
 21
22.0
 31
0.0
  0
LINE
  5
301
330
1E
100
AcDbEntity
  8
0
100
AcDbLine
 10
34.0
 20
140.8999999999999
 30
0.0
 11
34.0
 21
140.3
 31
0.0
  0
LINE
  5
302
330
1E
100
AcDbEntity
  8
0
100
AcDbLine
 10
34.0
 20
140.8999999999999
 30
0.0
 11
34.0
 21
142.1
 31
0.0
  0
LINE
  5
303
330
1E
100
AcDbEntity
  8
0
100
AcDbLine
 10
34.0
 20
140.3
 30
0.0
 11
34.0
 21
140.0
 31
0.0
  0
LINE
  5
304
330
1E
100
AcDbEntity
  8
0
100
AcDbLine
 10
34.0
 20
140.3
 30
0.0
 11
34.0
 21
140.8999999999999
 31
0.0
  0
LINE
  5
305
330
1E
100
AcDbEntity
  8
0
100
AcDbLine
 10
34.0
 20
140.0
 30
0.0
 11
34.5
 21
138.5
 31
0.0
  0
LINE
  5
306
330
1E
100
AcDbEntity
  8
0
100
AcDbLine
 10
34.0
 20
140.0
 30
0.0
 11
34.0
 21
140.3
 31
0.0
  0
LINE
  5
307
330
1E
100
AcDbEntity
  8
0
100
AcDbLine
 10
34.0
 20
142.1
 30
0.0
 11
34.0
 21
143.5
 31
0.0
  0
LINE
  5
308
330
1E
100
AcDbEntity
  8
0
100
AcDbLine
 10
34.0
 20
142.1
 30
0.0
 11
34.0
 21
140.8999999999999
 31
0.0
  0
LINE
  5
309
330
1E
100
AcDbEntity
  8
0
100
AcDbLine
 10
34.0
 20
142.1999999999999
 30
0.0
 11
34.0
 21
142.0
 31
0.0
  0
LINE
  5
30A
330
1E
100
AcDbEntity
  8
0
100
AcDbLine
 10
34.0
 20
142.6999999999999
 30
0.0
 11
34.0
 21
142.1999999999999
 31
0.0
  0
LINE
  5
30B
330
1E
100
AcDbEntity
  8
0
100
AcDbLine
 10
34.0
 20
145.1999999999999
 30
0.0
 11
34.0
 21
143.5
 31
0.0
  0
LINE
  5
30C
330
1E
100
AcDbEntity
  8
0
100
AcDbLine
 10
34.0
 20
145.1999999999999
 30
0.0
 11
34.0
 21
147.0
 31
0.0
  0
LINE
  5
30D
330
1E
100
AcDbEntity
  8
0
100
AcDbLine
 10
34.0
 20
143.5
 30
0.0
 11
34.0
 21
142.6999999999999
 31
0.0
  0
LINE
  5
30E
330
1E
100
AcDbEntity
  8
0
100
AcDbLine
 10
34.0
 20
143.5
 30
0.0
 11
34.0
 21
142.1
 31
0.0
  0
LINE
  5
30F
330
1E
100
AcDbEntity
  8
0
100
AcDbLine
 10
34.0
 20
143.5
 30
0.0
 11
34.0
 21
145.1999999999999
 31
0.0
  0
LINE
  5
310
330
1E
100
AcDbEntity
  8
0
100
AcDbLine
 10
34.0
 20
144.5
 30
0.0
 11
34.0
 21
143.5
 31
0.0
  0
LINE
  5
311
330
1E
100
AcDbEntity
  8
0
100
AcDbLine
 10
34.0
 20
148.8
 30
0.0
 11
34.0
 21
147.0
 31
0.0
  0
LINE
  5
312
330
1E
100
AcDbEntity
  8
0
100
AcDbLine
 10
34.0
 20
148.8
 30
0.0
 11
34.0
 21
150.5
 31
0.0
  0
LINE
  5
313
330
1E
100
AcDbEntity
  8
0
100
AcDbLine
 10
34.0
 20
151.9
 30
0.0
 11
34.0
 21
150.5
 31
0.0
  0
LINE
  5
314
330
1E
100
AcDbEntity
  8
0
100
AcDbLine
 10
34.0
 20
151.9
 30
0.0
 11
34.0
 21
153.0999999999999
 31
0.0
  0
LINE
  5
315
330
1E
100
AcDbEntity
  8
0
100
AcDbLine
 10
34.0
 20
153.0999999999999
 30
0.0
 11
34.0
 21
151.9
 31
0.0
  0
LINE
  5
316
330
1E
100
AcDbEntity
  8
0
100
AcDbLine
 10
34.0
 20
153.0999999999999
 30
0.0
 11
34.0
 21
153.6999999999999
 31
0.0
  0
LINE
  5
317
330
1E
100
AcDbEntity
  8
0
100
AcDbLine
 10
34.0
 20
153.6999999999999
 30
0.0
 11
34.0
 21
153.0999999999999
 31
0.0
  0
LINE
  5
318
330
1E
100
AcDbEntity
  8
0
100
AcDbLine
 10
34.0
 20
153.6999999999999
 30
0.0
 11
34.0
 21
154.0
 31
0.0
  0
LINE
  5
319
330
1E
100
AcDbEntity
  8
0
100
AcDbLine
 10
34.0
 20
154.0
 30
0.0
 11
34.0
 21
153.6999999999999
 31
0.0
  0
LINE
  5
31A
330
1E
100
AcDbEntity
  8
0
100
AcDbLine
 10
34.0
 20
154.0
 30
0.0
 11
34.5
 21
155.4999999999999
 31
0.0
  0
LINE
  5
31B
330
1E
100
AcDbEntity
  8
0
100
AcDbLine
 10
34.0
 20
152.0
 30
0.0
 11
34.0
 21
151.8
 31
0.0
  0
LINE
  5
31C
330
1E
100
AcDbEntity
  8
0
100
AcDbLine
 10
34.0
 20
151.8
 30
0.0
 11
34.0
 21
151.3
 31
0.0
  0
LINE
  5
31D
330
1E
100
AcDbEntity
  8
0
100
AcDbLine
 10
34.0
 20
151.3
 30
0.0
 11
34.0
 21
150.5
 31
0.0
  0
LINE
  5
31E
330
1E
100
AcDbEntity
  8
0
100
AcDbLine
 10
34.0
 20
150.5
 30
0.0
 11
34.0
 21
149.5
 31
0.0
  0
LINE
  5
31F
330
1E
100
AcDbEntity
  8
0
100
AcDbLine
 10
34.0
 20
150.5
 30
0.0
 11
34.0
 21
148.8
 31
0.0
  0
LINE
  5
320
330
1E
100
AcDbEntity
  8
0
100
AcDbLine
 10
34.0
 20
150.5
 30
0.0
 11
34.0
 21
151.9
 31
0.0
  0
LINE
  5
321
330
1E
100
AcDbEntity
  8
0
100
AcDbLine
 10
34.0
 20
149.5
 30
0.0
 11
34.0
 21
148.3
 31
0.0
  0
LINE
  5
322
330
1E
100
AcDbEntity
  8
0
100
AcDbLine
 10
34.0
 20
148.3
 30
0.0
 11
34.0
 21
147.0
 31
0.0
  0
LINE
  5
323
330
1E
100
AcDbEntity
  8
0
100
AcDbLine
 10
34.0
 20
145.6999999999999
 30
0.0
 11
34.0
 21
144.5
 31
0.0
  0
LINE
  5
324
330
1E
100
AcDbEntity
  8
0
100
AcDbLine
 10
34.5
 20
138.5
 30
0.0
 11
35.5
 21
137.5
 31
0.0
  0
LINE
  5
325
330
1E
100
AcDbEntity
  8
0
100
AcDbLine
 10
34.5
 20
155.4999999999999
 30
0.0
 11
35.5
 21
156.4999999999999
 31
0.0
  0
LINE
  5
326
330
1E
100
AcDbEntity
  8
0
100
AcDbLine
 10
34.0
 20
147.0
 30
0.0
 11
34.0
 21
145.6999999999999
 31
0.0
  0
LINE
  5
327
330
1E
100
AcDbEntity
  8
0
100
AcDbLine
 10
34.0
 20
147.0
 30
0.0
 11
34.0
 21
145.1999999999999
 31
0.0
  0
LINE
  5
328
330
1E
100
AcDbEntity
  8
0
100
AcDbLine
 10
34.0
 20
147.0
 30
0.0
 11
34.0
 21
148.8
 31
0.0
  0
LINE
  5
329
330
1E
100
AcDbEntity
  8
0
100
AcDbLine
 10
34.5
 20
35.5
 30
0.0
 11
35.5
 21
36.5
 31
0.0
  0
LINE
  5
32A
330
1E
100
AcDbEntity
  8
0
100
AcDbLine
 10
34.0
 20
20.0
 30
0.0
 11
34.5
 21
18.5
 31
0.0
  0
LINE
  5
32B
330
1E
100
AcDbEntity
  8
0
100
AcDbLine
 10
34.0
 20
20.0
 30
0.0
 11
34.0
 21
20.3
 31
0.0
  0
LINE
  5
32C
330
1E
100
AcDbEntity
  8
0
100
AcDbLine
 10
34.5
 20
18.5
 30
0.0
 11
35.5
 21
17.5
 31
0.0
  0
LINE
  5
32D
330
1E
100
AcDbEntity
  8
0
100
AcDbLine
 10
60.9808
 20
4.49999999999999
 30
0.0
 11
62.6538
 21
1.999999999999989
 31
0.0
  0
LINE
  5
32E
330
1E
100
AcDbEntity
  8
0
100
AcDbLine
 10
51.5
 20
8.999999999999991
 30
0.0
 11
52.6154
 21
8.999999999999991
 31
0.0
  0
LINE
  5
32F
330
1E
100
AcDbEntity
  8
0
100
AcDbLine
 10
49.8269
 20
10.1
 30
0.0
 11
49.8269
 21
9.499999999999991
 31
0.0
  0
LINE
  5
330
330
1E
100
AcDbEntity
  8
0
100
AcDbLine
 10
49.8269
 20
10.1
 30
0.0
 11
49.8269
 21
11.8
 31
0.0
  0
LINE
  5
331
330
1E
100
AcDbEntity
  8
0
100
AcDbLine
 10
37.5577
 20
13.0
 30
0.0
 11
37.5577
 21
12.5
 31
0.0
  0
LINE
  5
332
330
1E
100
AcDbEntity
  8
0
100
AcDbLine
 10
37.5577
 20
13.0
 30
0.0
 11
37.5577
 21
14.4
 31
0.0
  0
LINE
  5
333
330
1E
100
AcDbEntity
  8
0
100
AcDbLine
 10
37.0
 20
14.5
 30
0.0
 11
37.0
 21
14.0
 31
0.0
  0
LINE
  5
334
330
1E
100
AcDbEntity
  8
0
100
AcDbLine
 10
37.0
 20
14.5
 30
0.0
 11
37.0
 21
15.7
 31
0.0
  0
LINE
  5
335
330
1E
100
AcDbEntity
  8
0
100
AcDbLine
 10
37.0
 20
17.0
 30
0.0
 11
37.0
 21
15.7
 31
0.0
  0
LINE
  5
336
330
1E
100
AcDbEntity
  8
0
100
AcDbLine
 10
37.5577
 20
14.4
 30
0.0
 11
37.5577
 21
13.0
 31
0.0
  0
LINE
  5
337
330
1E
100
AcDbEntity
  8
0
100
AcDbLine
 10
37.5577
 20
14.4
 30
0.0
 11
37.5577
 21
16.8
 31
0.0
  0
LINE
  5
338
330
1E
100
AcDbEntity
  8
0
100
AcDbLine
 10
37.5577
 20
16.8
 30
0.0
 11
37.5577
 21
19.8
 31
0.0
  0
LINE
  5
339
330
1E
100
AcDbEntity
  8
0
100
AcDbLine
 10
37.5577
 20
16.8
 30
0.0
 11
37.5577
 21
14.4
 31
0.0
  0
LINE
  5
33A
330
1E
100
AcDbEntity
  8
0
100
AcDbLine
 10
37.0
 20
15.7
 30
0.0
 11
37.0
 21
17.0
 31
0.0
  0
LINE
  5
33B
330
1E
100
AcDbEntity
  8
0
100
AcDbLine
 10
37.0
 20
15.7
 30
0.0
 11
37.0
 21
14.5
 31
0.0
  0
LINE
  5
33C
330
1E
100
AcDbEntity
  8
0
100
AcDbLine
 10
37.0
 20
14.0
 30
0.0
 11
37.5577
 21
12.5
 31
0.0
  0
LINE
  5
33D
330
1E
100
AcDbEntity
  8
0
100
AcDbLine
 10
37.0
 20
14.0
 30
0.0
 11
37.0
 21
14.5
 31
0.0
  0
LINE
  5
33E
330
1E
100
AcDbEntity
  8
0
100
AcDbLine
 10
48.1538
 20
14.0
 30
0.0
 11
48.1538
 21
12.5
 31
0.0
  0
LINE
  5
33F
330
1E
100
AcDbEntity
  8
0
100
AcDbLine
 10
48.1538
 20
14.0
 30
0.0
 11
48.1538
 21
16.39999999999999
 31
0.0
  0
LINE
  5
340
330
1E
100
AcDbEntity
  8
0
100
AcDbLine
 10
48.1538
 20
12.5
 30
0.0
 11
48.1538
 21
12.0
 31
0.0
  0
LINE
  5
341
330
1E
100
AcDbEntity
  8
0
100
AcDbLine
 10
48.1538
 20
12.5
 30
0.0
 11
48.1538
 21
14.0
 31
0.0
  0
LINE
  5
342
330
1E
100
AcDbEntity
  8
0
100
AcDbLine
 10
48.1538
 20
16.39999999999999
 30
0.0
 11
48.1538
 21
19.5
 31
0.0
  0
LINE
  5
343
330
1E
100
AcDbEntity
  8
0
100
AcDbLine
 10
48.1538
 20
16.39999999999999
 30
0.0
 11
48.1538
 21
14.0
 31
0.0
  0
LINE
  5
344
330
1E
100
AcDbEntity
  8
0
100
AcDbLine
 10
37.5577
 20
12.5
 30
0.0
 11
39.2308
 21
12.0
 31
0.0
  0
LINE
  5
345
330
1E
100
AcDbEntity
  8
0
100
AcDbLine
 10
37.5577
 20
12.5
 30
0.0
 11
37.5577
 21
13.0
 31
0.0
  0
LINE
  5
346
330
1E
100
AcDbEntity
  8
0
100
AcDbLine
 10
39.2308
 20
12.0
 30
0.0
 11
48.1538
 21
12.0
 31
0.0
  0
LINE
  5
347
330
1E
100
AcDbEntity
  8
0
100
AcDbLine
 10
49.8269
 20
11.8
 30
0.0
 11
49.8269
 21
10.1
 31
0.0
  0
LINE
  5
348
330
1E
100
AcDbEntity
  8
0
100
AcDbLine
 10
49.8269
 20
11.8
 30
0.0
 11
49.8269
 21
14.59999999999999
 31
0.0
  0
LINE
  5
349
330
1E
100
AcDbEntity
  8
0
100
AcDbLine
 10
49.8269
 20
14.59999999999999
 30
0.0
 11
49.8269
 21
18.3
 31
0.0
  0
LINE
  5
34A
330
1E
100
AcDbEntity
  8
0
100
AcDbLine
 10
49.8269
 20
14.59999999999999
 30
0.0
 11
49.8269
 21
11.8
 31
0.0
  0
LINE
  5
34B
330
1E
100
AcDbEntity
  8
0
100
AcDbLine
 10
48.1538
 20
12.0
 30
0.0
 11
49.26919999999999
 21
11.0
 31
0.0
  0
LINE
  5
34C
330
1E
100
AcDbEntity
  8
0
100
AcDbLine
 10
48.1538
 20
12.0
 30
0.0
 11
48.1538
 21
12.5
 31
0.0
  0
LINE
  5
34D
330
1E
100
AcDbEntity
  8
0
100
AcDbLine
 10
49.26919999999999
 20
11.0
 30
0.0
 11
49.8269
 21
9.499999999999991
 31
0.0
  0
LINE
  5
34E
330
1E
100
AcDbEntity
  8
0
100
AcDbLine
 10
49.8269
 20
9.499999999999991
 30
0.0
 11
51.5
 21
8.999999999999991
 31
0.0
  0
LINE
  5
34F
330
1E
100
AcDbEntity
  8
0
100
AcDbLine
 10
49.8269
 20
9.499999999999991
 30
0.0
 11
49.8269
 21
10.1
 31
0.0
  0
LINE
  5
350
330
1E
100
AcDbEntity
  8
0
100
AcDbLine
 10
52.6154
 20
8.999999999999991
 30
0.0
 11
57.0769
 21
7.49999999999999
 31
0.0
  0
LINE
  5
351
330
1E
100
AcDbEntity
  8
0
100
AcDbLine
 10
57.0769
 20
7.49999999999999
 30
0.0
 11
60.9808
 21
4.49999999999999
 31
0.0
  0
LINE
  5
352
330
1E
100
AcDbEntity
  8
0
100
AcDbLine
 10
60.9808
 20
4.49999999999999
 30
0.0
 11
62.6538
 21
1.999999999999989
 31
0.0
  0
LINE
  5
353
330
1E
100
AcDbEntity
  8
0
100
AcDbLine
 10
63.2115
 20
3.99999999999999
 30
0.0
 11
63.2115
 21
1.499999999999989
 31
0.0
  0
LINE
  5
354
330
1E
100
AcDbEntity
  8
0
100
AcDbLine
 10
63.2115
 20
3.99999999999999
 30
0.0
 11
63.2115
 21
8.29999999999999
 31
0.0
  0
LINE
  5
355
330
1E
100
AcDbEntity
  8
0
100
AcDbLine
 10
63.2115
 20
1.499999999999989
 30
0.0
 11
63.2115
 21
0.499999999999988
 31
0.0
  0
LINE
  5
356
330
1E
100
AcDbEntity
  8
0
100
AcDbLine
 10
63.2115
 20
1.499999999999989
 30
0.0
 11
63.2115
 21
3.99999999999999
 31
0.0
  0
LINE
  5
357
330
1E
100
AcDbEntity
  8
0
100
AcDbLine
 10
63.2115
 20
8.29999999999999
 30
0.0
 11
63.2115
 21
13.8
 31
0.0
  0
LINE
  5
358
330
1E
100
AcDbEntity
  8
0
100
AcDbLine
 10
63.2115
 20
8.29999999999999
 30
0.0
 11
63.2115
 21
3.99999999999999
 31
0.0
  0
LINE
  5
359
330
1E
100
AcDbEntity
  8
0
100
AcDbLine
 10
63.2115
 20
13.8
 30
0.0
 11
63.2115
 21
20.2
 31
0.0
  0
LINE
  5
35A
330
1E
100
AcDbEntity
  8
0
100
AcDbLine
 10
63.2115
 20
13.8
 30
0.0
 11
63.2115
 21
8.29999999999999
 31
0.0
  0
LINE
  5
35B
330
1E
100
AcDbEntity
  8
0
100
AcDbLine
 10
62.6538
 20
1.999999999999989
 30
0.0
 11
63.2115
 21
0.499999999999988
 31
0.0
  0
LINE
  5
35C
330
1E
100
AcDbEntity
  8
0
100
AcDbLine
 10
62.6538
 20
1.999999999999989
 30
0.0
 11
63.2115
 21
0.499999999999988
 31
0.0
  0
LINE
  5
35D
330
1E
100
AcDbEntity
  8
0
100
AcDbLine
 10
63.2115
 20
0.499999999999988
 30
0.0
 11
64.8846
 21
-0.0000000000000119
 31
0.0
  0
LINE
  5
35E
330
1E
100
AcDbEntity
  8
0
100
AcDbLine
 10
63.2115
 20
0.499999999999988
 30
0.0
 11
64.8846
 21
-0.0000000000000118
 31
0.0
  0
LINE
  5
35F
330
1E
100
AcDbEntity
  8
0
100
AcDbLine
 10
63.2115
 20
0.499999999999988
 30
0.0
 11
63.2115
 21
1.499999999999989
 31
0.0
  0
LINE
  5
360
330
1E
100
AcDbEntity
  8
0
100
AcDbLine
 10
66.0
 20
-0.0000000000000119
 30
0.0
 11
66.0
 21
0.9999999999999879
 31
0.0
  0
LINE
  5
361
330
1E
100
AcDbEntity
  8
0
100
AcDbLine
 10
66.0
 20
3.59999999999999
 30
0.0
 11
66.0
 21
0.9999999999999879
 31
0.0
  0
LINE
  5
362
330
1E
100
AcDbEntity
  8
0
100
AcDbLine
 10
66.0
 20
3.59999999999999
 30
0.0
 11
66.0
 21
7.89999999999999
 31
0.0
  0
LINE
  5
363
330
1E
100
AcDbEntity
  8
0
100
AcDbLine
 10
66.0
 20
0.9999999999999879
 30
0.0
 11
66.0
 21
-0.000000000000012
 31
0.0
  0
LINE
  5
364
330
1E
100
AcDbEntity
  8
0
100
AcDbLine
 10
66.0
 20
0.9999999999999879
 30
0.0
 11
66.0
 21
3.59999999999999
 31
0.0
  0
LINE
  5
365
330
1E
100
AcDbEntity
  8
0
100
AcDbLine
 10
66.0
 20
7.89999999999999
 30
0.0
 11
66.0
 21
13.6
 31
0.0
  0
LINE
  5
366
330
1E
100
AcDbEntity
  8
0
100
AcDbLine
 10
66.0
 20
7.89999999999999
 30
0.0
 11
66.0
 21
3.59999999999999
 31
0.0
  0
LINE
  5
367
330
1E
100
AcDbEntity
  8
0
100
AcDbLine
 10
66.0
 20
13.6
 30
0.0
 11
66.0
 21
7.89999999999999
 31
0.0
  0
LINE
  5
368
330
1E
100
AcDbEntity
  8
0
100
AcDbLine
 10
66.0
 20
13.6
 30
0.0
 11
66.0
 21
20.1
 31
0.0
  0
LINE
  5
369
330
1E
100
AcDbEntity
  8
0
100
AcDbLine
 10
64.8846
 20
-0.0000000000000119
 30
0.0
 11
66.0
 21
-0.0000000000000119
 31
0.0
  0
LINE
  5
36A
330
1E
100
AcDbEntity
  8
0
100
AcDbLine
 10
37.0
 20
20.5
 30
0.0
 11
37.0
 21
23.7
 31
0.0
  0
LINE
  5
36B
330
1E
100
AcDbEntity
  8
0
100
AcDbLine
 10
37.0
 20
23.7
 30
0.0
 11
37.0
 21
20.5
 31
0.0
  0
LINE
  5
36C
330
1E
100
AcDbEntity
  8
0
100
AcDbLine
 10
37.0
 20
23.7
 30
0.0
 11
37.0
 21
27.0
 31
0.0
  0
LINE
  5
36D
330
1E
100
AcDbEntity
  8
0
100
AcDbLine
 10
37.0
 20
22.0
 30
0.0
 11
37.0
 21
19.9
 31
0.0
  0
LINE
  5
36E
330
1E
100
AcDbEntity
  8
0
100
AcDbLine
 10
35.5
 20
137.5
 30
0.0
 11
37.0
 21
137.0
 31
0.0
  0
LINE
  5
36F
330
1E
100
AcDbEntity
  8
0
100
AcDbLine
 10
37.0
 20
30.3
 30
0.0
 11
37.0
 21
33.5
 31
0.0
  0
LINE
  5
370
330
1E
100
AcDbEntity
  8
0
100
AcDbLine
 10
37.0
 20
33.5
 30
0.0
 11
37.0
 21
30.3
 31
0.0
  0
LINE
  5
371
330
1E
100
AcDbEntity
  8
0
100
AcDbLine
 10
37.0
 20
35.7
 30
0.0
 11
37.0
 21
34.1
 31
0.0
  0
LINE
  5
372
330
1E
100
AcDbEntity
  8
0
100
AcDbLine
 10
35.5
 20
156.4999999999999
 30
0.0
 11
37.0
 21
157.0
 31
0.0
  0
LINE
  5
373
330
1E
100
AcDbEntity
  8
0
100
AcDbLine
 10
37.0
 20
39.5
 30
0.0
 11
37.0
 21
38.3
 31
0.0
  0
LINE
  5
374
330
1E
100
AcDbEntity
  8
0
100
AcDbLine
 10
37.0
 20
39.5
 30
0.0
 11
37.0
 21
40.0
 31
0.0
  0
LINE
  5
375
330
1E
100
AcDbEntity
  8
0
100
AcDbLine
 10
37.0
 20
38.3
 30
0.0
 11
37.0
 21
37.0
 31
0.0
  0
LINE
  5
376
330
1E
100
AcDbEntity
  8
0
100
AcDbLine
 10
37.0
 20
38.3
 30
0.0
 11
37.0
 21
39.5
 31
0.0
  0
LINE
  5
377
330
1E
100
AcDbEntity
  8
0
100
AcDbLine
 10
37.0
 20
40.0
 30
0.0
 11
37.5577
 21
41.5
 31
0.0
  0
LINE
  5
378
330
1E
100
AcDbEntity
  8
0
100
AcDbLine
 10
37.0
 20
40.0
 30
0.0
 11
37.0
 21
39.5
 31
0.0
  0
LINE
  5
379
330
1E
100
AcDbEntity
  8
0
100
AcDbLine
 10
37.0
 20
36.6
 30
0.0
 11
37.0
 21
35.7
 31
0.0
  0
LINE
  5
37A
330
1E
100
AcDbEntity
  8
0
100
AcDbLine
 10
37.0
 20
37.0
 30
0.0
 11
37.0
 21
36.6
 31
0.0
  0
LINE
  5
37B
330
1E
100
AcDbEntity
  8
0
100
AcDbLine
 10
37.0
 20
37.0
 30
0.0
 11
37.0
 21
38.3
 31
0.0
  0
LINE
  5
37C
330
1E
100
AcDbEntity
  8
0
100
AcDbLine
 10
37.0
 20
34.1
 30
0.0
 11
37.0
 21
32.0
 31
0.0
  0
LINE
  5
37D
330
1E
100
AcDbEntity
  8
0
100
AcDbLine
 10
37.0
 20
32.0
 30
0.0
 11
37.0
 21
29.6
 31
0.0
  0
LINE
  5
37E
330
1E
100
AcDbEntity
  8
0
100
AcDbLine
 10
37.0
 20
29.6
 30
0.0
 11
37.0
 21
27.0
 31
0.0
  0
LINE
  5
37F
330
1E
100
AcDbEntity
  8
0
100
AcDbLine
 10
35.5
 20
36.5
 30
0.0
 11
37.0
 21
37.0
 31
0.0
  0
LINE
  5
380
330
1E
100
AcDbEntity
  8
0
100
AcDbLine
 10
37.0
 20
24.39999999999999
 30
0.0
 11
37.0
 21
22.0
 31
0.0
  0
LINE
  5
381
330
1E
100
AcDbEntity
  8
0
100
AcDbLine
 10
37.0
 20
27.0
 30
0.0
 11
37.0
 21
24.39999999999999
 31
0.0
  0
LINE
  5
382
330
1E
100
AcDbEntity
  8
0
100
AcDbLine
 10
37.0
 20
27.0
 30
0.0
 11
37.0
 21
23.7
 31
0.0
  0
LINE
  5
383
330
1E
100
AcDbEntity
  8
0
100
AcDbLine
 10
37.0
 20
19.9
 30
0.0
 11
37.0
 21
18.3
 31
0.0
  0
LINE
  5
384
330
1E
100
AcDbEntity
  8
0
100
AcDbLine
 10
37.5577
 20
19.8
 30
0.0
 11
37.5577
 21
16.8
 31
0.0
  0
LINE
  5
385
330
1E
100
AcDbEntity
  8
0
100
AcDbLine
 10
37.5577
 20
19.8
 30
0.0
 11
37.5577
 21
23.3
 31
0.0
  0
LINE
  5
386
330
1E
100
AcDbEntity
  8
0
100
AcDbLine
 10
48.1538
 20
19.5
 30
0.0
 11
48.1538
 21
16.39999999999999
 31
0.0
  0
LINE
  5
387
330
1E
100
AcDbEntity
  8
0
100
AcDbLine
 10
48.1538
 20
19.5
 30
0.0
 11
48.1538
 21
23.1
 31
0.0
  0
LINE
  5
388
330
1E
100
AcDbEntity
  8
0
100
AcDbLine
 10
37.5577
 20
23.3
 30
0.0
 11
37.5577
 21
19.8
 31
0.0
  0
LINE
  5
389
330
1E
100
AcDbEntity
  8
0
100
AcDbLine
 10
37.5577
 20
23.3
 30
0.0
 11
37.5577
 21
27.0
 31
0.0
  0
LINE
  5
38A
330
1E
100
AcDbEntity
  8
0
100
AcDbLine
 10
37.5577
 20
27.0
 30
0.0
 11
37.5577
 21
23.3
 31
0.0
  0
LINE
  5
38B
330
1E
100
AcDbEntity
  8
0
100
AcDbLine
 10
37.5577
 20
27.0
 30
0.0
 11
37.5577
 21
30.7
 31
0.0
  0
LINE
  5
38C
330
1E
100
AcDbEntity
  8
0
100
AcDbLine
 10
48.1538
 20
23.1
 30
0.0
 11
48.1538
 21
19.5
 31
0.0
  0
LINE
  5
38D
330
1E
100
AcDbEntity
  8
0
100
AcDbLine
 10
48.1538
 20
23.1
 30
0.0
 11
48.1538
 21
27.0
 31
0.0
  0
LINE
  5
38E
330
1E
100
AcDbEntity
  8
0
100
AcDbLine
 10
48.1538
 20
27.0
 30
0.0
 11
48.1538
 21
23.1
 31
0.0
  0
LINE
  5
38F
330
1E
100
AcDbEntity
  8
0
100
AcDbLine
 10
48.1538
 20
27.0
 30
0.0
 11
48.1538
 21
30.89999999999999
 31
0.0
  0
LINE
  5
390
330
1E
100
AcDbEntity
  8
0
100
AcDbLine
 10
49.8269
 20
18.3
 30
0.0
 11
49.8269
 21
14.59999999999999
 31
0.0
  0
LINE
  5
391
330
1E
100
AcDbEntity
  8
0
100
AcDbLine
 10
49.8269
 20
18.3
 30
0.0
 11
49.8269
 21
22.5
 31
0.0
  0
LINE
  5
392
330
1E
100
AcDbEntity
  8
0
100
AcDbLine
 10
49.8269
 20
22.5
 30
0.0
 11
49.8269
 21
18.3
 31
0.0
  0
LINE
  5
393
330
1E
100
AcDbEntity
  8
0
100
AcDbLine
 10
49.8269
 20
22.5
 30
0.0
 11
49.8269
 21
27.0
 31
0.0
  0
LINE
  5
394
330
1E
100
AcDbEntity
  8
0
100
AcDbLine
 10
49.8269
 20
27.0
 30
0.0
 11
49.8269
 21
22.5
 31
0.0
  0
LINE
  5
395
330
1E
100
AcDbEntity
  8
0
100
AcDbLine
 10
49.8269
 20
27.0
 30
0.0
 11
49.8269
 21
31.5
 31
0.0
  0
LINE
  5
396
330
1E
100
AcDbEntity
  8
0
100
AcDbLine
 10
63.2115
 20
20.2
 30
0.0
 11
63.2115
 21
27.0
 31
0.0
  0
LINE
  5
397
330
1E
100
AcDbEntity
  8
0
100
AcDbLine
 10
63.2115
 20
27.0
 30
0.0
 11
63.2115
 21
20.2
 31
0.0
  0
LINE
  5
398
330
1E
100
AcDbEntity
  8
0
100
AcDbLine
 10
63.2115
 20
27.0
 30
0.0
 11
63.2115
 21
33.79999999999999
 31
0.0
  0
LINE
  5
399
330
1E
100
AcDbEntity
  8
0
100
AcDbLine
 10
66.0
 20
20.1
 30
0.0
 11
66.0
 21
13.6
 31
0.0
  0
LINE
  5
39A
330
1E
100
AcDbEntity
  8
0
100
AcDbLine
 10
66.0
 20
20.1
 30
0.0
 11
66.0
 21
27.0
 31
0.0
  0
LINE
  5
39B
330
1E
100
AcDbEntity
  8
0
100
AcDbLine
 10
37.5577
 20
34.2
 30
0.0
 11
37.5577
 21
30.7
 31
0.0
  0
LINE
  5
39C
330
1E
100
AcDbEntity
  8
0
100
AcDbLine
 10
37.5577
 20
34.2
 30
0.0
 11
37.5577
 21
37.2
 31
0.0
  0
LINE
  5
39D
330
1E
100
AcDbEntity
  8
0
100
AcDbLine
 10
37.5577
 20
30.7
 30
0.0
 11
37.5577
 21
27.0
 31
0.0
  0
LINE
  5
39E
330
1E
100
AcDbEntity
  8
0
100
AcDbLine
 10
37.5577
 20
30.7
 30
0.0
 11
37.5577
 21
34.2
 31
0.0
  0
LINE
  5
39F
330
1E
100
AcDbEntity
  8
0
100
AcDbLine
 10
37.5577
 20
37.2
 30
0.0
 11
37.5577
 21
39.6
 31
0.0
  0
LINE
  5
3A0
330
1E
100
AcDbEntity
  8
0
100
AcDbLine
 10
37.5577
 20
37.2
 30
0.0
 11
37.5577
 21
34.2
 31
0.0
  0
LINE
  5
3A1
330
1E
100
AcDbEntity
  8
0
100
AcDbLine
 10
37.5577
 20
39.6
 30
0.0
 11
37.5577
 21
37.2
 31
0.0
  0
LINE
  5
3A2
330
1E
100
AcDbEntity
  8
0
100
AcDbLine
 10
37.5577
 20
39.6
 30
0.0
 11
37.5577
 21
41.0
 31
0.0
  0
LINE
  5
3A3
330
1E
100
AcDbEntity
  8
0
100
AcDbLine
 10
37.5577
 20
41.0
 30
0.0
 11
37.5577
 21
39.6
 31
0.0
  0
LINE
  5
3A4
330
1E
100
AcDbEntity
  8
0
100
AcDbLine
 10
37.5577
 20
41.0
 30
0.0
 11
37.5577
 21
41.5
 31
0.0
  0
LINE
  5
3A5
330
1E
100
AcDbEntity
  8
0
100
AcDbLine
 10
37.5577
 20
41.5
 30
0.0
 11
39.2308
 21
42.0
 31
0.0
  0
LINE
  5
3A6
330
1E
100
AcDbEntity
  8
0
100
AcDbLine
 10
37.5577
 20
41.5
 30
0.0
 11
37.5577
 21
41.0
 31
0.0
  0
LINE
  5
3A7
330
1E
100
AcDbEntity
  8
0
100
AcDbLine
 10
48.1538
 20
34.5
 30
0.0
 11
48.1538
 21
30.89999999999999
 31
0.0
  0
LINE
  5
3A8
330
1E
100
AcDbEntity
  8
0
100
AcDbLine
 10
48.1538
 20
34.5
 30
0.0
 11
48.1538
 21
37.6
 31
0.0
  0
LINE
  5
3A9
330
1E
100
AcDbEntity
  8
0
100
AcDbLine
 10
48.1538
 20
30.89999999999999
 30
0.0
 11
48.1538
 21
27.0
 31
0.0
  0
LINE
  5
3AA
330
1E
100
AcDbEntity
  8
0
100
AcDbLine
 10
48.1538
 20
30.89999999999999
 30
0.0
 11
48.1538
 21
34.5
 31
0.0
  0
LINE
  5
3AB
330
1E
100
AcDbEntity
  8
0
100
AcDbLine
 10
48.1538
 20
37.6
 30
0.0
 11
48.1538
 21
40.0
 31
0.0
  0
LINE
  5
3AC
330
1E
100
AcDbEntity
  8
0
100
AcDbLine
 10
48.1538
 20
37.6
 30
0.0
 11
48.1538
 21
34.5
 31
0.0
  0
LINE
  5
3AD
330
1E
100
AcDbEntity
  8
0
100
AcDbLine
 10
48.1538
 20
40.0
 30
0.0
 11
48.1538
 21
37.6
 31
0.0
  0
LINE
  5
3AE
330
1E
100
AcDbEntity
  8
0
100
AcDbLine
 10
48.1538
 20
40.0
 30
0.0
 11
48.1538
 21
41.5
 31
0.0
  0
LINE
  5
3AF
330
1E
100
AcDbEntity
  8
0
100
AcDbLine
 10
48.1538
 20
41.5
 30
0.0
 11
48.1538
 21
40.0
 31
0.0
  0
LINE
  5
3B0
330
1E
100
AcDbEntity
  8
0
100
AcDbLine
 10
48.1538
 20
41.5
 30
0.0
 11
48.1538
 21
42.0
 31
0.0
  0
LINE
  5
3B1
330
1E
100
AcDbEntity
  8
0
100
AcDbLine
 10
39.2308
 20
42.0
 30
0.0
 11
48.1538
 21
42.0
 31
0.0
  0
LINE
  5
3B2
330
1E
100
AcDbEntity
  8
0
100
AcDbLine
 10
48.1538
 20
42.0
 30
0.0
 11
49.26919999999999
 21
43.0
 31
0.0
  0
LINE
  5
3B3
330
1E
100
AcDbEntity
  8
0
100
AcDbLine
 10
48.1538
 20
42.0
 30
0.0
 11
48.1538
 21
41.5
 31
0.0
  0
LINE
  5
3B4
330
1E
100
AcDbEntity
  8
0
100
AcDbLine
 10
49.8269
 20
35.7
 30
0.0
 11
49.8269
 21
31.5
 31
0.0
  0
LINE
  5
3B5
330
1E
100
AcDbEntity
  8
0
100
AcDbLine
 10
49.8269
 20
35.7
 30
0.0
 11
49.8269
 21
39.39999999999999
 31
0.0
  0
LINE
  5
3B6
330
1E
100
AcDbEntity
  8
0
100
AcDbLine
 10
49.8269
 20
31.5
 30
0.0
 11
49.8269
 21
27.0
 31
0.0
  0
LINE
  5
3B7
330
1E
100
AcDbEntity
  8
0
100
AcDbLine
 10
49.8269
 20
31.5
 30
0.0
 11
49.8269
 21
35.7
 31
0.0
  0
LINE
  5
3B8
330
1E
100
AcDbEntity
  8
0
100
AcDbLine
 10
49.8269
 20
39.39999999999999
 30
0.0
 11
49.8269
 21
42.2
 31
0.0
  0
LINE
  5
3B9
330
1E
100
AcDbEntity
  8
0
100
AcDbLine
 10
49.8269
 20
39.39999999999999
 30
0.0
 11
49.8269
 21
35.7
 31
0.0
  0
LINE
  5
3BA
330
1E
100
AcDbEntity
  8
0
100
AcDbLine
 10
49.8269
 20
42.2
 30
0.0
 11
49.8269
 21
39.39999999999999
 31
0.0
  0
LINE
  5
3BB
330
1E
100
AcDbEntity
  8
0
100
AcDbLine
 10
49.8269
 20
42.2
 30
0.0
 11
49.8269
 21
43.89999999999999
 31
0.0
  0
LINE
  5
3BC
330
1E
100
AcDbEntity
  8
0
100
AcDbLine
 10
49.8269
 20
43.89999999999999
 30
0.0
 11
49.8269
 21
42.2
 31
0.0
  0
LINE
  5
3BD
330
1E
100
AcDbEntity
  8
0
100
AcDbLine
 10
49.8269
 20
43.89999999999999
 30
0.0
 11
49.8269
 21
44.5
 31
0.0
  0
LINE
  5
3BE
330
1E
100
AcDbEntity
  8
0
100
AcDbLine
 10
49.26919999999999
 20
43.0
 30
0.0
 11
49.8269
 21
44.5
 31
0.0
  0
LINE
  5
3BF
330
1E
100
AcDbEntity
  8
0
100
AcDbLine
 10
49.8269
 20
44.5
 30
0.0
 11
51.5
 21
45.0
 31
0.0
  0
LINE
  5
3C0
330
1E
100
AcDbEntity
  8
0
100
AcDbLine
 10
49.8269
 20
44.5
 30
0.0
 11
49.8269
 21
43.89999999999999
 31
0.0
  0
LINE
  5
3C1
330
1E
100
AcDbEntity
  8
0
100
AcDbLine
 10
51.5
 20
45.0
 30
0.0
 11
52.6154
 21
45.0
 31
0.0
  0
LINE
  5
3C2
330
1E
100
AcDbEntity
  8
0
100
AcDbLine
 10
52.6154
 20
45.0
 30
0.0
 11
57.0769
 21
46.5
 31
0.0
  0
LINE
  5
3C3
330
1E
100
AcDbEntity
  8
0
100
AcDbLine
 10
57.0769
 20
46.5
 30
0.0
 11
60.9808
 21
49.5
 31
0.0
  0
LINE
  5
3C4
330
1E
100
AcDbEntity
  8
0
100
AcDbLine
 10
60.9808
 20
49.5
 30
0.0
 11
62.6538
 21
52.0
 31
0.0
  0
LINE
  5
3C5
330
1E
100
AcDbEntity
  8
0
100
AcDbLine
 10
63.2115
 20
40.2
 30
0.0
 11
63.2115
 21
33.79999999999999
 31
0.0
  0
LINE
  5
3C6
330
1E
100
AcDbEntity
  8
0
100
AcDbLine
 10
63.2115
 20
40.2
 30
0.0
 11
63.2115
 21
45.7
 31
0.0
  0
LINE
  5
3C7
330
1E
100
AcDbEntity
  8
0
100
AcDbLine
 10
63.2115
 20
33.79999999999999
 30
0.0
 11
63.2115
 21
27.0
 31
0.0
  0
LINE
  5
3C8
330
1E
100
AcDbEntity
  8
0
100
AcDbLine
 10
63.2115
 20
33.79999999999999
 30
0.0
 11
63.2115
 21
40.2
 31
0.0
  0
LINE
  5
3C9
330
1E
100
AcDbEntity
  8
0
100
AcDbLine
 10
63.2115
 20
45.7
 30
0.0
 11
63.2115
 21
50.0
 31
0.0
  0
LINE
  5
3CA
330
1E
100
AcDbEntity
  8
0
100
AcDbLine
 10
63.2115
 20
45.7
 30
0.0
 11
63.2115
 21
40.2
 31
0.0
  0
LINE
  5
3CB
330
1E
100
AcDbEntity
  8
0
100
AcDbLine
 10
63.2115
 20
50.0
 30
0.0
 11
63.2115
 21
45.7
 31
0.0
  0
LINE
  5
3CC
330
1E
100
AcDbEntity
  8
0
100
AcDbLine
 10
63.2115
 20
50.0
 30
0.0
 11
63.2115
 21
52.5
 31
0.0
  0
LINE
  5
3CD
330
1E
100
AcDbEntity
  8
0
100
AcDbLine
 10
63.2115
 20
52.5
 30
0.0
 11
63.2115
 21
50.0
 31
0.0
  0
LINE
  5
3CE
330
1E
100
AcDbEntity
  8
0
100
AcDbLine
 10
63.2115
 20
52.5
 30
0.0
 11
63.2115
 21
53.5
 31
0.0
  0
LINE
  5
3CF
330
1E
100
AcDbEntity
  8
0
100
AcDbLine
 10
62.6538
 20
52.0
 30
0.0
 11
63.2115
 21
53.5
 31
0.0
  0
LINE
  5
3D0
330
1E
100
AcDbEntity
  8
0
100
AcDbLine
 10
37.0
 20
135.6999999999999
 30
0.0
 11
37.0
 21
134.4999999999999
 31
0.0
  0
LINE
  5
3D1
330
1E
100
AcDbEntity
  8
0
100
AcDbLine
 10
37.0
 20
135.6999999999999
 30
0.0
 11
37.0
 21
137.8
 31
0.0
  0
LINE
  5
3D2
330
1E
100
AcDbEntity
  8
0
100
AcDbLine
 10
37.0
 20
134.4999999999999
 30
0.0
 11
37.0
 21
134.0
 31
0.0
  0
LINE
  5
3D3
330
1E
100
AcDbEntity
  8
0
100
AcDbLine
 10
37.0
 20
134.4999999999999
 30
0.0
 11
37.0
 21
135.6999999999999
 31
0.0
  0
LINE
  5
3D4
330
1E
100
AcDbEntity
  8
0
100
AcDbLine
 10
37.0
 20
134.0
 30
0.0
 11
37.5577
 21
132.4999999999999
 31
0.0
  0
LINE
  5
3D5
330
1E
100
AcDbEntity
  8
0
100
AcDbLine
 10
37.0
 20
134.0
 30
0.0
 11
37.0
 21
134.4999999999999
 31
0.0
  0
LINE
  5
3D6
330
1E
100
AcDbEntity
  8
0
100
AcDbLine
 10
37.0
 20
137.8
 30
0.0
 11
37.0
 21
140.5
 31
0.0
  0
LINE
  5
3D7
330
1E
100
AcDbEntity
  8
0
100
AcDbLine
 10
37.0
 20
137.8
 30
0.0
 11
37.0
 21
135.6999999999999
 31
0.0
  0
LINE
  5
3D8
330
1E
100
AcDbEntity
  8
0
100
AcDbLine
 10
37.0
 20
140.5
 30
0.0
 11
37.0
 21
137.8
 31
0.0
  0
LINE
  5
3D9
330
1E
100
AcDbEntity
  8
0
100
AcDbLine
 10
37.0
 20
140.5
 30
0.0
 11
37.0
 21
143.6999999999999
 31
0.0
  0
LINE
  5
3DA
330
1E
100
AcDbEntity
  8
0
100
AcDbLine
 10
37.0
 20
138.3
 30
0.0
 11
37.0
 21
139.9
 31
0.0
  0
LINE
  5
3DB
330
1E
100
AcDbEntity
  8
0
100
AcDbLine
 10
37.0
 20
137.4
 30
0.0
 11
37.0
 21
138.3
 31
0.0
  0
LINE
  5
3DC
330
1E
100
AcDbEntity
  8
0
100
AcDbLine
 10
37.0
 20
137.0
 30
0.0
 11
37.0
 21
137.4
 31
0.0
  0
LINE
  5
3DD
330
1E
100
AcDbEntity
  8
0
100
AcDbLine
 10
37.0
 20
139.9
 30
0.0
 11
37.0
 21
142.0
 31
0.0
  0
LINE
  5
3DE
330
1E
100
AcDbEntity
  8
0
100
AcDbLine
 10
37.0
 20
143.6999999999999
 30
0.0
 11
37.0
 21
140.5
 31
0.0
  0
LINE
  5
3DF
330
1E
100
AcDbEntity
  8
0
100
AcDbLine
 10
37.0
 20
143.6999999999999
 30
0.0
 11
37.0
 21
147.0
 31
0.0
  0
LINE
  5
3E0
330
1E
100
AcDbEntity
  8
0
100
AcDbLine
 10
37.0
 20
153.5
 30
0.0
 11
37.0
 21
150.3
 31
0.0
  0
LINE
  5
3E1
330
1E
100
AcDbEntity
  8
0
100
AcDbLine
 10
37.0
 20
153.5
 30
0.0
 11
37.0
 21
156.1999999999999
 31
0.0
  0
LINE
  5
3E2
330
1E
100
AcDbEntity
  8
0
100
AcDbLine
 10
37.0
 20
150.3
 30
0.0
 11
37.0
 21
147.0
 31
0.0
  0
LINE
  5
3E3
330
1E
100
AcDbEntity
  8
0
100
AcDbLine
 10
37.0
 20
150.3
 30
0.0
 11
37.0
 21
153.5
 31
0.0
  0
LINE
  5
3E4
330
1E
100
AcDbEntity
  8
0
100
AcDbLine
 10
37.0
 20
156.1999999999999
 30
0.0
 11
37.0
 21
158.3
 31
0.0
  0
LINE
  5
3E5
330
1E
100
AcDbEntity
  8
0
100
AcDbLine
 10
37.0
 20
156.1999999999999
 30
0.0
 11
37.0
 21
153.5
 31
0.0
  0
LINE
  5
3E6
330
1E
100
AcDbEntity
  8
0
100
AcDbLine
 10
37.0
 20
154.0999999999999
 30
0.0
 11
37.0
 21
155.6999999999999
 31
0.0
  0
LINE
  5
3E7
330
1E
100
AcDbEntity
  8
0
100
AcDbLine
 10
37.0
 20
155.6999999999999
 30
0.0
 11
37.0
 21
156.6
 31
0.0
  0
LINE
  5
3E8
330
1E
100
AcDbEntity
  8
0
100
AcDbLine
 10
37.0
 20
158.3
 30
0.0
 11
37.0
 21
156.1999999999999
 31
0.0
  0
LINE
  5
3E9
330
1E
100
AcDbEntity
  8
0
100
AcDbLine
 10
37.0
 20
158.3
 30
0.0
 11
37.0
 21
159.4999999999999
 31
0.0
  0
LINE
  5
3EA
330
1E
100
AcDbEntity
  8
0
100
AcDbLine
 10
37.0
 20
159.4999999999999
 30
0.0
 11
37.0
 21
158.3
 31
0.0
  0
LINE
  5
3EB
330
1E
100
AcDbEntity
  8
0
100
AcDbLine
 10
37.0
 20
159.4999999999999
 30
0.0
 11
37.0
 21
160.0
 31
0.0
  0
LINE
  5
3EC
330
1E
100
AcDbEntity
  8
0
100
AcDbLine
 10
37.0
 20
160.0
 30
0.0
 11
37.5577
 21
161.5
 31
0.0
  0
LINE
  5
3ED
330
1E
100
AcDbEntity
  8
0
100
AcDbLine
 10
37.0
 20
160.0
 30
0.0
 11
37.0
 21
159.4999999999999
 31
0.0
  0
LINE
  5
3EE
330
1E
100
AcDbEntity
  8
0
100
AcDbLine
 10
37.0
 20
156.6
 30
0.0
 11
37.0
 21
157.0
 31
0.0
  0
LINE
  5
3EF
330
1E
100
AcDbEntity
  8
0
100
AcDbLine
 10
37.0
 20
152.0
 30
0.0
 11
37.0
 21
154.0999999999999
 31
0.0
  0
LINE
  5
3F0
330
1E
100
AcDbEntity
  8
0
100
AcDbLine
 10
37.0
 20
149.5999999999999
 30
0.0
 11
37.0
 21
152.0
 31
0.0
  0
LINE
  5
3F1
330
1E
100
AcDbEntity
  8
0
100
AcDbLine
 10
37.0
 20
147.0
 30
0.0
 11
37.0
 21
149.5999999999999
 31
0.0
  0
LINE
  5
3F2
330
1E
100
AcDbEntity
  8
0
100
AcDbLine
 10
37.0
 20
147.0
 30
0.0
 11
37.0
 21
143.6999999999999
 31
0.0
  0
LINE
  5
3F3
330
1E
100
AcDbEntity
  8
0
100
AcDbLine
 10
37.0
 20
147.0
 30
0.0
 11
37.0
 21
150.3
 31
0.0
  0
LINE
  5
3F4
330
1E
100
AcDbEntity
  8
0
100
AcDbLine
 10
37.0
 20
142.0
 30
0.0
 11
37.0
 21
144.4
 31
0.0
  0
LINE
  5
3F5
330
1E
100
AcDbEntity
  8
0
100
AcDbLine
 10
63.2115
 20
121.5
 30
0.0
 11
63.2115
 21
120.5
 31
0.0
  0
LINE
  5
3F6
330
1E
100
AcDbEntity
  8
0
100
AcDbLine
 10
63.2115
 20
121.5
 30
0.0
 11
63.2115
 21
124.0
 31
0.0
  0
LINE
  5
3F7
330
1E
100
AcDbEntity
  8
0
100
AcDbLine
 10
49.8269
 20
130.0999999999999
 30
0.0
 11
49.8269
 21
129.4999999999999
 31
0.0
  0
LINE
  5
3F8
330
1E
100
AcDbEntity
  8
0
100
AcDbLine
 10
49.8269
 20
130.0999999999999
 30
0.0
 11
49.8269
 21
131.8
 31
0.0
  0
LINE
  5
3F9
330
1E
100
AcDbEntity
  8
0
100
AcDbLine
 10
37.5577
 20
134.4
 30
0.0
 11
37.5577
 21
133.0
 31
0.0
  0
LINE
  5
3FA
330
1E
100
AcDbEntity
  8
0
100
AcDbLine
 10
37.5577
 20
134.4
 30
0.0
 11
37.5577
 21
136.8
 31
0.0
  0
LINE
  5
3FB
330
1E
100
AcDbEntity
  8
0
100
AcDbLine
 10
37.5577
 20
133.0
 30
0.0
 11
37.5577
 21
132.4999999999999
 31
0.0
  0
LINE
  5
3FC
330
1E
100
AcDbEntity
  8
0
100
AcDbLine
 10
37.5577
 20
133.0
 30
0.0
 11
37.5577
 21
134.4
 31
0.0
  0
LINE
  5
3FD
330
1E
100
AcDbEntity
  8
0
100
AcDbLine
 10
37.5577
 20
136.8
 30
0.0
 11
37.5577
 21
139.8
 31
0.0
  0
LINE
  5
3FE
330
1E
100
AcDbEntity
  8
0
100
AcDbLine
 10
37.5577
 20
136.8
 30
0.0
 11
37.5577
 21
134.4
 31
0.0
  0
LINE
  5
3FF
330
1E
100
AcDbEntity
  8
0
100
AcDbLine
 10
37.5577
 20
139.8
 30
0.0
 11
37.5577
 21
136.8
 31
0.0
  0
LINE
  5
400
330
1E
100
AcDbEntity
  8
0
100
AcDbLine
 10
37.5577
 20
139.8
 30
0.0
 11
37.5577
 21
143.3
 31
0.0
  0
LINE
  5
401
330
1E
100
AcDbEntity
  8
0
100
AcDbLine
 10
37.5577
 20
143.3
 30
0.0
 11
37.5577
 21
139.8
 31
0.0
  0
LINE
  5
402
330
1E
100
AcDbEntity
  8
0
100
AcDbLine
 10
37.5577
 20
143.3
 30
0.0
 11
37.5577
 21
147.0
 31
0.0
  0
LINE
  5
403
330
1E
100
AcDbEntity
  8
0
100
AcDbLine
 10
37.5577
 20
154.1999999999999
 30
0.0
 11
37.5577
 21
150.6999999999999
 31
0.0
  0
LINE
  5
404
330
1E
100
AcDbEntity
  8
0
100
AcDbLine
 10
37.5577
 20
154.1999999999999
 30
0.0
 11
37.5577
 21
157.1999999999999
 31
0.0
  0
LINE
  5
405
330
1E
100
AcDbEntity
  8
0
100
AcDbLine
 10
37.5577
 20
150.6999999999999
 30
0.0
 11
37.5577
 21
147.0
 31
0.0
  0
LINE
  5
406
330
1E
100
AcDbEntity
  8
0
100
AcDbLine
 10
37.5577
 20
150.6999999999999
 30
0.0
 11
37.5577
 21
154.1999999999999
 31
0.0
  0
LINE
  5
407
330
1E
100
AcDbEntity
  8
0
100
AcDbLine
 10
37.5577
 20
157.1999999999999
 30
0.0
 11
37.5577
 21
159.6
 31
0.0
  0
LINE
  5
408
330
1E
100
AcDbEntity
  8
0
100
AcDbLine
 10
37.5577
 20
157.1999999999999
 30
0.0
 11
37.5577
 21
154.1999999999999
 31
0.0
  0
LINE
  5
409
330
1E
100
AcDbEntity
  8
0
100
AcDbLine
 10
37.5577
 20
159.6
 30
0.0
 11
37.5577
 21
157.1999999999999
 31
0.0
  0
LINE
  5
40A
330
1E
100
AcDbEntity
  8
0
100
AcDbLine
 10
37.5577
 20
159.6
 30
0.0
 11
37.5577
 21
161.0
 31
0.0
  0
LINE
  5
40B
330
1E
100
AcDbEntity
  8
0
100
AcDbLine
 10
37.5577
 20
161.0
 30
0.0
 11
37.5577
 21
159.6
 31
0.0
  0
LINE
  5
40C
330
1E
100
AcDbEntity
  8
0
100
AcDbLine
 10
37.5577
 20
161.0
 30
0.0
 11
37.5577
 21
161.5
 31
0.0
  0
LINE
  5
40D
330
1E
100
AcDbEntity
  8
0
100
AcDbLine
 10
37.5577
 20
161.5
 30
0.0
 11
39.2308
 21
162.0
 31
0.0
  0
LINE
  5
40E
330
1E
100
AcDbEntity
  8
0
100
AcDbLine
 10
37.5577
 20
161.5
 30
0.0
 11
37.5577
 21
161.0
 31
0.0
  0
LINE
  5
40F
330
1E
100
AcDbEntity
  8
0
100
AcDbLine
 10
37.5577
 20
147.0
 30
0.0
 11
37.5577
 21
143.3
 31
0.0
  0
LINE
  5
410
330
1E
100
AcDbEntity
  8
0
100
AcDbLine
 10
37.5577
 20
147.0
 30
0.0
 11
37.5577
 21
150.6999999999999
 31
0.0
  0
LINE
  5
411
330
1E
100
AcDbEntity
  8
0
100
AcDbLine
 10
48.1538
 20
134.0
 30
0.0
 11
48.1538
 21
132.4999999999999
 31
0.0
  0
LINE
  5
412
330
1E
100
AcDbEntity
  8
0
100
AcDbLine
 10
48.1538
 20
134.0
 30
0.0
 11
48.1538
 21
136.4
 31
0.0
  0
LINE
  5
413
330
1E
100
AcDbEntity
  8
0
100
AcDbLine
 10
48.1538
 20
132.4999999999999
 30
0.0
 11
48.1538
 21
132.0
 31
0.0
  0
LINE
  5
414
330
1E
100
AcDbEntity
  8
0
100
AcDbLine
 10
48.1538
 20
132.4999999999999
 30
0.0
 11
48.1538
 21
134.0
 31
0.0
  0
LINE
  5
415
330
1E
100
AcDbEntity
  8
0
100
AcDbLine
 10
48.1538
 20
136.4
 30
0.0
 11
48.1538
 21
139.5
 31
0.0
  0
LINE
  5
416
330
1E
100
AcDbEntity
  8
0
100
AcDbLine
 10
48.1538
 20
136.4
 30
0.0
 11
48.1538
 21
134.0
 31
0.0
  0
LINE
  5
417
330
1E
100
AcDbEntity
  8
0
100
AcDbLine
 10
48.1538
 20
139.5
 30
0.0
 11
48.1538
 21
136.4
 31
0.0
  0
LINE
  5
418
330
1E
100
AcDbEntity
  8
0
100
AcDbLine
 10
48.1538
 20
139.5
 30
0.0
 11
48.1538
 21
143.1
 31
0.0
  0
LINE
  5
419
330
1E
100
AcDbEntity
  8
0
100
AcDbLine
 10
48.1538
 20
143.1
 30
0.0
 11
48.1538
 21
139.5
 31
0.0
  0
LINE
  5
41A
330
1E
100
AcDbEntity
  8
0
100
AcDbLine
 10
48.1538
 20
143.1
 30
0.0
 11
48.1538
 21
147.0
 31
0.0
  0
LINE
  5
41B
330
1E
100
AcDbEntity
  8
0
100
AcDbLine
 10
48.1538
 20
154.4999999999999
 30
0.0
 11
48.1538
 21
150.9
 31
0.0
  0
LINE
  5
41C
330
1E
100
AcDbEntity
  8
0
100
AcDbLine
 10
48.1538
 20
154.4999999999999
 30
0.0
 11
48.1538
 21
157.6
 31
0.0
  0
LINE
  5
41D
330
1E
100
AcDbEntity
  8
0
100
AcDbLine
 10
48.1538
 20
150.9
 30
0.0
 11
48.1538
 21
147.0
 31
0.0
  0
LINE
  5
41E
330
1E
100
AcDbEntity
  8
0
100
AcDbLine
 10
48.1538
 20
150.9
 30
0.0
 11
48.1538
 21
154.4999999999999
 31
0.0
  0
LINE
  5
41F
330
1E
100
AcDbEntity
  8
0
100
AcDbLine
 10
48.1538
 20
157.6
 30
0.0
 11
48.1538
 21
160.0
 31
0.0
  0
LINE
  5
420
330
1E
100
AcDbEntity
  8
0
100
AcDbLine
 10
48.1538
 20
157.6
 30
0.0
 11
48.1538
 21
154.4999999999999
 31
0.0
  0
LINE
  5
421
330
1E
100
AcDbEntity
  8
0
100
AcDbLine
 10
48.1538
 20
160.0
 30
0.0
 11
48.1538
 21
157.6
 31
0.0
  0
LINE
  5
422
330
1E
100
AcDbEntity
  8
0
100
AcDbLine
 10
48.1538
 20
160.0
 30
0.0
 11
48.1538
 21
161.5
 31
0.0
  0
LINE
  5
423
330
1E
100
AcDbEntity
  8
0
100
AcDbLine
 10
48.1538
 20
161.5
 30
0.0
 11
48.1538
 21
160.0
 31
0.0
  0
LINE
  5
424
330
1E
100
AcDbEntity
  8
0
100
AcDbLine
 10
48.1538
 20
161.5
 30
0.0
 11
48.1538
 21
162.0
 31
0.0
  0
LINE
  5
425
330
1E
100
AcDbEntity
  8
0
100
AcDbLine
 10
39.2308
 20
162.0
 30
0.0
 11
48.1538
 21
162.0
 31
0.0
  0
LINE
  5
426
330
1E
100
AcDbEntity
  8
0
100
AcDbLine
 10
48.1538
 20
162.0
 30
0.0
 11
49.26919999999999
 21
163.0
 31
0.0
  0
LINE
  5
427
330
1E
100
AcDbEntity
  8
0
100
AcDbLine
 10
48.1538
 20
162.0
 30
0.0
 11
48.1538
 21
161.5
 31
0.0
  0
LINE
  5
428
330
1E
100
AcDbEntity
  8
0
100
AcDbLine
 10
48.1538
 20
147.0
 30
0.0
 11
48.1538
 21
143.1
 31
0.0
  0
LINE
  5
429
330
1E
100
AcDbEntity
  8
0
100
AcDbLine
 10
48.1538
 20
147.0
 30
0.0
 11
48.1538
 21
150.9
 31
0.0
  0
LINE
  5
42A
330
1E
100
AcDbEntity
  8
0
100
AcDbLine
 10
37.5577
 20
132.4999999999999
 30
0.0
 11
39.2308
 21
132.0
 31
0.0
  0
LINE
  5
42B
330
1E
100
AcDbEntity
  8
0
100
AcDbLine
 10
37.5577
 20
132.4999999999999
 30
0.0
 11
37.5577
 21
133.0
 31
0.0
  0
LINE
  5
42C
330
1E
100
AcDbEntity
  8
0
100
AcDbLine
 10
39.2308
 20
132.0
 30
0.0
 11
48.1538
 21
132.0
 31
0.0
  0
LINE
  5
42D
330
1E
100
AcDbEntity
  8
0
100
AcDbLine
 10
49.8269
 20
131.8
 30
0.0
 11
49.8269
 21
130.0999999999999
 31
0.0
  0
LINE
  5
42E
330
1E
100
AcDbEntity
  8
0
100
AcDbLine
 10
49.8269
 20
131.8
 30
0.0
 11
49.8269
 21
134.5999999999999
 31
0.0
  0
LINE
  5
42F
330
1E
100
AcDbEntity
  8
0
100
AcDbLine
 10
49.8269
 20
134.5999999999999
 30
0.0
 11
49.8269
 21
138.3
 31
0.0
  0
LINE
  5
430
330
1E
100
AcDbEntity
  8
0
100
AcDbLine
 10
49.8269
 20
134.5999999999999
 30
0.0
 11
49.8269
 21
131.8
 31
0.0
  0
LINE
  5
431
330
1E
100
AcDbEntity
  8
0
100
AcDbLine
 10
49.8269
 20
138.3
 30
0.0
 11
49.8269
 21
134.5999999999999
 31
0.0
  0
LINE
  5
432
330
1E
100
AcDbEntity
  8
0
100
AcDbLine
 10
49.8269
 20
138.3
 30
0.0
 11
49.8269
 21
142.5
 31
0.0
  0
LINE
  5
433
330
1E
100
AcDbEntity
  8
0
100
AcDbLine
 10
49.8269
 20
142.5
 30
0.0
 11
49.8269
 21
138.3
 31
0.0
  0
LINE
  5
434
330
1E
100
AcDbEntity
  8
0
100
AcDbLine
 10
49.8269
 20
142.5
 30
0.0
 11
49.8269
 21
147.0
 31
0.0
  0
LINE
  5
435
330
1E
100
AcDbEntity
  8
0
100
AcDbLine
 10
49.8269
 20
155.6999999999999
 30
0.0
 11
49.8269
 21
151.5
 31
0.0
  0
LINE
  5
436
330
1E
100
AcDbEntity
  8
0
100
AcDbLine
 10
49.8269
 20
155.6999999999999
 30
0.0
 11
49.8269
 21
159.4
 31
0.0
  0
LINE
  5
437
330
1E
100
AcDbEntity
  8
0
100
AcDbLine
 10
49.8269
 20
151.5
 30
0.0
 11
49.8269
 21
147.0
 31
0.0
  0
LINE
  5
438
330
1E
100
AcDbEntity
  8
0
100
AcDbLine
 10
49.8269
 20
151.5
 30
0.0
 11
49.8269
 21
155.6999999999999
 31
0.0
  0
LINE
  5
439
330
1E
100
AcDbEntity
  8
0
100
AcDbLine
 10
49.8269
 20
159.4
 30
0.0
 11
49.8269
 21
162.1999999999999
 31
0.0
  0
LINE
  5
43A
330
1E
100
AcDbEntity
  8
0
100
AcDbLine
 10
49.8269
 20
159.4
 30
0.0
 11
49.8269
 21
155.6999999999999
 31
0.0
  0
LINE
  5
43B
330
1E
100
AcDbEntity
  8
0
100
AcDbLine
 10
49.8269
 20
162.1999999999999
 30
0.0
 11
49.8269
 21
159.4
 31
0.0
  0
LINE
  5
43C
330
1E
100
AcDbEntity
  8
0
100
AcDbLine
 10
49.8269
 20
162.1999999999999
 30
0.0
 11
49.8269
 21
163.9
 31
0.0
  0
LINE
  5
43D
330
1E
100
AcDbEntity
  8
0
100
AcDbLine
 10
49.8269
 20
163.9
 30
0.0
 11
49.8269
 21
162.1999999999999
 31
0.0
  0
LINE
  5
43E
330
1E
100
AcDbEntity
  8
0
100
AcDbLine
 10
49.8269
 20
163.9
 30
0.0
 11
49.8269
 21
164.5
 31
0.0
  0
LINE
  5
43F
330
1E
100
AcDbEntity
  8
0
100
AcDbLine
 10
49.26919999999999
 20
163.0
 30
0.0
 11
49.8269
 21
164.5
 31
0.0
  0
LINE
  5
440
330
1E
100
AcDbEntity
  8
0
100
AcDbLine
 10
49.8269
 20
164.5
 30
0.0
 11
51.5
 21
165.0
 31
0.0
  0
LINE
  5
441
330
1E
100
AcDbEntity
  8
0
100
AcDbLine
 10
49.8269
 20
164.5
 30
0.0
 11
49.8269
 21
163.9
 31
0.0
  0
LINE
  5
442
330
1E
100
AcDbEntity
  8
0
100
AcDbLine
 10
49.8269
 20
147.0
 30
0.0
 11
49.8269
 21
142.5
 31
0.0
  0
LINE
  5
443
330
1E
100
AcDbEntity
  8
0
100
AcDbLine
 10
49.8269
 20
147.0
 30
0.0
 11
49.8269
 21
151.5
 31
0.0
  0
LINE
  5
444
330
1E
100
AcDbEntity
  8
0
100
AcDbLine
 10
48.1538
 20
132.0
 30
0.0
 11
49.26919999999999
 21
131.0
 31
0.0
  0
LINE
  5
445
330
1E
100
AcDbEntity
  8
0
100
AcDbLine
 10
48.1538
 20
132.0
 30
0.0
 11
48.1538
 21
132.4999999999999
 31
0.0
  0
LINE
  5
446
330
1E
100
AcDbEntity
  8
0
100
AcDbLine
 10
49.26919999999999
 20
131.0
 30
0.0
 11
49.8269
 21
129.4999999999999
 31
0.0
  0
LINE
  5
447
330
1E
100
AcDbEntity
  8
0
100
AcDbLine
 10
51.5
 20
165.0
 30
0.0
 11
52.6154
 21
165.0
 31
0.0
  0
LINE
  5
448
330
1E
100
AcDbEntity
  8
0
100
AcDbLine
 10
49.8269
 20
129.4999999999999
 30
0.0
 11
51.5
 21
129.0
 31
0.0
  0
LINE
  5
449
330
1E
100
AcDbEntity
  8
0
100
AcDbLine
 10
49.8269
 20
129.4999999999999
 30
0.0
 11
49.8269
 21
130.0999999999999
 31
0.0
  0
LINE
  5
44A
330
1E
100
AcDbEntity
  8
0
100
AcDbLine
 10
51.5
 20
129.0
 30
0.0
 11
52.6154
 21
129.0
 31
0.0
  0
LINE
  5
44B
330
1E
100
AcDbEntity
  8
0
100
AcDbLine
 10
52.6154
 20
165.0
 30
0.0
 11
57.0769
 21
166.5
 31
0.0
  0
LINE
  5
44C
330
1E
100
AcDbEntity
  8
0
100
AcDbLine
 10
57.0769
 20
166.5
 30
0.0
 11
60.9808
 21
169.5
 31
0.0
  0
LINE
  5
44D
330
1E
100
AcDbEntity
  8
0
100
AcDbLine
 10
52.6154
 20
129.0
 30
0.0
 11
57.0769
 21
127.5
 31
0.0
  0
LINE
  5
44E
330
1E
100
AcDbEntity
  8
0
100
AcDbLine
 10
57.0769
 20
127.5
 30
0.0
 11
60.9808
 21
124.5
 31
0.0
  0
LINE
  5
44F
330
1E
100
AcDbEntity
  8
0
100
AcDbLine
 10
63.2115
 20
124.0
 30
0.0
 11
63.2115
 21
121.5
 31
0.0
  0
LINE
  5
450
330
1E
100
AcDbEntity
  8
0
100
AcDbLine
 10
63.2115
 20
124.0
 30
0.0
 11
63.2115
 21
128.3
 31
0.0
  0
LINE
  5
451
330
1E
100
AcDbEntity
  8
0
100
AcDbLine
 10
63.2115
 20
128.3
 30
0.0
 11
63.2115
 21
133.8
 31
0.0
  0
LINE
  5
452
330
1E
100
AcDbEntity
  8
0
100
AcDbLine
 10
63.2115
 20
128.3
 30
0.0
 11
63.2115
 21
124.0
 31
0.0
  0
LINE
  5
453
330
1E
100
AcDbEntity
  8
0
100
AcDbLine
 10
60.9808
 20
169.5
 30
0.0
 11
62.6538
 21
172.0
 31
0.0
  0
LINE
  5
454
330
1E
100
AcDbEntity
  8
0
100
AcDbLine
 10
62.6538
 20
172.0
 30
0.0
 11
63.2115
 21
173.5
 31
0.0
  0
LINE
  5
455
330
1E
100
AcDbEntity
  8
0
100
AcDbLine
 10
63.2115
 20
133.8
 30
0.0
 11
63.2115
 21
140.1999999999999
 31
0.0
  0
LINE
  5
456
330
1E
100
AcDbEntity
  8
0
100
AcDbLine
 10
63.2115
 20
133.8
 30
0.0
 11
63.2115
 21
128.3
 31
0.0
  0
LINE
  5
457
330
1E
100
AcDbEntity
  8
0
100
AcDbLine
 10
60.9808
 20
124.5
 30
0.0
 11
62.6538
 21
122.0
 31
0.0
  0
LINE
  5
458
330
1E
100
AcDbEntity
  8
0
100
AcDbLine
 10
62.6538
 20
122.0
 30
0.0
 11
63.2115
 21
120.5
 31
0.0
  0
LINE
  5
459
330
1E
100
AcDbEntity
  8
0
100
AcDbLine
 10
63.2115
 20
140.1999999999999
 30
0.0
 11
63.2115
 21
147.0
 31
0.0
  0
LINE
  5
45A
330
1E
100
AcDbEntity
  8
0
100
AcDbLine
 10
63.2115
 20
160.1999999999999
 30
0.0
 11
63.2115
 21
153.8
 31
0.0
  0
LINE
  5
45B
330
1E
100
AcDbEntity
  8
0
100
AcDbLine
 10
63.2115
 20
160.1999999999999
 30
0.0
 11
63.2115
 21
165.7
 31
0.0
  0
LINE
  5
45C
330
1E
100
AcDbEntity
  8
0
100
AcDbLine
 10
63.2115
 20
153.8
 30
0.0
 11
63.2115
 21
147.0
 31
0.0
  0
LINE
  5
45D
330
1E
100
AcDbEntity
  8
0
100
AcDbLine
 10
63.2115
 20
153.8
 30
0.0
 11
63.2115
 21
160.1999999999999
 31
0.0
  0
LINE
  5
45E
330
1E
100
AcDbEntity
  8
0
100
AcDbLine
 10
63.2115
 20
165.7
 30
0.0
 11
63.2115
 21
170.0
 31
0.0
  0
LINE
  5
45F
330
1E
100
AcDbEntity
  8
0
100
AcDbLine
 10
63.2115
 20
165.7
 30
0.0
 11
63.2115
 21
160.1999999999999
 31
0.0
  0
LINE
  5
460
330
1E
100
AcDbEntity
  8
0
100
AcDbLine
 10
63.2115
 20
170.0
 30
0.0
 11
63.2115
 21
165.7
 31
0.0
  0
LINE
  5
461
330
1E
100
AcDbEntity
  8
0
100
AcDbLine
 10
63.2115
 20
170.0
 30
0.0
 11
63.2115
 21
172.5
 31
0.0
  0
LINE
  5
462
330
1E
100
AcDbEntity
  8
0
100
AcDbLine
 10
63.2115
 20
172.5
 30
0.0
 11
63.2115
 21
170.0
 31
0.0
  0
LINE
  5
463
330
1E
100
AcDbEntity
  8
0
100
AcDbLine
 10
63.2115
 20
172.5
 30
0.0
 11
63.2115
 21
173.5
 31
0.0
  0
LINE
  5
464
330
1E
100
AcDbEntity
  8
0
100
AcDbLine
 10
63.2115
 20
173.5
 30
0.0
 11
64.8846
 21
174.0
 31
0.0
  0
LINE
  5
465
330
1E
100
AcDbEntity
  8
0
100
AcDbLine
 10
63.2115
 20
173.5
 30
0.0
 11
63.2115
 21
172.5
 31
0.0
  0
LINE
  5
466
330
1E
100
AcDbEntity
  8
0
100
AcDbLine
 10
63.2115
 20
147.0
 30
0.0
 11
63.2115
 21
140.1999999999999
 31
0.0
  0
LINE
  5
467
330
1E
100
AcDbEntity
  8
0
100
AcDbLine
 10
63.2115
 20
147.0
 30
0.0
 11
63.2115
 21
153.8
 31
0.0
  0
LINE
  5
468
330
1E
100
AcDbEntity
  8
0
100
AcDbLine
 10
63.2115
 20
120.5
 30
0.0
 11
64.8846
 21
120.0
 31
0.0
  0
LINE
  5
469
330
1E
100
AcDbEntity
  8
0
100
AcDbLine
 10
63.2115
 20
120.5
 30
0.0
 11
63.2115
 21
121.5
 31
0.0
  0
LINE
  5
46A
330
1E
100
AcDbEntity
  8
0
100
AcDbLine
 10
64.8846
 20
120.0
 30
0.0
 11
66.0
 21
120.0
 31
0.0
  0
LINE
  5
46B
330
1E
100
AcDbEntity
  8
0
100
AcDbLine
 10
37.0
 20
144.4
 30
0.0
 11
37.0
 21
147.0
 31
0.0
  0
LINE
  5
46C
330
1E
100
AcDbEntity
  8
0
100
AcDbLine
 10
63.2115
 20
53.5
 30
0.0
 11
64.8846
 21
54.0
 31
0.0
  0
LINE
  5
46D
330
1E
100
AcDbEntity
  8
0
100
AcDbLine
 10
63.2115
 20
53.5
 30
0.0
 11
63.2115
 21
52.5
 31
0.0
  0
LINE
  5
46E
330
1E
100
AcDbEntity
  8
0
100
AcDbLine
 10
66.0
 20
33.9
 30
0.0
 11
66.0
 21
27.0
 31
0.0
  0
LINE
  5
46F
330
1E
100
AcDbEntity
  8
0
100
AcDbLine
 10
66.0
 20
33.9
 30
0.0
 11
66.0
 21
40.4
 31
0.0
  0
LINE
  5
470
330
1E
100
AcDbEntity
  8
0
100
AcDbLine
 10
66.0
 20
46.1
 30
0.0
 11
66.0
 21
50.4
 31
0.0
  0
LINE
  5
471
330
1E
100
AcDbEntity
  8
0
100
AcDbLine
 10
66.0
 20
50.4
 30
0.0
 11
66.0
 21
46.1
 31
0.0
  0
LINE
  5
472
330
1E
100
AcDbEntity
  8
0
100
AcDbLine
 10
66.0
 20
50.4
 30
0.0
 11
66.0
 21
53.0
 31
0.0
  0
LINE
  5
473
330
1E
100
AcDbEntity
  8
0
100
AcDbLine
 10
66.0
 20
120.0
 30
0.0
 11
66.0
 21
121.0
 31
0.0
  0
LINE
  5
474
330
1E
100
AcDbEntity
  8
0
100
AcDbLine
 10
66.0
 20
123.5999999999999
 30
0.0
 11
66.0
 21
121.0
 31
0.0
  0
LINE
  5
475
330
1E
100
AcDbEntity
  8
0
100
AcDbLine
 10
66.0
 20
123.5999999999999
 30
0.0
 11
66.0
 21
127.9
 31
0.0
  0
LINE
  5
476
330
1E
100
AcDbEntity
  8
0
100
AcDbLine
 10
66.0
 20
121.0
 30
0.0
 11
66.0
 21
120.0
 31
0.0
  0
LINE
  5
477
330
1E
100
AcDbEntity
  8
0
100
AcDbLine
 10
66.0
 20
121.0
 30
0.0
 11
66.0
 21
123.5999999999999
 31
0.0
  0
LINE
  5
478
330
1E
100
AcDbEntity
  8
0
100
AcDbLine
 10
66.0
 20
127.9
 30
0.0
 11
66.0
 21
133.6
 31
0.0
  0
LINE
  5
479
330
1E
100
AcDbEntity
  8
0
100
AcDbLine
 10
66.0
 20
127.9
 30
0.0
 11
66.0
 21
123.5999999999999
 31
0.0
  0
LINE
  5
47A
330
1E
100
AcDbEntity
  8
0
100
AcDbLine
 10
66.0
 20
133.6
 30
0.0
 11
66.0
 21
127.9
 31
0.0
  0
LINE
  5
47B
330
1E
100
AcDbEntity
  8
0
100
AcDbLine
 10
66.0
 20
133.6
 30
0.0
 11
66.0
 21
140.0999999999999
 31
0.0
  0
LINE
  5
47C
330
1E
100
AcDbEntity
  8
0
100
AcDbLine
 10
66.0
 20
160.4
 30
0.0
 11
66.0
 21
153.9
 31
0.0
  0
LINE
  5
47D
330
1E
100
AcDbEntity
  8
0
100
AcDbLine
 10
66.0
 20
160.4
 30
0.0
 11
66.0
 21
166.1
 31
0.0
  0
LINE
  5
47E
330
1E
100
AcDbEntity
  8
0
100
AcDbLine
 10
66.0
 20
153.9
 30
0.0
 11
66.0
 21
147.0
 31
0.0
  0
LINE
  5
47F
330
1E
100
AcDbEntity
  8
0
100
AcDbLine
 10
66.0
 20
153.9
 30
0.0
 11
66.0
 21
160.4
 31
0.0
  0
LINE
  5
480
330
1E
100
AcDbEntity
  8
0
100
AcDbLine
 10
66.0
 20
166.1
 30
0.0
 11
66.0
 21
170.4
 31
0.0
  0
LINE
  5
481
330
1E
100
AcDbEntity
  8
0
100
AcDbLine
 10
66.0
 20
166.1
 30
0.0
 11
66.0
 21
160.4
 31
0.0
  0
LINE
  5
482
330
1E
100
AcDbEntity
  8
0
100
AcDbLine
 10
66.0
 20
170.4
 30
0.0
 11
66.0
 21
166.1
 31
0.0
  0
LINE
  5
483
330
1E
100
AcDbEntity
  8
0
100
AcDbLine
 10
66.0
 20
170.4
 30
0.0
 11
66.0
 21
173.0
 31
0.0
  0
LINE
  5
484
330
1E
100
AcDbEntity
  8
0
100
AcDbLine
 10
66.0
 20
173.0
 30
0.0
 11
66.0
 21
170.4
 31
0.0
  0
LINE
  5
485
330
1E
100
AcDbEntity
  8
0
100
AcDbLine
 10
66.0
 20
173.0
 30
0.0
 11
66.0
 21
174.0
 31
0.0
  0
LINE
  5
486
330
1E
100
AcDbEntity
  8
0
100
AcDbLine
 10
66.0
 20
174.0
 30
0.0
 11
66.0
 21
173.0
 31
0.0
  0
LINE
  5
487
330
1E
100
AcDbEntity
  8
0
100
AcDbLine
 10
64.8846
 20
174.0
 30
0.0
 11
66.0
 21
174.0
 31
0.0
  0
LINE
  5
488
330
1E
100
AcDbEntity
  8
0
100
AcDbLine
 10
66.0
 20
140.0999999999999
 30
0.0
 11
66.0
 21
133.6
 31
0.0
  0
LINE
  5
489
330
1E
100
AcDbEntity
  8
0
100
AcDbLine
 10
66.0
 20
140.0999999999999
 30
0.0
 11
66.0
 21
147.0
 31
0.0
  0
LINE
  5
48A
330
1E
100
AcDbEntity
  8
0
100
AcDbLine
 10
66.0
 20
147.0
 30
0.0
 11
66.0
 21
140.0999999999999
 31
0.0
  0
LINE
  5
48B
330
1E
100
AcDbEntity
  8
0
100
AcDbLine
 10
66.0
 20
147.0
 30
0.0
 11
66.0
 21
153.9
 31
0.0
  0
LINE
  5
48C
330
1E
100
AcDbEntity
  8
0
100
AcDbLine
 10
66.0
 20
53.0
 30
0.0
 11
66.0
 21
50.4
 31
0.0
  0
LINE
  5
48D
330
1E
100
AcDbEntity
  8
0
100
AcDbLine
 10
66.0
 20
53.0
 30
0.0
 11
66.0
 21
54.0
 31
0.0
  0
LINE
  5
48E
330
1E
100
AcDbEntity
  8
0
100
AcDbLine
 10
66.0
 20
54.0
 30
0.0
 11
66.0
 21
53.0
 31
0.0
  0
LINE
  5
48F
330
1E
100
AcDbEntity
  8
0
100
AcDbLine
 10
66.0
 20
40.4
 30
0.0
 11
66.0
 21
46.1
 31
0.0
  0
LINE
  5
490
330
1E
100
AcDbEntity
  8
0
100
AcDbLine
 10
66.0
 20
40.4
 30
0.0
 11
66.0
 21
33.9
 31
0.0
  0
LINE
  5
491
330
1E
100
AcDbEntity
  8
0
100
AcDbLine
 10
64.8846
 20
54.0
 30
0.0
 11
66.0
 21
54.0
 31
0.0
  0
LINE
  5
492
330
1E
100
AcDbEntity
  8
0
100
AcDbLine
 10
66.0
 20
27.0
 30
0.0
 11
66.0
 21
20.1
 31
0.0
  0
LINE
  5
493
330
1E
100
AcDbEntity
  8
0
100
AcDbLine
 10
66.0
 20
27.0
 30
0.0
 11
66.0
 21
33.9
 31
0.0
  0
LINE
  5
494
330
1E
100
AcDbEntity
  8
0
100
AcDbLine
 10
37.0
 20
18.3
 30
0.0
 11
37.0
 21
17.4
 31
0.0
  0
LINE
  5
495
330
1E
100
AcDbEntity
  8
0
100
AcDbLine
 10
37.0
 20
17.4
 30
0.0
 11
37.0
 21
17.0
 31
0.0
  0
LINE
  5
496
330
1E
100
AcDbEntity
  8
0
100
AcDbLine
 10
35.5
 20
17.5
 30
0.0
 11
37.0
 21
17.0
 31
0.0
  0
ENDSEC
  0
SECTION
  2
OBJECTS
  0
DICTIONARY
  5
C
330
0
100
AcDbDictionary
281
     1
  3
ACAD_GROUP
350
D
  3
ACAD_LAYOUT
350
19
  3
ACAD_MLINESTYLE
350
16
  3
ACAD_PLOTSETTINGS
350
18
  3
ACAD_PLOTSTYLENAME
350
E
  3
AcDbVariableDictionary
350
49B
  0
DICTIONARY
  5
D
102
{ACAD_REACTORS
330
C
102
}
330
C
100
AcDbDictionary
281
     1
  0
DICTIONARY
  5
19
102
{ACAD_REACTORS
330
C
102
}
330
C
100
AcDbDictionary
281
     1
  3
Layout1
350
1D
  3
Model
350
21
  0
DICTIONARY
  5
16
102
{ACAD_REACTORS
330
C
102
}
330
C
100
AcDbDictionary
281
     1
  3
Standard
350
17
  0
DICTIONARY
  5
18
102
{ACAD_REACTORS
330
C
102
}
330
C
100
AcDbDictionary
281
     1
  0
ACDBDICTIONARYWDFLT
  5
E
102
{ACAD_REACTORS
330
C
102
}
330
C
100
AcDbDictionary
281
     1
  3
Normal
350
F
100
AcDbDictionaryWithDefault
340
F
  0
DICTIONARY
  5
49B
102
{ACAD_REACTORS
330
C
102
}
330
C
100
AcDbDictionary
281
     1
  3
DIMASSOC
350
49C
  0
LAYOUT
  5
1D
102
{ACAD_REACTORS
330
19
102
}
330
19
100
AcDbPlotSettings
  1

  2
hp deskjet 980c series
  4

  6

 40
0.0
 41
0.0
 42
0.0
 43
0.0
 44
0.0
 45
0.0
 46
0.0
 47
0.0
 48
0.0
 49
0.0
140
0.0
141
0.0
142
1.0
143
1.0
 70
   688
 72
     0
 73
     0
 74
     5
  7

 75
    16
147
1.0
148
0.0
149
0.0
100
AcDbLayout
  1
Layout1
 70
     1
 71
     1
 10
0.0
 20
0.0
 11
12.0
 21
9.0
 12
0.0
 22
0.0
 32
0.0
 14
1.000000000000000E+20
 24
1.000000000000000E+20
 34
1.000000000000000E+20
 15
-1.000000000000000E+20
 25
-1.000000000000000E+20
 35
-1.000000000000000E+20
146
0.0
 13
0.0
 23
0.0
 33
0.0
 16
1.0
 26
0.0
 36
0.0
 17
0.0
 27
1.0
 37
0.0
 76
     0
330
1A
  0
LAYOUT
  5
21
102
{ACAD_REACTORS
330
19
102
}
330
19
100
AcDbPlotSettings
  1

  2
hp deskjet 980c series
  4

  6

 40
0.0
 41
0.0
 42
0.0
 43
0.0
 44
0.0
 45
0.0
 46
0.0
 47
0.0
 48
0.0
 49
0.0
140
0.0
141
0.0
142
1.0
143
1.0
 70
  1712
 72
     0
 73
     0
 74
     0
  7

 75
     0
147
1.0
148
0.0
149
0.0
100
AcDbLayout
  1
Model
 70
     1
 71
     0
 10
0.0
 20
0.0
 11
12.0
 21
9.0
 12
0.0
 22
0.0
 32
0.0
 14
0.0
 24
0.0
 34
0.0
 15
0.0
 25
0.0
 35
0.0
146
0.0
 13
0.0
 23
0.0
 33
0.0
 16
1.0
 26
0.0
 36
0.0
 17
0.0
 27
1.0
 37
0.0
 76
     0
330
1E
  0
MLINESTYLE
  5
17
102
{ACAD_REACTORS
330
16
102
}
330
16
100
AcDbMlineStyle
  2
STANDARD
 70
     0
  3

 62
   256
 51
90.0
 52
90.0
 71
     2
 49
0.5
 62
   256
  6
BYLAYER
 49
-0.5
 62
   256
  6
BYLAYER
  0
ACDBPLACEHOLDER
  5
F
102
{ACAD_REACTORS
330
E
102
}
330
E
  0
DICTIONARYVAR
  5
49C
102
{ACAD_REACTORS
330
49B
102
}
330
49B
100
DictionaryVariables
280
     0
  1
1
  0
ENDSEC
  0
EOF
