  0
SECTION
  2
HEADER
  9
$ACADVER
  1
AC1015
  9
$ACADMAINTVER
 70
    13
  9
$DWGCODEPAGE
  3
ANSI_1252
  9
$INSBASE
 10
0.0
 20
0.0
 30
0.0
  9
$EXTMIN
 10
0.249999999999998
 20
-0.000000000000012
 30
0.0
  9
$EXTMAX
 10
212.7499999999999
 20
314.0
 30
0.0
  9
$LIMMIN
 10
0.0
 20
0.0
  9
$LIMMAX
 10
12.0
 20
9.0
  9
$ORTHOMODE
 70
     0
  9
$REGENMODE
 70
     1
  9
$FILLMODE
 70
     1
  9
$QTEXTMODE
 70
     0
  9
$MIRRTEXT
 70
     1
  9
$LTSCALE
 40
1.0
  9
$ATTMODE
 70
     1
  9
$TEXTSIZE
 40
0.2
  9
$TRACEWID
 40
0.05
  9
$TEXTSTYLE
  7
Standard
  9
$CLAYER
  8
0
  9
$CELTYPE
  6
Continuous
  9
$CECOLOR
 62
   256
  9
$CELTSCALE
 40
1.0
  9
$DISPSILH
 70
     0
  9
$DIMSCALE
 40
1.0
  9
$DIMASZ
 40
0.18
  9
$DIMEXO
 40
0.0625
  9
$DIMDLI
 40
0.38
  9
$DIMRND
 40
0.0
  9
$DIMDLE
 40
0.0
  9
$DIMEXE
 40
0.18
  9
$DIMTP
 40
0.0
  9
$DIMTM
 40
0.0
  9
$DIMTXT
 40
0.18
  9
$DIMCEN
 40
0.09
  9
$DIMTSZ
 40
0.0
  9
$DIMTOL
 70
     0
  9
$DIMLIM
 70
     0
  9
$DIMTIH
 70
     1
  9
$DIMTOH
 70
     1
  9
$DIMSE1
 70
     0
  9
$DIMSE2
 70
     0
  9
$DIMTAD
 70
     0
  9
$DIMZIN
 70
     0
  9
$DIMBLK
  1

  9
$DIMASO
 70
     1
  9
$DIMSHO
 70
     1
  9
$DIMPOST
  1

  9
$DIMAPOST
  1

  9
$DIMALT
 70
     0
  9
$DIMALTD
 70
     2
  9
$DIMALTF
 40
25.4
  9
$DIMLFAC
 40
1.0
  9
$DIMTOFL
 70
     0
  9
$DIMTVP
 40
0.0
  9
$DIMTIX
 70
     0
  9
$DIMSOXD
 70
     0
  9
$DIMSAH
 70
     0
  9
$DIMBLK1
  1

  9
$DIMBLK2
  1

  9
$DIMSTYLE
  2
Standard
  9
$DIMCLRD
 70
     0
  9
$DIMCLRE
 70
     0
  9
$DIMCLRT
 70
     0
  9
$DIMTFAC
 40
1.0
  9
$DIMGAP
 40
0.09
  9
$DIMJUST
 70
     0
  9
$DIMSD1
 70
     0
  9
$DIMSD2
 70
     0
  9
$DIMTOLJ
 70
     1
  9
$DIMTZIN
 70
     0
  9
$DIMALTZ
 70
     0
  9
$DIMALTTZ
 70
     0
  9
$DIMUPT
 70
     0
  9
$DIMDEC
 70
     4
  9
$DIMTDEC
 70
     4
  9
$DIMALTU
 70
     2
  9
$DIMALTTD
 70
     2
  9
$DIMTXSTY
  7
Standard
  9
$DIMAUNIT
 70
     0
  9
$DIMADEC
 70
     0
  9
$DIMALTRND
 40
0.0
  9
$DIMAZIN
 70
     0
  9
$DIMDSEP
 70
    46
  9
$DIMATFIT
 70
     3
  9
$DIMFRAC
 70
     0
  9
$DIMLDRBLK
  1

  9
$DIMLUNIT
 70
     2
  9
$DIMLWD
 70
    -2
  9
$DIMLWE
 70
    -2
  9
$DIMTMOVE
 70
     0
  9
$LUNITS
 70
     2
  9
$LUPREC
 70
     4
  9
$SKETCHINC
 40
0.1
  9
$FILLETRAD
 40
0.0
  9
$AUNITS
 70
     0
  9
$AUPREC
 70
     0
  9
$MENU
  1
.
  9
$ELEVATION
 40
0.0
  9
$PELEVATION
 40
0.0
  9
$THICKNESS
 40
0.0
  9
$LIMCHECK
 70
     0
  9
$CHAMFERA
 40
0.0
  9
$CHAMFERB
 40
0.0
  9
$CHAMFERC
 40
0.0
  9
$CHAMFERD
 40
0.0
  9
$SKPOLY
 70
     0
  9
$TDCREATE
 40
2454748.406968993
  9
$TDUCREATE
 40
2454748.323635659
  9
$TDUPDATE
 40
2454748.409641689
  9
$TDUUPDATE
 40
2454748.326308356
  9
$TDINDWG
 40
0.0026726968
  9
$TDUSRTIMER
 40
0.0026726968
  9
$USRTIMER
 70
     1
  9
$ANGBASE
 50
0.0
  9
$ANGDIR
 70
     0
  9
$PDMODE
 70
     0
  9
$PDSIZE
 40
0.0
  9
$PLINEWID
 40
0.0
  9
$SPLFRAME
 70
     0
  9
$SPLINETYPE
 70
     6
  9
$SPLINESEGS
 70
     8
  9
$HANDSEED
  5
4C2
  9
$SURFTAB1
 70
     6
  9
$SURFTAB2
 70
     6
  9
$SURFTYPE
 70
     6
  9
$SURFU
 70
     6
  9
$SURFV
 70
     6
  9
$UCSBASE
  2

  9
$UCSNAME
  2

  9
$UCSORG
 10
0.0
 20
0.0
 30
0.0
  9
$UCSXDIR
 10
1.0
 20
0.0
 30
0.0
  9
$UCSYDIR
 10
0.0
 20
1.0
 30
0.0
  9
$UCSORTHOREF
  2

  9
$UCSORTHOVIEW
 70
     1
  9
$UCSORGTOP
 10
0.0
 20
0.0
 30
0.0
  9
$UCSORGBOTTOM
 10
0.0
 20
0.0
 30
0.0
  9
$UCSORGLEFT
 10
0.0
 20
0.0
 30
0.0
  9
$UCSORGRIGHT
 10
0.0
 20
0.0
 30
0.0
  9
$UCSORGFRONT
 10
0.0
 20
0.0
 30
0.0
  9
$UCSORGBACK
 10
0.0
 20
0.0
 30
0.0
  9
$PUCSBASE
  2

  9
$PUCSNAME
  2

  9
$PUCSORG
 10
0.0
 20
0.0
 30
0.0
  9
$PUCSXDIR
 10
1.0
 20
0.0
 30
0.0
  9
$PUCSYDIR
 10
0.0
 20
1.0
 30
0.0
  9
$PUCSORTHOREF
  2

  9
$PUCSORTHOVIEW
 70
     0
  9
$PUCSORGTOP
 10
0.0
 20
0.0
 30
0.0
  9
$PUCSORGBOTTOM
 10
0.0
 20
0.0
 30
0.0
  9
$PUCSORGLEFT
 10
0.0
 20
0.0
 30
0.0
  9
$PUCSORGRIGHT
 10
0.0
 20
0.0
 30
0.0
  9
$PUCSORGFRONT
 10
0.0
 20
0.0
 30
0.0
  9
$PUCSORGBACK
 10
0.0
 20
0.0
 30
0.0
  9
$USERI1
 70
     0
  9
$USERI2
 70
     0
  9
$USERI3
 70
     0
  9
$USERI4
 70
     0
  9
$USERI5
 70
     0
  9
$USERR1
 40
0.0
  9
$USERR2
 40
0.0
  9
$USERR3
 40
0.0
  9
$USERR4
 40
0.0
  9
$USERR5
 40
0.0
  9
$WORLDVIEW
 70
     1
  9
$SHADEDGE
 70
     3
  9
$SHADEDIF
 70
    70
  9
$TILEMODE
 70
     1
  9
$MAXACTVP
 70
    64
  9
$PINSBASE
 10
0.0
 20
0.0
 30
0.0
  9
$PLIMCHECK
 70
     0
  9
$PEXTMIN
 10
1.000000000000000E+20
 20
1.000000000000000E+20
 30
1.000000000000000E+20
  9
$PEXTMAX
 10
-1.000000000000000E+20
 20
-1.000000000000000E+20
 30
-1.000000000000000E+20
  9
$PLIMMIN
 10
0.0
 20
0.0
  9
$PLIMMAX
 10
12.0
 20
9.0
  9
$UNITMODE
 70
     0
  9
$VISRETAIN
 70
     1
  9
$PLINEGEN
 70
     0
  9
$PSLTSCALE
 70
     1
  9
$TREEDEPTH
 70
  3020
  9
$CMLSTYLE
  2
Standard
  9
$CMLJUST
 70
     0
  9
$CMLSCALE
 40
1.0
  9
$PROXYGRAPHICS
 70
     1
  9
$MEASUREMENT
 70
     0
  9
$CELWEIGHT
370
    -1
  9
$ENDCAPS
280
     0
  9
$JOINSTYLE
280
     0
  9
$LWDISPLAY
290
     0
  9
$INSUNITS
 70
     0
  9
$HYPERLINKBASE
  1

  9
$STYLESHEET
  1

  9
$XEDIT
290
     1
  9
$CEPSNTYPE
380
     0
  9
$PSTYLEMODE
290
     1
  9
$FINGERPRINTGUID
  2
{3C4C6B0E-627E-4BCB-B4AF-AD70B4C10687}
  9
$VERSIONGUID
  2
{CD18B9F4-2802-4841-9B85-7DE8A0A89760}
  9
$EXTNAMES
290
     1
  9
$PSVPSCALE
 40
0.0
  9
$OLESTARTUP
290
     0
  0
ENDSEC
  0
SECTION
  2
CLASSES
  0
CLASS
  1
ACDBDICTIONARYWDFLT
  2
AcDbDictionaryWithDefault
  3
AutoCAD 2000
 90
        0
280
     0
281
     0
  0
CLASS
  1
ACDBPLACEHOLDER
  2
AcDbPlaceHolder
  3
AutoCAD 2000
 90
        0
280
     0
281
     0
  0
CLASS
  1
LAYOUT
  2
AcDbLayout
  3
AutoCAD 2000
 90
        0
280
     0
281
     0
  0
CLASS
  1
DICTIONARYVAR
  2
AcDbDictionaryVar
  3
AutoCAD 2000
 90
        0
280
     0
281
     0
  0
ENDSEC
  0
SECTION
  2
TABLES
  0
TABLE
  2
VPORT
  5
8
330
0
100
AcDbSymbolTable
 70
     2
  0
VPORT
  5
4C1
330
8
100
AcDbSymbolTableRecord
100
AcDbViewportTableRecord
  2
*Active
 70
     0
 10
0.0
 20
0.0
 11
1.0
 21
1.0
 12
106.4999999999999
 22
157.0
 13
0.0
 23
0.0
 14
1.0
 24
1.0
 15
0.0
 25
0.0
 16
0.0
 26
0.0
 36
1.0
 17
0.0
 27
0.0
 37
0.0
 40
316.4092071611253
 41
2.078104993597951
 42
50.0
 43
0.0
 44
0.0
 50
0.0
 51
0.0
 71
     0
 72
   100
 73
     1
 74
     3
 75
     0
 76
     0
 77
     0
 78
     0
281
     0
 65
     1
110
0.0
120
0.0
130
0.0
111
1.0
121
0.0
131
0.0
112
0.0
122
1.0
132
0.0
 79
     1
146
0.0
  0
ENDTAB
  0
TABLE
  2
LTYPE
  5
5
330
0
100
AcDbSymbolTable
 70
     1
  0
LTYPE
  5
13
330
5
100
AcDbSymbolTableRecord
100
AcDbLinetypeTableRecord
  2
ByBlock
 70
     0
  3

 72
    65
 73
     0
 40
0.0
  0
LTYPE
  5
14
330
5
100
AcDbSymbolTableRecord
100
AcDbLinetypeTableRecord
  2
ByLayer
 70
     0
  3

 72
    65
 73
     0
 40
0.0
  0
LTYPE
  5
15
330
5
100
AcDbSymbolTableRecord
100
AcDbLinetypeTableRecord
  2
Continuous
 70
     0
  3
Solid line
 72
    65
 73
     0
 40
0.0
  0
ENDTAB
  0
TABLE
  2
LAYER
  5
2
330
0
100
AcDbSymbolTable
 70
     1
  0
LAYER
  5
10
330
2
100
AcDbSymbolTableRecord
100
AcDbLayerTableRecord
  2
0
 70
     0
 62
     7
  6
Continuous
370
    -3
390
F
  0
ENDTAB
  0
TABLE
  2
STYLE
  5
3
330
0
100
AcDbSymbolTable
 70
     1
  0
STYLE
  5
11
330
3
100
AcDbSymbolTableRecord
100
AcDbTextStyleTableRecord
  2
Standard
 70
     0
 40
0.0
 41
1.0
 50
0.0
 71
     0
 42
0.2
  3
txt
  4

  0
ENDTAB
  0
TABLE
  2
VIEW
  5
6
330
0
100
AcDbSymbolTable
 70
     0
  0
ENDTAB
  0
TABLE
  2
UCS
  5
7
330
0
100
AcDbSymbolTable
 70
     0
  0
ENDTAB
  0
TABLE
  2
APPID
  5
9
330
0
100
AcDbSymbolTable
 70
     1
  0
APPID
  5
12
330
9
100
AcDbSymbolTableRecord
100
AcDbRegAppTableRecord
  2
ACAD
 70
     0
  0
ENDTAB
  0
TABLE
  2
DIMSTYLE
  5
A
330
0
100
AcDbSymbolTable
 70
     1
100
AcDbDimStyleTable
 71
     0
  0
DIMSTYLE
105
4A1
330
A
100
AcDbSymbolTableRecord
100
AcDbDimStyleTableRecord
  2
Standard
 70
     0
340
11
  0
ENDTAB
  0
TABLE
  2
BLOCK_RECORD
  5
1
330
0
100
AcDbSymbolTable
 70
     0
  0
BLOCK_RECORD
  5
1E
330
1
100
AcDbSymbolTableRecord
100
AcDbBlockTableRecord
  2
*Model_Space
340
21
  0
BLOCK_RECORD
  5
1A
330
1
100
AcDbSymbolTableRecord
100
AcDbBlockTableRecord
  2
*Paper_Space
340
1D
  0
ENDTAB
  0
ENDSEC
  0
SECTION
  2
BLOCKS
  0
BLOCK
  5
1F
330
1E
100
AcDbEntity
  8
0
100
AcDbBlockBegin
  2
*Model_Space
 70
     0
 10
0.0
 20
0.0
 30
0.0
  3
*Model_Space
  1

  0
ENDBLK
  5
20
330
1E
100
AcDbEntity
  8
0
100
AcDbBlockEnd
  0
BLOCK
  5
1B
330
1A
100
AcDbEntity
 67
     1
  8
0
100
AcDbBlockBegin
  2
*Paper_Space
 70
     0
 10
0.0
 20
0.0
 30
0.0
  3
*Paper_Space
  1

  0
ENDBLK
  5
1C
330
1A
100
AcDbEntity
 67
     1
  8
0
100
AcDbBlockEnd
  0
ENDSEC
  0
SECTION
  2
ENTITIES
  0
LINE
  5
22
330
1E
100
AcDbEntity
  8
0
100
AcDbLine
 10
0.249999999999998
 20
27.0
 30
0.0
 11
1.25
 21
33.9
 31
0.0
  0
LINE
  5
23
330
1E
100
AcDbEntity
  8
0
100
AcDbLine
 10
0.7499999999999979
 20
27.0
 30
0.0
 11
1.75
 21
20.2
 31
0.0
  0
LINE
  5
24
330
1E
100
AcDbEntity
  8
0
100
AcDbLine
 10
0.7499999999999979
 20
27.0
 30
0.0
 11
1.75
 21
33.79999999999999
 31
0.0
  0
LINE
  5
25
330
1E
100
AcDbEntity
  8
0
100
AcDbLine
 10
0.7499999999999979
 20
27.0
 30
0.0
 11
1.75
 21
20.2
 31
0.0
  0
LINE
  5
26
330
1E
100
AcDbEntity
  8
0
100
AcDbLine
 10
0.7499999999999979
 20
27.0
 30
0.0
 11
1.75
 21
33.79999999999999
 31
0.0
  0
LINE
  5
27
330
1E
100
AcDbEntity
  8
0
100
AcDbLine
 10
0.249999999999998
 20
147.0
 30
0.0
 11
1.25
 21
153.9
 31
0.0
  0
LINE
  5
28
330
1E
100
AcDbEntity
  8
0
100
AcDbLine
 10
0.7499999999999979
 20
147.0
 30
0.0
 11
1.75
 21
140.1999999999999
 31
0.0
  0
LINE
  5
29
330
1E
100
AcDbEntity
  8
0
100
AcDbLine
 10
0.7499999999999979
 20
147.0
 30
0.0
 11
1.75
 21
153.8
 31
0.0
  0
LINE
  5
2A
330
1E
100
AcDbEntity
  8
0
100
AcDbLine
 10
0.7499999999999979
 20
147.0
 30
0.0
 11
1.75
 21
140.1999999999999
 31
0.0
  0
LINE
  5
2B
330
1E
100
AcDbEntity
  8
0
100
AcDbLine
 10
0.7499999999999979
 20
147.0
 30
0.0
 11
1.75
 21
153.8
 31
0.0
  0
LINE
  5
2C
330
1E
100
AcDbEntity
  8
0
100
AcDbLine
 10
0.249999999999998
 20
147.0
 30
0.0
 11
1.25
 21
140.0999999999999
 31
0.0
  0
LINE
  5
2D
330
1E
100
AcDbEntity
  8
0
100
AcDbLine
 10
0.249999999999998
 20
147.0
 30
0.0
 11
1.25
 21
153.9
 31
0.0
  0
LINE
  5
2E
330
1E
100
AcDbEntity
  8
0
100
AcDbLine
 10
1.25
 20
140.0999999999999
 30
0.0
 11
3.85
 21
133.6
 31
0.0
  0
LINE
  5
2F
330
1E
100
AcDbEntity
  8
0
100
AcDbLine
 10
1.25
 20
33.9
 30
0.0
 11
3.85
 21
40.4
 31
0.0
  0
LINE
  5
30
330
1E
100
AcDbEntity
  8
0
100
AcDbLine
 10
0.249999999999998
 20
27.0
 30
0.0
 11
1.25
 21
20.1
 31
0.0
  0
LINE
  5
31
330
1E
100
AcDbEntity
  8
0
100
AcDbLine
 10
0.249999999999998
 20
27.0
 30
0.0
 11
1.25
 21
33.9
 31
0.0
  0
LINE
  5
32
330
1E
100
AcDbEntity
  8
0
100
AcDbLine
 10
13.25
 20
12.77779999999999
 30
0.0
 11
14.65
 21
12.77779999999999
 31
0.0
  0
LINE
  5
33
330
1E
100
AcDbEntity
  8
0
100
AcDbLine
 10
12.75
 20
12.77779999999999
 30
0.0
 11
13.25
 21
12.77779999999999
 31
0.0
  0
LINE
  5
34
330
1E
100
AcDbEntity
  8
0
100
AcDbLine
 10
12.75
 20
12.77779999999999
 30
0.0
 11
13.75
 21
12.3333
 31
0.0
  0
LINE
  5
35
330
1E
100
AcDbEntity
  8
0
100
AcDbLine
 10
8.55
 20
8.29999999999999
 30
0.0
 11
14.05
 21
3.99999999999999
 31
0.0
  0
LINE
  5
36
330
1E
100
AcDbEntity
  8
0
100
AcDbLine
 10
8.15
 20
7.89999999999999
 30
0.0
 11
13.85
 21
3.59999999999999
 31
0.0
  0
LINE
  5
37
330
1E
100
AcDbEntity
  8
0
100
AcDbLine
 10
15.65
 20
11.4444
 30
0.0
 11
16.85
 21
11.4444
 31
0.0
  0
LINE
  5
38
330
1E
100
AcDbEntity
  8
0
100
AcDbLine
 10
14.65
 20
12.77779999999999
 30
0.0
 11
17.05
 21
12.77779999999999
 31
0.0
  0
LINE
  5
39
330
1E
100
AcDbEntity
  8
0
100
AcDbLine
 10
15.25
 20
12.3333
 30
0.0
 11
16.45
 21
12.3333
 31
0.0
  0
LINE
  5
3A
330
1E
100
AcDbEntity
  8
0
100
AcDbLine
 10
14.75
 20
12.3333
 30
0.0
 11
15.25
 21
11.4444
 31
0.0
  0
LINE
  5
3B
330
1E
100
AcDbEntity
  8
0
100
AcDbLine
 10
13.75
 20
12.3333
 30
0.0
 11
15.25
 21
12.3333
 31
0.0
  0
LINE
  5
3C
330
1E
100
AcDbEntity
  8
0
100
AcDbLine
 10
15.25
 20
11.4444
 30
0.0
 11
15.65
 21
11.4444
 31
0.0
  0
LINE
  5
3D
330
1E
100
AcDbEntity
  8
0
100
AcDbLine
 10
15.25
 20
11.4444
 30
0.0
 11
16.25
 21
11.0
 31
0.0
  0
LINE
  5
3E
330
1E
100
AcDbEntity
  8
0
100
AcDbLine
 10
16.65
 20
11.0
 30
0.0
 11
17.75
 21
11.0
 31
0.0
  0
LINE
  5
3F
330
1E
100
AcDbEntity
  8
0
100
AcDbLine
 10
16.45
 20
12.3333
 30
0.0
 11
18.44999999999999
 21
12.3333
 31
0.0
  0
LINE
  5
40
330
1E
100
AcDbEntity
  8
0
100
AcDbLine
 10
17.05
 20
12.77779999999999
 30
0.0
 11
20.05
 21
12.77779999999999
 31
0.0
  0
LINE
  5
41
330
1E
100
AcDbEntity
  8
0
100
AcDbLine
 10
18.44999999999999
 20
12.3333
 30
0.0
 11
21.04999999999999
 21
12.3333
 31
0.0
  0
LINE
  5
42
330
1E
100
AcDbEntity
  8
0
100
AcDbLine
 10
20.05
 20
12.77779999999999
 30
0.0
 11
23.54999999999999
 21
12.77779999999999
 31
0.0
  0
LINE
  5
43
330
1E
100
AcDbEntity
  8
0
100
AcDbLine
 10
18.75
 20
11.4444
 30
0.0
 11
21.25
 21
11.4444
 31
0.0
  0
LINE
  5
44
330
1E
100
AcDbEntity
  8
0
100
AcDbLine
 10
19.45
 20
11.0
 30
0.0
 11
21.75
 21
11.0
 31
0.0
  0
LINE
  5
45
330
1E
100
AcDbEntity
  8
0
100
AcDbLine
 10
16.85
 20
11.4444
 30
0.0
 11
18.75
 21
11.4444
 31
0.0
  0
LINE
  5
46
330
1E
100
AcDbEntity
  8
0
100
AcDbLine
 10
17.75
 20
11.0
 30
0.0
 11
19.45
 21
11.0
 31
0.0
  0
LINE
  5
47
330
1E
100
AcDbEntity
  8
0
100
AcDbLine
 10
16.25
 20
11.0
 30
0.0
 11
16.65
 21
11.0
 31
0.0
  0
LINE
  5
48
330
1E
100
AcDbEntity
  8
0
100
AcDbLine
 10
14.05
 20
3.99999999999999
 30
0.0
 11
20.44999999999999
 21
1.499999999999989
 31
0.0
  0
LINE
  5
49
330
1E
100
AcDbEntity
  8
0
100
AcDbLine
 10
13.85
 20
3.59999999999999
 30
0.0
 11
20.35
 21
0.9999999999999879
 31
0.0
  0
LINE
  5
4A
330
1E
100
AcDbEntity
  8
0
100
AcDbLine
 10
27.25
 20
0.499999999999988
 30
0.0
 11
34.04999999999999
 21
1.499999999999989
 31
0.0
  0
LINE
  5
4B
330
1E
100
AcDbEntity
  8
0
100
AcDbLine
 10
27.25
 20
0.499999999999988
 30
0.0
 11
34.04999999999999
 21
1.499999999999989
 31
0.0
  0
LINE
  5
4C
330
1E
100
AcDbEntity
  8
0
100
AcDbLine
 10
27.25
 20
-0.0000000000000119
 30
0.0
 11
34.15
 21
0.9999999999999879
 31
0.0
  0
LINE
  5
4D
330
1E
100
AcDbEntity
  8
0
100
AcDbLine
 10
34.04999999999999
 20
1.499999999999989
 30
0.0
 11
40.45
 21
3.99999999999999
 31
0.0
  0
LINE
  5
4E
330
1E
100
AcDbEntity
  8
0
100
AcDbLine
 10
34.15
 20
0.9999999999999879
 30
0.0
 11
40.65
 21
3.59999999999999
 31
0.0
  0
LINE
  5
4F
330
1E
100
AcDbEntity
  8
0
100
AcDbLine
 10
27.25
 20
-0.000000000000012
 30
0.0
 11
34.15
 21
0.9999999999999879
 31
0.0
  0
LINE
  5
50
330
1E
100
AcDbEntity
  8
0
100
AcDbLine
 10
21.75
 20
11.0
 30
0.0
 11
24.45
 21
11.0
 31
0.0
  0
LINE
  5
51
330
1E
100
AcDbEntity
  8
0
100
AcDbLine
 10
21.04999999999999
 20
12.3333
 30
0.0
 11
24.05
 21
12.3333
 31
0.0
  0
LINE
  5
52
330
1E
100
AcDbEntity
  8
0
100
AcDbLine
 10
21.25
 20
11.4444
 30
0.0
 11
24.15
 21
11.4444
 31
0.0
  0
LINE
  5
53
330
1E
100
AcDbEntity
  8
0
100
AcDbLine
 10
20.5264705882353
 20
11.0
 30
0.0
 11
22.74999999999999
 21
10.1
 31
0.0
  0
LINE
  5
54
330
1E
100
AcDbEntity
  8
0
100
AcDbLine
 10
40.45
 20
3.99999999999999
 30
0.0
 11
45.95
 21
8.29999999999999
 31
0.0
  0
LINE
  5
55
330
1E
100
AcDbEntity
  8
0
100
AcDbLine
 10
40.65
 20
3.59999999999999
 30
0.0
 11
46.35
 21
7.89999999999999
 31
0.0
  0
LINE
  5
56
330
1E
100
AcDbEntity
  8
0
100
AcDbLine
 10
45.95
 20
8.29999999999999
 30
0.0
 11
50.25
 21
13.8
 31
0.0
  0
LINE
  5
57
330
1E
100
AcDbEntity
  8
0
100
AcDbLine
 10
27.25
 20
9.499999999999991
 30
0.0
 11
31.75
 21
10.1
 31
0.0
  0
LINE
  5
58
330
1E
100
AcDbEntity
  8
0
100
AcDbLine
 10
24.45
 20
11.0
 30
0.0
 11
27.25
 21
11.0
 31
0.0
  0
LINE
  5
59
330
1E
100
AcDbEntity
  8
0
100
AcDbLine
 10
27.25
 20
11.0
 30
0.0
 11
30.05
 21
11.0
 31
0.0
  0
LINE
  5
5A
330
1E
100
AcDbEntity
  8
0
100
AcDbLine
 10
30.05
 20
11.0
 30
0.0
 11
32.75
 21
11.0
 31
0.0
  0
LINE
  5
5B
330
1E
100
AcDbEntity
  8
0
100
AcDbLine
 10
30.35
 20
11.4444
 30
0.0
 11
33.25
 21
11.4444
 31
0.0
  0
LINE
  5
5C
330
1E
100
AcDbEntity
  8
0
100
AcDbLine
 10
27.25
 20
11.4444
 30
0.0
 11
30.35
 21
11.4444
 31
0.0
  0
LINE
  5
5D
330
1E
100
AcDbEntity
  8
0
100
AcDbLine
 10
23.54999999999999
 20
12.77779999999999
 30
0.0
 11
27.25
 21
12.77779999999999
 31
0.0
  0
LINE
  5
5E
330
1E
100
AcDbEntity
  8
0
100
AcDbLine
 10
30.44999999999999
 20
12.3333
 30
0.0
 11
33.45
 21
12.3333
 31
0.0
  0
LINE
  5
5F
330
1E
100
AcDbEntity
  8
0
100
AcDbLine
 10
30.95
 20
12.77779999999999
 30
0.0
 11
34.45
 21
12.77779999999999
 31
0.0
  0
LINE
  5
60
330
1E
100
AcDbEntity
  8
0
100
AcDbLine
 10
27.25
 20
12.77779999999999
 30
0.0
 11
30.95
 21
12.77779999999999
 31
0.0
  0
LINE
  5
61
330
1E
100
AcDbEntity
  8
0
100
AcDbLine
 10
27.25
 20
12.3333
 30
0.0
 11
30.44999999999999
 21
12.3333
 31
0.0
  0
LINE
  5
62
330
1E
100
AcDbEntity
  8
0
100
AcDbLine
 10
24.05
 20
12.3333
 30
0.0
 11
27.25
 21
12.3333
 31
0.0
  0
LINE
  5
63
330
1E
100
AcDbEntity
  8
0
100
AcDbLine
 10
24.15
 20
11.4444
 30
0.0
 11
27.25
 21
11.4444
 31
0.0
  0
LINE
  5
64
330
1E
100
AcDbEntity
  8
0
100
AcDbLine
 10
32.75
 20
11.0
 30
0.0
 11
35.04999999999999
 21
11.0
 31
0.0
  0
LINE
  5
65
330
1E
100
AcDbEntity
  8
0
100
AcDbLine
 10
35.04999999999999
 20
11.0
 30
0.0
 11
36.75
 21
11.0
 31
0.0
  0
LINE
  5
66
330
1E
100
AcDbEntity
  8
0
100
AcDbLine
 10
36.75
 20
11.0
 30
0.0
 11
37.85
 21
11.0
 31
0.0
  0
LINE
  5
67
330
1E
100
AcDbEntity
  8
0
100
AcDbLine
 10
37.85
 20
11.0
 30
0.0
 11
38.25
 21
11.0
 31
0.0
  0
LINE
  5
68
330
1E
100
AcDbEntity
  8
0
100
AcDbLine
 10
35.75
 20
11.4444
 30
0.0
 11
37.65
 21
11.4444
 31
0.0
  0
LINE
  5
69
330
1E
100
AcDbEntity
  8
0
100
AcDbLine
 10
37.65
 20
11.4444
 30
0.0
 11
38.85
 21
11.4444
 31
0.0
  0
LINE
  5
6A
330
1E
100
AcDbEntity
  8
0
100
AcDbLine
 10
38.25
 20
11.0
 30
0.0
 11
39.25
 21
11.4444
 31
0.0
  0
LINE
  5
6B
330
1E
100
AcDbEntity
  8
0
100
AcDbLine
 10
39.25
 20
11.4444
 30
0.0
 11
39.75
 21
12.3333
 31
0.0
  0
LINE
  5
6C
330
1E
100
AcDbEntity
  8
0
100
AcDbLine
 10
38.85
 20
11.4444
 30
0.0
 11
39.25
 21
11.4444
 31
0.0
  0
LINE
  5
6D
330
1E
100
AcDbEntity
  8
0
100
AcDbLine
 10
38.95
 20
12.3333
 30
0.0
 11
40.25
 21
12.3333
 31
0.0
  0
LINE
  5
6E
330
1E
100
AcDbEntity
  8
0
100
AcDbLine
 10
36.04999999999999
 20
12.3333
 30
0.0
 11
38.04999999999999
 21
12.3333
 31
0.0
  0
LINE
  5
6F
330
1E
100
AcDbEntity
  8
0
100
AcDbLine
 10
38.04999999999999
 20
12.3333
 30
0.0
 11
39.25
 21
12.3333
 31
0.0
  0
LINE
  5
70
330
1E
100
AcDbEntity
  8
0
100
AcDbLine
 10
40.25
 20
12.3333
 30
0.0
 11
40.75
 21
12.3333
 31
0.0
  0
LINE
  5
71
330
1E
100
AcDbEntity
  8
0
100
AcDbLine
 10
40.75
 20
12.3333
 30
0.0
 11
41.74999999999999
 21
12.77779999999999
 31
0.0
  0
LINE
  5
72
330
1E
100
AcDbEntity
  8
0
100
AcDbLine
 10
39.25
 20
12.3333
 30
0.0
 11
39.75
 21
12.3333
 31
0.0
  0
LINE
  5
73
330
1E
100
AcDbEntity
  8
0
100
AcDbLine
 10
37.45
 20
12.77779999999999
 30
0.0
 11
39.85
 21
12.77779999999999
 31
0.0
  0
LINE
  5
74
330
1E
100
AcDbEntity
  8
0
100
AcDbLine
 10
41.74999999999999
 20
12.77779999999999
 30
0.0
 11
42.25
 21
13.6667
 31
0.0
  0
LINE
  5
75
330
1E
100
AcDbEntity
  8
0
100
AcDbLine
 10
39.85
 20
12.77779999999999
 30
0.0
 11
41.25
 21
12.77779999999999
 31
0.0
  0
LINE
  5
76
330
1E
100
AcDbEntity
  8
0
100
AcDbLine
 10
41.25
 20
12.77779999999999
 30
0.0
 11
41.74999999999999
 21
12.77779999999999
 31
0.0
  0
LINE
  5
77
330
1E
100
AcDbEntity
  8
0
100
AcDbLine
 10
34.45
 20
12.77779999999999
 30
0.0
 11
37.45
 21
12.77779999999999
 31
0.0
  0
LINE
  5
78
330
1E
100
AcDbEntity
  8
0
100
AcDbLine
 10
33.95
 20
12.3333
 30
0.0
 11
36.75
 21
12.3333
 31
0.0
  0
LINE
  5
79
330
1E
100
AcDbEntity
  8
0
100
AcDbLine
 10
33.45
 20
12.3333
 30
0.0
 11
36.04999999999999
 21
12.3333
 31
0.0
  0
LINE
  5
7A
330
1E
100
AcDbEntity
  8
0
100
AcDbLine
 10
33.25
 20
11.4444
 30
0.0
 11
35.75
 21
11.4444
 31
0.0
  0
LINE
  5
7B
330
1E
100
AcDbEntity
  8
0
100
AcDbLine
 10
31.75
 20
10.1
 30
0.0
 11
33.9735294117647
 21
11.0
 31
0.0
  0
LINE
  5
7C
330
1E
100
AcDbEntity
  8
0
100
AcDbLine
 10
31.85
 20
9.69999999999999
 30
0.0
 11
35.13823529411761
 21
11.0
 31
0.0
  0
LINE
  5
7D
330
1E
100
AcDbEntity
  8
0
100
AcDbLine
 10
31.85
 20
9.69999999999999
 30
0.0
 11
35.13823529411761
 21
11.0
 31
0.0
  0
LINE
  5
7E
330
1E
100
AcDbEntity
  8
0
100
AcDbLine
 10
22.74999999999999
 20
10.1
 30
0.0
 11
27.25
 21
9.499999999999991
 31
0.0
  0
LINE
  5
7F
330
1E
100
AcDbEntity
  8
0
100
AcDbLine
 10
22.65
 20
9.69999999999999
 30
0.0
 11
27.25
 21
8.999999999999991
 31
0.0
  0
LINE
  5
80
330
1E
100
AcDbEntity
  8
0
100
AcDbLine
 10
20.44999999999999
 20
1.499999999999989
 30
0.0
 11
27.25
 21
0.499999999999988
 31
0.0
  0
LINE
  5
81
330
1E
100
AcDbEntity
  8
0
100
AcDbLine
 10
20.44999999999999
 20
1.499999999999989
 30
0.0
 11
27.25
 21
0.499999999999988
 31
0.0
  0
LINE
  5
82
330
1E
100
AcDbEntity
  8
0
100
AcDbLine
 10
20.35
 20
0.9999999999999879
 30
0.0
 11
27.25
 21
-0.0000000000000119
 31
0.0
  0
LINE
  5
83
330
1E
100
AcDbEntity
  8
0
100
AcDbLine
 10
20.35
 20
0.9999999999999879
 30
0.0
 11
27.25
 21
-0.000000000000012
 31
0.0
  0
LINE
  5
84
330
1E
100
AcDbEntity
  8
0
100
AcDbLine
 10
1.75
 20
153.8
 30
0.0
 11
4.25
 21
160.1999999999999
 31
0.0
  0
LINE
  5
85
330
1E
100
AcDbEntity
  8
0
100
AcDbLine
 10
1.75
 20
140.1999999999999
 30
0.0
 11
4.25
 21
133.8
 31
0.0
  0
LINE
  5
86
330
1E
100
AcDbEntity
  8
0
100
AcDbLine
 10
1.75
 20
33.79999999999999
 30
0.0
 11
4.25
 21
40.2
 31
0.0
  0
LINE
  5
87
330
1E
100
AcDbEntity
  8
0
100
AcDbLine
 10
42.25
 20
13.6667
 30
0.0
 11
42.25
 21
14.1111
 31
0.0
  0
LINE
  5
88
330
1E
100
AcDbEntity
  8
0
100
AcDbLine
 10
12.25
 20
13.6667
 30
0.0
 11
12.75
 21
12.77779999999999
 31
0.0
  0
LINE
  5
89
330
1E
100
AcDbEntity
  8
0
100
AcDbLine
 10
12.25
 20
13.6667
 30
0.0
 11
12.25
 21
14.1111
 31
0.0
  0
LINE
  5
8A
330
1E
100
AcDbEntity
  8
0
100
AcDbLine
 10
50.25
 20
13.8
 30
0.0
 11
52.75
 21
20.2
 31
0.0
  0
LINE
  5
8B
330
1E
100
AcDbEntity
  8
0
100
AcDbLine
 10
4.25
 20
40.2
 30
0.0
 11
8.55
 21
45.7
 31
0.0
  0
LINE
  5
8C
330
1E
100
AcDbEntity
  8
0
100
AcDbLine
 10
3.85
 20
40.4
 30
0.0
 11
8.15
 21
46.1
 31
0.0
  0
LINE
  5
8D
330
1E
100
AcDbEntity
  8
0
100
AcDbLine
 10
8.55
 20
45.7
 30
0.0
 11
14.05
 21
50.0
 31
0.0
  0
LINE
  5
8E
330
1E
100
AcDbEntity
  8
0
100
AcDbLine
 10
3.85
 20
160.4
 30
0.0
 11
8.15
 21
166.1
 31
0.0
  0
LINE
  5
8F
330
1E
100
AcDbEntity
  8
0
100
AcDbLine
 10
4.25
 20
160.1999999999999
 30
0.0
 11
8.55
 21
165.7
 31
0.0
  0
LINE
  5
90
330
1E
100
AcDbEntity
  8
0
100
AcDbLine
 10
8.55
 20
128.3
 30
0.0
 11
14.05
 21
124.0
 31
0.0
  0
LINE
  5
91
330
1E
100
AcDbEntity
  8
0
100
AcDbLine
 10
8.55
 20
165.7
 30
0.0
 11
14.05
 21
170.0
 31
0.0
  0
LINE
  5
92
330
1E
100
AcDbEntity
  8
0
100
AcDbLine
 10
8.15
 20
166.1
 30
0.0
 11
13.85
 21
170.4
 31
0.0
  0
LINE
  5
93
330
1E
100
AcDbEntity
  8
0
100
AcDbLine
 10
9.25
 20
147.0
 30
0.0
 11
9.949999999999999
 21
142.4
 31
0.0
  0
LINE
  5
94
330
1E
100
AcDbEntity
  8
0
100
AcDbLine
 10
9.25
 20
147.0
 30
0.0
 11
9.949999999999999
 21
151.6
 31
0.0
  0
LINE
  5
95
330
1E
100
AcDbEntity
  8
0
100
AcDbLine
 10
4.25
 20
133.8
 30
0.0
 11
8.55
 21
128.3
 31
0.0
  0
LINE
  5
96
330
1E
100
AcDbEntity
  8
0
100
AcDbLine
 10
3.85
 20
133.6
 30
0.0
 11
8.15
 21
127.9
 31
0.0
  0
LINE
  5
97
330
1E
100
AcDbEntity
  8
0
100
AcDbLine
 10
8.15
 20
46.1
 30
0.0
 11
13.85
 21
50.4
 31
0.0
  0
LINE
  5
98
330
1E
100
AcDbEntity
  8
0
100
AcDbLine
 10
17.05
 20
15.0
 30
0.0
 11
20.05
 21
15.0
 31
0.0
  0
LINE
  5
99
330
1E
100
AcDbEntity
  8
0
100
AcDbLine
 10
20.05
 20
15.0
 30
0.0
 11
23.54999999999999
 21
15.0
 31
0.0
  0
LINE
  5
9A
330
1E
100
AcDbEntity
  8
0
100
AcDbLine
 10
37.45
 20
15.0
 30
0.0
 11
39.85
 21
15.0
 31
0.0
  0
LINE
  5
9B
330
1E
100
AcDbEntity
  8
0
100
AcDbLine
 10
39.85
 20
15.0
 30
0.0
 11
41.25
 21
15.0
 31
0.0
  0
LINE
  5
9C
330
1E
100
AcDbEntity
  8
0
100
AcDbLine
 10
34.45
 20
15.0
 30
0.0
 11
37.45
 21
15.0
 31
0.0
  0
LINE
  5
9D
330
1E
100
AcDbEntity
  8
0
100
AcDbLine
 10
30.95
 20
15.0
 30
0.0
 11
34.45
 21
15.0
 31
0.0
  0
LINE
  5
9E
330
1E
100
AcDbEntity
  8
0
100
AcDbLine
 10
27.25
 20
15.0
 30
0.0
 11
30.95
 21
15.0
 31
0.0
  0
LINE
  5
9F
330
1E
100
AcDbEntity
  8
0
100
AcDbLine
 10
23.54999999999999
 20
15.0
 30
0.0
 11
27.25
 21
15.0
 31
0.0
  0
LINE
  5
A0
330
1E
100
AcDbEntity
  8
0
100
AcDbLine
 10
14.65
 20
15.0
 30
0.0
 11
17.05
 21
15.0
 31
0.0
  0
LINE
  5
A1
330
1E
100
AcDbEntity
  8
0
100
AcDbLine
 10
13.25
 20
15.0
 30
0.0
 11
14.65
 21
15.0
 31
0.0
  0
LINE
  5
A2
330
1E
100
AcDbEntity
  8
0
100
AcDbLine
 10
17.75
 20
15.4445
 30
0.0
 11
20.55
 21
15.4445
 31
0.0
  0
LINE
  5
A3
330
1E
100
AcDbEntity
  8
0
100
AcDbLine
 10
36.75
 20
15.4445
 30
0.0
 11
38.95
 21
15.4445
 31
0.0
  0
LINE
  5
A4
330
1E
100
AcDbEntity
  8
0
100
AcDbLine
 10
38.95
 20
15.4445
 30
0.0
 11
40.25
 21
15.4445
 31
0.0
  0
LINE
  5
A5
330
1E
100
AcDbEntity
  8
0
100
AcDbLine
 10
40.75
 20
15.4445
 30
0.0
 11
41.74999999999999
 21
15.0
 31
0.0
  0
LINE
  5
A6
330
1E
100
AcDbEntity
  8
0
100
AcDbLine
 10
40.25
 20
15.4445
 30
0.0
 11
40.75
 21
15.4445
 31
0.0
  0
LINE
  5
A7
330
1E
100
AcDbEntity
  8
0
100
AcDbLine
 10
33.95
 20
15.4445
 30
0.0
 11
36.75
 21
15.4445
 31
0.0
  0
LINE
  5
A8
330
1E
100
AcDbEntity
  8
0
100
AcDbLine
 10
30.75
 20
15.4445
 30
0.0
 11
33.95
 21
15.4445
 31
0.0
  0
LINE
  5
A9
330
1E
100
AcDbEntity
  8
0
100
AcDbLine
 10
27.25
 20
15.4445
 30
0.0
 11
30.75
 21
15.4445
 31
0.0
  0
LINE
  5
AA
330
1E
100
AcDbEntity
  8
0
100
AcDbLine
 10
20.55
 20
15.4445
 30
0.0
 11
23.75
 21
15.4445
 31
0.0
  0
LINE
  5
AB
330
1E
100
AcDbEntity
  8
0
100
AcDbLine
 10
23.75
 20
15.4445
 30
0.0
 11
27.25
 21
15.4445
 31
0.0
  0
LINE
  5
AC
330
1E
100
AcDbEntity
  8
0
100
AcDbLine
 10
15.55
 20
15.4445
 30
0.0
 11
17.75
 21
15.4445
 31
0.0
  0
LINE
  5
AD
330
1E
100
AcDbEntity
  8
0
100
AcDbLine
 10
14.25
 20
15.4445
 30
0.0
 11
15.55
 21
15.4445
 31
0.0
  0
LINE
  5
AE
330
1E
100
AcDbEntity
  8
0
100
AcDbLine
 10
13.75
 20
15.4445
 30
0.0
 11
14.25
 21
15.4445
 31
0.0
  0
LINE
  5
AF
330
1E
100
AcDbEntity
  8
0
100
AcDbLine
 10
13.75
 20
15.4445
 30
0.0
 11
14.25
 21
16.3333
 31
0.0
  0
LINE
  5
B0
330
1E
100
AcDbEntity
  8
0
100
AcDbLine
 10
12.75
 20
15.0
 30
0.0
 11
13.25
 21
15.0
 31
0.0
  0
LINE
  5
B1
330
1E
100
AcDbEntity
  8
0
100
AcDbLine
 10
12.75
 20
15.0
 30
0.0
 11
13.75
 21
15.4445
 31
0.0
  0
LINE
  5
B2
330
1E
100
AcDbEntity
  8
0
100
AcDbLine
 10
12.25
 20
14.1111
 30
0.0
 11
12.25
 21
13.6667
 31
0.0
  0
LINE
  5
B3
330
1E
100
AcDbEntity
  8
0
100
AcDbLine
 10
12.25
 20
14.1111
 30
0.0
 11
12.75
 21
15.0
 31
0.0
  0
LINE
  5
B4
330
1E
100
AcDbEntity
  8
0
100
AcDbLine
 10
14.25
 20
16.3333
 30
0.0
 11
14.25
 21
37.66669999999999
 31
0.0
  0
LINE
  5
B5
330
1E
100
AcDbEntity
  8
0
100
AcDbLine
 10
40.25
 20
16.3333
 30
0.0
 11
40.75
 21
15.4445
 31
0.0
  0
LINE
  5
B6
330
1E
100
AcDbEntity
  8
0
100
AcDbLine
 10
40.25
 20
16.3333
 30
0.0
 11
40.25
 21
37.66669999999999
 31
0.0
  0
LINE
  5
B7
330
1E
100
AcDbEntity
  8
0
100
AcDbLine
 10
40.55346375822839
 20
15.79386282337319
 30
0.0
 11
42.45
 21
18.3
 31
0.0
  0
LINE
  5
B8
330
1E
100
AcDbEntity
  8
0
100
AcDbLine
 10
41.25
 20
15.0
 30
0.0
 11
41.74999999999999
 21
15.0
 31
0.0
  0
LINE
  5
B9
330
1E
100
AcDbEntity
  8
0
100
AcDbLine
 10
42.25
 20
14.1111
 30
0.0
 11
42.25
 21
13.6667
 31
0.0
  0
LINE
  5
BA
330
1E
100
AcDbEntity
  8
0
100
AcDbLine
 10
41.74999999999999
 20
15.0
 30
0.0
 11
42.25
 21
14.1111
 31
0.0
  0
LINE
  5
BB
330
1E
100
AcDbEntity
  8
0
100
AcDbLine
 10
42.45
 20
18.3
 30
0.0
 11
44.15
 21
22.5
 31
0.0
  0
LINE
  5
BC
330
1E
100
AcDbEntity
  8
0
100
AcDbLine
 10
40.804833416846
 20
15.420126546212
 30
0.0
 11
42.85
 21
18.1
 31
0.0
  0
LINE
  5
BD
330
1E
100
AcDbEntity
  8
0
100
AcDbLine
 10
40.25
 20
19.5
 30
0.0
 11
41.74999999999999
 21
23.1
 31
0.0
  0
LINE
  5
BE
330
1E
100
AcDbEntity
  8
0
100
AcDbLine
 10
40.25
 20
19.5
 30
0.0
 11
41.74999999999999
 21
23.1
 31
0.0
  0
LINE
  5
BF
330
1E
100
AcDbEntity
  8
0
100
AcDbLine
 10
40.25
 20
20.8
 30
0.0
 11
41.25
 21
23.3
 31
0.0
  0
LINE
  5
C0
330
1E
100
AcDbEntity
  8
0
100
AcDbLine
 10
44.55
 20
22.39999999999999
 30
0.0
 11
45.25
 21
27.0
 31
0.0
  0
LINE
  5
C1
330
1E
100
AcDbEntity
  8
0
100
AcDbLine
 10
52.75
 20
20.2
 30
0.0
 11
53.75
 21
27.0
 31
0.0
  0
LINE
  5
C2
330
1E
100
AcDbEntity
  8
0
100
AcDbLine
 10
53.25
 20
20.1
 30
0.0
 11
54.25
 21
27.0
 31
0.0
  0
LINE
  5
C3
330
1E
100
AcDbEntity
  8
0
100
AcDbLine
 10
12.05
 20
18.3
 30
0.0
 11
13.9465362417716
 21
15.79386282337319
 31
0.0
  0
LINE
  5
C4
330
1E
100
AcDbEntity
  8
0
100
AcDbLine
 10
9.75
 20
147.0
 30
0.0
 11
10.34999999999999
 21
142.5
 31
0.0
  0
LINE
  5
C5
330
1E
100
AcDbEntity
  8
0
100
AcDbLine
 10
9.75
 20
147.0
 30
0.0
 11
10.34999999999999
 21
151.5
 31
0.0
  0
LINE
  5
C6
330
1E
100
AcDbEntity
  8
0
100
AcDbLine
 10
44.15
 20
22.5
 30
0.0
 11
44.75
 21
27.0
 31
0.0
  0
LINE
  5
C7
330
1E
100
AcDbEntity
  8
0
100
AcDbLine
 10
10.34999999999999
 20
31.5
 30
0.0
 11
12.05
 21
35.7
 31
0.0
  0
LINE
  5
C8
330
1E
100
AcDbEntity
  8
0
100
AcDbLine
 10
10.34999999999999
 20
151.5
 30
0.0
 11
12.05
 21
155.6999999999999
 31
0.0
  0
LINE
  5
C9
330
1E
100
AcDbEntity
  8
0
100
AcDbLine
 10
10.34999999999999
 20
142.5
 30
0.0
 11
12.05
 21
138.3
 31
0.0
  0
LINE
  5
CA
330
1E
100
AcDbEntity
  8
0
100
AcDbLine
 10
12.05
 20
155.6999999999999
 30
0.0
 11
13.9464763398211
 21
158.206058020478
 31
0.0
  0
LINE
  5
CB
330
1E
100
AcDbEntity
  8
0
100
AcDbLine
 10
12.25
 20
147.0
 30
0.0
 11
12.75
 21
143.1
 31
0.0
  0
LINE
  5
CC
330
1E
100
AcDbEntity
  8
0
100
AcDbLine
 10
12.25
 20
147.0
 30
0.0
 11
12.75
 21
150.9
 31
0.0
  0
LINE
  5
CD
330
1E
100
AcDbEntity
  8
0
100
AcDbLine
 10
12.05
 20
138.3
 30
0.0
 11
13.94667219764009
 21
135.793683167404
 31
0.0
  0
LINE
  5
CE
330
1E
100
AcDbEntity
  8
0
100
AcDbLine
 10
12.25
 20
159.889
 30
0.0
 11
12.75
 21
159.0
 31
0.0
  0
LINE
  5
CF
330
1E
100
AcDbEntity
  8
0
100
AcDbLine
 10
12.25
 20
159.889
 30
0.0
 11
12.25
 21
160.3329999999999
 31
0.0
  0
LINE
  5
D0
330
1E
100
AcDbEntity
  8
0
100
AcDbLine
 10
12.25
 20
160.3329999999999
 30
0.0
 11
12.75
 21
161.222
 31
0.0
  0
LINE
  5
D1
330
1E
100
AcDbEntity
  8
0
100
AcDbLine
 10
12.25
 20
160.3329999999999
 30
0.0
 11
12.25
 21
159.889
 31
0.0
  0
LINE
  5
D2
330
1E
100
AcDbEntity
  8
0
100
AcDbLine
 10
12.25
 20
134.111
 30
0.0
 11
12.25
 21
133.667
 31
0.0
  0
LINE
  5
D3
330
1E
100
AcDbEntity
  8
0
100
AcDbLine
 10
12.25
 20
134.111
 30
0.0
 11
12.75
 21
135.0
 31
0.0
  0
LINE
  5
D4
330
1E
100
AcDbEntity
  8
0
100
AcDbLine
 10
12.25
 20
133.667
 30
0.0
 11
12.75
 21
132.7779999999999
 31
0.0
  0
LINE
  5
D5
330
1E
100
AcDbEntity
  8
0
100
AcDbLine
 10
12.25
 20
133.667
 30
0.0
 11
12.25
 21
134.111
 31
0.0
  0
LINE
  5
D6
330
1E
100
AcDbEntity
  8
0
100
AcDbLine
 10
12.25
 20
39.88889999999999
 30
0.0
 11
12.75
 21
39.0
 31
0.0
  0
LINE
  5
D7
330
1E
100
AcDbEntity
  8
0
100
AcDbLine
 10
12.25
 20
39.88889999999999
 30
0.0
 11
12.25
 21
40.3333
 31
0.0
  0
LINE
  5
D8
330
1E
100
AcDbEntity
  8
0
100
AcDbLine
 10
12.25
 20
40.3333
 30
0.0
 11
12.75
 21
41.2222
 31
0.0
  0
LINE
  5
D9
330
1E
100
AcDbEntity
  8
0
100
AcDbLine
 10
12.25
 20
40.3333
 30
0.0
 11
12.25
 21
39.88889999999999
 31
0.0
  0
LINE
  5
DA
330
1E
100
AcDbEntity
  8
0
100
AcDbLine
 10
12.05
 20
35.7
 30
0.0
 11
13.9465362417716
 21
38.20613717662679
 31
0.0
  0
LINE
  5
DB
330
1E
100
AcDbEntity
  8
0
100
AcDbLine
 10
9.949999999999999
 20
31.6
 30
0.0
 11
11.65
 21
35.89999999999999
 31
0.0
  0
LINE
  5
DC
330
1E
100
AcDbEntity
  8
0
100
AcDbLine
 10
41.25
 20
23.3
 30
0.0
 11
41.74999999999999
 21
27.0
 31
0.0
  0
LINE
  5
DD
330
1E
100
AcDbEntity
  8
0
100
AcDbLine
 10
41.74999999999999
 20
23.1
 30
0.0
 11
42.25
 21
27.0
 31
0.0
  0
LINE
  5
DE
330
1E
100
AcDbEntity
  8
0
100
AcDbLine
 10
13.25
 20
23.3
 30
0.0
 11
14.25
 21
20.8
 31
0.0
  0
LINE
  5
DF
330
1E
100
AcDbEntity
  8
0
100
AcDbLine
 10
13.25
 20
30.7
 30
0.0
 11
14.25
 21
33.2
 31
0.0
  0
LINE
  5
E0
330
1E
100
AcDbEntity
  8
0
100
AcDbLine
 10
13.25
 20
39.0
 30
0.0
 11
14.65
 21
39.0
 31
0.0
  0
LINE
  5
E1
330
1E
100
AcDbEntity
  8
0
100
AcDbLine
 10
12.75
 20
39.0
 30
0.0
 11
13.25
 21
39.0
 31
0.0
  0
LINE
  5
E2
330
1E
100
AcDbEntity
  8
0
100
AcDbLine
 10
12.75
 20
39.0
 30
0.0
 11
13.75
 21
38.5555
 31
0.0
  0
LINE
  5
E3
330
1E
100
AcDbEntity
  8
0
100
AcDbLine
 10
13.75
 20
38.5555
 30
0.0
 11
14.25
 21
38.5555
 31
0.0
  0
LINE
  5
E4
330
1E
100
AcDbEntity
  8
0
100
AcDbLine
 10
13.75
 20
38.5555
 30
0.0
 11
14.25
 21
37.66669999999999
 31
0.0
  0
LINE
  5
E5
330
1E
100
AcDbEntity
  8
0
100
AcDbLine
 10
13.25
 20
41.2222
 30
0.0
 11
14.65
 21
41.2222
 31
0.0
  0
LINE
  5
E6
330
1E
100
AcDbEntity
  8
0
100
AcDbLine
 10
12.75
 20
41.2222
 30
0.0
 11
13.25
 21
41.2222
 31
0.0
  0
LINE
  5
E7
330
1E
100
AcDbEntity
  8
0
100
AcDbLine
 10
12.75
 20
41.2222
 30
0.0
 11
13.75
 21
41.66669999999999
 31
0.0
  0
LINE
  5
E8
330
1E
100
AcDbEntity
  8
0
100
AcDbLine
 10
13.75
 20
41.66669999999999
 30
0.0
 11
14.25
 21
41.66669999999999
 31
0.0
  0
LINE
  5
E9
330
1E
100
AcDbEntity
  8
0
100
AcDbLine
 10
12.75
 20
30.89999999999999
 30
0.0
 11
14.25
 21
34.5
 31
0.0
  0
LINE
  5
EA
330
1E
100
AcDbEntity
  8
0
100
AcDbLine
 10
14.25
 20
38.5555
 30
0.0
 11
15.55
 21
38.5555
 31
0.0
  0
LINE
  5
EB
330
1E
100
AcDbEntity
  8
0
100
AcDbLine
 10
14.25
 20
41.66669999999999
 30
0.0
 11
15.55
 21
41.66669999999999
 31
0.0
  0
LINE
  5
EC
330
1E
100
AcDbEntity
  8
0
100
AcDbLine
 10
15.55
 20
38.5555
 30
0.0
 11
17.75
 21
38.5555
 31
0.0
  0
LINE
  5
ED
330
1E
100
AcDbEntity
  8
0
100
AcDbLine
 10
14.65
 20
39.0
 30
0.0
 11
17.05
 21
39.0
 31
0.0
  0
LINE
  5
EE
330
1E
100
AcDbEntity
  8
0
100
AcDbLine
 10
14.65
 20
41.2222
 30
0.0
 11
17.05
 21
41.2222
 31
0.0
  0
LINE
  5
EF
330
1E
100
AcDbEntity
  8
0
100
AcDbLine
 10
17.75
 20
38.5555
 30
0.0
 11
20.55
 21
38.5555
 31
0.0
  0
LINE
  5
F0
330
1E
100
AcDbEntity
  8
0
100
AcDbLine
 10
17.05
 20
39.0
 30
0.0
 11
20.05
 21
39.0
 31
0.0
  0
LINE
  5
F1
330
1E
100
AcDbEntity
  8
0
100
AcDbLine
 10
14.75
 20
41.66669999999999
 30
0.0
 11
15.25
 21
42.5555
 31
0.0
  0
LINE
  5
F2
330
1E
100
AcDbEntity
  8
0
100
AcDbLine
 10
15.65
 20
42.5555
 30
0.0
 11
16.85
 21
42.5555
 31
0.0
  0
LINE
  5
F3
330
1E
100
AcDbEntity
  8
0
100
AcDbLine
 10
15.25
 20
42.5555
 30
0.0
 11
15.65
 21
42.5555
 31
0.0
  0
LINE
  5
F4
330
1E
100
AcDbEntity
  8
0
100
AcDbLine
 10
15.25
 20
42.5555
 30
0.0
 11
16.25
 21
43.0
 31
0.0
  0
LINE
  5
F5
330
1E
100
AcDbEntity
  8
0
100
AcDbLine
 10
16.85
 20
42.5555
 30
0.0
 11
18.75
 21
42.5555
 31
0.0
  0
LINE
  5
F6
330
1E
100
AcDbEntity
  8
0
100
AcDbLine
 10
17.75
 20
43.0
 30
0.0
 11
19.45
 21
43.0
 31
0.0
  0
LINE
  5
F7
330
1E
100
AcDbEntity
  8
0
100
AcDbLine
 10
16.65
 20
43.0
 30
0.0
 11
17.75
 21
43.0
 31
0.0
  0
LINE
  5
F8
330
1E
100
AcDbEntity
  8
0
100
AcDbLine
 10
16.25
 20
43.0
 30
0.0
 11
16.65
 21
43.0
 31
0.0
  0
LINE
  5
F9
330
1E
100
AcDbEntity
  8
0
100
AcDbLine
 10
17.05
 20
41.2222
 30
0.0
 11
20.05
 21
41.2222
 31
0.0
  0
LINE
  5
FA
330
1E
100
AcDbEntity
  8
0
100
AcDbLine
 10
20.05
 20
39.0
 30
0.0
 11
23.54999999999999
 21
39.0
 31
0.0
  0
LINE
  5
FB
330
1E
100
AcDbEntity
  8
0
100
AcDbLine
 10
20.05
 20
41.2222
 30
0.0
 11
23.54999999999999
 21
41.2222
 31
0.0
  0
LINE
  5
FC
330
1E
100
AcDbEntity
  8
0
100
AcDbLine
 10
18.75
 20
42.5555
 30
0.0
 11
21.25
 21
42.5555
 31
0.0
  0
LINE
  5
FD
330
1E
100
AcDbEntity
  8
0
100
AcDbLine
 10
19.45
 20
43.0
 30
0.0
 11
21.75
 21
43.0
 31
0.0
  0
LINE
  5
FE
330
1E
100
AcDbEntity
  8
0
100
AcDbLine
 10
14.25
 20
37.66669999999999
 30
0.0
 11
14.25
 21
16.3333
 31
0.0
  0
LINE
  5
FF
330
1E
100
AcDbEntity
  8
0
100
AcDbLine
 10
14.05
 20
50.0
 30
0.0
 11
20.44999999999999
 21
52.5
 31
0.0
  0
LINE
  5
100
330
1E
100
AcDbEntity
  8
0
100
AcDbLine
 10
14.05
 20
124.0
 30
0.0
 11
20.44999999999999
 21
121.5
 31
0.0
  0
LINE
  5
101
330
1E
100
AcDbEntity
  8
0
100
AcDbLine
 10
14.25
 20
132.333
 30
0.0
 11
14.75
 21
132.333
 31
0.0
  0
LINE
  5
102
330
1E
100
AcDbEntity
  8
0
100
AcDbLine
 10
13.75
 20
132.333
 30
0.0
 11
14.25
 21
132.333
 31
0.0
  0
LINE
  5
103
330
1E
100
AcDbEntity
  8
0
100
AcDbLine
 10
15.25
 20
132.333
 30
0.0
 11
16.45
 21
132.333
 31
0.0
  0
LINE
  5
104
330
1E
100
AcDbEntity
  8
0
100
AcDbLine
 10
12.75
 20
147.0
 30
0.0
 11
13.25
 21
143.3
 31
0.0
  0
LINE
  5
105
330
1E
100
AcDbEntity
  8
0
100
AcDbLine
 10
12.75
 20
147.0
 30
0.0
 11
13.25
 21
150.6999999999999
 31
0.0
  0
LINE
  5
106
330
1E
100
AcDbEntity
  8
0
100
AcDbLine
 10
12.75
 20
143.1
 30
0.0
 11
14.25
 21
139.5
 31
0.0
  0
LINE
  5
107
330
1E
100
AcDbEntity
  8
0
100
AcDbLine
 10
12.75
 20
159.0
 30
0.0
 11
13.25
 21
159.0
 31
0.0
  0
LINE
  5
108
330
1E
100
AcDbEntity
  8
0
100
AcDbLine
 10
12.75
 20
159.0
 30
0.0
 11
13.75
 21
158.555
 31
0.0
  0
LINE
  5
109
330
1E
100
AcDbEntity
  8
0
100
AcDbLine
 10
12.75
 20
161.222
 30
0.0
 11
13.25
 21
161.222
 31
0.0
  0
LINE
  5
10A
330
1E
100
AcDbEntity
  8
0
100
AcDbLine
 10
12.75
 20
161.222
 30
0.0
 11
13.75
 21
161.667
 31
0.0
  0
LINE
  5
10B
330
1E
100
AcDbEntity
  8
0
100
AcDbLine
 10
12.75
 20
135.0
 30
0.0
 11
13.25
 21
135.0
 31
0.0
  0
LINE
  5
10C
330
1E
100
AcDbEntity
  8
0
100
AcDbLine
 10
12.75
 20
135.0
 30
0.0
 11
13.75
 21
135.4439999999999
 31
0.0
  0
LINE
  5
10D
330
1E
100
AcDbEntity
  8
0
100
AcDbLine
 10
14.65
 20
132.7779999999999
 30
0.0
 11
17.05
 21
132.7779999999999
 31
0.0
  0
LINE
  5
10E
330
1E
100
AcDbEntity
  8
0
100
AcDbLine
 10
13.25
 20
150.6999999999999
 30
0.0
 11
14.25
 21
153.2
 31
0.0
  0
LINE
  5
10F
330
1E
100
AcDbEntity
  8
0
100
AcDbLine
 10
13.25
 20
143.3
 30
0.0
 11
14.25
 21
140.8
 31
0.0
  0
LINE
  5
110
330
1E
100
AcDbEntity
  8
0
100
AcDbLine
 10
13.25
 20
159.0
 30
0.0
 11
14.65
 21
159.0
 31
0.0
  0
LINE
  5
111
330
1E
100
AcDbEntity
  8
0
100
AcDbLine
 10
13.25
 20
161.222
 30
0.0
 11
14.65
 21
161.222
 31
0.0
  0
LINE
  5
112
330
1E
100
AcDbEntity
  8
0
100
AcDbLine
 10
13.75
 20
158.555
 30
0.0
 11
14.25
 21
158.555
 31
0.0
  0
LINE
  5
113
330
1E
100
AcDbEntity
  8
0
100
AcDbLine
 10
13.75
 20
158.555
 30
0.0
 11
14.25
 21
157.667
 31
0.0
  0
LINE
  5
114
330
1E
100
AcDbEntity
  8
0
100
AcDbLine
 10
13.75
 20
161.667
 30
0.0
 11
14.25
 21
161.667
 31
0.0
  0
LINE
  5
115
330
1E
100
AcDbEntity
  8
0
100
AcDbLine
 10
14.05
 20
170.0
 30
0.0
 11
20.44999999999999
 21
172.5
 31
0.0
  0
LINE
  5
116
330
1E
100
AcDbEntity
  8
0
100
AcDbLine
 10
13.85
 20
170.4
 30
0.0
 11
20.35
 21
173.0
 31
0.0
  0
LINE
  5
117
330
1E
100
AcDbEntity
  8
0
100
AcDbLine
 10
14.25
 20
158.555
 30
0.0
 11
15.55
 21
158.555
 31
0.0
  0
LINE
  5
118
330
1E
100
AcDbEntity
  8
0
100
AcDbLine
 10
14.25
 20
136.3329999999999
 30
0.0
 11
14.25
 21
157.667
 31
0.0
  0
LINE
  5
119
330
1E
100
AcDbEntity
  8
0
100
AcDbLine
 10
14.65
 20
159.0
 30
0.0
 11
17.05
 21
159.0
 31
0.0
  0
LINE
  5
11A
330
1E
100
AcDbEntity
  8
0
100
AcDbLine
 10
14.65
 20
161.222
 30
0.0
 11
17.05
 21
161.222
 31
0.0
  0
LINE
  5
11B
330
1E
100
AcDbEntity
  8
0
100
AcDbLine
 10
14.75
 20
161.667
 30
0.0
 11
15.25
 21
162.555
 31
0.0
  0
LINE
  5
11C
330
1E
100
AcDbEntity
  8
0
100
AcDbLine
 10
15.25
 20
162.555
 30
0.0
 11
15.65
 21
162.555
 31
0.0
  0
LINE
  5
11D
330
1E
100
AcDbEntity
  8
0
100
AcDbLine
 10
15.25
 20
162.555
 30
0.0
 11
16.25
 21
163.0
 31
0.0
  0
LINE
  5
11E
330
1E
100
AcDbEntity
  8
0
100
AcDbLine
 10
14.25
 20
157.667
 30
0.0
 11
14.25
 21
136.3329999999999
 31
0.0
  0
LINE
  5
11F
330
1E
100
AcDbEntity
  8
0
100
AcDbLine
 10
14.25
 20
135.4439999999999
 30
0.0
 11
15.55
 21
135.4439999999999
 31
0.0
  0
LINE
  5
120
330
1E
100
AcDbEntity
  8
0
100
AcDbLine
 10
13.75
 20
135.4439999999999
 30
0.0
 11
14.25
 21
135.4439999999999
 31
0.0
  0
LINE
  5
121
330
1E
100
AcDbEntity
  8
0
100
AcDbLine
 10
13.75
 20
135.4439999999999
 30
0.0
 11
14.25
 21
136.3329999999999
 31
0.0
  0
LINE
  5
122
330
1E
100
AcDbEntity
  8
0
100
AcDbLine
 10
14.65
 20
135.0
 30
0.0
 11
17.05
 21
135.0
 31
0.0
  0
LINE
  5
123
330
1E
100
AcDbEntity
  8
0
100
AcDbLine
 10
13.25
 20
135.0
 30
0.0
 11
14.65
 21
135.0
 31
0.0
  0
LINE
  5
124
330
1E
100
AcDbEntity
  8
0
100
AcDbLine
 10
13.25
 20
132.7779999999999
 30
0.0
 11
14.65
 21
132.7779999999999
 31
0.0
  0
LINE
  5
125
330
1E
100
AcDbEntity
  8
0
100
AcDbLine
 10
12.75
 20
132.7779999999999
 30
0.0
 11
13.25
 21
132.7779999999999
 31
0.0
  0
LINE
  5
126
330
1E
100
AcDbEntity
  8
0
100
AcDbLine
 10
12.75
 20
132.7779999999999
 30
0.0
 11
13.75
 21
132.333
 31
0.0
  0
LINE
  5
127
330
1E
100
AcDbEntity
  8
0
100
AcDbLine
 10
14.75
 20
132.333
 30
0.0
 11
15.25
 21
131.4439999999999
 31
0.0
  0
LINE
  5
128
330
1E
100
AcDbEntity
  8
0
100
AcDbLine
 10
14.75
 20
132.333
 30
0.0
 11
15.25
 21
132.333
 31
0.0
  0
LINE
  5
129
330
1E
100
AcDbEntity
  8
0
100
AcDbLine
 10
16.65
 20
131.0
 30
0.0
 11
17.75
 21
131.0
 31
0.0
  0
LINE
  5
12A
330
1E
100
AcDbEntity
  8
0
100
AcDbLine
 10
16.25
 20
131.0
 30
0.0
 11
16.65
 21
131.0
 31
0.0
  0
LINE
  5
12B
330
1E
100
AcDbEntity
  8
0
100
AcDbLine
 10
17.25
 20
75.0128
 30
0.0
 11
17.48999999999999
 21
74.5
 31
0.0
  0
LINE
  5
12C
330
1E
100
AcDbEntity
  8
0
100
AcDbLine
 10
17.25
 20
75.0128
 30
0.0
 11
17.25
 21
98.9872
 31
0.0
  0
LINE
  5
12D
330
1E
100
AcDbEntity
  8
0
100
AcDbLine
 10
18.81
 20
74.5
 30
0.0
 11
20.37
 21
74.5
 31
0.0
  0
LINE
  5
12E
330
1E
100
AcDbEntity
  8
0
100
AcDbLine
 10
17.85
 20
74.5
 30
0.0
 11
18.81
 21
74.5
 31
0.0
  0
LINE
  5
12F
330
1E
100
AcDbEntity
  8
0
100
AcDbLine
 10
17.48999999999999
 20
74.5
 30
0.0
 11
17.85
 21
74.5
 31
0.0
  0
LINE
  5
130
330
1E
100
AcDbEntity
  8
0
100
AcDbLine
 10
18.81
 20
99.50000000000001
 30
0.0
 11
20.37
 21
99.50000000000001
 31
0.0
  0
LINE
  5
131
330
1E
100
AcDbEntity
  8
0
100
AcDbLine
 10
17.85
 20
99.50000000000001
 30
0.0
 11
18.81
 21
99.50000000000001
 31
0.0
  0
LINE
  5
132
330
1E
100
AcDbEntity
  8
0
100
AcDbLine
 10
17.48999999999999
 20
99.50000000000001
 30
0.0
 11
17.85
 21
99.50000000000001
 31
0.0
  0
LINE
  5
133
330
1E
100
AcDbEntity
  8
0
100
AcDbLine
 10
17.25
 20
98.9872
 30
0.0
 11
17.25
 21
75.0128
 31
0.0
  0
LINE
  5
134
330
1E
100
AcDbEntity
  8
0
100
AcDbLine
 10
17.25
 20
98.9872
 30
0.0
 11
17.48999999999999
 21
99.50000000000001
 31
0.0
  0
LINE
  5
135
330
1E
100
AcDbEntity
  8
0
100
AcDbLine
 10
19.3617647058823
 20
131.0
 30
0.0
 11
22.25
 21
129.858139534884
 31
0.0
  0
LINE
  5
136
330
1E
100
AcDbEntity
  8
0
100
AcDbLine
 10
17.75
 20
131.0
 30
0.0
 11
19.45
 21
131.0
 31
0.0
  0
LINE
  5
137
330
1E
100
AcDbEntity
  8
0
100
AcDbLine
 10
20.35
 20
121.0
 30
0.0
 11
22.25
 21
120.7246376811589
 31
0.0
  0
LINE
  5
138
330
1E
100
AcDbEntity
  8
0
100
AcDbLine
 10
19.45
 20
131.0
 30
0.0
 11
21.75
 21
131.0
 31
0.0
  0
LINE
  5
139
330
1E
100
AcDbEntity
  8
0
100
AcDbLine
 10
18.75
 20
131.4439999999999
 30
0.0
 11
21.25
 21
131.4439999999999
 31
0.0
  0
LINE
  5
13A
330
1E
100
AcDbEntity
  8
0
100
AcDbLine
 10
16.85
 20
131.4439999999999
 30
0.0
 11
18.75
 21
131.4439999999999
 31
0.0
  0
LINE
  5
13B
330
1E
100
AcDbEntity
  8
0
100
AcDbLine
 10
15.55
 20
158.555
 30
0.0
 11
17.75
 21
158.555
 31
0.0
  0
LINE
  5
13C
330
1E
100
AcDbEntity
  8
0
100
AcDbLine
 10
13.75
 20
161.667
 30
0.0
 11
17.75
 21
161.667
 31
0.0
  0
LINE
  5
13D
330
1E
100
AcDbEntity
  8
0
100
AcDbLine
 10
15.65
 20
162.555
 30
0.0
 11
16.85
 21
162.555
 31
0.0
  0
LINE
  5
13E
330
1E
100
AcDbEntity
  8
0
100
AcDbLine
 10
15.55
 20
135.4439999999999
 30
0.0
 11
17.75
 21
135.4439999999999
 31
0.0
  0
LINE
  5
13F
330
1E
100
AcDbEntity
  8
0
100
AcDbLine
 10
17.75
 20
132.333
 30
0.0
 11
20.55
 21
132.333
 31
0.0
  0
LINE
  5
140
330
1E
100
AcDbEntity
  8
0
100
AcDbLine
 10
17.75
 20
158.555
 30
0.0
 11
20.55
 21
158.555
 31
0.0
  0
LINE
  5
141
330
1E
100
AcDbEntity
  8
0
100
AcDbLine
 10
17.05
 20
159.0
 30
0.0
 11
20.05
 21
159.0
 31
0.0
  0
LINE
  5
142
330
1E
100
AcDbEntity
  8
0
100
AcDbLine
 10
16.75
 20
221.192
 30
0.0
 11
16.75
 21
221.4799999999999
 31
0.0
  0
LINE
  5
143
330
1E
100
AcDbEntity
  8
0
100
AcDbLine
 10
16.75
 20
221.192
 30
0.0
 11
16.98999999999999
 21
221.0
 31
0.0
  0
LINE
  5
144
330
1E
100
AcDbEntity
  8
0
100
AcDbLine
 10
16.75
 20
221.4799999999999
 30
0.0
 11
16.75
 21
222.248
 31
0.0
  0
LINE
  5
145
330
1E
100
AcDbEntity
  8
0
100
AcDbLine
 10
16.75
 20
221.4799999999999
 30
0.0
 11
16.75
 21
221.192
 31
0.0
  0
LINE
  5
146
330
1E
100
AcDbEntity
  8
0
100
AcDbLine
 10
16.75
 20
222.248
 30
0.0
 11
16.75
 21
223.496
 31
0.0
  0
LINE
  5
147
330
1E
100
AcDbEntity
  8
0
100
AcDbLine
 10
16.75
 20
222.248
 30
0.0
 11
16.75
 21
221.4799999999999
 31
0.0
  0
LINE
  5
148
330
1E
100
AcDbEntity
  8
0
100
AcDbLine
 10
16.75
 20
223.496
 30
0.0
 11
16.75
 21
225.1279999999999
 31
0.0
  0
LINE
  5
149
330
1E
100
AcDbEntity
  8
0
100
AcDbLine
 10
16.75
 20
223.496
 30
0.0
 11
16.75
 21
222.248
 31
0.0
  0
LINE
  5
14A
330
1E
100
AcDbEntity
  8
0
100
AcDbLine
 10
16.75
 20
225.1279999999999
 30
0.0
 11
16.75
 21
226.984
 31
0.0
  0
LINE
  5
14B
330
1E
100
AcDbEntity
  8
0
100
AcDbLine
 10
16.75
 20
225.1279999999999
 30
0.0
 11
16.75
 21
223.496
 31
0.0
  0
LINE
  5
14C
330
1E
100
AcDbEntity
  8
0
100
AcDbLine
 10
16.75
 20
232.872
 30
0.0
 11
16.75
 21
234.504
 31
0.0
  0
LINE
  5
14D
330
1E
100
AcDbEntity
  8
0
100
AcDbLine
 10
16.75
 20
232.872
 30
0.0
 11
16.75
 21
231.0159999999999
 31
0.0
  0
LINE
  5
14E
330
1E
100
AcDbEntity
  8
0
100
AcDbLine
 10
16.75
 20
236.8079999999999
 30
0.0
 11
16.75
 21
236.52
 31
0.0
  0
LINE
  5
14F
330
1E
100
AcDbEntity
  8
0
100
AcDbLine
 10
16.75
 20
236.8079999999999
 30
0.0
 11
16.98999999999999
 21
237.0
 31
0.0
  0
LINE
  5
150
330
1E
100
AcDbEntity
  8
0
100
AcDbLine
 10
16.75
 20
236.52
 30
0.0
 11
16.75
 21
235.752
 31
0.0
  0
LINE
  5
151
330
1E
100
AcDbEntity
  8
0
100
AcDbLine
 10
16.75
 20
236.52
 30
0.0
 11
16.75
 21
236.8079999999999
 31
0.0
  0
LINE
  5
152
330
1E
100
AcDbEntity
  8
0
100
AcDbLine
 10
16.75
 20
235.752
 30
0.0
 11
16.75
 21
234.504
 31
0.0
  0
LINE
  5
153
330
1E
100
AcDbEntity
  8
0
100
AcDbLine
 10
16.75
 20
235.752
 30
0.0
 11
16.75
 21
236.52
 31
0.0
  0
LINE
  5
154
330
1E
100
AcDbEntity
  8
0
100
AcDbLine
 10
16.75
 20
234.504
 30
0.0
 11
16.75
 21
232.872
 31
0.0
  0
LINE
  5
155
330
1E
100
AcDbEntity
  8
0
100
AcDbLine
 10
16.75
 20
234.504
 30
0.0
 11
16.75
 21
235.752
 31
0.0
  0
LINE
  5
156
330
1E
100
AcDbEntity
  8
0
100
AcDbLine
 10
16.75
 20
234.504
 30
0.0
 11
16.75
 21
232.872
 31
0.0
  0
LINE
  5
157
330
1E
100
AcDbEntity
  8
0
100
AcDbLine
 10
16.75
 20
232.872
 30
0.0
 11
16.75
 21
231.0159999999999
 31
0.0
  0
LINE
  5
158
330
1E
100
AcDbEntity
  8
0
100
AcDbLine
 10
16.75
 20
232.872
 30
0.0
 11
16.75
 21
234.504
 31
0.0
  0
LINE
  5
159
330
1E
100
AcDbEntity
  8
0
100
AcDbLine
 10
16.75
 20
231.0159999999999
 30
0.0
 11
16.75
 21
229.0
 31
0.0
  0
LINE
  5
15A
330
1E
100
AcDbEntity
  8
0
100
AcDbLine
 10
16.75
 20
231.0159999999999
 30
0.0
 11
16.75
 21
232.872
 31
0.0
  0
LINE
  5
15B
330
1E
100
AcDbEntity
  8
0
100
AcDbLine
 10
16.75
 20
231.0159999999999
 30
0.0
 11
16.75
 21
232.872
 31
0.0
  0
LINE
  5
15C
330
1E
100
AcDbEntity
  8
0
100
AcDbLine
 10
16.75
 20
229.0
 30
0.0
 11
16.75
 21
226.984
 31
0.0
  0
LINE
  5
15D
330
1E
100
AcDbEntity
  8
0
100
AcDbLine
 10
16.75
 20
229.0
 30
0.0
 11
16.75
 21
231.0159999999999
 31
0.0
  0
LINE
  5
15E
330
1E
100
AcDbEntity
  8
0
100
AcDbLine
 10
16.75
 20
226.984
 30
0.0
 11
16.75
 21
229.0
 31
0.0
  0
LINE
  5
15F
330
1E
100
AcDbEntity
  8
0
100
AcDbLine
 10
16.75
 20
226.984
 30
0.0
 11
16.75
 21
225.1279999999999
 31
0.0
  0
LINE
  5
160
330
1E
100
AcDbEntity
  8
0
100
AcDbLine
 10
16.98999999999999
 20
221.2879999999999
 30
0.0
 11
16.98999999999999
 21
221.0
 31
0.0
  0
LINE
  5
161
330
1E
100
AcDbEntity
  8
0
100
AcDbLine
 10
16.98999999999999
 20
221.2879999999999
 30
0.0
 11
16.98999999999999
 21
222.0559999999999
 31
0.0
  0
LINE
  5
162
330
1E
100
AcDbEntity
  8
0
100
AcDbLine
 10
16.98999999999999
 20
222.0559999999999
 30
0.0
 11
16.98999999999999
 21
221.2879999999999
 31
0.0
  0
LINE
  5
163
330
1E
100
AcDbEntity
  8
0
100
AcDbLine
 10
16.98999999999999
 20
222.0559999999999
 30
0.0
 11
16.98999999999999
 21
223.3359999999999
 31
0.0
  0
LINE
  5
164
330
1E
100
AcDbEntity
  8
0
100
AcDbLine
 10
16.98999999999999
 20
223.3359999999999
 30
0.0
 11
16.98999999999999
 21
222.0559999999999
 31
0.0
  0
LINE
  5
165
330
1E
100
AcDbEntity
  8
0
100
AcDbLine
 10
16.98999999999999
 20
223.3359999999999
 30
0.0
 11
16.98999999999999
 21
225.032
 31
0.0
  0
LINE
  5
166
330
1E
100
AcDbEntity
  8
0
100
AcDbLine
 10
16.98999999999999
 20
225.032
 30
0.0
 11
16.98999999999999
 21
223.3359999999999
 31
0.0
  0
LINE
  5
167
330
1E
100
AcDbEntity
  8
0
100
AcDbLine
 10
16.98999999999999
 20
225.032
 30
0.0
 11
16.98999999999999
 21
226.9519999999999
 31
0.0
  0
LINE
  5
168
330
1E
100
AcDbEntity
  8
0
100
AcDbLine
 10
16.98999999999999
 20
237.0
 30
0.0
 11
16.98999999999999
 21
236.712
 31
0.0
  0
LINE
  5
169
330
1E
100
AcDbEntity
  8
0
100
AcDbLine
 10
16.98999999999999
 20
237.0
 30
0.0
 11
20.75
 21
237.0
 31
0.0
  0
LINE
  5
16A
330
1E
100
AcDbEntity
  8
0
100
AcDbLine
 10
16.98999999999999
 20
236.712
 30
0.0
 11
16.98999999999999
 21
235.944
 31
0.0
  0
LINE
  5
16B
330
1E
100
AcDbEntity
  8
0
100
AcDbLine
 10
16.98999999999999
 20
236.712
 30
0.0
 11
16.98999999999999
 21
237.0
 31
0.0
  0
LINE
  5
16C
330
1E
100
AcDbEntity
  8
0
100
AcDbLine
 10
16.98999999999999
 20
235.944
 30
0.0
 11
16.98999999999999
 21
234.664
 31
0.0
  0
LINE
  5
16D
330
1E
100
AcDbEntity
  8
0
100
AcDbLine
 10
16.98999999999999
 20
235.944
 30
0.0
 11
16.98999999999999
 21
236.712
 31
0.0
  0
LINE
  5
16E
330
1E
100
AcDbEntity
  8
0
100
AcDbLine
 10
16.98999999999999
 20
234.664
 30
0.0
 11
16.98999999999999
 21
232.9679999999999
 31
0.0
  0
LINE
  5
16F
330
1E
100
AcDbEntity
  8
0
100
AcDbLine
 10
16.98999999999999
 20
234.664
 30
0.0
 11
16.98999999999999
 21
235.944
 31
0.0
  0
LINE
  5
170
330
1E
100
AcDbEntity
  8
0
100
AcDbLine
 10
16.98999999999999
 20
232.9679999999999
 30
0.0
 11
16.98999999999999
 21
231.048
 31
0.0
  0
LINE
  5
171
330
1E
100
AcDbEntity
  8
0
100
AcDbLine
 10
16.98999999999999
 20
232.9679999999999
 30
0.0
 11
16.98999999999999
 21
234.664
 31
0.0
  0
LINE
  5
172
330
1E
100
AcDbEntity
  8
0
100
AcDbLine
 10
16.98999999999999
 20
231.048
 30
0.0
 11
16.98999999999999
 21
229.0
 31
0.0
  0
LINE
  5
173
330
1E
100
AcDbEntity
  8
0
100
AcDbLine
 10
16.98999999999999
 20
231.048
 30
0.0
 11
16.98999999999999
 21
232.9679999999999
 31
0.0
  0
LINE
  5
174
330
1E
100
AcDbEntity
  8
0
100
AcDbLine
 10
16.98999999999999
 20
226.9519999999999
 30
0.0
 11
16.98999999999999
 21
225.032
 31
0.0
  0
LINE
  5
175
330
1E
100
AcDbEntity
  8
0
100
AcDbLine
 10
16.98999999999999
 20
226.9519999999999
 30
0.0
 11
16.98999999999999
 21
229.0
 31
0.0
  0
LINE
  5
176
330
1E
100
AcDbEntity
  8
0
100
AcDbLine
 10
16.98999999999999
 20
229.0
 30
0.0
 11
16.98999999999999
 21
226.9519999999999
 31
0.0
  0
LINE
  5
177
330
1E
100
AcDbEntity
  8
0
100
AcDbLine
 10
16.98999999999999
 20
229.0
 30
0.0
 11
16.98999999999999
 21
231.048
 31
0.0
  0
LINE
  5
178
330
1E
100
AcDbEntity
  8
0
100
AcDbLine
 10
16.98999999999999
 20
221.0
 30
0.0
 11
20.75
 21
221.0
 31
0.0
  0
LINE
  5
179
330
1E
100
AcDbEntity
  8
0
100
AcDbLine
 10
16.98999999999999
 20
221.0
 30
0.0
 11
16.98999999999999
 21
221.2879999999999
 31
0.0
  0
LINE
  5
17A
330
1E
100
AcDbEntity
  8
0
100
AcDbLine
 10
16.85
 20
162.555
 30
0.0
 11
18.75
 21
162.555
 31
0.0
  0
LINE
  5
17B
330
1E
100
AcDbEntity
  8
0
100
AcDbLine
 10
17.05
 20
161.222
 30
0.0
 11
20.05
 21
161.222
 31
0.0
  0
LINE
  5
17C
330
1E
100
AcDbEntity
  8
0
100
AcDbLine
 10
20.05
 20
159.0
 30
0.0
 11
23.54999999999999
 21
159.0
 31
0.0
  0
LINE
  5
17D
330
1E
100
AcDbEntity
  8
0
100
AcDbLine
 10
20.05
 20
161.222
 30
0.0
 11
23.54999999999999
 21
161.222
 31
0.0
  0
LINE
  5
17E
330
1E
100
AcDbEntity
  8
0
100
AcDbLine
 10
19.3617647058823
 20
163.0
 30
0.0
 11
22.65
 21
164.3
 31
0.0
  0
LINE
  5
17F
330
1E
100
AcDbEntity
  8
0
100
AcDbLine
 10
18.75
 20
162.555
 30
0.0
 11
21.25
 21
162.555
 31
0.0
  0
LINE
  5
180
330
1E
100
AcDbEntity
  8
0
100
AcDbLine
 10
17.75
 20
135.4439999999999
 30
0.0
 11
20.55
 21
135.4439999999999
 31
0.0
  0
LINE
  5
181
330
1E
100
AcDbEntity
  8
0
100
AcDbLine
 10
17.05
 20
135.0
 30
0.0
 11
20.05
 21
135.0
 31
0.0
  0
LINE
  5
182
330
1E
100
AcDbEntity
  8
0
100
AcDbLine
 10
20.05
 20
135.0
 30
0.0
 11
23.54999999999999
 21
135.0
 31
0.0
  0
LINE
  5
183
330
1E
100
AcDbEntity
  8
0
100
AcDbLine
 10
17.05
 20
132.7779999999999
 30
0.0
 11
20.05
 21
132.7779999999999
 31
0.0
  0
LINE
  5
184
330
1E
100
AcDbEntity
  8
0
100
AcDbLine
 10
20.35
 20
173.0
 30
0.0
 11
27.25
 21
174.0
 31
0.0
  0
LINE
  5
185
330
1E
100
AcDbEntity
  8
0
100
AcDbLine
 10
20.05
 20
132.7779999999999
 30
0.0
 11
23.54999999999999
 21
132.7779999999999
 31
0.0
  0
LINE
  5
186
330
1E
100
AcDbEntity
  8
0
100
AcDbLine
 10
18.44999999999999
 20
132.333
 30
0.0
 11
21.04999999999999
 21
132.333
 31
0.0
  0
LINE
  5
187
330
1E
100
AcDbEntity
  8
0
100
AcDbLine
 10
16.45
 20
132.333
 30
0.0
 11
18.44999999999999
 21
132.333
 31
0.0
  0
LINE
  5
188
330
1E
100
AcDbEntity
  8
0
100
AcDbLine
 10
15.65
 20
131.4439999999999
 30
0.0
 11
16.85
 21
131.4439999999999
 31
0.0
  0
LINE
  5
189
330
1E
100
AcDbEntity
  8
0
100
AcDbLine
 10
15.25
 20
131.4439999999999
 30
0.0
 11
15.65
 21
131.4439999999999
 31
0.0
  0
LINE
  5
18A
330
1E
100
AcDbEntity
  8
0
100
AcDbLine
 10
15.25
 20
131.4439999999999
 30
0.0
 11
16.25
 21
131.0
 31
0.0
  0
LINE
  5
18B
330
1E
100
AcDbEntity
  8
0
100
AcDbLine
 10
20.55
 20
38.5555
 30
0.0
 11
23.75
 21
38.5555
 31
0.0
  0
LINE
  5
18C
330
1E
100
AcDbEntity
  8
0
100
AcDbLine
 10
23.75
 20
38.5555
 30
0.0
 11
27.25
 21
38.5555
 31
0.0
  0
LINE
  5
18D
330
1E
100
AcDbEntity
  8
0
100
AcDbLine
 10
23.54999999999999
 20
39.0
 30
0.0
 11
27.25
 21
39.0
 31
0.0
  0
LINE
  5
18E
330
1E
100
AcDbEntity
  8
0
100
AcDbLine
 10
23.54999999999999
 20
41.2222
 30
0.0
 11
27.25
 21
41.2222
 31
0.0
  0
LINE
  5
18F
330
1E
100
AcDbEntity
  8
0
100
AcDbLine
 10
27.25
 20
38.5555
 30
0.0
 11
30.75
 21
38.5555
 31
0.0
  0
LINE
  5
190
330
1E
100
AcDbEntity
  8
0
100
AcDbLine
 10
27.25
 20
39.0
 30
0.0
 11
30.95
 21
39.0
 31
0.0
  0
LINE
  5
191
330
1E
100
AcDbEntity
  8
0
100
AcDbLine
 10
15.55
 20
41.66669999999999
 30
0.0
 11
23.75
 21
41.66669999999999
 31
0.0
  0
LINE
  5
192
330
1E
100
AcDbEntity
  8
0
100
AcDbLine
 10
23.75
 20
41.66669999999999
 30
0.0
 11
30.75
 21
41.66669999999999
 31
0.0
  0
LINE
  5
193
330
1E
100
AcDbEntity
  8
0
100
AcDbLine
 10
22.25
 20
43.0
 30
0.0
 11
22.25
 21
74.5
 31
0.0
  0
LINE
  5
194
330
1E
100
AcDbEntity
  8
0
100
AcDbLine
 10
21.25
 20
42.5555
 30
0.0
 11
24.15
 21
42.5555
 31
0.0
  0
LINE
  5
195
330
1E
100
AcDbEntity
  8
0
100
AcDbLine
 10
24.15
 20
42.5555
 30
0.0
 11
27.25
 21
42.5555
 31
0.0
  0
LINE
  5
196
330
1E
100
AcDbEntity
  8
0
100
AcDbLine
 10
21.75
 20
43.0
 30
0.0
 11
24.45
 21
43.0
 31
0.0
  0
LINE
  5
197
330
1E
100
AcDbEntity
  8
0
100
AcDbLine
 10
24.45
 20
43.0
 30
0.0
 11
27.25
 21
43.0
 31
0.0
  0
LINE
  5
198
330
1E
100
AcDbEntity
  8
0
100
AcDbLine
 10
27.25
 20
41.2222
 30
0.0
 11
30.95
 21
41.2222
 31
0.0
  0
LINE
  5
199
330
1E
100
AcDbEntity
  8
0
100
AcDbLine
 10
30.75
 20
38.5555
 30
0.0
 11
33.95
 21
38.5555
 31
0.0
  0
LINE
  5
19A
330
1E
100
AcDbEntity
  8
0
100
AcDbLine
 10
30.95
 20
39.0
 30
0.0
 11
34.45
 21
39.0
 31
0.0
  0
LINE
  5
19B
330
1E
100
AcDbEntity
  8
0
100
AcDbLine
 10
30.95
 20
41.2222
 30
0.0
 11
34.45
 21
41.2222
 31
0.0
  0
LINE
  5
19C
330
1E
100
AcDbEntity
  8
0
100
AcDbLine
 10
30.75
 20
41.66669999999999
 30
0.0
 11
33.95
 21
41.66669999999999
 31
0.0
  0
LINE
  5
19D
330
1E
100
AcDbEntity
  8
0
100
AcDbLine
 10
32.25
 20
43.0
 30
0.0
 11
32.25
 21
74.5
 31
0.0
  0
LINE
  5
19E
330
1E
100
AcDbEntity
  8
0
100
AcDbLine
 10
30.35
 20
42.5555
 30
0.0
 11
33.25
 21
42.5555
 31
0.0
  0
LINE
  5
19F
330
1E
100
AcDbEntity
  8
0
100
AcDbLine
 10
27.25
 20
42.5555
 30
0.0
 11
30.35
 21
42.5555
 31
0.0
  0
LINE
  5
1A0
330
1E
100
AcDbEntity
  8
0
100
AcDbLine
 10
27.25
 20
43.0
 30
0.0
 11
32.75
 21
43.0
 31
0.0
  0
LINE
  5
1A1
330
1E
100
AcDbEntity
  8
0
100
AcDbLine
 10
40.25
 20
33.2
 30
0.0
 11
41.25
 21
30.7
 31
0.0
  0
LINE
  5
1A2
330
1E
100
AcDbEntity
  8
0
100
AcDbLine
 10
33.95
 20
38.5555
 30
0.0
 11
36.75
 21
38.5555
 31
0.0
  0
LINE
  5
1A3
330
1E
100
AcDbEntity
  8
0
100
AcDbLine
 10
34.45
 20
39.0
 30
0.0
 11
37.45
 21
39.0
 31
0.0
  0
LINE
  5
1A4
330
1E
100
AcDbEntity
  8
0
100
AcDbLine
 10
34.45
 20
41.2222
 30
0.0
 11
37.45
 21
41.2222
 31
0.0
  0
LINE
  5
1A5
330
1E
100
AcDbEntity
  8
0
100
AcDbLine
 10
33.95
 20
41.66669999999999
 30
0.0
 11
40.25
 21
41.66669999999999
 31
0.0
  0
LINE
  5
1A6
330
1E
100
AcDbEntity
  8
0
100
AcDbLine
 10
33.25
 20
42.5555
 30
0.0
 11
35.75
 21
42.5555
 31
0.0
  0
LINE
  5
1A7
330
1E
100
AcDbEntity
  8
0
100
AcDbLine
 10
32.75
 20
43.0
 30
0.0
 11
35.04999999999999
 21
43.0
 31
0.0
  0
LINE
  5
1A8
330
1E
100
AcDbEntity
  8
0
100
AcDbLine
 10
36.75
 20
38.5555
 30
0.0
 11
38.95
 21
38.5555
 31
0.0
  0
LINE
  5
1A9
330
1E
100
AcDbEntity
  8
0
100
AcDbLine
 10
37.45
 20
39.0
 30
0.0
 11
39.85
 21
39.0
 31
0.0
  0
LINE
  5
1AA
330
1E
100
AcDbEntity
  8
0
100
AcDbLine
 10
37.45
 20
41.2222
 30
0.0
 11
39.85
 21
41.2222
 31
0.0
  0
LINE
  5
1AB
330
1E
100
AcDbEntity
  8
0
100
AcDbLine
 10
35.75
 20
42.5555
 30
0.0
 11
37.65
 21
42.5555
 31
0.0
  0
LINE
  5
1AC
330
1E
100
AcDbEntity
  8
0
100
AcDbLine
 10
38.95
 20
38.5555
 30
0.0
 11
40.25
 21
38.5555
 31
0.0
  0
LINE
  5
1AD
330
1E
100
AcDbEntity
  8
0
100
AcDbLine
 10
40.25
 20
38.5555
 30
0.0
 11
40.75
 21
38.5555
 31
0.0
  0
LINE
  5
1AE
330
1E
100
AcDbEntity
  8
0
100
AcDbLine
 10
39.85
 20
39.0
 30
0.0
 11
41.25
 21
39.0
 31
0.0
  0
LINE
  5
1AF
330
1E
100
AcDbEntity
  8
0
100
AcDbLine
 10
39.85
 20
41.2222
 30
0.0
 11
41.25
 21
41.2222
 31
0.0
  0
LINE
  5
1B0
330
1E
100
AcDbEntity
  8
0
100
AcDbLine
 10
40.25
 20
41.66669999999999
 30
0.0
 11
40.75
 21
41.66669999999999
 31
0.0
  0
LINE
  5
1B1
330
1E
100
AcDbEntity
  8
0
100
AcDbLine
 10
39.25
 20
42.5555
 30
0.0
 11
39.75
 21
41.66669999999999
 31
0.0
  0
LINE
  5
1B2
330
1E
100
AcDbEntity
  8
0
100
AcDbLine
 10
37.65
 20
42.5555
 30
0.0
 11
38.85
 21
42.5555
 31
0.0
  0
LINE
  5
1B3
330
1E
100
AcDbEntity
  8
0
100
AcDbLine
 10
38.25
 20
43.0
 30
0.0
 11
39.25
 21
42.5555
 31
0.0
  0
LINE
  5
1B4
330
1E
100
AcDbEntity
  8
0
100
AcDbLine
 10
38.85
 20
42.5555
 30
0.0
 11
39.25
 21
42.5555
 31
0.0
  0
LINE
  5
1B5
330
1E
100
AcDbEntity
  8
0
100
AcDbLine
 10
35.04999999999999
 20
43.0
 30
0.0
 11
36.75
 21
43.0
 31
0.0
  0
LINE
  5
1B6
330
1E
100
AcDbEntity
  8
0
100
AcDbLine
 10
36.75
 20
43.0
 30
0.0
 11
38.25
 21
43.0
 31
0.0
  0
LINE
  5
1B7
330
1E
100
AcDbEntity
  8
0
100
AcDbLine
 10
40.25
 20
37.66669999999999
 30
0.0
 11
40.25
 21
16.3333
 31
0.0
  0
LINE
  5
1B8
330
1E
100
AcDbEntity
  8
0
100
AcDbLine
 10
40.25
 20
37.66669999999999
 30
0.0
 11
40.75
 21
38.5555
 31
0.0
  0
LINE
  5
1B9
330
1E
100
AcDbEntity
  8
0
100
AcDbLine
 10
40.25
 20
34.5
 30
0.0
 11
41.74999999999999
 21
30.89999999999999
 31
0.0
  0
LINE
  5
1BA
330
1E
100
AcDbEntity
  8
0
100
AcDbLine
 10
32.25
 20
43.697619047619
 30
0.0
 11
33.9735294117647
 21
43.0
 31
0.0
  0
LINE
  5
1BB
330
1E
100
AcDbEntity
  8
0
100
AcDbLine
 10
32.25
 20
44.1418604651163
 30
0.0
 11
35.13823529411761
 21
43.0
 31
0.0
  0
LINE
  5
1BC
330
1E
100
AcDbEntity
  8
0
100
AcDbLine
 10
41.25
 20
30.7
 30
0.0
 11
41.74999999999999
 21
27.0
 31
0.0
  0
LINE
  5
1BD
330
1E
100
AcDbEntity
  8
0
100
AcDbLine
 10
41.74999999999999
 20
30.89999999999999
 30
0.0
 11
42.25
 21
27.0
 31
0.0
  0
LINE
  5
1BE
330
1E
100
AcDbEntity
  8
0
100
AcDbLine
 10
44.15
 20
31.5
 30
0.0
 11
44.75
 21
27.0
 31
0.0
  0
LINE
  5
1BF
330
1E
100
AcDbEntity
  8
0
100
AcDbLine
 10
52.75
 20
33.79999999999999
 30
0.0
 11
53.75
 21
27.0
 31
0.0
  0
LINE
  5
1C0
330
1E
100
AcDbEntity
  8
0
100
AcDbLine
 10
40.75
 20
38.5555
 30
0.0
 11
41.74999999999999
 21
39.0
 31
0.0
  0
LINE
  5
1C1
330
1E
100
AcDbEntity
  8
0
100
AcDbLine
 10
41.25
 20
39.0
 30
0.0
 11
41.74999999999999
 21
39.0
 31
0.0
  0
LINE
  5
1C2
330
1E
100
AcDbEntity
  8
0
100
AcDbLine
 10
41.74999999999999
 20
39.0
 30
0.0
 11
42.25
 21
39.88889999999999
 31
0.0
  0
LINE
  5
1C3
330
1E
100
AcDbEntity
  8
0
100
AcDbLine
 10
42.25
 20
40.3333
 30
0.0
 11
42.25
 21
39.88889999999999
 31
0.0
  0
LINE
  5
1C4
330
1E
100
AcDbEntity
  8
0
100
AcDbLine
 10
42.25
 20
39.88889999999999
 30
0.0
 11
42.25
 21
40.3333
 31
0.0
  0
LINE
  5
1C5
330
1E
100
AcDbEntity
  8
0
100
AcDbLine
 10
41.74999999999999
 20
41.2222
 30
0.0
 11
42.25
 21
40.3333
 31
0.0
  0
LINE
  5
1C6
330
1E
100
AcDbEntity
  8
0
100
AcDbLine
 10
40.75
 20
41.66669999999999
 30
0.0
 11
41.74999999999999
 21
41.2222
 31
0.0
  0
LINE
  5
1C7
330
1E
100
AcDbEntity
  8
0
100
AcDbLine
 10
41.25
 20
41.2222
 30
0.0
 11
41.74999999999999
 21
41.2222
 31
0.0
  0
LINE
  5
1C8
330
1E
100
AcDbEntity
  8
0
100
AcDbLine
 10
40.55346375822839
 20
38.20613717662679
 30
0.0
 11
42.45
 21
35.7
 31
0.0
  0
LINE
  5
1C9
330
1E
100
AcDbEntity
  8
0
100
AcDbLine
 10
42.45
 20
35.7
 30
0.0
 11
44.15
 21
31.5
 31
0.0
  0
LINE
  5
1CA
330
1E
100
AcDbEntity
  8
0
100
AcDbLine
 10
42.85
 20
35.89999999999999
 30
0.0
 11
44.55
 21
31.6
 31
0.0
  0
LINE
  5
1CB
330
1E
100
AcDbEntity
  8
0
100
AcDbLine
 10
45.95
 20
45.7
 30
0.0
 11
50.25
 21
40.2
 31
0.0
  0
LINE
  5
1CC
330
1E
100
AcDbEntity
  8
0
100
AcDbLine
 10
50.25
 20
40.2
 30
0.0
 11
52.75
 21
33.79999999999999
 31
0.0
  0
LINE
  5
1CD
330
1E
100
AcDbEntity
  8
0
100
AcDbLine
 10
46.35
 20
46.1
 30
0.0
 11
50.65
 21
40.4
 31
0.0
  0
LINE
  5
1CE
330
1E
100
AcDbEntity
  8
0
100
AcDbLine
 10
50.65
 20
40.4
 30
0.0
 11
53.25
 21
33.9
 31
0.0
  0
LINE
  5
1CF
330
1E
100
AcDbEntity
  8
0
100
AcDbLine
 10
53.25
 20
33.9
 30
0.0
 11
54.25
 21
27.0
 31
0.0
  0
LINE
  5
1D0
330
1E
100
AcDbEntity
  8
0
100
AcDbLine
 10
40.45
 20
50.0
 30
0.0
 11
45.95
 21
45.7
 31
0.0
  0
LINE
  5
1D1
330
1E
100
AcDbEntity
  8
0
100
AcDbLine
 10
34.04999999999999
 20
52.5
 30
0.0
 11
40.45
 21
50.0
 31
0.0
  0
LINE
  5
1D2
330
1E
100
AcDbEntity
  8
0
100
AcDbLine
 10
40.65
 20
50.4
 30
0.0
 11
46.35
 21
46.1
 31
0.0
  0
LINE
  5
1D3
330
1E
100
AcDbEntity
  8
0
100
AcDbLine
 10
20.5264705882353
 20
43.0
 30
0.0
 11
22.25
 21
43.697619047619
 31
0.0
  0
LINE
  5
1D4
330
1E
100
AcDbEntity
  8
0
100
AcDbLine
 10
20.37
 20
99.50000000000001
 30
0.0
 11
22.41
 21
99.50000000000001
 31
0.0
  0
LINE
  5
1D5
330
1E
100
AcDbEntity
  8
0
100
AcDbLine
 10
20.37
 20
74.5
 30
0.0
 11
22.41
 21
74.5
 31
0.0
  0
LINE
  5
1D6
330
1E
100
AcDbEntity
  8
0
100
AcDbLine
 10
20.37
 20
74.5
 30
0.0
 11
22.25
 21
74.5
 31
0.0
  0
LINE
  5
1D7
330
1E
100
AcDbEntity
  8
0
100
AcDbLine
 10
20.5264705882353
 20
131.0
 30
0.0
 11
22.25
 21
130.302380952381
 31
0.0
  0
LINE
  5
1D8
330
1E
100
AcDbEntity
  8
0
100
AcDbLine
 10
20.44999999999999
 20
121.5
 30
0.0
 11
22.25
 21
121.2352941176469
 31
0.0
  0
LINE
  5
1D9
330
1E
100
AcDbEntity
  8
0
100
AcDbLine
 10
20.5264705882353
 20
163.0
 30
0.0
 11
22.74999999999999
 21
163.9
 31
0.0
  0
LINE
  5
1DA
330
1E
100
AcDbEntity
  8
0
100
AcDbLine
 10
20.44999999999999
 20
172.5
 30
0.0
 11
27.25
 21
173.5
 31
0.0
  0
LINE
  5
1DB
330
1E
100
AcDbEntity
  8
0
100
AcDbLine
 10
20.55
 20
158.555
 30
0.0
 11
23.75
 21
158.555
 31
0.0
  0
LINE
  5
1DC
330
1E
100
AcDbEntity
  8
0
100
AcDbLine
 10
20.75
 20
221.0
 30
0.0
 11
20.75
 21
221.2879999999999
 31
0.0
  0
LINE
  5
1DD
330
1E
100
AcDbEntity
  8
0
100
AcDbLine
 10
20.75
 20
221.2879999999999
 30
0.0
 11
20.75
 21
221.0
 31
0.0
  0
LINE
  5
1DE
330
1E
100
AcDbEntity
  8
0
100
AcDbLine
 10
20.75
 20
221.2879999999999
 30
0.0
 11
20.75
 21
222.0559999999999
 31
0.0
  0
LINE
  5
1DF
330
1E
100
AcDbEntity
  8
0
100
AcDbLine
 10
20.75
 20
222.0559999999999
 30
0.0
 11
20.75
 21
221.2879999999999
 31
0.0
  0
LINE
  5
1E0
330
1E
100
AcDbEntity
  8
0
100
AcDbLine
 10
20.75
 20
222.0559999999999
 30
0.0
 11
20.75
 21
223.3359999999999
 31
0.0
  0
LINE
  5
1E1
330
1E
100
AcDbEntity
  8
0
100
AcDbLine
 10
20.75
 20
223.3359999999999
 30
0.0
 11
20.75
 21
222.0559999999999
 31
0.0
  0
LINE
  5
1E2
330
1E
100
AcDbEntity
  8
0
100
AcDbLine
 10
20.75
 20
223.3359999999999
 30
0.0
 11
20.75
 21
225.032
 31
0.0
  0
LINE
  5
1E3
330
1E
100
AcDbEntity
  8
0
100
AcDbLine
 10
20.75
 20
226.0
 30
0.0
 11
23.978813559322
 21
226.0
 31
0.0
  0
LINE
  5
1E4
330
1E
100
AcDbEntity
  8
0
100
AcDbLine
 10
20.75
 20
225.032
 30
0.0
 11
20.75
 21
223.3359999999999
 31
0.0
  0
LINE
  5
1E5
330
1E
100
AcDbEntity
  8
0
100
AcDbLine
 10
20.75
 20
225.032
 30
0.0
 11
20.75
 21
226.9519999999999
 31
0.0
  0
LINE
  5
1E6
330
1E
100
AcDbEntity
  8
0
100
AcDbLine
 10
20.75
 20
226.9519999999999
 30
0.0
 11
20.75
 21
225.032
 31
0.0
  0
LINE
  5
1E7
330
1E
100
AcDbEntity
  8
0
100
AcDbLine
 10
20.75
 20
226.9519999999999
 30
0.0
 11
20.75
 21
229.0
 31
0.0
  0
LINE
  5
1E8
330
1E
100
AcDbEntity
  8
0
100
AcDbLine
 10
20.75
 20
232.0
 30
0.0
 11
23.75
 21
232.0
 31
0.0
  0
LINE
  5
1E9
330
1E
100
AcDbEntity
  8
0
100
AcDbLine
 10
20.75
 20
237.0
 30
0.0
 11
20.75
 21
236.712
 31
0.0
  0
LINE
  5
1EA
330
1E
100
AcDbEntity
  8
0
100
AcDbLine
 10
20.75
 20
236.712
 30
0.0
 11
20.75
 21
235.944
 31
0.0
  0
LINE
  5
1EB
330
1E
100
AcDbEntity
  8
0
100
AcDbLine
 10
20.75
 20
236.712
 30
0.0
 11
20.75
 21
237.0
 31
0.0
  0
LINE
  5
1EC
330
1E
100
AcDbEntity
  8
0
100
AcDbLine
 10
20.75
 20
235.944
 30
0.0
 11
20.75
 21
234.664
 31
0.0
  0
LINE
  5
1ED
330
1E
100
AcDbEntity
  8
0
100
AcDbLine
 10
20.75
 20
235.944
 30
0.0
 11
20.75
 21
236.712
 31
0.0
  0
LINE
  5
1EE
330
1E
100
AcDbEntity
  8
0
100
AcDbLine
 10
20.75
 20
234.664
 30
0.0
 11
20.75
 21
232.9679999999999
 31
0.0
  0
LINE
  5
1EF
330
1E
100
AcDbEntity
  8
0
100
AcDbLine
 10
20.75
 20
234.664
 30
0.0
 11
20.75
 21
235.944
 31
0.0
  0
LINE
  5
1F0
330
1E
100
AcDbEntity
  8
0
100
AcDbLine
 10
20.75
 20
232.9679999999999
 30
0.0
 11
20.75
 21
231.048
 31
0.0
  0
LINE
  5
1F1
330
1E
100
AcDbEntity
  8
0
100
AcDbLine
 10
20.75
 20
232.9679999999999
 30
0.0
 11
20.75
 21
234.664
 31
0.0
  0
LINE
  5
1F2
330
1E
100
AcDbEntity
  8
0
100
AcDbLine
 10
20.75
 20
231.048
 30
0.0
 11
20.75
 21
229.0
 31
0.0
  0
LINE
  5
1F3
330
1E
100
AcDbEntity
  8
0
100
AcDbLine
 10
20.75
 20
231.048
 30
0.0
 11
20.75
 21
232.9679999999999
 31
0.0
  0
LINE
  5
1F4
330
1E
100
AcDbEntity
  8
0
100
AcDbLine
 10
20.75
 20
229.0
 30
0.0
 11
20.75
 21
226.9519999999999
 31
0.0
  0
LINE
  5
1F5
330
1E
100
AcDbEntity
  8
0
100
AcDbLine
 10
20.75
 20
229.0
 30
0.0
 11
20.75
 21
231.048
 31
0.0
  0
LINE
  5
1F6
330
1E
100
AcDbEntity
  8
0
100
AcDbLine
 10
20.55
 20
135.4439999999999
 30
0.0
 11
23.75
 21
135.4439999999999
 31
0.0
  0
LINE
  5
1F7
330
1E
100
AcDbEntity
  8
0
100
AcDbLine
 10
20.55
 20
132.333
 30
0.0
 11
23.75
 21
132.333
 31
0.0
  0
LINE
  5
1F8
330
1E
100
AcDbEntity
  8
0
100
AcDbLine
 10
21.25
 20
162.555
 30
0.0
 11
24.15
 21
162.555
 31
0.0
  0
LINE
  5
1F9
330
1E
100
AcDbEntity
  8
0
100
AcDbLine
 10
16.25
 20
163.0
 30
0.0
 11
24.45
 21
163.0
 31
0.0
  0
LINE
  5
1FA
330
1E
100
AcDbEntity
  8
0
100
AcDbLine
 10
21.04999999999999
 20
132.333
 30
0.0
 11
24.05
 21
132.333
 31
0.0
  0
LINE
  5
1FB
330
1E
100
AcDbEntity
  8
0
100
AcDbLine
 10
21.25
 20
131.4439999999999
 30
0.0
 11
24.15
 21
131.4439999999999
 31
0.0
  0
LINE
  5
1FC
330
1E
100
AcDbEntity
  8
0
100
AcDbLine
 10
22.25
 20
74.5
 30
0.0
 11
22.25
 21
43.0
 31
0.0
  0
LINE
  5
1FD
330
1E
100
AcDbEntity
  8
0
100
AcDbLine
 10
24.73
 20
74.5
 30
0.0
 11
27.25
 21
74.5
 31
0.0
  0
LINE
  5
1FE
330
1E
100
AcDbEntity
  8
0
100
AcDbLine
 10
22.41
 20
74.5
 30
0.0
 11
24.73
 21
74.5
 31
0.0
  0
LINE
  5
1FF
330
1E
100
AcDbEntity
  8
0
100
AcDbLine
 10
22.25
 20
99.50000000000001
 30
0.0
 11
22.25
 21
131.0
 31
0.0
  0
LINE
  5
200
330
1E
100
AcDbEntity
  8
0
100
AcDbLine
 10
22.25
 20
131.0
 30
0.0
 11
22.25
 21
99.50000000000001
 31
0.0
  0
LINE
  5
201
330
1E
100
AcDbEntity
  8
0
100
AcDbLine
 10
22.25
 20
131.0
 30
0.0
 11
22.42999999999999
 21
131.0
 31
0.0
  0
LINE
  5
202
330
1E
100
AcDbEntity
  8
0
100
AcDbLine
 10
25.96999999999999
 20
131.0
 30
0.0
 11
27.25
 21
131.0
 31
0.0
  0
LINE
  5
203
330
1E
100
AcDbEntity
  8
0
100
AcDbLine
 10
24.77
 20
131.0
 30
0.0
 11
25.96999999999999
 21
131.0
 31
0.0
  0
LINE
  5
204
330
1E
100
AcDbEntity
  8
0
100
AcDbLine
 10
23.70999999999999
 20
131.0
 30
0.0
 11
24.77
 21
131.0
 31
0.0
  0
LINE
  5
205
330
1E
100
AcDbEntity
  8
0
100
AcDbLine
 10
22.90999999999999
 20
131.0
 30
0.0
 11
23.70999999999999
 21
131.0
 31
0.0
  0
LINE
  5
206
330
1E
100
AcDbEntity
  8
0
100
AcDbLine
 10
22.42999999999999
 20
131.0
 30
0.0
 11
22.90999999999999
 21
131.0
 31
0.0
  0
LINE
  5
207
330
1E
100
AcDbEntity
  8
0
100
AcDbLine
 10
24.73
 20
99.50000000000001
 30
0.0
 11
27.25
 21
99.50000000000001
 31
0.0
  0
LINE
  5
208
330
1E
100
AcDbEntity
  8
0
100
AcDbLine
 10
22.41
 20
99.50000000000001
 30
0.0
 11
24.73
 21
99.50000000000001
 31
0.0
  0
LINE
  5
209
330
1E
100
AcDbEntity
  8
0
100
AcDbLine
 10
27.25
 20
74.5
 30
0.0
 11
29.77
 21
74.5
 31
0.0
  0
LINE
  5
20A
330
1E
100
AcDbEntity
  8
0
100
AcDbLine
 10
27.25
 20
99.50000000000001
 30
0.0
 11
29.77
 21
99.50000000000001
 31
0.0
  0
LINE
  5
20B
330
1E
100
AcDbEntity
  8
0
100
AcDbLine
 10
27.25
 20
131.4439999999999
 30
0.0
 11
30.35
 21
131.4439999999999
 31
0.0
  0
LINE
  5
20C
330
1E
100
AcDbEntity
  8
0
100
AcDbLine
 10
29.77
 20
74.5
 30
0.0
 11
32.09
 21
74.5
 31
0.0
  0
LINE
  5
20D
330
1E
100
AcDbEntity
  8
0
100
AcDbLine
 10
32.09
 20
74.5
 30
0.0
 11
34.13
 21
74.5
 31
0.0
  0
LINE
  5
20E
330
1E
100
AcDbEntity
  8
0
100
AcDbLine
 10
29.77
 20
99.50000000000001
 30
0.0
 11
32.09
 21
99.50000000000001
 31
0.0
  0
LINE
  5
20F
330
1E
100
AcDbEntity
  8
0
100
AcDbLine
 10
32.25
 20
99.50000000000001
 30
0.0
 11
32.25
 21
131.0
 31
0.0
  0
LINE
  5
210
330
1E
100
AcDbEntity
  8
0
100
AcDbLine
 10
32.25
 20
74.5
 30
0.0
 11
34.13
 21
74.5
 31
0.0
  0
LINE
  5
211
330
1E
100
AcDbEntity
  8
0
100
AcDbLine
 10
32.25
 20
74.5
 30
0.0
 11
32.25
 21
43.0
 31
0.0
  0
LINE
  5
212
330
1E
100
AcDbEntity
  8
0
100
AcDbLine
 10
32.09
 20
99.50000000000001
 30
0.0
 11
34.13
 21
99.50000000000001
 31
0.0
  0
LINE
  5
213
330
1E
100
AcDbEntity
  8
0
100
AcDbLine
 10
28.53
 20
131.0
 30
0.0
 11
29.73
 21
131.0
 31
0.0
  0
LINE
  5
214
330
1E
100
AcDbEntity
  8
0
100
AcDbLine
 10
29.73
 20
131.0
 30
0.0
 11
30.79
 21
131.0
 31
0.0
  0
LINE
  5
215
330
1E
100
AcDbEntity
  8
0
100
AcDbLine
 10
30.79
 20
131.0
 30
0.0
 11
31.59
 21
131.0
 31
0.0
  0
LINE
  5
216
330
1E
100
AcDbEntity
  8
0
100
AcDbLine
 10
31.59
 20
131.0
 30
0.0
 11
32.07
 21
131.0
 31
0.0
  0
LINE
  5
217
330
1E
100
AcDbEntity
  8
0
100
AcDbLine
 10
32.07
 20
131.0
 30
0.0
 11
32.25
 21
131.0
 31
0.0
  0
LINE
  5
218
330
1E
100
AcDbEntity
  8
0
100
AcDbLine
 10
32.25
 20
130.302380952381
 30
0.0
 11
33.9735294117647
 21
131.0
 31
0.0
  0
LINE
  5
219
330
1E
100
AcDbEntity
  8
0
100
AcDbLine
 10
32.25
 20
121.2352941176469
 30
0.0
 11
34.04999999999999
 21
121.5
 31
0.0
  0
LINE
  5
21A
330
1E
100
AcDbEntity
  8
0
100
AcDbLine
 10
32.25
 20
120.7246376811589
 30
0.0
 11
34.15
 21
121.0
 31
0.0
  0
LINE
  5
21B
330
1E
100
AcDbEntity
  8
0
100
AcDbLine
 10
32.25
 20
131.0
 30
0.0
 11
32.75
 21
131.0
 31
0.0
  0
LINE
  5
21C
330
1E
100
AcDbEntity
  8
0
100
AcDbLine
 10
32.25
 20
131.0
 30
0.0
 11
32.25
 21
99.50000000000001
 31
0.0
  0
LINE
  5
21D
330
1E
100
AcDbEntity
  8
0
100
AcDbLine
 10
30.35
 20
131.4439999999999
 30
0.0
 11
33.25
 21
131.4439999999999
 31
0.0
  0
LINE
  5
21E
330
1E
100
AcDbEntity
  8
0
100
AcDbLine
 10
27.25
 20
131.0
 30
0.0
 11
30.05
 21
131.0
 31
0.0
  0
LINE
  5
21F
330
1E
100
AcDbEntity
  8
0
100
AcDbLine
 10
27.25
 20
131.0
 30
0.0
 11
28.53
 21
131.0
 31
0.0
  0
LINE
  5
220
330
1E
100
AcDbEntity
  8
0
100
AcDbLine
 10
23.54999999999999
 20
159.0
 30
0.0
 11
27.25
 21
159.0
 31
0.0
  0
LINE
  5
221
330
1E
100
AcDbEntity
  8
0
100
AcDbLine
 10
22.74999999999999
 20
163.9
 30
0.0
 11
27.25
 21
164.5
 31
0.0
  0
LINE
  5
222
330
1E
100
AcDbEntity
  8
0
100
AcDbLine
 10
23.54999999999999
 20
161.222
 30
0.0
 11
27.25
 21
161.222
 31
0.0
  0
LINE
  5
223
330
1E
100
AcDbEntity
  8
0
100
AcDbLine
 10
23.75
 20
232.0
 30
0.0
 11
23.75
 21
236.0
 31
0.0
  0
LINE
  5
224
330
1E
100
AcDbEntity
  8
0
100
AcDbLine
 10
23.75
 20
236.0
 30
0.0
 11
23.75
 21
229.0
 31
0.0
  0
LINE
  5
225
330
1E
100
AcDbEntity
  8
0
100
AcDbLine
 10
23.75
 20
236.0
 30
0.0
 11
26.75
 21
236.0
 31
0.0
  0
LINE
  5
226
330
1E
100
AcDbEntity
  8
0
100
AcDbLine
 10
23.75
 20
236.0
 30
0.0
 11
23.75
 21
232.0
 31
0.0
  0
LINE
  5
227
330
1E
100
AcDbEntity
  8
0
100
AcDbLine
 10
23.75
 20
229.0
 30
0.0
 11
24.64999999999999
 21
217.2
 31
0.0
  0
LINE
  5
228
330
1E
100
AcDbEntity
  8
0
100
AcDbLine
 10
23.75
 20
229.0
 30
0.0
 11
23.75
 21
236.0
 31
0.0
  0
LINE
  5
229
330
1E
100
AcDbEntity
  8
0
100
AcDbLine
 10
23.75
 20
158.555
 30
0.0
 11
27.25
 21
158.555
 31
0.0
  0
LINE
  5
22A
330
1E
100
AcDbEntity
  8
0
100
AcDbLine
 10
23.978813559322
 20
226.0
 30
0.0
 11
24.64999999999999
 21
217.2
 31
0.0
  0
LINE
  5
22B
330
1E
100
AcDbEntity
  8
0
100
AcDbLine
 10
17.75
 20
161.667
 30
0.0
 11
27.25
 21
161.667
 31
0.0
  0
LINE
  5
22C
330
1E
100
AcDbEntity
  8
0
100
AcDbLine
 10
23.75
 20
135.4439999999999
 30
0.0
 11
27.25
 21
135.4439999999999
 31
0.0
  0
LINE
  5
22D
330
1E
100
AcDbEntity
  8
0
100
AcDbLine
 10
23.54999999999999
 20
135.0
 30
0.0
 11
27.25
 21
135.0
 31
0.0
  0
LINE
  5
22E
330
1E
100
AcDbEntity
  8
0
100
AcDbLine
 10
23.54999999999999
 20
132.7779999999999
 30
0.0
 11
27.25
 21
132.7779999999999
 31
0.0
  0
LINE
  5
22F
330
1E
100
AcDbEntity
  8
0
100
AcDbLine
 10
30.44999999999999
 20
132.333
 30
0.0
 11
33.45
 21
132.333
 31
0.0
  0
LINE
  5
230
330
1E
100
AcDbEntity
  8
0
100
AcDbLine
 10
27.25
 20
158.555
 30
0.0
 11
30.75
 21
158.555
 31
0.0
  0
LINE
  5
231
330
1E
100
AcDbEntity
  8
0
100
AcDbLine
 10
27.25
 20
159.0
 30
0.0
 11
30.95
 21
159.0
 31
0.0
  0
LINE
  5
232
330
1E
100
AcDbEntity
  8
0
100
AcDbLine
 10
27.25
 20
161.222
 30
0.0
 11
30.95
 21
161.222
 31
0.0
  0
LINE
  5
233
330
1E
100
AcDbEntity
  8
0
100
AcDbLine
 10
24.15
 20
162.555
 30
0.0
 11
27.25
 21
162.555
 31
0.0
  0
LINE
  5
234
330
1E
100
AcDbEntity
  8
0
100
AcDbLine
 10
27.25
 20
161.667
 30
0.0
 11
38.95
 21
161.667
 31
0.0
  0
LINE
  5
235
330
1E
100
AcDbEntity
  8
0
100
AcDbLine
 10
27.25
 20
162.555
 30
0.0
 11
30.35
 21
162.555
 31
0.0
  0
LINE
  5
236
330
1E
100
AcDbEntity
  8
0
100
AcDbLine
 10
27.25
 20
164.5
 30
0.0
 11
31.75
 21
163.9
 31
0.0
  0
LINE
  5
237
330
1E
100
AcDbEntity
  8
0
100
AcDbLine
 10
27.05
 20
205.5
 30
0.0
 11
30.85
 21
194.1999999999999
 31
0.0
  0
LINE
  5
238
330
1E
100
AcDbEntity
  8
0
100
AcDbLine
 10
26.75
 20
236.0
 30
0.0
 11
26.75
 21
229.0
 31
0.0
  0
LINE
  5
239
330
1E
100
AcDbEntity
  8
0
100
AcDbLine
 10
26.75
 20
232.0
 30
0.0
 11
29.75
 21
232.0
 31
0.0
  0
LINE
  5
23A
330
1E
100
AcDbEntity
  8
0
100
AcDbLine
 10
26.9868421052632
 20
226.0
 30
0.0
 11
29.75
 21
226.0
 31
0.0
  0
LINE
  5
23B
330
1E
100
AcDbEntity
  8
0
100
AcDbLine
 10
26.75
 20
229.0
 30
0.0
 11
27.65
 21
217.6
 31
0.0
  0
LINE
  5
23C
330
1E
100
AcDbEntity
  8
0
100
AcDbLine
 10
26.75
 20
229.0
 30
0.0
 11
26.75
 21
236.0
 31
0.0
  0
LINE
  5
23D
330
1E
100
AcDbEntity
  8
0
100
AcDbLine
 10
24.64999999999999
 20
217.2
 30
0.0
 11
27.05
 21
205.5
 31
0.0
  0
LINE
  5
23E
330
1E
100
AcDbEntity
  8
0
100
AcDbLine
 10
27.25
 20
173.5
 30
0.0
 11
34.04999999999999
 21
172.5
 31
0.0
  0
LINE
  5
23F
330
1E
100
AcDbEntity
  8
0
100
AcDbLine
 10
27.25
 20
165.0
 30
0.0
 11
31.85
 21
164.3
 31
0.0
  0
LINE
  5
240
330
1E
100
AcDbEntity
  8
0
100
AcDbLine
 10
27.25
 20
174.0
 30
0.0
 11
34.15
 21
173.0
 31
0.0
  0
LINE
  5
241
330
1E
100
AcDbEntity
  8
0
100
AcDbLine
 10
24.45
 20
163.0
 30
0.0
 11
36.75
 21
163.0
 31
0.0
  0
LINE
  5
242
330
1E
100
AcDbEntity
  8
0
100
AcDbLine
 10
27.25
 20
135.4439999999999
 30
0.0
 11
30.75
 21
135.4439999999999
 31
0.0
  0
LINE
  5
243
330
1E
100
AcDbEntity
  8
0
100
AcDbLine
 10
27.25
 20
135.0
 30
0.0
 11
30.95
 21
135.0
 31
0.0
  0
LINE
  5
244
330
1E
100
AcDbEntity
  8
0
100
AcDbLine
 10
29.75
 20
226.0
 30
0.0
 11
29.75
 21
226.108
 31
0.0
  0
LINE
  5
245
330
1E
100
AcDbEntity
  8
0
100
AcDbLine
 10
29.75
 20
226.108
 30
0.0
 11
29.75
 21
226.0
 31
0.0
  0
LINE
  5
246
330
1E
100
AcDbEntity
  8
0
100
AcDbLine
 10
29.75
 20
226.108
 30
0.0
 11
29.75
 21
226.3959999999999
 31
0.0
  0
LINE
  5
247
330
1E
100
AcDbEntity
  8
0
100
AcDbLine
 10
29.75
 20
226.3959999999999
 30
0.0
 11
29.75
 21
226.108
 31
0.0
  0
LINE
  5
248
330
1E
100
AcDbEntity
  8
0
100
AcDbLine
 10
29.75
 20
226.3959999999999
 30
0.0
 11
29.75
 21
226.8759999999999
 31
0.0
  0
LINE
  5
249
330
1E
100
AcDbEntity
  8
0
100
AcDbLine
 10
29.75
 20
226.8759999999999
 30
0.0
 11
29.75
 21
226.3959999999999
 31
0.0
  0
LINE
  5
24A
330
1E
100
AcDbEntity
  8
0
100
AcDbLine
 10
29.75
 20
226.8759999999999
 30
0.0
 11
29.75
 21
227.512
 31
0.0
  0
LINE
  5
24B
330
1E
100
AcDbEntity
  8
0
100
AcDbLine
 10
29.75
 20
227.512
 30
0.0
 11
29.75
 21
226.8759999999999
 31
0.0
  0
LINE
  5
24C
330
1E
100
AcDbEntity
  8
0
100
AcDbLine
 10
29.75
 20
227.512
 30
0.0
 11
29.75
 21
228.2319999999999
 31
0.0
  0
LINE
  5
24D
330
1E
100
AcDbEntity
  8
0
100
AcDbLine
 10
29.75
 20
228.2319999999999
 30
0.0
 11
29.75
 21
227.512
 31
0.0
  0
LINE
  5
24E
330
1E
100
AcDbEntity
  8
0
100
AcDbLine
 10
29.75
 20
228.2319999999999
 30
0.0
 11
29.75
 21
229.0
 31
0.0
  0
LINE
  5
24F
330
1E
100
AcDbEntity
  8
0
100
AcDbLine
 10
29.95
 20
206.3
 30
0.0
 11
33.65
 21
195.4
 31
0.0
  0
LINE
  5
250
330
1E
100
AcDbEntity
  8
0
100
AcDbLine
 10
27.65
 20
217.6
 30
0.0
 11
29.95
 21
206.3
 31
0.0
  0
LINE
  5
251
330
1E
100
AcDbEntity
  8
0
100
AcDbLine
 10
29.75
 20
232.0
 30
0.0
 11
29.75
 21
231.8919999999999
 31
0.0
  0
LINE
  5
252
330
1E
100
AcDbEntity
  8
0
100
AcDbLine
 10
29.75
 20
231.8919999999999
 30
0.0
 11
29.75
 21
231.604
 31
0.0
  0
LINE
  5
253
330
1E
100
AcDbEntity
  8
0
100
AcDbLine
 10
29.75
 20
231.8919999999999
 30
0.0
 11
29.75
 21
232.0
 31
0.0
  0
LINE
  5
254
330
1E
100
AcDbEntity
  8
0
100
AcDbLine
 10
29.75
 20
231.604
 30
0.0
 11
29.75
 21
231.124
 31
0.0
  0
LINE
  5
255
330
1E
100
AcDbEntity
  8
0
100
AcDbLine
 10
29.75
 20
231.604
 30
0.0
 11
29.75
 21
231.8919999999999
 31
0.0
  0
LINE
  5
256
330
1E
100
AcDbEntity
  8
0
100
AcDbLine
 10
29.75
 20
231.124
 30
0.0
 11
29.75
 21
230.488
 31
0.0
  0
LINE
  5
257
330
1E
100
AcDbEntity
  8
0
100
AcDbLine
 10
29.75
 20
231.124
 30
0.0
 11
29.75
 21
231.604
 31
0.0
  0
LINE
  5
258
330
1E
100
AcDbEntity
  8
0
100
AcDbLine
 10
29.75
 20
230.488
 30
0.0
 11
29.75
 21
229.768
 31
0.0
  0
LINE
  5
259
330
1E
100
AcDbEntity
  8
0
100
AcDbLine
 10
29.75
 20
230.488
 30
0.0
 11
29.75
 21
231.124
 31
0.0
  0
LINE
  5
25A
330
1E
100
AcDbEntity
  8
0
100
AcDbLine
 10
29.75
 20
229.768
 30
0.0
 11
29.75
 21
229.0
 31
0.0
  0
LINE
  5
25B
330
1E
100
AcDbEntity
  8
0
100
AcDbLine
 10
29.75
 20
229.768
 30
0.0
 11
29.75
 21
230.488
 31
0.0
  0
LINE
  5
25C
330
1E
100
AcDbEntity
  8
0
100
AcDbLine
 10
29.75
 20
229.0
 30
0.0
 11
30.64999999999999
 21
216.9
 31
0.0
  0
LINE
  5
25D
330
1E
100
AcDbEntity
  8
0
100
AcDbLine
 10
29.75
 20
229.0
 30
0.0
 11
30.64999999999999
 21
241.1
 31
0.0
  0
LINE
  5
25E
330
1E
100
AcDbEntity
  8
0
100
AcDbLine
 10
29.75
 20
229.0
 30
0.0
 11
29.75
 21
228.2319999999999
 31
0.0
  0
LINE
  5
25F
330
1E
100
AcDbEntity
  8
0
100
AcDbLine
 10
29.75
 20
229.0
 30
0.0
 11
29.75
 21
229.768
 31
0.0
  0
LINE
  5
260
330
1E
100
AcDbEntity
  8
0
100
AcDbLine
 10
30.75
 20
158.555
 30
0.0
 11
33.95
 21
158.555
 31
0.0
  0
LINE
  5
261
330
1E
100
AcDbEntity
  8
0
100
AcDbLine
 10
30.95
 20
159.0
 30
0.0
 11
34.45
 21
159.0
 31
0.0
  0
LINE
  5
262
330
1E
100
AcDbEntity
  8
0
100
AcDbLine
 10
30.64999999999999
 20
241.1
 30
0.0
 11
32.85
 21
250.8999999999999
 31
0.0
  0
LINE
  5
263
330
1E
100
AcDbEntity
  8
0
100
AcDbLine
 10
30.85
 20
194.1999999999999
 30
0.0
 11
35.95
 21
183.6999999999999
 31
0.0
  0
LINE
  5
264
330
1E
100
AcDbEntity
  8
0
100
AcDbLine
 10
30.75
 20
229.0
 30
0.0
 11
31.55
 21
218.1
 31
0.0
  0
LINE
  5
265
330
1E
100
AcDbEntity
  8
0
100
AcDbLine
 10
30.75
 20
229.0
 30
0.0
 11
31.55
 21
239.9
 31
0.0
  0
LINE
  5
266
330
1E
100
AcDbEntity
  8
0
100
AcDbLine
 10
30.64999999999999
 20
216.9
 30
0.0
 11
32.85
 21
207.1
 31
0.0
  0
LINE
  5
267
330
1E
100
AcDbEntity
  8
0
100
AcDbLine
 10
30.95
 20
161.222
 30
0.0
 11
34.45
 21
161.222
 31
0.0
  0
LINE
  5
268
330
1E
100
AcDbEntity
  8
0
100
AcDbLine
 10
30.35
 20
162.555
 30
0.0
 11
33.25
 21
162.555
 31
0.0
  0
LINE
  5
269
330
1E
100
AcDbEntity
  8
0
100
AcDbLine
 10
30.75
 20
135.4439999999999
 30
0.0
 11
33.95
 21
135.4439999999999
 31
0.0
  0
LINE
  5
26A
330
1E
100
AcDbEntity
  8
0
100
AcDbLine
 10
31.55
 20
239.9
 30
0.0
 11
33.75
 21
250.7
 31
0.0
  0
LINE
  5
26B
330
1E
100
AcDbEntity
  8
0
100
AcDbLine
 10
31.55
 20
218.1
 30
0.0
 11
33.75
 21
207.2999999999999
 31
0.0
  0
LINE
  5
26C
330
1E
100
AcDbEntity
  8
0
100
AcDbLine
 10
31.75
 20
163.9
 30
0.0
 11
33.9735294117647
 21
163.0
 31
0.0
  0
LINE
  5
26D
330
1E
100
AcDbEntity
  8
0
100
AcDbLine
 10
30.95
 20
135.0
 30
0.0
 11
34.45
 21
135.0
 31
0.0
  0
LINE
  5
26E
330
1E
100
AcDbEntity
  8
0
100
AcDbLine
 10
30.95
 20
132.7779999999999
 30
0.0
 11
34.45
 21
132.7779999999999
 31
0.0
  0
LINE
  5
26F
330
1E
100
AcDbEntity
  8
0
100
AcDbLine
 10
27.25
 20
132.7779999999999
 30
0.0
 11
30.95
 21
132.7779999999999
 31
0.0
  0
LINE
  5
270
330
1E
100
AcDbEntity
  8
0
100
AcDbLine
 10
27.25
 20
132.333
 30
0.0
 11
30.44999999999999
 21
132.333
 31
0.0
  0
LINE
  5
271
330
1E
100
AcDbEntity
  8
0
100
AcDbLine
 10
24.05
 20
132.333
 30
0.0
 11
27.25
 21
132.333
 31
0.0
  0
LINE
  5
272
330
1E
100
AcDbEntity
  8
0
100
AcDbLine
 10
24.15
 20
131.4439999999999
 30
0.0
 11
27.25
 21
131.4439999999999
 31
0.0
  0
LINE
  5
273
330
1E
100
AcDbEntity
  8
0
100
AcDbLine
 10
21.75
 20
131.0
 30
0.0
 11
24.45
 21
131.0
 31
0.0
  0
LINE
  5
274
330
1E
100
AcDbEntity
  8
0
100
AcDbLine
 10
21.75
 20
131.0
 30
0.0
 11
22.25
 21
131.0
 31
0.0
  0
LINE
  5
275
330
1E
100
AcDbEntity
  8
0
100
AcDbLine
 10
32.25
 20
52.76470588235289
 30
0.0
 11
34.04999999999999
 21
52.5
 31
0.0
  0
LINE
  5
276
330
1E
100
AcDbEntity
  8
0
100
AcDbLine
 10
34.13
 20
74.5
 30
0.0
 11
35.68999999999999
 21
74.5
 31
0.0
  0
LINE
  5
277
330
1E
100
AcDbEntity
  8
0
100
AcDbLine
 10
34.13
 20
99.50000000000001
 30
0.0
 11
35.68999999999999
 21
99.50000000000001
 31
0.0
  0
LINE
  5
278
330
1E
100
AcDbEntity
  8
0
100
AcDbLine
 10
34.04999999999999
 20
121.5
 30
0.0
 11
40.45
 21
124.0
 31
0.0
  0
LINE
  5
279
330
1E
100
AcDbEntity
  8
0
100
AcDbLine
 10
34.15
 20
121.0
 30
0.0
 11
40.65
 21
123.5999999999999
 31
0.0
  0
LINE
  5
27A
330
1E
100
AcDbEntity
  8
0
100
AcDbLine
 10
35.68999999999999
 20
74.5
 30
0.0
 11
36.65
 21
74.5
 31
0.0
  0
LINE
  5
27B
330
1E
100
AcDbEntity
  8
0
100
AcDbLine
 10
36.65
 20
74.5
 30
0.0
 11
37.01
 21
74.5
 31
0.0
  0
LINE
  5
27C
330
1E
100
AcDbEntity
  8
0
100
AcDbLine
 10
35.68999999999999
 20
99.50000000000001
 30
0.0
 11
36.65
 21
99.50000000000001
 31
0.0
  0
LINE
  5
27D
330
1E
100
AcDbEntity
  8
0
100
AcDbLine
 10
37.01
 20
74.5
 30
0.0
 11
37.25
 21
75.0128
 31
0.0
  0
LINE
  5
27E
330
1E
100
AcDbEntity
  8
0
100
AcDbLine
 10
37.25
 20
82.0
 30
0.0
 11
192.25
 21
82.0
 31
0.0
  0
LINE
  5
27F
330
1E
100
AcDbEntity
  8
0
100
AcDbLine
 10
37.25
 20
82.0054545454545
 30
0.0
 11
37.25
 21
75.0128
 31
0.0
  0
LINE
  5
280
330
1E
100
AcDbEntity
  8
0
100
AcDbLine
 10
37.25
 20
98.9872
 30
0.0
 11
37.25
 21
92.0
 31
0.0
  0
LINE
  5
281
330
1E
100
AcDbEntity
  8
0
100
AcDbLine
 10
37.25
 20
92.0
 30
0.0
 11
37.25
 21
98.9872
 31
0.0
  0
LINE
  5
282
330
1E
100
AcDbEntity
  8
0
100
AcDbLine
 10
37.25
 20
92.0
 30
0.0
 11
192.25
 21
92.0
 31
0.0
  0
LINE
  5
283
330
1E
100
AcDbEntity
  8
0
100
AcDbLine
 10
37.25
 20
75.0128
 30
0.0
 11
37.25
 21
82.0054545454545
 31
0.0
  0
LINE
  5
284
330
1E
100
AcDbEntity
  8
0
100
AcDbLine
 10
36.65
 20
99.50000000000001
 30
0.0
 11
37.01
 21
99.50000000000001
 31
0.0
  0
LINE
  5
285
330
1E
100
AcDbEntity
  8
0
100
AcDbLine
 10
37.01
 20
99.50000000000001
 30
0.0
 11
37.25
 21
98.9872
 31
0.0
  0
LINE
  5
286
330
1E
100
AcDbEntity
  8
0
100
AcDbLine
 10
35.04999999999999
 20
131.0
 30
0.0
 11
36.75
 21
131.0
 31
0.0
  0
LINE
  5
287
330
1E
100
AcDbEntity
  8
0
100
AcDbLine
 10
36.75
 20
131.0
 30
0.0
 11
37.85
 21
131.0
 31
0.0
  0
LINE
  5
288
330
1E
100
AcDbEntity
  8
0
100
AcDbLine
 10
40.45
 20
124.0
 30
0.0
 11
45.95
 21
128.3
 31
0.0
  0
LINE
  5
289
330
1E
100
AcDbEntity
  8
0
100
AcDbLine
 10
40.65
 20
123.5999999999999
 30
0.0
 11
46.35
 21
127.9
 31
0.0
  0
LINE
  5
28A
330
1E
100
AcDbEntity
  8
0
100
AcDbLine
 10
45.95
 20
128.3
 30
0.0
 11
50.25
 21
133.8
 31
0.0
  0
LINE
  5
28B
330
1E
100
AcDbEntity
  8
0
100
AcDbLine
 10
104.75
 20
100.0129999999999
 30
0.0
 11
104.99
 21
99.50000000000001
 31
0.0
  0
LINE
  5
28C
330
1E
100
AcDbEntity
  8
0
100
AcDbLine
 10
104.75
 20
100.0129999999999
 30
0.0
 11
104.75
 21
123.987
 31
0.0
  0
LINE
  5
28D
330
1E
100
AcDbEntity
  8
0
100
AcDbLine
 10
104.99
 20
99.50000000000001
 30
0.0
 11
105.3499999999999
 21
99.50000000000001
 31
0.0
  0
LINE
  5
28E
330
1E
100
AcDbEntity
  8
0
100
AcDbLine
 10
104.75
 20
123.987
 30
0.0
 11
104.75
 21
100.0129999999999
 31
0.0
  0
LINE
  5
28F
330
1E
100
AcDbEntity
  8
0
100
AcDbLine
 10
104.75
 20
123.987
 30
0.0
 11
104.99
 21
124.5
 31
0.0
  0
LINE
  5
290
330
1E
100
AcDbEntity
  8
0
100
AcDbLine
 10
106.3099999999999
 20
99.50000000000001
 30
0.0
 11
107.8699999999999
 21
99.50000000000001
 31
0.0
  0
LINE
  5
291
330
1E
100
AcDbEntity
  8
0
100
AcDbLine
 10
105.3499999999999
 20
99.50000000000001
 30
0.0
 11
106.3099999999999
 21
99.50000000000001
 31
0.0
  0
LINE
  5
292
330
1E
100
AcDbEntity
  8
0
100
AcDbLine
 10
109.9099999999999
 20
99.50000000000001
 30
0.0
 11
112.23
 21
99.50000000000001
 31
0.0
  0
LINE
  5
293
330
1E
100
AcDbEntity
  8
0
100
AcDbLine
 10
107.8699999999999
 20
99.50000000000001
 30
0.0
 11
109.9099999999999
 21
99.50000000000001
 31
0.0
  0
LINE
  5
294
330
1E
100
AcDbEntity
  8
0
100
AcDbLine
 10
112.23
 20
99.50000000000001
 30
0.0
 11
114.7499999999999
 21
99.50000000000001
 31
0.0
  0
LINE
  5
295
330
1E
100
AcDbEntity
  8
0
100
AcDbLine
 10
114.7499999999999
 20
99.50000000000001
 30
0.0
 11
117.27
 21
99.50000000000001
 31
0.0
  0
LINE
  5
296
330
1E
100
AcDbEntity
  8
0
100
AcDbLine
 10
117.27
 20
99.50000000000001
 30
0.0
 11
119.5899999999999
 21
99.50000000000001
 31
0.0
  0
LINE
  5
297
330
1E
100
AcDbEntity
  8
0
100
AcDbLine
 10
112.23
 20
124.5
 30
0.0
 11
114.7499999999999
 21
124.5
 31
0.0
  0
LINE
  5
298
330
1E
100
AcDbEntity
  8
0
100
AcDbLine
 10
109.9099999999999
 20
124.5
 30
0.0
 11
112.23
 21
124.5
 31
0.0
  0
LINE
  5
299
330
1E
100
AcDbEntity
  8
0
100
AcDbLine
 10
107.8699999999999
 20
124.5
 30
0.0
 11
109.9099999999999
 21
124.5
 31
0.0
  0
LINE
  5
29A
330
1E
100
AcDbEntity
  8
0
100
AcDbLine
 10
106.3099999999999
 20
124.5
 30
0.0
 11
107.8699999999999
 21
124.5
 31
0.0
  0
LINE
  5
29B
330
1E
100
AcDbEntity
  8
0
100
AcDbLine
 10
105.3499999999999
 20
124.5
 30
0.0
 11
106.3099999999999
 21
124.5
 31
0.0
  0
LINE
  5
29C
330
1E
100
AcDbEntity
  8
0
100
AcDbLine
 10
104.99
 20
124.5
 30
0.0
 11
105.3499999999999
 21
124.5
 31
0.0
  0
LINE
  5
29D
330
1E
100
AcDbEntity
  8
0
100
AcDbLine
 10
104.75
 20
125.122
 30
0.0
 11
104.99
 21
124.5
 31
0.0
  0
LINE
  5
29E
330
1E
100
AcDbEntity
  8
0
100
AcDbLine
 10
104.75
 20
125.122
 30
0.0
 11
104.75
 21
127.5339999999999
 31
0.0
  0
LINE
  5
29F
330
1E
100
AcDbEntity
  8
0
100
AcDbLine
 10
109.7499999999999
 20
128.157
 30
0.0
 11
109.7499999999999
 21
138.381355932203
 31
0.0
  0
LINE
  5
2A0
330
1E
100
AcDbEntity
  8
0
100
AcDbLine
 10
112.23
 20
128.157
 30
0.0
 11
114.7499999999999
 21
128.157
 31
0.0
  0
LINE
  5
2A1
330
1E
100
AcDbEntity
  8
0
100
AcDbLine
 10
109.9099999999999
 20
128.157
 30
0.0
 11
112.23
 21
128.157
 31
0.0
  0
LINE
  5
2A2
330
1E
100
AcDbEntity
  8
0
100
AcDbLine
 10
107.8699999999999
 20
128.157
 30
0.0
 11
109.9099999999999
 21
128.157
 31
0.0
  0
LINE
  5
2A3
330
1E
100
AcDbEntity
  8
0
100
AcDbLine
 10
106.3099999999999
 20
128.157
 30
0.0
 11
107.8699999999999
 21
128.157
 31
0.0
  0
LINE
  5
2A4
330
1E
100
AcDbEntity
  8
0
100
AcDbLine
 10
105.3499999999999
 20
128.157
 30
0.0
 11
106.3099999999999
 21
128.157
 31
0.0
  0
LINE
  5
2A5
330
1E
100
AcDbEntity
  8
0
100
AcDbLine
 10
104.99
 20
128.157
 30
0.0
 11
105.3499999999999
 21
128.157
 31
0.0
  0
LINE
  5
2A6
330
1E
100
AcDbEntity
  8
0
100
AcDbLine
 10
104.75
 20
127.5339999999999
 30
0.0
 11
104.75
 21
125.122
 31
0.0
  0
LINE
  5
2A7
330
1E
100
AcDbEntity
  8
0
100
AcDbLine
 10
104.75
 20
127.5339999999999
 30
0.0
 11
104.99
 21
128.157
 31
0.0
  0
LINE
  5
2A8
330
1E
100
AcDbEntity
  8
0
100
AcDbLine
 10
114.7499999999999
 20
124.5
 30
0.0
 11
117.27
 21
124.5
 31
0.0
  0
LINE
  5
2A9
330
1E
100
AcDbEntity
  8
0
100
AcDbLine
 10
117.27
 20
124.5
 30
0.0
 11
119.5899999999999
 21
124.5
 31
0.0
  0
LINE
  5
2AA
330
1E
100
AcDbEntity
  8
0
100
AcDbLine
 10
114.7499999999999
 20
128.157
 30
0.0
 11
117.27
 21
128.157
 31
0.0
  0
LINE
  5
2AB
330
1E
100
AcDbEntity
  8
0
100
AcDbLine
 10
119.5899999999999
 20
99.50000000000001
 30
0.0
 11
121.6299999999999
 21
99.50000000000001
 31
0.0
  0
LINE
  5
2AC
330
1E
100
AcDbEntity
  8
0
100
AcDbLine
 10
121.6299999999999
 20
99.50000000000001
 30
0.0
 11
123.1899999999999
 21
99.50000000000001
 31
0.0
  0
LINE
  5
2AD
330
1E
100
AcDbEntity
  8
0
100
AcDbLine
 10
119.5899999999999
 20
124.5
 30
0.0
 11
121.6299999999999
 21
124.5
 31
0.0
  0
LINE
  5
2AE
330
1E
100
AcDbEntity
  8
0
100
AcDbLine
 10
119.75
 20
128.157
 30
0.0
 11
119.75
 21
138.381355932203
 31
0.0
  0
LINE
  5
2AF
330
1E
100
AcDbEntity
  8
0
100
AcDbLine
 10
121.6299999999999
 20
124.5
 30
0.0
 11
123.1899999999999
 21
124.5
 31
0.0
  0
LINE
  5
2B0
330
1E
100
AcDbEntity
  8
0
100
AcDbLine
 10
117.27
 20
128.157
 30
0.0
 11
119.5899999999999
 21
128.157
 31
0.0
  0
LINE
  5
2B1
330
1E
100
AcDbEntity
  8
0
100
AcDbLine
 10
119.5899999999999
 20
128.157
 30
0.0
 11
121.6299999999999
 21
128.157
 31
0.0
  0
LINE
  5
2B2
330
1E
100
AcDbEntity
  8
0
100
AcDbLine
 10
123.1899999999999
 20
99.50000000000001
 30
0.0
 11
124.15
 21
99.50000000000001
 31
0.0
  0
LINE
  5
2B3
330
1E
100
AcDbEntity
  8
0
100
AcDbLine
 10
124.15
 20
99.50000000000001
 30
0.0
 11
124.51
 21
99.50000000000001
 31
0.0
  0
LINE
  5
2B4
330
1E
100
AcDbEntity
  8
0
100
AcDbLine
 10
123.1899999999999
 20
124.5
 30
0.0
 11
124.15
 21
124.5
 31
0.0
  0
LINE
  5
2B5
330
1E
100
AcDbEntity
  8
0
100
AcDbLine
 10
124.15
 20
124.5
 30
0.0
 11
124.51
 21
124.5
 31
0.0
  0
LINE
  5
2B6
330
1E
100
AcDbEntity
  8
0
100
AcDbLine
 10
121.6299999999999
 20
128.157
 30
0.0
 11
123.1899999999999
 21
128.157
 31
0.0
  0
LINE
  5
2B7
330
1E
100
AcDbEntity
  8
0
100
AcDbLine
 10
123.1899999999999
 20
128.157
 30
0.0
 11
124.15
 21
128.157
 31
0.0
  0
LINE
  5
2B8
330
1E
100
AcDbEntity
  8
0
100
AcDbLine
 10
124.51
 20
99.50000000000001
 30
0.0
 11
124.75
 21
100.0129999999999
 31
0.0
  0
LINE
  5
2B9
330
1E
100
AcDbEntity
  8
0
100
AcDbLine
 10
199.7299999999999
 20
74.5
 30
0.0
 11
202.2499999999999
 21
74.5
 31
0.0
  0
LINE
  5
2BA
330
1E
100
AcDbEntity
  8
0
100
AcDbLine
 10
197.4099999999999
 20
74.5
 30
0.0
 11
199.7299999999999
 21
74.5
 31
0.0
  0
LINE
  5
2BB
330
1E
100
AcDbEntity
  8
0
100
AcDbLine
 10
195.3699999999999
 20
74.5
 30
0.0
 11
197.4099999999999
 21
74.5
 31
0.0
  0
LINE
  5
2BC
330
1E
100
AcDbEntity
  8
0
100
AcDbLine
 10
193.81
 20
74.5
 30
0.0
 11
195.3699999999999
 21
74.5
 31
0.0
  0
LINE
  5
2BD
330
1E
100
AcDbEntity
  8
0
100
AcDbLine
 10
192.8499999999999
 20
74.5
 30
0.0
 11
193.81
 21
74.5
 31
0.0
  0
LINE
  5
2BE
330
1E
100
AcDbEntity
  8
0
100
AcDbLine
 10
192.49
 20
74.5
 30
0.0
 11
192.8499999999999
 21
74.5
 31
0.0
  0
LINE
  5
2BF
330
1E
100
AcDbEntity
  8
0
100
AcDbLine
 10
192.25
 20
75.0128
 30
0.0
 11
192.49
 21
74.5
 31
0.0
  0
LINE
  5
2C0
330
1E
100
AcDbEntity
  8
0
100
AcDbLine
 10
192.25
 20
75.0128
 30
0.0
 11
192.25
 21
82.0
 31
0.0
  0
LINE
  5
2C1
330
1E
100
AcDbEntity
  8
0
100
AcDbLine
 10
192.25
 20
91.9945454545455
 30
0.0
 11
192.25
 21
98.9872
 31
0.0
  0
LINE
  5
2C2
330
1E
100
AcDbEntity
  8
0
100
AcDbLine
 10
192.25
 20
82.0
 30
0.0
 11
192.25
 21
75.0128
 31
0.0
  0
LINE
  5
2C3
330
1E
100
AcDbEntity
  8
0
100
AcDbLine
 10
199.7299999999999
 20
99.50000000000001
 30
0.0
 11
202.2499999999999
 21
99.50000000000001
 31
0.0
  0
LINE
  5
2C4
330
1E
100
AcDbEntity
  8
0
100
AcDbLine
 10
197.4099999999999
 20
99.50000000000001
 30
0.0
 11
199.7299999999999
 21
99.50000000000001
 31
0.0
  0
LINE
  5
2C5
330
1E
100
AcDbEntity
  8
0
100
AcDbLine
 10
195.3699999999999
 20
99.50000000000001
 30
0.0
 11
197.4099999999999
 21
99.50000000000001
 31
0.0
  0
LINE
  5
2C6
330
1E
100
AcDbEntity
  8
0
100
AcDbLine
 10
193.81
 20
99.50000000000001
 30
0.0
 11
195.3699999999999
 21
99.50000000000001
 31
0.0
  0
LINE
  5
2C7
330
1E
100
AcDbEntity
  8
0
100
AcDbLine
 10
192.8499999999999
 20
99.50000000000001
 30
0.0
 11
193.81
 21
99.50000000000001
 31
0.0
  0
LINE
  5
2C8
330
1E
100
AcDbEntity
  8
0
100
AcDbLine
 10
192.49
 20
99.50000000000001
 30
0.0
 11
192.8499999999999
 21
99.50000000000001
 31
0.0
  0
LINE
  5
2C9
330
1E
100
AcDbEntity
  8
0
100
AcDbLine
 10
192.25
 20
98.9872
 30
0.0
 11
192.25
 21
91.9945454545455
 31
0.0
  0
LINE
  5
2CA
330
1E
100
AcDbEntity
  8
0
100
AcDbLine
 10
192.25
 20
98.9872
 30
0.0
 11
192.49
 21
99.50000000000001
 31
0.0
  0
LINE
  5
2CB
330
1E
100
AcDbEntity
  8
0
100
AcDbLine
 10
202.2499999999999
 20
74.5
 30
0.0
 11
204.77
 21
74.5
 31
0.0
  0
LINE
  5
2CC
330
1E
100
AcDbEntity
  8
0
100
AcDbLine
 10
204.77
 20
74.5
 30
0.0
 11
207.0899999999999
 21
74.5
 31
0.0
  0
LINE
  5
2CD
330
1E
100
AcDbEntity
  8
0
100
AcDbLine
 10
207.0899999999999
 20
74.5
 30
0.0
 11
209.1299999999999
 21
74.5
 31
0.0
  0
LINE
  5
2CE
330
1E
100
AcDbEntity
  8
0
100
AcDbLine
 10
202.2499999999999
 20
99.50000000000001
 30
0.0
 11
204.77
 21
99.50000000000001
 31
0.0
  0
LINE
  5
2CF
330
1E
100
AcDbEntity
  8
0
100
AcDbLine
 10
204.77
 20
99.50000000000001
 30
0.0
 11
207.0899999999999
 21
99.50000000000001
 31
0.0
  0
LINE
  5
2D0
330
1E
100
AcDbEntity
  8
0
100
AcDbLine
 10
209.1299999999999
 20
74.5
 30
0.0
 11
210.6899999999999
 21
74.5
 31
0.0
  0
LINE
  5
2D1
330
1E
100
AcDbEntity
  8
0
100
AcDbLine
 10
210.6899999999999
 20
74.5
 30
0.0
 11
211.65
 21
74.5
 31
0.0
  0
LINE
  5
2D2
330
1E
100
AcDbEntity
  8
0
100
AcDbLine
 10
207.0899999999999
 20
99.50000000000001
 30
0.0
 11
209.1299999999999
 21
99.50000000000001
 31
0.0
  0
LINE
  5
2D3
330
1E
100
AcDbEntity
  8
0
100
AcDbLine
 10
209.1299999999999
 20
99.50000000000001
 30
0.0
 11
210.6899999999999
 21
99.50000000000001
 31
0.0
  0
LINE
  5
2D4
330
1E
100
AcDbEntity
  8
0
100
AcDbLine
 10
211.65
 20
74.5
 30
0.0
 11
212.0099999999999
 21
74.5
 31
0.0
  0
LINE
  5
2D5
330
1E
100
AcDbEntity
  8
0
100
AcDbLine
 10
212.0099999999999
 20
74.5
 30
0.0
 11
212.25
 21
75.0128
 31
0.0
  0
LINE
  5
2D6
330
1E
100
AcDbEntity
  8
0
100
AcDbLine
 10
210.6899999999999
 20
99.50000000000001
 30
0.0
 11
211.65
 21
99.50000000000001
 31
0.0
  0
LINE
  5
2D7
330
1E
100
AcDbEntity
  8
0
100
AcDbLine
 10
192.25
 20
100.0129999999999
 30
0.0
 11
192.49
 21
99.50000000000001
 31
0.0
  0
LINE
  5
2D8
330
1E
100
AcDbEntity
  8
0
100
AcDbLine
 10
192.25
 20
100.0129999999999
 30
0.0
 11
192.25
 21
107.0
 31
0.0
  0
LINE
  5
2D9
330
1E
100
AcDbEntity
  8
0
100
AcDbLine
 10
211.65
 20
99.50000000000001
 30
0.0
 11
212.0099999999999
 21
99.50000000000001
 31
0.0
  0
LINE
  5
2DA
330
1E
100
AcDbEntity
  8
0
100
AcDbLine
 10
212.25
 20
100.0129999999999
 30
0.0
 11
212.25
 21
123.987
 31
0.0
  0
LINE
  5
2DB
330
1E
100
AcDbEntity
  8
0
100
AcDbLine
 10
212.25
 20
98.9872
 30
0.0
 11
212.25
 21
75.0128
 31
0.0
  0
LINE
  5
2DC
330
1E
100
AcDbEntity
  8
0
100
AcDbLine
 10
212.25
 20
75.0128
 30
0.0
 11
212.25
 21
98.9872
 31
0.0
  0
LINE
  5
2DD
330
1E
100
AcDbEntity
  8
0
100
AcDbLine
 10
212.0099999999999
 20
99.50000000000001
 30
0.0
 11
212.25
 21
98.9872
 31
0.0
  0
LINE
  5
2DE
330
1E
100
AcDbEntity
  8
0
100
AcDbLine
 10
212.0099999999999
 20
99.50000000000001
 30
0.0
 11
212.25
 21
100.0129999999999
 31
0.0
  0
LINE
  5
2DF
330
1E
100
AcDbEntity
  8
0
100
AcDbLine
 10
124.75
 20
107.0
 30
0.0
 11
192.25
 21
107.0
 31
0.0
  0
LINE
  5
2E0
330
1E
100
AcDbEntity
  8
0
100
AcDbLine
 10
124.75
 20
107.0214772727269
 30
0.0
 11
124.75
 21
100.0129999999999
 31
0.0
  0
LINE
  5
2E1
330
1E
100
AcDbEntity
  8
0
100
AcDbLine
 10
124.75
 20
123.987
 30
0.0
 11
124.75
 21
117.0
 31
0.0
  0
LINE
  5
2E2
330
1E
100
AcDbEntity
  8
0
100
AcDbLine
 10
192.25
 20
116.979545454545
 30
0.0
 11
192.25
 21
123.987
 31
0.0
  0
LINE
  5
2E3
330
1E
100
AcDbEntity
  8
0
100
AcDbLine
 10
192.25
 20
107.0
 30
0.0
 11
192.25
 21
100.0129999999999
 31
0.0
  0
LINE
  5
2E4
330
1E
100
AcDbEntity
  8
0
100
AcDbLine
 10
199.7299999999999
 20
124.5
 30
0.0
 11
202.2499999999999
 21
124.5
 31
0.0
  0
LINE
  5
2E5
330
1E
100
AcDbEntity
  8
0
100
AcDbLine
 10
197.4099999999999
 20
124.5
 30
0.0
 11
199.7299999999999
 21
124.5
 31
0.0
  0
LINE
  5
2E6
330
1E
100
AcDbEntity
  8
0
100
AcDbLine
 10
195.3699999999999
 20
124.5
 30
0.0
 11
197.4099999999999
 21
124.5
 31
0.0
  0
LINE
  5
2E7
330
1E
100
AcDbEntity
  8
0
100
AcDbLine
 10
193.81
 20
124.5
 30
0.0
 11
195.3699999999999
 21
124.5
 31
0.0
  0
LINE
  5
2E8
330
1E
100
AcDbEntity
  8
0
100
AcDbLine
 10
192.8499999999999
 20
124.5
 30
0.0
 11
193.81
 21
124.5
 31
0.0
  0
LINE
  5
2E9
330
1E
100
AcDbEntity
  8
0
100
AcDbLine
 10
192.49
 20
124.5
 30
0.0
 11
192.8499999999999
 21
124.5
 31
0.0
  0
LINE
  5
2EA
330
1E
100
AcDbEntity
  8
0
100
AcDbLine
 10
192.25
 20
123.987
 30
0.0
 11
192.25
 21
116.979545454545
 31
0.0
  0
LINE
  5
2EB
330
1E
100
AcDbEntity
  8
0
100
AcDbLine
 10
192.25
 20
123.987
 30
0.0
 11
192.49
 21
124.5
 31
0.0
  0
LINE
  5
2EC
330
1E
100
AcDbEntity
  8
0
100
AcDbLine
 10
202.2499999999999
 20
124.5
 30
0.0
 11
204.77
 21
124.5
 31
0.0
  0
LINE
  5
2ED
330
1E
100
AcDbEntity
  8
0
100
AcDbLine
 10
204.77
 20
124.5
 30
0.0
 11
207.0899999999999
 21
124.5
 31
0.0
  0
LINE
  5
2EE
330
1E
100
AcDbEntity
  8
0
100
AcDbLine
 10
207.0899999999999
 20
124.5
 30
0.0
 11
209.1299999999999
 21
124.5
 31
0.0
  0
LINE
  5
2EF
330
1E
100
AcDbEntity
  8
0
100
AcDbLine
 10
209.1299999999999
 20
124.5
 30
0.0
 11
210.6899999999999
 21
124.5
 31
0.0
  0
LINE
  5
2F0
330
1E
100
AcDbEntity
  8
0
100
AcDbLine
 10
210.6899999999999
 20
124.5
 30
0.0
 11
211.65
 21
124.5
 31
0.0
  0
LINE
  5
2F1
330
1E
100
AcDbEntity
  8
0
100
AcDbLine
 10
212.25
 20
123.987
 30
0.0
 11
212.25
 21
100.0129999999999
 31
0.0
  0
LINE
  5
2F2
330
1E
100
AcDbEntity
  8
0
100
AcDbLine
 10
211.65
 20
124.5
 30
0.0
 11
212.0099999999999
 21
124.5
 31
0.0
  0
LINE
  5
2F3
330
1E
100
AcDbEntity
  8
0
100
AcDbLine
 10
212.0099999999999
 20
124.5
 30
0.0
 11
212.25
 21
123.987
 31
0.0
  0
LINE
  5
2F4
330
1E
100
AcDbEntity
  8
0
100
AcDbLine
 10
124.75
 20
117.0
 30
0.0
 11
124.75
 21
123.987
 31
0.0
  0
LINE
  5
2F5
330
1E
100
AcDbEntity
  8
0
100
AcDbLine
 10
124.75
 20
117.0
 30
0.0
 11
192.25
 21
117.0
 31
0.0
  0
LINE
  5
2F6
330
1E
100
AcDbEntity
  8
0
100
AcDbLine
 10
124.75
 20
100.0129999999999
 30
0.0
 11
124.75
 21
107.0214772727269
 31
0.0
  0
LINE
  5
2F7
330
1E
100
AcDbEntity
  8
0
100
AcDbLine
 10
124.51
 20
124.5
 30
0.0
 11
124.75
 21
125.122
 31
0.0
  0
LINE
  5
2F8
330
1E
100
AcDbEntity
  8
0
100
AcDbLine
 10
124.51
 20
124.5
 30
0.0
 11
124.75
 21
123.987
 31
0.0
  0
LINE
  5
2F9
330
1E
100
AcDbEntity
  8
0
100
AcDbLine
 10
124.75
 20
127.5339999999999
 30
0.0
 11
124.75
 21
125.122
 31
0.0
  0
LINE
  5
2FA
330
1E
100
AcDbEntity
  8
0
100
AcDbLine
 10
124.75
 20
125.122
 30
0.0
 11
124.75
 21
127.5339999999999
 31
0.0
  0
LINE
  5
2FB
330
1E
100
AcDbEntity
  8
0
100
AcDbLine
 10
124.15
 20
128.157
 30
0.0
 11
124.51
 21
128.157
 31
0.0
  0
LINE
  5
2FC
330
1E
100
AcDbEntity
  8
0
100
AcDbLine
 10
124.51
 20
128.157
 30
0.0
 11
124.75
 21
127.5339999999999
 31
0.0
  0
LINE
  5
2FD
330
1E
100
AcDbEntity
  8
0
100
AcDbLine
 10
46.35
 20
127.9
 30
0.0
 11
50.65
 21
133.6
 31
0.0
  0
LINE
  5
2FE
330
1E
100
AcDbEntity
  8
0
100
AcDbLine
 10
38.25
 20
131.0
 30
0.0
 11
39.25
 21
131.4439999999999
 31
0.0
  0
LINE
  5
2FF
330
1E
100
AcDbEntity
  8
0
100
AcDbLine
 10
37.85
 20
131.0
 30
0.0
 11
38.25
 21
131.0
 31
0.0
  0
LINE
  5
300
330
1E
100
AcDbEntity
  8
0
100
AcDbLine
 10
32.85
 20
250.8999999999999
 30
0.0
 11
36.35
 21
261.5
 31
0.0
  0
LINE
  5
301
330
1E
100
AcDbEntity
  8
0
100
AcDbLine
 10
32.85
 20
207.1
 30
0.0
 11
36.35
 21
196.5
 31
0.0
  0
LINE
  5
302
330
1E
100
AcDbEntity
  8
0
100
AcDbLine
 10
33.25
 20
162.555
 30
0.0
 11
35.75
 21
162.555
 31
0.0
  0
LINE
  5
303
330
1E
100
AcDbEntity
  8
0
100
AcDbLine
 10
35.75
 20
131.4439999999999
 30
0.0
 11
37.65
 21
131.4439999999999
 31
0.0
  0
LINE
  5
304
330
1E
100
AcDbEntity
  8
0
100
AcDbLine
 10
39.25
 20
131.4439999999999
 30
0.0
 11
39.75
 21
132.333
 31
0.0
  0
LINE
  5
305
330
1E
100
AcDbEntity
  8
0
100
AcDbLine
 10
37.65
 20
131.4439999999999
 30
0.0
 11
38.85
 21
131.4439999999999
 31
0.0
  0
LINE
  5
306
330
1E
100
AcDbEntity
  8
0
100
AcDbLine
 10
36.04999999999999
 20
132.333
 30
0.0
 11
38.04999999999999
 21
132.333
 31
0.0
  0
LINE
  5
307
330
1E
100
AcDbEntity
  8
0
100
AcDbLine
 10
38.04999999999999
 20
132.333
 30
0.0
 11
39.25
 21
132.333
 31
0.0
  0
LINE
  5
308
330
1E
100
AcDbEntity
  8
0
100
AcDbLine
 10
39.75
 20
132.333
 30
0.0
 11
40.25
 21
132.333
 31
0.0
  0
LINE
  5
309
330
1E
100
AcDbEntity
  8
0
100
AcDbLine
 10
40.75
 20
132.333
 30
0.0
 11
41.74999999999999
 21
132.7779999999999
 31
0.0
  0
LINE
  5
30A
330
1E
100
AcDbEntity
  8
0
100
AcDbLine
 10
40.25
 20
132.333
 30
0.0
 11
40.75
 21
132.333
 31
0.0
  0
LINE
  5
30B
330
1E
100
AcDbEntity
  8
0
100
AcDbLine
 10
39.25
 20
132.333
 30
0.0
 11
39.75
 21
132.333
 31
0.0
  0
LINE
  5
30C
330
1E
100
AcDbEntity
  8
0
100
AcDbLine
 10
38.85
 20
131.4439999999999
 30
0.0
 11
39.25
 21
131.4439999999999
 31
0.0
  0
LINE
  5
30D
330
1E
100
AcDbEntity
  8
0
100
AcDbLine
 10
33.95
 20
132.333
 30
0.0
 11
36.75
 21
132.333
 31
0.0
  0
LINE
  5
30E
330
1E
100
AcDbEntity
  8
0
100
AcDbLine
 10
33.65
 20
195.4
 30
0.0
 11
38.55
 21
185.1999999999999
 31
0.0
  0
LINE
  5
30F
330
1E
100
AcDbEntity
  8
0
100
AcDbLine
 10
33.75
 20
250.7
 30
0.0
 11
37.35
 21
261.1
 31
0.0
  0
LINE
  5
310
330
1E
100
AcDbEntity
  8
0
100
AcDbLine
 10
33.75
 20
229.0
 30
0.0
 11
34.55
 21
218.5
 31
0.0
  0
LINE
  5
311
330
1E
100
AcDbEntity
  8
0
100
AcDbLine
 10
33.75
 20
229.0
 30
0.0
 11
34.55
 21
239.5
 31
0.0
  0
LINE
  5
312
330
1E
100
AcDbEntity
  8
0
100
AcDbLine
 10
33.75
 20
207.2999999999999
 30
0.0
 11
37.35
 21
196.9
 31
0.0
  0
LINE
  5
313
330
1E
100
AcDbEntity
  8
0
100
AcDbLine
 10
33.95
 20
158.555
 30
0.0
 11
36.75
 21
158.555
 31
0.0
  0
LINE
  5
314
330
1E
100
AcDbEntity
  8
0
100
AcDbLine
 10
34.45
 20
159.0
 30
0.0
 11
37.45
 21
159.0
 31
0.0
  0
LINE
  5
315
330
1E
100
AcDbEntity
  8
0
100
AcDbLine
 10
34.04999999999999
 20
172.5
 30
0.0
 11
40.45
 21
170.0
 31
0.0
  0
LINE
  5
316
330
1E
100
AcDbEntity
  8
0
100
AcDbLine
 10
34.15
 20
173.0
 30
0.0
 11
40.65
 21
170.4
 31
0.0
  0
LINE
  5
317
330
1E
100
AcDbEntity
  8
0
100
AcDbLine
 10
34.45
 20
161.222
 30
0.0
 11
37.45
 21
161.222
 31
0.0
  0
LINE
  5
318
330
1E
100
AcDbEntity
  8
0
100
AcDbLine
 10
33.95
 20
135.4439999999999
 30
0.0
 11
36.75
 21
135.4439999999999
 31
0.0
  0
LINE
  5
319
330
1E
100
AcDbEntity
  8
0
100
AcDbLine
 10
34.45
 20
135.0
 30
0.0
 11
37.45
 21
135.0
 31
0.0
  0
LINE
  5
31A
330
1E
100
AcDbEntity
  8
0
100
AcDbLine
 10
37.45
 20
132.7779999999999
 30
0.0
 11
39.85
 21
132.7779999999999
 31
0.0
  0
LINE
  5
31B
330
1E
100
AcDbEntity
  8
0
100
AcDbLine
 10
41.74999999999999
 20
132.7779999999999
 30
0.0
 11
42.25
 21
133.667
 31
0.0
  0
LINE
  5
31C
330
1E
100
AcDbEntity
  8
0
100
AcDbLine
 10
39.85
 20
132.7779999999999
 30
0.0
 11
41.25
 21
132.7779999999999
 31
0.0
  0
LINE
  5
31D
330
1E
100
AcDbEntity
  8
0
100
AcDbLine
 10
37.45
 20
135.0
 30
0.0
 11
39.85
 21
135.0
 31
0.0
  0
LINE
  5
31E
330
1E
100
AcDbEntity
  8
0
100
AcDbLine
 10
39.85
 20
135.0
 30
0.0
 11
41.25
 21
135.0
 31
0.0
  0
LINE
  5
31F
330
1E
100
AcDbEntity
  8
0
100
AcDbLine
 10
42.25
 20
134.111
 30
0.0
 11
42.25
 21
133.667
 31
0.0
  0
LINE
  5
320
330
1E
100
AcDbEntity
  8
0
100
AcDbLine
 10
41.25
 20
135.0
 30
0.0
 11
41.74999999999999
 21
135.0
 31
0.0
  0
LINE
  5
321
330
1E
100
AcDbEntity
  8
0
100
AcDbLine
 10
36.75
 20
135.4439999999999
 30
0.0
 11
38.95
 21
135.4439999999999
 31
0.0
  0
LINE
  5
322
330
1E
100
AcDbEntity
  8
0
100
AcDbLine
 10
40.25
 20
153.2
 30
0.0
 11
41.25
 21
150.6999999999999
 31
0.0
  0
LINE
  5
323
330
1E
100
AcDbEntity
  8
0
100
AcDbLine
 10
40.25
 20
154.4999999999999
 30
0.0
 11
41.74999999999999
 21
150.9
 31
0.0
  0
LINE
  5
324
330
1E
100
AcDbEntity
  8
0
100
AcDbLine
 10
40.25
 20
140.8
 30
0.0
 11
41.25
 21
143.3
 31
0.0
  0
LINE
  5
325
330
1E
100
AcDbEntity
  8
0
100
AcDbLine
 10
40.25
 20
139.5
 30
0.0
 11
41.74999999999999
 21
143.1
 31
0.0
  0
LINE
  5
326
330
1E
100
AcDbEntity
  8
0
100
AcDbLine
 10
36.75
 20
158.555
 30
0.0
 11
38.95
 21
158.555
 31
0.0
  0
LINE
  5
327
330
1E
100
AcDbEntity
  8
0
100
AcDbLine
 10
37.45
 20
159.0
 30
0.0
 11
39.85
 21
159.0
 31
0.0
  0
LINE
  5
328
330
1E
100
AcDbEntity
  8
0
100
AcDbLine
 10
37.45
 20
161.222
 30
0.0
 11
39.85
 21
161.222
 31
0.0
  0
LINE
  5
329
330
1E
100
AcDbEntity
  8
0
100
AcDbLine
 10
35.75
 20
162.555
 30
0.0
 11
37.65
 21
162.555
 31
0.0
  0
LINE
  5
32A
330
1E
100
AcDbEntity
  8
0
100
AcDbLine
 10
37.65
 20
162.555
 30
0.0
 11
38.85
 21
162.555
 31
0.0
  0
LINE
  5
32B
330
1E
100
AcDbEntity
  8
0
100
AcDbLine
 10
35.95
 20
183.6999999999999
 30
0.0
 11
42.64999999999999
 21
173.6999999999999
 31
0.0
  0
LINE
  5
32C
330
1E
100
AcDbEntity
  8
0
100
AcDbLine
 10
34.55
 20
239.5
 30
0.0
 11
36.65
 21
249.9
 31
0.0
  0
LINE
  5
32D
330
1E
100
AcDbEntity
  8
0
100
AcDbLine
 10
36.35
 20
261.5
 30
0.0
 11
41.15
 21
271.3
 31
0.0
  0
LINE
  5
32E
330
1E
100
AcDbEntity
  8
0
100
AcDbLine
 10
34.55
 20
218.5
 30
0.0
 11
36.65
 21
208.0999999999999
 31
0.0
  0
LINE
  5
32F
330
1E
100
AcDbEntity
  8
0
100
AcDbLine
 10
36.65
 20
249.9
 30
0.0
 11
40.04999999999999
 21
259.8999999999999
 31
0.0
  0
LINE
  5
330
330
1E
100
AcDbEntity
  8
0
100
AcDbLine
 10
37.35
 20
261.1
 30
0.0
 11
41.95
 21
270.8
 31
0.0
  0
LINE
  5
331
330
1E
100
AcDbEntity
  8
0
100
AcDbLine
 10
36.65
 20
208.0999999999999
 30
0.0
 11
40.04999999999999
 21
198.1
 31
0.0
  0
LINE
  5
332
330
1E
100
AcDbEntity
  8
0
100
AcDbLine
 10
37.35
 20
196.9
 30
0.0
 11
41.95
 21
187.1999999999999
 31
0.0
  0
LINE
  5
333
330
1E
100
AcDbEntity
  8
0
100
AcDbLine
 10
36.35
 20
196.5
 30
0.0
 11
41.15
 21
186.6999999999999
 31
0.0
  0
LINE
  5
334
330
1E
100
AcDbEntity
  8
0
100
AcDbLine
 10
36.75
 20
163.0
 30
0.0
 11
37.85
 21
163.0
 31
0.0
  0
LINE
  5
335
330
1E
100
AcDbEntity
  8
0
100
AcDbLine
 10
38.95
 20
158.555
 30
0.0
 11
40.25
 21
158.555
 31
0.0
  0
LINE
  5
336
330
1E
100
AcDbEntity
  8
0
100
AcDbLine
 10
38.95
 20
161.667
 30
0.0
 11
40.25
 21
161.667
 31
0.0
  0
LINE
  5
337
330
1E
100
AcDbEntity
  8
0
100
AcDbLine
 10
39.85
 20
159.0
 30
0.0
 11
41.25
 21
159.0
 31
0.0
  0
LINE
  5
338
330
1E
100
AcDbEntity
  8
0
100
AcDbLine
 10
40.25
 20
158.555
 30
0.0
 11
40.75
 21
158.555
 31
0.0
  0
LINE
  5
339
330
1E
100
AcDbEntity
  8
0
100
AcDbLine
 10
39.85
 20
161.222
 30
0.0
 11
41.25
 21
161.222
 31
0.0
  0
LINE
  5
33A
330
1E
100
AcDbEntity
  8
0
100
AcDbLine
 10
40.25
 20
161.667
 30
0.0
 11
40.75
 21
161.667
 31
0.0
  0
LINE
  5
33B
330
1E
100
AcDbEntity
  8
0
100
AcDbLine
 10
39.25
 20
162.555
 30
0.0
 11
39.75
 21
161.667
 31
0.0
  0
LINE
  5
33C
330
1E
100
AcDbEntity
  8
0
100
AcDbLine
 10
38.55
 20
185.1999999999999
 30
0.0
 11
45.04999999999999
 21
175.5
 31
0.0
  0
LINE
  5
33D
330
1E
100
AcDbEntity
  8
0
100
AcDbLine
 10
40.04999999999999
 20
259.8999999999999
 30
0.0
 11
44.55
 21
269.3
 31
0.0
  0
LINE
  5
33E
330
1E
100
AcDbEntity
  8
0
100
AcDbLine
 10
40.04999999999999
 20
198.1
 30
0.0
 11
44.55
 21
188.7
 31
0.0
  0
LINE
  5
33F
330
1E
100
AcDbEntity
  8
0
100
AcDbLine
 10
38.25
 20
163.0
 30
0.0
 11
39.25
 21
162.555
 31
0.0
  0
LINE
  5
340
330
1E
100
AcDbEntity
  8
0
100
AcDbLine
 10
38.85
 20
162.555
 30
0.0
 11
39.25
 21
162.555
 31
0.0
  0
LINE
  5
341
330
1E
100
AcDbEntity
  8
0
100
AcDbLine
 10
37.85
 20
163.0
 30
0.0
 11
38.25
 21
163.0
 31
0.0
  0
LINE
  5
342
330
1E
100
AcDbEntity
  8
0
100
AcDbLine
 10
40.25
 20
157.667
 30
0.0
 11
40.25
 21
136.3329999999999
 31
0.0
  0
LINE
  5
343
330
1E
100
AcDbEntity
  8
0
100
AcDbLine
 10
40.25
 20
157.667
 30
0.0
 11
40.75
 21
158.555
 31
0.0
  0
LINE
  5
344
330
1E
100
AcDbEntity
  8
0
100
AcDbLine
 10
40.25
 20
136.3329999999999
 30
0.0
 11
40.75
 21
135.4439999999999
 31
0.0
  0
LINE
  5
345
330
1E
100
AcDbEntity
  8
0
100
AcDbLine
 10
40.25
 20
136.3329999999999
 30
0.0
 11
40.25
 21
157.667
 31
0.0
  0
LINE
  5
346
330
1E
100
AcDbEntity
  8
0
100
AcDbLine
 10
38.95
 20
135.4439999999999
 30
0.0
 11
40.25
 21
135.4439999999999
 31
0.0
  0
LINE
  5
347
330
1E
100
AcDbEntity
  8
0
100
AcDbLine
 10
41.25
 20
150.6999999999999
 30
0.0
 11
41.74999999999999
 21
147.0
 31
0.0
  0
LINE
  5
348
330
1E
100
AcDbEntity
  8
0
100
AcDbLine
 10
40.55352366017889
 20
158.206058020478
 30
0.0
 11
42.45
 21
155.6999999999999
 31
0.0
  0
LINE
  5
349
330
1E
100
AcDbEntity
  8
0
100
AcDbLine
 10
41.25
 20
143.3
 30
0.0
 11
41.74999999999999
 21
147.0
 31
0.0
  0
LINE
  5
34A
330
1E
100
AcDbEntity
  8
0
100
AcDbLine
 10
40.5533278023599
 20
135.793683167404
 30
0.0
 11
42.45
 21
138.3
 31
0.0
  0
LINE
  5
34B
330
1E
100
AcDbEntity
  8
0
100
AcDbLine
 10
40.8051026421766
 20
158.579520675769
 30
0.0
 11
42.85
 21
155.9
 31
0.0
  0
LINE
  5
34C
330
1E
100
AcDbEntity
  8
0
100
AcDbLine
 10
40.75
 20
158.555
 30
0.0
 11
41.74999999999999
 21
159.0
 31
0.0
  0
LINE
  5
34D
330
1E
100
AcDbEntity
  8
0
100
AcDbLine
 10
41.25
 20
159.0
 30
0.0
 11
41.74999999999999
 21
159.0
 31
0.0
  0
LINE
  5
34E
330
1E
100
AcDbEntity
  8
0
100
AcDbLine
 10
40.45
 20
170.0
 30
0.0
 11
45.95
 21
165.7
 31
0.0
  0
LINE
  5
34F
330
1E
100
AcDbEntity
  8
0
100
AcDbLine
 10
41.15
 20
271.3
 30
0.0
 11
47.45
 21
280.7
 31
0.0
  0
LINE
  5
350
330
1E
100
AcDbEntity
  8
0
100
AcDbLine
 10
41.15
 20
186.6999999999999
 30
0.0
 11
47.45
 21
177.3
 31
0.0
  0
LINE
  5
351
330
1E
100
AcDbEntity
  8
0
100
AcDbLine
 10
40.65
 20
170.4
 30
0.0
 11
46.35
 21
166.1
 31
0.0
  0
LINE
  5
352
330
1E
100
AcDbEntity
  8
0
100
AcDbLine
 10
40.75
 20
161.667
 30
0.0
 11
41.74999999999999
 21
161.222
 31
0.0
  0
LINE
  5
353
330
1E
100
AcDbEntity
  8
0
100
AcDbLine
 10
41.74999999999999
 20
150.9
 30
0.0
 11
42.25
 21
147.0
 31
0.0
  0
LINE
  5
354
330
1E
100
AcDbEntity
  8
0
100
AcDbLine
 10
41.74999999999999
 20
143.1
 30
0.0
 11
42.25
 21
147.0
 31
0.0
  0
LINE
  5
355
330
1E
100
AcDbEntity
  8
0
100
AcDbLine
 10
42.25
 20
160.3329999999999
 30
0.0
 11
42.25
 21
159.889
 31
0.0
  0
LINE
  5
356
330
1E
100
AcDbEntity
  8
0
100
AcDbLine
 10
41.74999999999999
 20
159.0
 30
0.0
 11
42.25
 21
159.889
 31
0.0
  0
LINE
  5
357
330
1E
100
AcDbEntity
  8
0
100
AcDbLine
 10
42.25
 20
159.889
 30
0.0
 11
42.25
 21
160.3329999999999
 31
0.0
  0
LINE
  5
358
330
1E
100
AcDbEntity
  8
0
100
AcDbLine
 10
41.95
 20
270.8
 30
0.0
 11
48.25
 21
280.1
 31
0.0
  0
LINE
  5
359
330
1E
100
AcDbEntity
  8
0
100
AcDbLine
 10
41.95
 20
187.1999999999999
 30
0.0
 11
48.25
 21
177.9
 31
0.0
  0
LINE
  5
35A
330
1E
100
AcDbEntity
  8
0
100
AcDbLine
 10
41.74999999999999
 20
161.222
 30
0.0
 11
42.25
 21
160.3329999999999
 31
0.0
  0
LINE
  5
35B
330
1E
100
AcDbEntity
  8
0
100
AcDbLine
 10
41.25
 20
161.222
 30
0.0
 11
41.74999999999999
 21
161.222
 31
0.0
  0
LINE
  5
35C
330
1E
100
AcDbEntity
  8
0
100
AcDbLine
 10
40.75
 20
135.4439999999999
 30
0.0
 11
41.74999999999999
 21
135.0
 31
0.0
  0
LINE
  5
35D
330
1E
100
AcDbEntity
  8
0
100
AcDbLine
 10
40.25
 20
135.4439999999999
 30
0.0
 11
40.75
 21
135.4439999999999
 31
0.0
  0
LINE
  5
35E
330
1E
100
AcDbEntity
  8
0
100
AcDbLine
 10
41.74999999999999
 20
135.0
 30
0.0
 11
42.25
 21
134.111
 31
0.0
  0
LINE
  5
35F
330
1E
100
AcDbEntity
  8
0
100
AcDbLine
 10
42.45
 20
138.3
 30
0.0
 11
44.15
 21
142.5
 31
0.0
  0
LINE
  5
360
330
1E
100
AcDbEntity
  8
0
100
AcDbLine
 10
42.85
 20
138.1
 30
0.0
 11
44.55
 21
142.4
 31
0.0
  0
LINE
  5
361
330
1E
100
AcDbEntity
  8
0
100
AcDbLine
 10
50.25
 20
133.8
 30
0.0
 11
52.75
 21
140.1999999999999
 31
0.0
  0
LINE
  5
362
330
1E
100
AcDbEntity
  8
0
100
AcDbLine
 10
109.7499999999999
 20
138.381355932203
 30
0.0
 11
109.7499999999999
 21
128.157
 31
0.0
  0
LINE
  5
363
330
1E
100
AcDbEntity
  8
0
100
AcDbLine
 10
119.75
 20
138.381355932203
 30
0.0
 11
119.75
 21
128.157
 31
0.0
  0
LINE
  5
364
330
1E
100
AcDbEntity
  8
0
100
AcDbLine
 10
126.55
 20
138.9
 30
0.0
 11
138.25
 21
141.3
 31
0.0
  0
LINE
  5
365
330
1E
100
AcDbEntity
  8
0
100
AcDbLine
 10
114.7499999999999
 20
138.0
 30
0.0
 11
126.55
 21
138.9
 31
0.0
  0
LINE
  5
366
330
1E
100
AcDbEntity
  8
0
100
AcDbLine
 10
102.95
 20
138.9
 30
0.0
 11
114.7499999999999
 21
138.0
 31
0.0
  0
LINE
  5
367
330
1E
100
AcDbEntity
  8
0
100
AcDbLine
 10
50.65
 20
133.6
 30
0.0
 11
53.25
 21
140.0999999999999
 31
0.0
  0
LINE
  5
368
330
1E
100
AcDbEntity
  8
0
100
AcDbLine
 10
42.64999999999999
 20
173.6999999999999
 30
0.0
 11
50.45
 21
164.7
 31
0.0
  0
LINE
  5
369
330
1E
100
AcDbEntity
  8
0
100
AcDbLine
 10
42.45
 20
155.6999999999999
 30
0.0
 11
44.15
 21
151.5
 31
0.0
  0
LINE
  5
36A
330
1E
100
AcDbEntity
  8
0
100
AcDbLine
 10
44.15
 20
151.5
 30
0.0
 11
44.75
 21
147.0
 31
0.0
  0
LINE
  5
36B
330
1E
100
AcDbEntity
  8
0
100
AcDbLine
 10
50.25
 20
160.1999999999999
 30
0.0
 11
52.75
 21
153.8
 31
0.0
  0
LINE
  5
36C
330
1E
100
AcDbEntity
  8
0
100
AcDbLine
 10
52.75
 20
153.8
 30
0.0
 11
53.75
 21
147.0
 31
0.0
  0
LINE
  5
36D
330
1E
100
AcDbEntity
  8
0
100
AcDbLine
 10
44.55
 20
269.3
 30
0.0
 11
50.65
 21
278.3
 31
0.0
  0
LINE
  5
36E
330
1E
100
AcDbEntity
  8
0
100
AcDbLine
 10
45.04999999999999
 20
175.5
 30
0.0
 11
52.65
 21
166.9
 31
0.0
  0
LINE
  5
36F
330
1E
100
AcDbEntity
  8
0
100
AcDbLine
 10
44.55
 20
188.7
 30
0.0
 11
50.65
 21
179.6999999999999
 31
0.0
  0
LINE
  5
370
330
1E
100
AcDbEntity
  8
0
100
AcDbLine
 10
45.95
 20
165.7
 30
0.0
 11
50.25
 21
160.1999999999999
 31
0.0
  0
LINE
  5
371
330
1E
100
AcDbEntity
  8
0
100
AcDbLine
 10
50.45
 20
164.7
 30
0.0
 11
59.45
 21
156.9
 31
0.0
  0
LINE
  5
372
330
1E
100
AcDbEntity
  8
0
100
AcDbLine
 10
52.65
 20
166.9
 30
0.0
 11
61.25
 21
159.3
 31
0.0
  0
LINE
  5
373
330
1E
100
AcDbEntity
  8
0
100
AcDbLine
 10
48.25
 20
280.1
 30
0.0
 11
55.45
 21
288.3
 31
0.0
  0
LINE
  5
374
330
1E
100
AcDbEntity
  8
0
100
AcDbLine
 10
47.45
 20
280.7
 30
0.0
 11
54.75
 21
289.0
 31
0.0
  0
LINE
  5
375
330
1E
100
AcDbEntity
  8
0
100
AcDbLine
 10
50.65
 20
278.3
 30
0.0
 11
57.54999999999999
 21
286.2
 31
0.0
  0
LINE
  5
376
330
1E
100
AcDbEntity
  8
0
100
AcDbLine
 10
50.65
 20
179.6999999999999
 30
0.0
 11
57.54999999999999
 21
171.8
 31
0.0
  0
LINE
  5
377
330
1E
100
AcDbEntity
  8
0
100
AcDbLine
 10
48.25
 20
177.9
 30
0.0
 11
55.45
 21
169.6999999999999
 31
0.0
  0
LINE
  5
378
330
1E
100
AcDbEntity
  8
0
100
AcDbLine
 10
47.45
 20
177.3
 30
0.0
 11
54.75
 21
169.0
 31
0.0
  0
LINE
  5
379
330
1E
100
AcDbEntity
  8
0
100
AcDbLine
 10
46.35
 20
166.1
 30
0.0
 11
50.65
 21
160.4
 31
0.0
  0
LINE
  5
37A
330
1E
100
AcDbEntity
  8
0
100
AcDbLine
 10
50.65
 20
160.4
 30
0.0
 11
53.25
 21
153.9
 31
0.0
  0
LINE
  5
37B
330
1E
100
AcDbEntity
  8
0
100
AcDbLine
 10
44.15
 20
142.5
 30
0.0
 11
44.75
 21
147.0
 31
0.0
  0
LINE
  5
37C
330
1E
100
AcDbEntity
  8
0
100
AcDbLine
 10
44.55
 20
142.4
 30
0.0
 11
45.25
 21
147.0
 31
0.0
  0
LINE
  5
37D
330
1E
100
AcDbEntity
  8
0
100
AcDbLine
 10
79.95
 20
145.1
 30
0.0
 11
91.25
 21
141.3
 31
0.0
  0
LINE
  5
37E
330
1E
100
AcDbEntity
  8
0
100
AcDbLine
 10
70.95
 20
152.8
 30
0.0
 11
81.15
 21
147.9
 31
0.0
  0
LINE
  5
37F
330
1E
100
AcDbEntity
  8
0
100
AcDbLine
 10
69.45
 20
150.1999999999999
 30
0.0
 11
79.95
 21
145.1
 31
0.0
  0
LINE
  5
380
330
1E
100
AcDbEntity
  8
0
100
AcDbLine
 10
82.65
 20
151.6
 30
0.0
 11
93.04999999999999
 21
148.0
 31
0.0
  0
LINE
  5
381
330
1E
100
AcDbEntity
  8
0
100
AcDbLine
 10
93.84999999999999
 20
150.9
 30
0.0
 11
104.2499999999999
 21
148.8
 31
0.0
  0
LINE
  5
382
330
1E
100
AcDbEntity
  8
0
100
AcDbLine
 10
93.04999999999999
 20
148.0
 30
0.0
 11
103.8499999999999
 21
145.8
 31
0.0
  0
LINE
  5
383
330
1E
100
AcDbEntity
  8
0
100
AcDbLine
 10
92.85
 20
147.0999999999999
 30
0.0
 11
102.6499999999999
 21
144.9
 31
0.0
  0
LINE
  5
384
330
1E
100
AcDbEntity
  8
0
100
AcDbLine
 10
102.6499999999999
 20
144.9
 30
0.0
 11
114.7499999999999
 21
144.0
 31
0.0
  0
LINE
  5
385
330
1E
100
AcDbEntity
  8
0
100
AcDbLine
 10
82.24999999999999
 20
150.6
 30
0.0
 11
92.85
 21
147.0999999999999
 31
0.0
  0
LINE
  5
386
330
1E
100
AcDbEntity
  8
0
100
AcDbLine
 10
92.05
 20
144.1999999999999
 30
0.0
 11
103.3499999999999
 21
141.9
 31
0.0
  0
LINE
  5
387
330
1E
100
AcDbEntity
  8
0
100
AcDbLine
 10
81.15
 20
147.9
 30
0.0
 11
92.05
 21
144.1999999999999
 31
0.0
  0
LINE
  5
388
330
1E
100
AcDbEntity
  8
0
100
AcDbLine
 10
91.25
 20
141.3
 30
0.0
 11
102.95
 21
138.9
 31
0.0
  0
LINE
  5
389
330
1E
100
AcDbEntity
  8
0
100
AcDbLine
 10
114.7499999999999
 20
141.0
 30
0.0
 11
126.15
 21
141.9
 31
0.0
  0
LINE
  5
38A
330
1E
100
AcDbEntity
  8
0
100
AcDbLine
 10
114.7499999999999
 20
145.0
 30
0.0
 11
125.65
 21
145.8
 31
0.0
  0
LINE
  5
38B
330
1E
100
AcDbEntity
  8
0
100
AcDbLine
 10
138.25
 20
141.3
 30
0.0
 11
149.55
 21
145.1
 31
0.0
  0
LINE
  5
38C
330
1E
100
AcDbEntity
  8
0
100
AcDbLine
 10
137.4499999999999
 20
144.1999999999999
 30
0.0
 11
148.35
 21
147.9
 31
0.0
  0
LINE
  5
38D
330
1E
100
AcDbEntity
  8
0
100
AcDbLine
 10
126.15
 20
141.9
 30
0.0
 11
137.4499999999999
 21
144.1999999999999
 31
0.0
  0
LINE
  5
38E
330
1E
100
AcDbEntity
  8
0
100
AcDbLine
 10
149.55
 20
145.1
 30
0.0
 11
160.05
 21
150.1999999999999
 31
0.0
  0
LINE
  5
38F
330
1E
100
AcDbEntity
  8
0
100
AcDbLine
 10
125.65
 20
145.8
 30
0.0
 11
136.4499999999999
 21
148.0
 31
0.0
  0
LINE
  5
390
330
1E
100
AcDbEntity
  8
0
100
AcDbLine
 10
126.8499999999999
 20
144.9
 30
0.0
 11
136.65
 21
147.0999999999999
 31
0.0
  0
LINE
  5
391
330
1E
100
AcDbEntity
  8
0
100
AcDbLine
 10
114.7499999999999
 20
144.0
 30
0.0
 11
126.8499999999999
 21
144.9
 31
0.0
  0
LINE
  5
392
330
1E
100
AcDbEntity
  8
0
100
AcDbLine
 10
114.7499999999999
 20
148.0
 30
0.0
 11
125.2499999999999
 21
148.8
 31
0.0
  0
LINE
  5
393
330
1E
100
AcDbEntity
  8
0
100
AcDbLine
 10
135.65
 20
150.9
 30
0.0
 11
145.65
 21
154.3
 31
0.0
  0
LINE
  5
394
330
1E
100
AcDbEntity
  8
0
100
AcDbLine
 10
125.2499999999999
 20
148.8
 30
0.0
 11
135.65
 21
150.9
 31
0.0
  0
LINE
  5
395
330
1E
100
AcDbEntity
  8
0
100
AcDbLine
 10
146.8499999999999
 20
151.6
 30
0.0
 11
156.55
 21
156.1999999999999
 31
0.0
  0
LINE
  5
396
330
1E
100
AcDbEntity
  8
0
100
AcDbLine
 10
136.4499999999999
 20
148.0
 30
0.0
 11
146.8499999999999
 21
151.6
 31
0.0
  0
LINE
  5
397
330
1E
100
AcDbEntity
  8
0
100
AcDbLine
 10
148.35
 20
147.9
 30
0.0
 11
158.55
 21
152.8
 31
0.0
  0
LINE
  5
398
330
1E
100
AcDbEntity
  8
0
100
AcDbLine
 10
158.55
 20
152.8
 30
0.0
 11
168.25
 21
159.3
 31
0.0
  0
LINE
  5
399
330
1E
100
AcDbEntity
  8
0
100
AcDbLine
 10
160.05
 20
150.1999999999999
 30
0.0
 11
170.05
 21
156.9
 31
0.0
  0
LINE
  5
39A
330
1E
100
AcDbEntity
  8
0
100
AcDbLine
 10
147.2499999999999
 20
150.6
 30
0.0
 11
157.05
 21
155.4
 31
0.0
  0
LINE
  5
39B
330
1E
100
AcDbEntity
  8
0
100
AcDbLine
 10
136.65
 20
147.0999999999999
 30
0.0
 11
147.2499999999999
 21
150.6
 31
0.0
  0
LINE
  5
39C
330
1E
100
AcDbEntity
  8
0
100
AcDbLine
 10
104.2499999999999
 20
148.8
 30
0.0
 11
114.7499999999999
 21
148.0
 31
0.0
  0
LINE
  5
39D
330
1E
100
AcDbEntity
  8
0
100
AcDbLine
 10
103.8499999999999
 20
145.8
 30
0.0
 11
114.7499999999999
 21
145.0
 31
0.0
  0
LINE
  5
39E
330
1E
100
AcDbEntity
  8
0
100
AcDbLine
 10
103.3499999999999
 20
141.9
 30
0.0
 11
114.7499999999999
 21
141.0
 31
0.0
  0
LINE
  5
39F
330
1E
100
AcDbEntity
  8
0
100
AcDbLine
 10
54.75
 20
289.0
 30
0.0
 11
63.04999999999999
 21
296.3
 31
0.0
  0
LINE
  5
3A0
330
1E
100
AcDbEntity
  8
0
100
AcDbLine
 10
145.65
 20
154.3
 30
0.0
 11
155.05
 21
158.8
 31
0.0
  0
LINE
  5
3A1
330
1E
100
AcDbEntity
  8
0
100
AcDbLine
 10
156.55
 20
156.1999999999999
 30
0.0
 11
165.85
 21
162.5
 31
0.0
  0
LINE
  5
3A2
330
1E
100
AcDbEntity
  8
0
100
AcDbLine
 10
157.05
 20
155.4
 30
0.0
 11
166.4499999999999
 21
161.6999999999999
 31
0.0
  0
LINE
  5
3A3
330
1E
100
AcDbEntity
  8
0
100
AcDbLine
 10
83.84999999999999
 20
154.3
 30
0.0
 11
93.84999999999999
 21
150.9
 31
0.0
  0
LINE
  5
3A4
330
1E
100
AcDbEntity
  8
0
100
AcDbLine
 10
170.05
 20
156.9
 30
0.0
 11
179.05
 21
164.7
 31
0.0
  0
LINE
  5
3A5
330
1E
100
AcDbEntity
  8
0
100
AcDbLine
 10
72.95
 20
156.1999999999999
 30
0.0
 11
82.65
 21
151.6
 31
0.0
  0
LINE
  5
3A6
330
1E
100
AcDbEntity
  8
0
100
AcDbLine
 10
72.45
 20
155.4
 30
0.0
 11
82.24999999999999
 21
150.6
 31
0.0
  0
LINE
  5
3A7
330
1E
100
AcDbEntity
  8
0
100
AcDbLine
 10
57.54999999999999
 20
286.2
 30
0.0
 11
65.45
 21
293.1
 31
0.0
  0
LINE
  5
3A8
330
1E
100
AcDbEntity
  8
0
100
AcDbLine
 10
55.45
 20
288.3
 30
0.0
 11
63.65
 21
295.5
 31
0.0
  0
LINE
  5
3A9
330
1E
100
AcDbEntity
  8
0
100
AcDbLine
 10
57.54999999999999
 20
171.8
 30
0.0
 11
65.45
 21
164.9
 31
0.0
  0
LINE
  5
3AA
330
1E
100
AcDbEntity
  8
0
100
AcDbLine
 10
55.45
 20
169.6999999999999
 30
0.0
 11
63.65
 21
162.5
 31
0.0
  0
LINE
  5
3AB
330
1E
100
AcDbEntity
  8
0
100
AcDbLine
 10
168.25
 20
159.3
 30
0.0
 11
176.8499999999999
 21
166.9
 31
0.0
  0
LINE
  5
3AC
330
1E
100
AcDbEntity
  8
0
100
AcDbLine
 10
155.05
 20
158.8
 30
0.0
 11
164.05
 21
164.9
 31
0.0
  0
LINE
  5
3AD
330
1E
100
AcDbEntity
  8
0
100
AcDbLine
 10
166.4499999999999
 20
161.6999999999999
 30
0.0
 11
174.75
 21
169.0
 31
0.0
  0
LINE
  5
3AE
330
1E
100
AcDbEntity
  8
0
100
AcDbLine
 10
74.45
 20
158.8
 30
0.0
 11
83.84999999999999
 21
154.3
 31
0.0
  0
LINE
  5
3AF
330
1E
100
AcDbEntity
  8
0
100
AcDbLine
 10
63.65
 20
295.5
 30
0.0
 11
72.95
 21
301.8
 31
0.0
  0
LINE
  5
3B0
330
1E
100
AcDbEntity
  8
0
100
AcDbLine
 10
63.04999999999999
 20
296.3
 30
0.0
 11
72.45
 21
302.6
 31
0.0
  0
LINE
  5
3B1
330
1E
100
AcDbEntity
  8
0
100
AcDbLine
 10
164.05
 20
164.9
 30
0.0
 11
171.95
 21
171.8
 31
0.0
  0
LINE
  5
3B2
330
1E
100
AcDbEntity
  8
0
100
AcDbLine
 10
179.05
 20
164.7
 30
0.0
 11
186.85
 21
173.6999999999999
 31
0.0
  0
LINE
  5
3B3
330
1E
100
AcDbEntity
  8
0
100
AcDbLine
 10
165.85
 20
162.5
 30
0.0
 11
174.05
 21
169.6999999999999
 31
0.0
  0
LINE
  5
3B4
330
1E
100
AcDbEntity
  8
0
100
AcDbLine
 10
171.95
 20
171.8
 30
0.0
 11
178.8499999999999
 21
179.6999999999999
 31
0.0
  0
LINE
  5
3B5
330
1E
100
AcDbEntity
  8
0
100
AcDbLine
 10
174.05
 20
169.6999999999999
 30
0.0
 11
181.25
 21
177.9
 31
0.0
  0
LINE
  5
3B6
330
1E
100
AcDbEntity
  8
0
100
AcDbLine
 10
174.75
 20
169.0
 30
0.0
 11
182.05
 21
177.3
 31
0.0
  0
LINE
  5
3B7
330
1E
100
AcDbEntity
  8
0
100
AcDbLine
 10
186.85
 20
173.6999999999999
 30
0.0
 11
193.55
 21
183.6999999999999
 31
0.0
  0
LINE
  5
3B8
330
1E
100
AcDbEntity
  8
0
100
AcDbLine
 10
176.8499999999999
 20
166.9
 30
0.0
 11
184.45
 21
175.5
 31
0.0
  0
LINE
  5
3B9
330
1E
100
AcDbEntity
  8
0
100
AcDbLine
 10
178.8499999999999
 20
179.6999999999999
 30
0.0
 11
184.9499999999999
 21
188.7
 31
0.0
  0
LINE
  5
3BA
330
1E
100
AcDbEntity
  8
0
100
AcDbLine
 10
184.9499999999999
 20
188.7
 30
0.0
 11
189.4499999999999
 21
198.1
 31
0.0
  0
LINE
  5
3BB
330
1E
100
AcDbEntity
  8
0
100
AcDbLine
 10
181.25
 20
177.9
 30
0.0
 11
187.55
 21
187.1999999999999
 31
0.0
  0
LINE
  5
3BC
330
1E
100
AcDbEntity
  8
0
100
AcDbLine
 10
187.55
 20
187.1999999999999
 30
0.0
 11
192.15
 21
196.9
 31
0.0
  0
LINE
  5
3BD
330
1E
100
AcDbEntity
  8
0
100
AcDbLine
 10
182.05
 20
177.3
 30
0.0
 11
188.3499999999999
 21
186.6999999999999
 31
0.0
  0
LINE
  5
3BE
330
1E
100
AcDbEntity
  8
0
100
AcDbLine
 10
188.3499999999999
 20
186.6999999999999
 30
0.0
 11
193.1499999999999
 21
196.5
 31
0.0
  0
LINE
  5
3BF
330
1E
100
AcDbEntity
  8
0
100
AcDbLine
 10
184.45
 20
175.5
 30
0.0
 11
190.9499999999999
 21
185.1999999999999
 31
0.0
  0
LINE
  5
3C0
330
1E
100
AcDbEntity
  8
0
100
AcDbLine
 10
193.55
 20
183.6999999999999
 30
0.0
 11
198.65
 21
194.1999999999999
 31
0.0
  0
LINE
  5
3C1
330
1E
100
AcDbEntity
  8
0
100
AcDbLine
 10
198.65
 20
194.1999999999999
 30
0.0
 11
202.4499999999999
 21
205.5
 31
0.0
  0
LINE
  5
3C2
330
1E
100
AcDbEntity
  8
0
100
AcDbLine
 10
190.9499999999999
 20
185.1999999999999
 30
0.0
 11
195.8499999999999
 21
195.4
 31
0.0
  0
LINE
  5
3C3
330
1E
100
AcDbEntity
  8
0
100
AcDbLine
 10
189.4499999999999
 20
198.1
 30
0.0
 11
192.8499999999999
 21
208.0999999999999
 31
0.0
  0
LINE
  5
3C4
330
1E
100
AcDbEntity
  8
0
100
AcDbLine
 10
192.15
 20
196.9
 30
0.0
 11
195.7499999999999
 21
207.2999999999999
 31
0.0
  0
LINE
  5
3C5
330
1E
100
AcDbEntity
  8
0
100
AcDbLine
 10
178.8499999999999
 20
278.3
 30
0.0
 11
184.9499999999999
 21
269.3
 31
0.0
  0
LINE
  5
3C6
330
1E
100
AcDbEntity
  8
0
100
AcDbLine
 10
171.95
 20
286.2
 30
0.0
 11
178.8499999999999
 21
278.3
 31
0.0
  0
LINE
  5
3C7
330
1E
100
AcDbEntity
  8
0
100
AcDbLine
 10
174.05
 20
288.3
 30
0.0
 11
181.25
 21
280.1
 31
0.0
  0
LINE
  5
3C8
330
1E
100
AcDbEntity
  8
0
100
AcDbLine
 10
181.25
 20
280.1
 30
0.0
 11
187.55
 21
270.8
 31
0.0
  0
LINE
  5
3C9
330
1E
100
AcDbEntity
  8
0
100
AcDbLine
 10
184.9499999999999
 20
269.3
 30
0.0
 11
189.4499999999999
 21
259.8999999999999
 31
0.0
  0
LINE
  5
3CA
330
1E
100
AcDbEntity
  8
0
100
AcDbLine
 10
187.55
 20
270.8
 30
0.0
 11
192.15
 21
261.1
 31
0.0
  0
LINE
  5
3CB
330
1E
100
AcDbEntity
  8
0
100
AcDbLine
 10
182.05
 20
280.7
 30
0.0
 11
188.3499999999999
 21
271.3
 31
0.0
  0
LINE
  5
3CC
330
1E
100
AcDbEntity
  8
0
100
AcDbLine
 10
65.45
 20
293.1
 30
0.0
 11
74.45
 21
299.1999999999999
 31
0.0
  0
LINE
  5
3CD
330
1E
100
AcDbEntity
  8
0
100
AcDbLine
 10
74.45
 20
299.1999999999999
 30
0.0
 11
83.84999999999999
 21
303.6999999999999
 31
0.0
  0
LINE
  5
3CE
330
1E
100
AcDbEntity
  8
0
100
AcDbLine
 10
83.84999999999999
 20
303.6999999999999
 30
0.0
 11
93.84999999999999
 21
307.1
 31
0.0
  0
LINE
  5
3CF
330
1E
100
AcDbEntity
  8
0
100
AcDbLine
 10
72.95
 20
301.8
 30
0.0
 11
82.65
 21
306.4
 31
0.0
  0
LINE
  5
3D0
330
1E
100
AcDbEntity
  8
0
100
AcDbLine
 10
93.84999999999999
 20
307.1
 30
0.0
 11
104.2499999999999
 21
309.2
 31
0.0
  0
LINE
  5
3D1
330
1E
100
AcDbEntity
  8
0
100
AcDbLine
 10
82.65
 20
306.4
 30
0.0
 11
93.04999999999999
 21
310.0
 31
0.0
  0
LINE
  5
3D2
330
1E
100
AcDbEntity
  8
0
100
AcDbLine
 10
72.45
 20
302.6
 30
0.0
 11
82.24999999999999
 21
307.3999999999999
 31
0.0
  0
LINE
  5
3D3
330
1E
100
AcDbEntity
  8
0
100
AcDbLine
 10
104.2499999999999
 20
309.2
 30
0.0
 11
114.7499999999999
 21
310.0
 31
0.0
  0
LINE
  5
3D4
330
1E
100
AcDbEntity
  8
0
100
AcDbLine
 10
93.04999999999999
 20
310.0
 30
0.0
 11
103.8499999999999
 21
312.1999999999999
 31
0.0
  0
LINE
  5
3D5
330
1E
100
AcDbEntity
  8
0
100
AcDbLine
 10
82.24999999999999
 20
307.3999999999999
 30
0.0
 11
92.85
 21
310.8999999999999
 31
0.0
  0
LINE
  5
3D6
330
1E
100
AcDbEntity
  8
0
100
AcDbLine
 10
125.2499999999999
 20
309.2
 30
0.0
 11
135.65
 21
307.1
 31
0.0
  0
LINE
  5
3D7
330
1E
100
AcDbEntity
  8
0
100
AcDbLine
 10
103.8499999999999
 20
312.1999999999999
 30
0.0
 11
114.7499999999999
 21
313.0
 31
0.0
  0
LINE
  5
3D8
330
1E
100
AcDbEntity
  8
0
100
AcDbLine
 10
92.85
 20
310.8999999999999
 30
0.0
 11
102.6499999999999
 21
313.1
 31
0.0
  0
LINE
  5
3D9
330
1E
100
AcDbEntity
  8
0
100
AcDbLine
 10
114.7499999999999
 20
310.0
 30
0.0
 11
125.2499999999999
 21
309.2
 31
0.0
  0
LINE
  5
3DA
330
1E
100
AcDbEntity
  8
0
100
AcDbLine
 10
125.65
 20
312.1999999999999
 30
0.0
 11
136.4499999999999
 21
310.0
 31
0.0
  0
LINE
  5
3DB
330
1E
100
AcDbEntity
  8
0
100
AcDbLine
 10
102.6499999999999
 20
313.1
 30
0.0
 11
114.7499999999999
 21
314.0
 31
0.0
  0
LINE
  5
3DC
330
1E
100
AcDbEntity
  8
0
100
AcDbLine
 10
114.7499999999999
 20
313.0
 30
0.0
 11
125.65
 21
312.1999999999999
 31
0.0
  0
LINE
  5
3DD
330
1E
100
AcDbEntity
  8
0
100
AcDbLine
 10
145.65
 20
303.6999999999999
 30
0.0
 11
155.05
 21
299.1999999999999
 31
0.0
  0
LINE
  5
3DE
330
1E
100
AcDbEntity
  8
0
100
AcDbLine
 10
135.65
 20
307.1
 30
0.0
 11
145.65
 21
303.6999999999999
 31
0.0
  0
LINE
  5
3DF
330
1E
100
AcDbEntity
  8
0
100
AcDbLine
 10
146.8499999999999
 20
306.4
 30
0.0
 11
156.55
 21
301.8
 31
0.0
  0
LINE
  5
3E0
330
1E
100
AcDbEntity
  8
0
100
AcDbLine
 10
136.4499999999999
 20
310.0
 30
0.0
 11
146.8499999999999
 21
306.4
 31
0.0
  0
LINE
  5
3E1
330
1E
100
AcDbEntity
  8
0
100
AcDbLine
 10
155.05
 20
299.1999999999999
 30
0.0
 11
164.05
 21
293.1
 31
0.0
  0
LINE
  5
3E2
330
1E
100
AcDbEntity
  8
0
100
AcDbLine
 10
156.55
 20
301.8
 30
0.0
 11
165.85
 21
295.5
 31
0.0
  0
LINE
  5
3E3
330
1E
100
AcDbEntity
  8
0
100
AcDbLine
 10
147.2499999999999
 20
307.3999999999999
 30
0.0
 11
157.05
 21
302.6
 31
0.0
  0
LINE
  5
3E4
330
1E
100
AcDbEntity
  8
0
100
AcDbLine
 10
136.65
 20
310.8999999999999
 30
0.0
 11
147.2499999999999
 21
307.3999999999999
 31
0.0
  0
LINE
  5
3E5
330
1E
100
AcDbEntity
  8
0
100
AcDbLine
 10
126.8499999999999
 20
313.1
 30
0.0
 11
136.65
 21
310.8999999999999
 31
0.0
  0
LINE
  5
3E6
330
1E
100
AcDbEntity
  8
0
100
AcDbLine
 10
114.7499999999999
 20
314.0
 30
0.0
 11
126.8499999999999
 21
313.1
 31
0.0
  0
LINE
  5
3E7
330
1E
100
AcDbEntity
  8
0
100
AcDbLine
 10
164.05
 20
293.1
 30
0.0
 11
171.95
 21
286.2
 31
0.0
  0
LINE
  5
3E8
330
1E
100
AcDbEntity
  8
0
100
AcDbLine
 10
165.85
 20
295.5
 30
0.0
 11
174.05
 21
288.3
 31
0.0
  0
LINE
  5
3E9
330
1E
100
AcDbEntity
  8
0
100
AcDbLine
 10
166.4499999999999
 20
296.3
 30
0.0
 11
174.75
 21
289.0
 31
0.0
  0
LINE
  5
3EA
330
1E
100
AcDbEntity
  8
0
100
AcDbLine
 10
157.05
 20
302.6
 30
0.0
 11
166.4499999999999
 21
296.3
 31
0.0
  0
LINE
  5
3EB
330
1E
100
AcDbEntity
  8
0
100
AcDbLine
 10
174.75
 20
289.0
 30
0.0
 11
182.05
 21
280.7
 31
0.0
  0
LINE
  5
3EC
330
1E
100
AcDbEntity
  8
0
100
AcDbLine
 10
189.4499999999999
 20
259.8999999999999
 30
0.0
 11
192.8499999999999
 21
249.9
 31
0.0
  0
LINE
  5
3ED
330
1E
100
AcDbEntity
  8
0
100
AcDbLine
 10
192.8499999999999
 20
249.9
 30
0.0
 11
194.95
 21
239.5
 31
0.0
  0
LINE
  5
3EE
330
1E
100
AcDbEntity
  8
0
100
AcDbLine
 10
194.95
 20
239.5
 30
0.0
 11
195.7499999999999
 21
229.0
 31
0.0
  0
LINE
  5
3EF
330
1E
100
AcDbEntity
  8
0
100
AcDbLine
 10
192.15
 20
261.1
 30
0.0
 11
195.7499999999999
 21
250.7
 31
0.0
  0
LINE
  5
3F0
330
1E
100
AcDbEntity
  8
0
100
AcDbLine
 10
193.1499999999999
 20
261.5
 30
0.0
 11
196.65
 21
250.8999999999999
 31
0.0
  0
LINE
  5
3F1
330
1E
100
AcDbEntity
  8
0
100
AcDbLine
 10
188.3499999999999
 20
271.3
 30
0.0
 11
193.1499999999999
 21
261.5
 31
0.0
  0
LINE
  5
3F2
330
1E
100
AcDbEntity
  8
0
100
AcDbLine
 10
192.8499999999999
 20
208.0999999999999
 30
0.0
 11
194.95
 21
218.5
 31
0.0
  0
LINE
  5
3F3
330
1E
100
AcDbEntity
  8
0
100
AcDbLine
 10
195.7499999999999
 20
250.7
 30
0.0
 11
197.9499999999999
 21
239.9
 31
0.0
  0
LINE
  5
3F4
330
1E
100
AcDbEntity
  8
0
100
AcDbLine
 10
197.9499999999999
 20
239.9
 30
0.0
 11
198.75
 21
229.0
 31
0.0
  0
LINE
  5
3F5
330
1E
100
AcDbEntity
  8
0
100
AcDbLine
 10
196.65
 20
250.8999999999999
 30
0.0
 11
198.8499999999999
 21
241.1
 31
0.0
  0
LINE
  5
3F6
330
1E
100
AcDbEntity
  8
0
100
AcDbLine
 10
194.95
 20
218.5
 30
0.0
 11
195.7499999999999
 21
229.0
 31
0.0
  0
LINE
  5
3F7
330
1E
100
AcDbEntity
  8
0
100
AcDbLine
 10
195.7499999999999
 20
207.2999999999999
 30
0.0
 11
197.9499999999999
 21
218.1
 31
0.0
  0
LINE
  5
3F8
330
1E
100
AcDbEntity
  8
0
100
AcDbLine
 10
198.8499999999999
 20
241.1
 30
0.0
 11
199.75
 21
229.0
 31
0.0
  0
LINE
  5
3F9
330
1E
100
AcDbEntity
  8
0
100
AcDbLine
 10
197.9499999999999
 20
218.1
 30
0.0
 11
198.75
 21
229.0
 31
0.0
  0
LINE
  5
3FA
330
1E
100
AcDbEntity
  8
0
100
AcDbLine
 10
196.65
 20
207.1
 30
0.0
 11
198.8499999999999
 21
216.9
 31
0.0
  0
LINE
  5
3FB
330
1E
100
AcDbEntity
  8
0
100
AcDbLine
 10
198.8499999999999
 20
216.9
 30
0.0
 11
199.75
 21
229.0
 31
0.0
  0
LINE
  5
3FC
330
1E
100
AcDbEntity
  8
0
100
AcDbLine
 10
193.1499999999999
 20
196.5
 30
0.0
 11
196.65
 21
207.1
 31
0.0
  0
LINE
  5
3FD
330
1E
100
AcDbEntity
  8
0
100
AcDbLine
 10
199.75
 20
226.0
 30
0.0
 11
199.75
 21
226.108
 31
0.0
  0
LINE
  5
3FE
330
1E
100
AcDbEntity
  8
0
100
AcDbLine
 10
199.75
 20
226.0
 30
0.0
 11
202.513157894737
 21
226.0
 31
0.0
  0
LINE
  5
3FF
330
1E
100
AcDbEntity
  8
0
100
AcDbLine
 10
199.75
 20
226.108
 30
0.0
 11
199.75
 21
226.3959999999999
 31
0.0
  0
LINE
  5
400
330
1E
100
AcDbEntity
  8
0
100
AcDbLine
 10
199.75
 20
226.108
 30
0.0
 11
199.75
 21
226.0
 31
0.0
  0
LINE
  5
401
330
1E
100
AcDbEntity
  8
0
100
AcDbLine
 10
199.75
 20
226.3959999999999
 30
0.0
 11
199.75
 21
226.8759999999999
 31
0.0
  0
LINE
  5
402
330
1E
100
AcDbEntity
  8
0
100
AcDbLine
 10
199.75
 20
226.3959999999999
 30
0.0
 11
199.75
 21
226.108
 31
0.0
  0
LINE
  5
403
330
1E
100
AcDbEntity
  8
0
100
AcDbLine
 10
199.75
 20
226.8759999999999
 30
0.0
 11
199.75
 21
227.512
 31
0.0
  0
LINE
  5
404
330
1E
100
AcDbEntity
  8
0
100
AcDbLine
 10
199.75
 20
226.8759999999999
 30
0.0
 11
199.75
 21
226.3959999999999
 31
0.0
  0
LINE
  5
405
330
1E
100
AcDbEntity
  8
0
100
AcDbLine
 10
199.75
 20
227.512
 30
0.0
 11
199.75
 21
228.2319999999999
 31
0.0
  0
LINE
  5
406
330
1E
100
AcDbEntity
  8
0
100
AcDbLine
 10
199.75
 20
227.512
 30
0.0
 11
199.75
 21
226.8759999999999
 31
0.0
  0
LINE
  5
407
330
1E
100
AcDbEntity
  8
0
100
AcDbLine
 10
199.75
 20
232.0
 30
0.0
 11
199.75
 21
231.8919999999999
 31
0.0
  0
LINE
  5
408
330
1E
100
AcDbEntity
  8
0
100
AcDbLine
 10
199.75
 20
232.0
 30
0.0
 11
202.7499999999999
 21
232.0
 31
0.0
  0
LINE
  5
409
330
1E
100
AcDbEntity
  8
0
100
AcDbLine
 10
199.75
 20
231.8919999999999
 30
0.0
 11
199.75
 21
231.604
 31
0.0
  0
LINE
  5
40A
330
1E
100
AcDbEntity
  8
0
100
AcDbLine
 10
199.75
 20
231.8919999999999
 30
0.0
 11
199.75
 21
232.0
 31
0.0
  0
LINE
  5
40B
330
1E
100
AcDbEntity
  8
0
100
AcDbLine
 10
199.75
 20
231.604
 30
0.0
 11
199.75
 21
231.124
 31
0.0
  0
LINE
  5
40C
330
1E
100
AcDbEntity
  8
0
100
AcDbLine
 10
199.75
 20
231.604
 30
0.0
 11
199.75
 21
231.8919999999999
 31
0.0
  0
LINE
  5
40D
330
1E
100
AcDbEntity
  8
0
100
AcDbLine
 10
199.75
 20
231.124
 30
0.0
 11
199.75
 21
230.488
 31
0.0
  0
LINE
  5
40E
330
1E
100
AcDbEntity
  8
0
100
AcDbLine
 10
199.75
 20
231.124
 30
0.0
 11
199.75
 21
231.604
 31
0.0
  0
LINE
  5
40F
330
1E
100
AcDbEntity
  8
0
100
AcDbLine
 10
199.75
 20
230.488
 30
0.0
 11
199.75
 21
229.768
 31
0.0
  0
LINE
  5
410
330
1E
100
AcDbEntity
  8
0
100
AcDbLine
 10
199.75
 20
230.488
 30
0.0
 11
199.75
 21
231.124
 31
0.0
  0
LINE
  5
411
330
1E
100
AcDbEntity
  8
0
100
AcDbLine
 10
199.75
 20
229.768
 30
0.0
 11
199.75
 21
229.0
 31
0.0
  0
LINE
  5
412
330
1E
100
AcDbEntity
  8
0
100
AcDbLine
 10
199.75
 20
229.768
 30
0.0
 11
199.75
 21
230.488
 31
0.0
  0
LINE
  5
413
330
1E
100
AcDbEntity
  8
0
100
AcDbLine
 10
199.75
 20
229.0
 30
0.0
 11
199.75
 21
228.2319999999999
 31
0.0
  0
LINE
  5
414
330
1E
100
AcDbEntity
  8
0
100
AcDbLine
 10
199.75
 20
229.0
 30
0.0
 11
199.75
 21
229.768
 31
0.0
  0
LINE
  5
415
330
1E
100
AcDbEntity
  8
0
100
AcDbLine
 10
199.75
 20
228.2319999999999
 30
0.0
 11
199.75
 21
229.0
 31
0.0
  0
LINE
  5
416
330
1E
100
AcDbEntity
  8
0
100
AcDbLine
 10
199.75
 20
228.2319999999999
 30
0.0
 11
199.75
 21
227.512
 31
0.0
  0
LINE
  5
417
330
1E
100
AcDbEntity
  8
0
100
AcDbLine
 10
199.55
 20
206.3
 30
0.0
 11
201.8499999999999
 21
217.6
 31
0.0
  0
LINE
  5
418
330
1E
100
AcDbEntity
  8
0
100
AcDbLine
 10
195.8499999999999
 20
195.4
 30
0.0
 11
199.55
 21
206.3
 31
0.0
  0
LINE
  5
419
330
1E
100
AcDbEntity
  8
0
100
AcDbLine
 10
202.7499999999999
 20
229.0
 30
0.0
 11
202.7499999999999
 21
236.0
 31
0.0
  0
LINE
  5
41A
330
1E
100
AcDbEntity
  8
0
100
AcDbLine
 10
202.7499999999999
 20
232.0
 30
0.0
 11
202.7499999999999
 21
236.0
 31
0.0
  0
LINE
  5
41B
330
1E
100
AcDbEntity
  8
0
100
AcDbLine
 10
202.7499999999999
 20
236.0
 30
0.0
 11
202.7499999999999
 21
229.0
 31
0.0
  0
LINE
  5
41C
330
1E
100
AcDbEntity
  8
0
100
AcDbLine
 10
202.7499999999999
 20
236.0
 30
0.0
 11
205.75
 21
236.0
 31
0.0
  0
LINE
  5
41D
330
1E
100
AcDbEntity
  8
0
100
AcDbLine
 10
202.7499999999999
 20
236.0
 30
0.0
 11
202.7499999999999
 21
232.0
 31
0.0
  0
LINE
  5
41E
330
1E
100
AcDbEntity
  8
0
100
AcDbLine
 10
208.7499999999999
 20
221.0
 30
0.0
 11
208.7499999999999
 21
221.2879999999999
 31
0.0
  0
LINE
  5
41F
330
1E
100
AcDbEntity
  8
0
100
AcDbLine
 10
208.7499999999999
 20
221.0
 30
0.0
 11
212.5099999999999
 21
221.0
 31
0.0
  0
LINE
  5
420
330
1E
100
AcDbEntity
  8
0
100
AcDbLine
 10
208.7499999999999
 20
221.2879999999999
 30
0.0
 11
208.7499999999999
 21
222.0559999999999
 31
0.0
  0
LINE
  5
421
330
1E
100
AcDbEntity
  8
0
100
AcDbLine
 10
208.7499999999999
 20
221.2879999999999
 30
0.0
 11
208.7499999999999
 21
221.0
 31
0.0
  0
LINE
  5
422
330
1E
100
AcDbEntity
  8
0
100
AcDbLine
 10
208.7499999999999
 20
222.0559999999999
 30
0.0
 11
208.7499999999999
 21
223.3359999999999
 31
0.0
  0
LINE
  5
423
330
1E
100
AcDbEntity
  8
0
100
AcDbLine
 10
208.7499999999999
 20
222.0559999999999
 30
0.0
 11
208.7499999999999
 21
221.2879999999999
 31
0.0
  0
LINE
  5
424
330
1E
100
AcDbEntity
  8
0
100
AcDbLine
 10
208.7499999999999
 20
226.108
 30
0.0
 11
208.7499999999999
 21
226.0
 31
0.0
  0
LINE
  5
425
330
1E
100
AcDbEntity
  8
0
100
AcDbLine
 10
208.7499999999999
 20
226.3959999999999
 30
0.0
 11
208.7499999999999
 21
226.108
 31
0.0
  0
LINE
  5
426
330
1E
100
AcDbEntity
  8
0
100
AcDbLine
 10
208.7499999999999
 20
226.8759999999999
 30
0.0
 11
208.7499999999999
 21
226.3959999999999
 31
0.0
  0
LINE
  5
427
330
1E
100
AcDbEntity
  8
0
100
AcDbLine
 10
208.7499999999999
 20
227.512
 30
0.0
 11
208.7499999999999
 21
226.8759999999999
 31
0.0
  0
LINE
  5
428
330
1E
100
AcDbEntity
  8
0
100
AcDbLine
 10
208.7499999999999
 20
228.2319999999999
 30
0.0
 11
208.7499999999999
 21
227.512
 31
0.0
  0
LINE
  5
429
330
1E
100
AcDbEntity
  8
0
100
AcDbLine
 10
205.5211864406779
 20
226.0
 30
0.0
 11
208.7499999999999
 21
226.0
 31
0.0
  0
LINE
  5
42A
330
1E
100
AcDbEntity
  8
0
100
AcDbLine
 10
208.7499999999999
 20
226.9519999999999
 30
0.0
 11
208.7499999999999
 21
225.032
 31
0.0
  0
LINE
  5
42B
330
1E
100
AcDbEntity
  8
0
100
AcDbLine
 10
208.7499999999999
 20
226.9519999999999
 30
0.0
 11
208.7499999999999
 21
229.0
 31
0.0
  0
LINE
  5
42C
330
1E
100
AcDbEntity
  8
0
100
AcDbLine
 10
208.7499999999999
 20
229.0
 30
0.0
 11
208.7499999999999
 21
226.9519999999999
 31
0.0
  0
LINE
  5
42D
330
1E
100
AcDbEntity
  8
0
100
AcDbLine
 10
208.7499999999999
 20
229.0
 30
0.0
 11
208.7499999999999
 21
231.048
 31
0.0
  0
LINE
  5
42E
330
1E
100
AcDbEntity
  8
0
100
AcDbLine
 10
208.7499999999999
 20
229.0
 30
0.0
 11
208.7499999999999
 21
228.2319999999999
 31
0.0
  0
LINE
  5
42F
330
1E
100
AcDbEntity
  8
0
100
AcDbLine
 10
208.7499999999999
 20
226.0
 30
0.0
 11
208.7499999999999
 21
225.032
 31
0.0
  0
LINE
  5
430
330
1E
100
AcDbEntity
  8
0
100
AcDbLine
 10
208.7499999999999
 20
223.3359999999999
 30
0.0
 11
208.7499999999999
 21
225.032
 31
0.0
  0
LINE
  5
431
330
1E
100
AcDbEntity
  8
0
100
AcDbLine
 10
208.7499999999999
 20
223.3359999999999
 30
0.0
 11
208.7499999999999
 21
222.0559999999999
 31
0.0
  0
LINE
  5
432
330
1E
100
AcDbEntity
  8
0
100
AcDbLine
 10
212.5099999999999
 20
221.2879999999999
 30
0.0
 11
212.5099999999999
 21
221.0
 31
0.0
  0
LINE
  5
433
330
1E
100
AcDbEntity
  8
0
100
AcDbLine
 10
212.5099999999999
 20
221.2879999999999
 30
0.0
 11
212.5099999999999
 21
222.0559999999999
 31
0.0
  0
LINE
  5
434
330
1E
100
AcDbEntity
  8
0
100
AcDbLine
 10
212.5099999999999
 20
222.0559999999999
 30
0.0
 11
212.5099999999999
 21
221.2879999999999
 31
0.0
  0
LINE
  5
435
330
1E
100
AcDbEntity
  8
0
100
AcDbLine
 10
212.5099999999999
 20
222.0559999999999
 30
0.0
 11
212.5099999999999
 21
223.3359999999999
 31
0.0
  0
LINE
  5
436
330
1E
100
AcDbEntity
  8
0
100
AcDbLine
 10
212.5099999999999
 20
223.3359999999999
 30
0.0
 11
212.5099999999999
 21
222.0559999999999
 31
0.0
  0
LINE
  5
437
330
1E
100
AcDbEntity
  8
0
100
AcDbLine
 10
212.5099999999999
 20
223.3359999999999
 30
0.0
 11
212.5099999999999
 21
225.032
 31
0.0
  0
LINE
  5
438
330
1E
100
AcDbEntity
  8
0
100
AcDbLine
 10
212.5099999999999
 20
225.032
 30
0.0
 11
212.5099999999999
 21
223.3359999999999
 31
0.0
  0
LINE
  5
439
330
1E
100
AcDbEntity
  8
0
100
AcDbLine
 10
212.5099999999999
 20
225.032
 30
0.0
 11
212.5099999999999
 21
226.9519999999999
 31
0.0
  0
LINE
  5
43A
330
1E
100
AcDbEntity
  8
0
100
AcDbLine
 10
212.5099999999999
 20
226.9519999999999
 30
0.0
 11
212.5099999999999
 21
225.032
 31
0.0
  0
LINE
  5
43B
330
1E
100
AcDbEntity
  8
0
100
AcDbLine
 10
212.5099999999999
 20
226.9519999999999
 30
0.0
 11
212.5099999999999
 21
229.0
 31
0.0
  0
LINE
  5
43C
330
1E
100
AcDbEntity
  8
0
100
AcDbLine
 10
212.7499999999999
 20
221.192
 30
0.0
 11
212.7499999999999
 21
221.4799999999999
 31
0.0
  0
LINE
  5
43D
330
1E
100
AcDbEntity
  8
0
100
AcDbLine
 10
212.7499999999999
 20
221.4799999999999
 30
0.0
 11
212.7499999999999
 21
221.192
 31
0.0
  0
LINE
  5
43E
330
1E
100
AcDbEntity
  8
0
100
AcDbLine
 10
212.7499999999999
 20
221.4799999999999
 30
0.0
 11
212.7499999999999
 21
222.248
 31
0.0
  0
LINE
  5
43F
330
1E
100
AcDbEntity
  8
0
100
AcDbLine
 10
212.7499999999999
 20
222.248
 30
0.0
 11
212.7499999999999
 21
221.4799999999999
 31
0.0
  0
LINE
  5
440
330
1E
100
AcDbEntity
  8
0
100
AcDbLine
 10
212.7499999999999
 20
222.248
 30
0.0
 11
212.7499999999999
 21
223.496
 31
0.0
  0
LINE
  5
441
330
1E
100
AcDbEntity
  8
0
100
AcDbLine
 10
212.7499999999999
 20
223.496
 30
0.0
 11
212.7499999999999
 21
222.248
 31
0.0
  0
LINE
  5
442
330
1E
100
AcDbEntity
  8
0
100
AcDbLine
 10
212.7499999999999
 20
223.496
 30
0.0
 11
212.7499999999999
 21
225.1279999999999
 31
0.0
  0
LINE
  5
443
330
1E
100
AcDbEntity
  8
0
100
AcDbLine
 10
212.7499999999999
 20
225.1279999999999
 30
0.0
 11
212.7499999999999
 21
223.496
 31
0.0
  0
LINE
  5
444
330
1E
100
AcDbEntity
  8
0
100
AcDbLine
 10
212.7499999999999
 20
225.1279999999999
 30
0.0
 11
212.7499999999999
 21
226.984
 31
0.0
  0
LINE
  5
445
330
1E
100
AcDbEntity
  8
0
100
AcDbLine
 10
212.7499999999999
 20
226.984
 30
0.0
 11
212.7499999999999
 21
225.1279999999999
 31
0.0
  0
LINE
  5
446
330
1E
100
AcDbEntity
  8
0
100
AcDbLine
 10
212.7499999999999
 20
226.984
 30
0.0
 11
212.7499999999999
 21
229.0
 31
0.0
  0
LINE
  5
447
330
1E
100
AcDbEntity
  8
0
100
AcDbLine
 10
212.7499999999999
 20
229.0
 30
0.0
 11
212.7499999999999
 21
226.984
 31
0.0
  0
LINE
  5
448
330
1E
100
AcDbEntity
  8
0
100
AcDbLine
 10
212.7499999999999
 20
229.0
 30
0.0
 11
212.7499999999999
 21
231.0159999999999
 31
0.0
  0
LINE
  5
449
330
1E
100
AcDbEntity
  8
0
100
AcDbLine
 10
212.5099999999999
 20
229.0
 30
0.0
 11
212.5099999999999
 21
226.9519999999999
 31
0.0
  0
LINE
  5
44A
330
1E
100
AcDbEntity
  8
0
100
AcDbLine
 10
212.5099999999999
 20
229.0
 30
0.0
 11
212.5099999999999
 21
231.048
 31
0.0
  0
LINE
  5
44B
330
1E
100
AcDbEntity
  8
0
100
AcDbLine
 10
212.5099999999999
 20
221.0
 30
0.0
 11
212.7499999999999
 21
221.192
 31
0.0
  0
LINE
  5
44C
330
1E
100
AcDbEntity
  8
0
100
AcDbLine
 10
212.5099999999999
 20
221.0
 30
0.0
 11
212.5099999999999
 21
221.2879999999999
 31
0.0
  0
LINE
  5
44D
330
1E
100
AcDbEntity
  8
0
100
AcDbLine
 10
208.7499999999999
 20
225.032
 30
0.0
 11
208.7499999999999
 21
226.0
 31
0.0
  0
LINE
  5
44E
330
1E
100
AcDbEntity
  8
0
100
AcDbLine
 10
208.7499999999999
 20
225.032
 30
0.0
 11
208.7499999999999
 21
223.3359999999999
 31
0.0
  0
LINE
  5
44F
330
1E
100
AcDbEntity
  8
0
100
AcDbLine
 10
208.7499999999999
 20
225.032
 30
0.0
 11
208.7499999999999
 21
226.9519999999999
 31
0.0
  0
LINE
  5
450
330
1E
100
AcDbEntity
  8
0
100
AcDbLine
 10
205.75
 20
232.0
 30
0.0
 11
208.7499999999999
 21
232.0
 31
0.0
  0
LINE
  5
451
330
1E
100
AcDbEntity
  8
0
100
AcDbLine
 10
208.7499999999999
 20
230.488
 30
0.0
 11
208.7499999999999
 21
229.768
 31
0.0
  0
LINE
  5
452
330
1E
100
AcDbEntity
  8
0
100
AcDbLine
 10
208.7499999999999
 20
229.768
 30
0.0
 11
208.7499999999999
 21
229.0
 31
0.0
  0
LINE
  5
453
330
1E
100
AcDbEntity
  8
0
100
AcDbLine
 10
212.7499999999999
 20
231.0159999999999
 30
0.0
 11
212.7499999999999
 21
229.0
 31
0.0
  0
LINE
  5
454
330
1E
100
AcDbEntity
  8
0
100
AcDbLine
 10
212.7499999999999
 20
231.0159999999999
 30
0.0
 11
212.7499999999999
 21
232.872
 31
0.0
  0
LINE
  5
455
330
1E
100
AcDbEntity
  8
0
100
AcDbLine
 10
212.5099999999999
 20
231.048
 30
0.0
 11
212.5099999999999
 21
229.0
 31
0.0
  0
LINE
  5
456
330
1E
100
AcDbEntity
  8
0
100
AcDbLine
 10
212.5099999999999
 20
231.048
 30
0.0
 11
212.5099999999999
 21
232.9679999999999
 31
0.0
  0
LINE
  5
457
330
1E
100
AcDbEntity
  8
0
100
AcDbLine
 10
208.7499999999999
 20
231.8919999999999
 30
0.0
 11
208.7499999999999
 21
231.604
 31
0.0
  0
LINE
  5
458
330
1E
100
AcDbEntity
  8
0
100
AcDbLine
 10
208.7499999999999
 20
231.604
 30
0.0
 11
208.7499999999999
 21
231.124
 31
0.0
  0
LINE
  5
459
330
1E
100
AcDbEntity
  8
0
100
AcDbLine
 10
208.7499999999999
 20
231.124
 30
0.0
 11
208.7499999999999
 21
230.488
 31
0.0
  0
LINE
  5
45A
330
1E
100
AcDbEntity
  8
0
100
AcDbLine
 10
208.7499999999999
 20
232.0
 30
0.0
 11
208.7499999999999
 21
232.9679999999999
 31
0.0
  0
LINE
  5
45B
330
1E
100
AcDbEntity
  8
0
100
AcDbLine
 10
208.7499999999999
 20
232.0
 30
0.0
 11
208.7499999999999
 21
231.8919999999999
 31
0.0
  0
LINE
  5
45C
330
1E
100
AcDbEntity
  8
0
100
AcDbLine
 10
208.7499999999999
 20
237.0
 30
0.0
 11
208.7499999999999
 21
236.712
 31
0.0
  0
LINE
  5
45D
330
1E
100
AcDbEntity
  8
0
100
AcDbLine
 10
208.7499999999999
 20
237.0
 30
0.0
 11
212.5099999999999
 21
237.0
 31
0.0
  0
LINE
  5
45E
330
1E
100
AcDbEntity
  8
0
100
AcDbLine
 10
208.7499999999999
 20
236.712
 30
0.0
 11
208.7499999999999
 21
235.944
 31
0.0
  0
LINE
  5
45F
330
1E
100
AcDbEntity
  8
0
100
AcDbLine
 10
208.7499999999999
 20
236.712
 30
0.0
 11
208.7499999999999
 21
237.0
 31
0.0
  0
LINE
  5
460
330
1E
100
AcDbEntity
  8
0
100
AcDbLine
 10
208.7499999999999
 20
235.944
 30
0.0
 11
208.7499999999999
 21
234.664
 31
0.0
  0
LINE
  5
461
330
1E
100
AcDbEntity
  8
0
100
AcDbLine
 10
208.7499999999999
 20
235.944
 30
0.0
 11
208.7499999999999
 21
236.712
 31
0.0
  0
LINE
  5
462
330
1E
100
AcDbEntity
  8
0
100
AcDbLine
 10
208.7499999999999
 20
234.664
 30
0.0
 11
208.7499999999999
 21
232.9679999999999
 31
0.0
  0
LINE
  5
463
330
1E
100
AcDbEntity
  8
0
100
AcDbLine
 10
208.7499999999999
 20
234.664
 30
0.0
 11
208.7499999999999
 21
235.944
 31
0.0
  0
LINE
  5
464
330
1E
100
AcDbEntity
  8
0
100
AcDbLine
 10
212.7499999999999
 20
232.872
 30
0.0
 11
212.7499999999999
 21
231.0159999999999
 31
0.0
  0
LINE
  5
465
330
1E
100
AcDbEntity
  8
0
100
AcDbLine
 10
212.7499999999999
 20
232.872
 30
0.0
 11
212.7499999999999
 21
234.504
 31
0.0
  0
LINE
  5
466
330
1E
100
AcDbEntity
  8
0
100
AcDbLine
 10
212.5099999999999
 20
237.0
 30
0.0
 11
212.5099999999999
 21
236.712
 31
0.0
  0
LINE
  5
467
330
1E
100
AcDbEntity
  8
0
100
AcDbLine
 10
212.5099999999999
 20
237.0
 30
0.0
 11
212.7499999999999
 21
236.8079999999999
 31
0.0
  0
LINE
  5
468
330
1E
100
AcDbEntity
  8
0
100
AcDbLine
 10
212.5099999999999
 20
236.712
 30
0.0
 11
212.5099999999999
 21
235.944
 31
0.0
  0
LINE
  5
469
330
1E
100
AcDbEntity
  8
0
100
AcDbLine
 10
212.5099999999999
 20
236.712
 30
0.0
 11
212.5099999999999
 21
237.0
 31
0.0
  0
LINE
  5
46A
330
1E
100
AcDbEntity
  8
0
100
AcDbLine
 10
212.5099999999999
 20
235.944
 30
0.0
 11
212.5099999999999
 21
234.664
 31
0.0
  0
LINE
  5
46B
330
1E
100
AcDbEntity
  8
0
100
AcDbLine
 10
212.5099999999999
 20
235.944
 30
0.0
 11
212.5099999999999
 21
236.712
 31
0.0
  0
LINE
  5
46C
330
1E
100
AcDbEntity
  8
0
100
AcDbLine
 10
212.7499999999999
 20
236.8079999999999
 30
0.0
 11
212.7499999999999
 21
236.52
 31
0.0
  0
LINE
  5
46D
330
1E
100
AcDbEntity
  8
0
100
AcDbLine
 10
212.7499999999999
 20
236.52
 30
0.0
 11
212.7499999999999
 21
235.752
 31
0.0
  0
LINE
  5
46E
330
1E
100
AcDbEntity
  8
0
100
AcDbLine
 10
212.7499999999999
 20
236.52
 30
0.0
 11
212.7499999999999
 21
236.8079999999999
 31
0.0
  0
LINE
  5
46F
330
1E
100
AcDbEntity
  8
0
100
AcDbLine
 10
212.7499999999999
 20
235.752
 30
0.0
 11
212.7499999999999
 21
234.504
 31
0.0
  0
LINE
  5
470
330
1E
100
AcDbEntity
  8
0
100
AcDbLine
 10
212.7499999999999
 20
235.752
 30
0.0
 11
212.7499999999999
 21
236.52
 31
0.0
  0
LINE
  5
471
330
1E
100
AcDbEntity
  8
0
100
AcDbLine
 10
212.7499999999999
 20
234.504
 30
0.0
 11
212.7499999999999
 21
232.872
 31
0.0
  0
LINE
  5
472
330
1E
100
AcDbEntity
  8
0
100
AcDbLine
 10
212.7499999999999
 20
234.504
 30
0.0
 11
212.7499999999999
 21
235.752
 31
0.0
  0
LINE
  5
473
330
1E
100
AcDbEntity
  8
0
100
AcDbLine
 10
212.5099999999999
 20
234.664
 30
0.0
 11
212.5099999999999
 21
232.9679999999999
 31
0.0
  0
LINE
  5
474
330
1E
100
AcDbEntity
  8
0
100
AcDbLine
 10
212.5099999999999
 20
234.664
 30
0.0
 11
212.5099999999999
 21
235.944
 31
0.0
  0
LINE
  5
475
330
1E
100
AcDbEntity
  8
0
100
AcDbLine
 10
212.5099999999999
 20
232.9679999999999
 30
0.0
 11
212.5099999999999
 21
231.048
 31
0.0
  0
LINE
  5
476
330
1E
100
AcDbEntity
  8
0
100
AcDbLine
 10
212.5099999999999
 20
232.9679999999999
 30
0.0
 11
212.5099999999999
 21
234.664
 31
0.0
  0
LINE
  5
477
330
1E
100
AcDbEntity
  8
0
100
AcDbLine
 10
208.7499999999999
 20
232.9679999999999
 30
0.0
 11
208.7499999999999
 21
231.048
 31
0.0
  0
LINE
  5
478
330
1E
100
AcDbEntity
  8
0
100
AcDbLine
 10
208.7499999999999
 20
232.9679999999999
 30
0.0
 11
208.7499999999999
 21
234.664
 31
0.0
  0
LINE
  5
479
330
1E
100
AcDbEntity
  8
0
100
AcDbLine
 10
208.7499999999999
 20
232.9679999999999
 30
0.0
 11
208.7499999999999
 21
232.0
 31
0.0
  0
LINE
  5
47A
330
1E
100
AcDbEntity
  8
0
100
AcDbLine
 10
208.7499999999999
 20
231.048
 30
0.0
 11
208.7499999999999
 21
229.0
 31
0.0
  0
LINE
  5
47B
330
1E
100
AcDbEntity
  8
0
100
AcDbLine
 10
208.7499999999999
 20
231.048
 30
0.0
 11
208.7499999999999
 21
232.9679999999999
 31
0.0
  0
LINE
  5
47C
330
1E
100
AcDbEntity
  8
0
100
AcDbLine
 10
205.75
 20
236.0
 30
0.0
 11
205.75
 21
229.0
 31
0.0
  0
LINE
  5
47D
330
1E
100
AcDbEntity
  8
0
100
AcDbLine
 10
205.75
 20
229.0
 30
0.0
 11
205.75
 21
236.0
 31
0.0
  0
LINE
  5
47E
330
1E
100
AcDbEntity
  8
0
100
AcDbLine
 10
204.8499999999999
 20
217.2
 30
0.0
 11
205.75
 21
229.0
 31
0.0
  0
LINE
  5
47F
330
1E
100
AcDbEntity
  8
0
100
AcDbLine
 10
202.4499999999999
 20
205.5
 30
0.0
 11
204.8499999999999
 21
217.2
 31
0.0
  0
LINE
  5
480
330
1E
100
AcDbEntity
  8
0
100
AcDbLine
 10
201.8499999999999
 20
217.6
 30
0.0
 11
202.513157894737
 21
226.0
 31
0.0
  0
LINE
  5
481
330
1E
100
AcDbEntity
  8
0
100
AcDbLine
 10
201.8499999999999
 20
217.6
 30
0.0
 11
202.7499999999999
 21
229.0
 31
0.0
  0
LINE
  5
482
330
1E
100
AcDbEntity
  8
0
100
AcDbLine
 10
65.45
 20
164.9
 30
0.0
 11
74.45
 21
158.8
 31
0.0
  0
LINE
  5
483
330
1E
100
AcDbEntity
  8
0
100
AcDbLine
 10
63.65
 20
162.5
 30
0.0
 11
72.95
 21
156.1999999999999
 31
0.0
  0
LINE
  5
484
330
1E
100
AcDbEntity
  8
0
100
AcDbLine
 10
63.04999999999999
 20
161.6999999999999
 30
0.0
 11
72.45
 21
155.4
 31
0.0
  0
LINE
  5
485
330
1E
100
AcDbEntity
  8
0
100
AcDbLine
 10
61.25
 20
159.3
 30
0.0
 11
70.95
 21
152.8
 31
0.0
  0
LINE
  5
486
330
1E
100
AcDbEntity
  8
0
100
AcDbLine
 10
59.45
 20
156.9
 30
0.0
 11
69.45
 21
150.1999999999999
 31
0.0
  0
LINE
  5
487
330
1E
100
AcDbEntity
  8
0
100
AcDbLine
 10
54.75
 20
169.0
 30
0.0
 11
63.04999999999999
 21
161.6999999999999
 31
0.0
  0
LINE
  5
488
330
1E
100
AcDbEntity
  8
0
100
AcDbLine
 10
53.25
 20
153.9
 30
0.0
 11
54.25
 21
147.0
 31
0.0
  0
LINE
  5
489
330
1E
100
AcDbEntity
  8
0
100
AcDbLine
 10
52.75
 20
140.1999999999999
 30
0.0
 11
53.75
 21
147.0
 31
0.0
  0
LINE
  5
48A
330
1E
100
AcDbEntity
  8
0
100
AcDbLine
 10
53.25
 20
140.0999999999999
 30
0.0
 11
54.25
 21
147.0
 31
0.0
  0
LINE
  5
48B
330
1E
100
AcDbEntity
  8
0
100
AcDbLine
 10
42.25
 20
133.667
 30
0.0
 11
42.25
 21
134.111
 31
0.0
  0
LINE
  5
48C
330
1E
100
AcDbEntity
  8
0
100
AcDbLine
 10
41.25
 20
132.7779999999999
 30
0.0
 11
41.74999999999999
 21
132.7779999999999
 31
0.0
  0
LINE
  5
48D
330
1E
100
AcDbEntity
  8
0
100
AcDbLine
 10
34.45
 20
132.7779999999999
 30
0.0
 11
37.45
 21
132.7779999999999
 31
0.0
  0
LINE
  5
48E
330
1E
100
AcDbEntity
  8
0
100
AcDbLine
 10
33.45
 20
132.333
 30
0.0
 11
36.04999999999999
 21
132.333
 31
0.0
  0
LINE
  5
48F
330
1E
100
AcDbEntity
  8
0
100
AcDbLine
 10
33.25
 20
131.4439999999999
 30
0.0
 11
35.75
 21
131.4439999999999
 31
0.0
  0
LINE
  5
490
330
1E
100
AcDbEntity
  8
0
100
AcDbLine
 10
32.75
 20
131.0
 30
0.0
 11
35.04999999999999
 21
131.0
 31
0.0
  0
LINE
  5
491
330
1E
100
AcDbEntity
  8
0
100
AcDbLine
 10
32.25
 20
53.2753623188406
 30
0.0
 11
34.15
 21
53.0
 31
0.0
  0
LINE
  5
492
330
1E
100
AcDbEntity
  8
0
100
AcDbLine
 10
20.44999999999999
 20
52.5
 30
0.0
 11
22.25
 21
52.76470588235289
 31
0.0
  0
LINE
  5
493
330
1E
100
AcDbEntity
  8
0
100
AcDbLine
 10
20.35
 20
53.0
 30
0.0
 11
22.25
 21
53.2753623188406
 31
0.0
  0
LINE
  5
494
330
1E
100
AcDbEntity
  8
0
100
AcDbLine
 10
12.75
 20
27.0
 30
0.0
 11
13.25
 21
23.3
 31
0.0
  0
LINE
  5
495
330
1E
100
AcDbEntity
  8
0
100
AcDbLine
 10
12.75
 20
27.0
 30
0.0
 11
13.25
 21
30.7
 31
0.0
  0
LINE
  5
496
330
1E
100
AcDbEntity
  8
0
100
AcDbLine
 10
12.25
 20
27.0
 30
0.0
 11
12.75
 21
23.1
 31
0.0
  0
LINE
  5
497
330
1E
100
AcDbEntity
  8
0
100
AcDbLine
 10
12.25
 20
27.0
 30
0.0
 11
12.75
 21
30.89999999999999
 31
0.0
  0
LINE
  5
498
330
1E
100
AcDbEntity
  8
0
100
AcDbLine
 10
10.34999999999999
 20
22.5
 30
0.0
 11
12.05
 21
18.3
 31
0.0
  0
LINE
  5
499
330
1E
100
AcDbEntity
  8
0
100
AcDbLine
 10
9.75
 20
27.0
 30
0.0
 11
10.34999999999999
 21
22.5
 31
0.0
  0
LINE
  5
49A
330
1E
100
AcDbEntity
  8
0
100
AcDbLine
 10
9.75
 20
27.0
 30
0.0
 11
10.34999999999999
 21
31.5
 31
0.0
  0
LINE
  5
49B
330
1E
100
AcDbEntity
  8
0
100
AcDbLine
 10
9.949999999999999
 20
22.39999999999999
 30
0.0
 11
11.65
 21
18.1
 31
0.0
  0
LINE
  5
49C
330
1E
100
AcDbEntity
  8
0
100
AcDbLine
 10
9.25
 20
27.0
 30
0.0
 11
9.949999999999999
 21
22.39999999999999
 31
0.0
  0
LINE
  5
49D
330
1E
100
AcDbEntity
  8
0
100
AcDbLine
 10
4.25
 20
13.8
 30
0.0
 11
8.55
 21
8.29999999999999
 31
0.0
  0
LINE
  5
49E
330
1E
100
AcDbEntity
  8
0
100
AcDbLine
 10
1.75
 20
20.2
 30
0.0
 11
4.25
 21
13.8
 31
0.0
  0
LINE
  5
49F
330
1E
100
AcDbEntity
  8
0
100
AcDbLine
 10
3.85
 20
13.6
 30
0.0
 11
8.15
 21
7.89999999999999
 31
0.0
  0
LINE
  5
4A0
330
1E
100
AcDbEntity
  8
0
100
AcDbLine
 10
1.25
 20
20.1
 30
0.0
 11
3.85
 21
13.6
 31
0.0
  0
LINE
  5
4A5
330
1E
100
AcDbEntity
  8
0
100
AcDbLine
 10
34.15
 20
53.0
 30
0.0
 11
40.65
 21
50.4
 31
0.0
  0
LINE
  5
4A6
330
1E
100
AcDbEntity
  8
0
100
AcDbLine
 10
20.35
 20
53.0
 30
0.0
 11
13.85
 21
50.4
 31
0.0
  0
LINE
  5
4A7
330
1E
100
AcDbEntity
  8
0
100
AcDbLine
 10
42.85
 20
35.89999999999999
 30
0.0
 11
40.75
 21
38.5555
 31
0.0
  0
LINE
  5
4A8
330
1E
100
AcDbEntity
  8
0
100
AcDbLine
 10
11.65
 20
35.89999999999999
 30
0.0
 11
13.75
 21
38.5555
 31
0.0
  0
LINE
  5
4A9
330
1E
100
AcDbEntity
  8
0
100
AcDbLine
 10
27.25
 20
8.999999999999991
 30
0.0
 11
31.85
 21
9.69999999999999
 31
0.0
  0
LINE
  5
4AA
330
1E
100
AcDbEntity
  8
0
100
AcDbLine
 10
42.85
 20
18.1
 30
0.0
 11
44.55
 21
22.39999999999999
 31
0.0
  0
LINE
  5
4AB
330
1E
100
AcDbEntity
  8
0
100
AcDbLine
 10
45.25
 20
27.0
 30
0.0
 11
44.55
 21
31.6
 31
0.0
  0
LINE
  5
4AC
330
1E
100
AcDbEntity
  8
0
100
AcDbLine
 10
46.35
 20
7.89999999999999
 30
0.0
 11
50.57823550904072
 21
13.47767714652923
 31
0.0
  0
LINE
  5
4AD
330
1E
100
AcDbEntity
  8
0
100
AcDbLine
 10
50.57823550904072
 20
13.47767714652923
 30
0.0
 11
53.25
 21
20.1
 31
0.0
  0
LINE
  5
4AE
330
1E
100
AcDbEntity
  8
0
100
AcDbLine
 10
22.65
 20
9.69999999999999
 30
0.0
 11
19.45
 21
11.0
 31
0.0
  0
LINE
  5
4AF
330
1E
100
AcDbEntity
  8
0
100
AcDbLine
 10
12.75
 20
23.1
 30
0.0
 11
14.24723855093748
 21
19.88154990705629
 31
0.0
  0
LINE
  5
4B0
330
1E
100
AcDbEntity
  8
0
100
AcDbLine
 10
11.65
 20
18.1
 30
0.0
 11
13.75
 21
15.4445
 31
0.0
  0
LINE
  5
4B1
330
1E
100
AcDbEntity
  8
0
100
AcDbLine
 10
9.25
 20
27.0
 30
0.0
 11
9.949999999999999
 21
31.6
 31
0.0
  0
LINE
  5
4B2
330
1E
100
AcDbEntity
  8
0
100
AcDbLine
 10
20.35
 20
121.0
 30
0.0
 11
13.85989516843324
 21
123.3869055085738
 31
0.0
  0
LINE
  5
4B3
330
1E
100
AcDbEntity
  8
0
100
AcDbLine
 10
13.85989516843324
 20
123.3869055085738
 30
0.0
 11
8.15
 21
127.9
 31
0.0
  0
LINE
  5
4B4
330
1E
100
AcDbEntity
  8
0
100
AcDbLine
 10
42.85
 20
138.1
 30
0.0
 11
40.75
 21
135.4439999999999
 31
0.0
  0
LINE
  5
4B5
330
1E
100
AcDbEntity
  8
0
100
AcDbLine
 10
13.75
 20
135.4439999999999
 30
0.0
 11
11.59312092828281
 21
138.1284954752206
 31
0.0
  0
LINE
  5
4B6
330
1E
100
AcDbEntity
  8
0
100
AcDbLine
 10
11.59312092828281
 20
138.1284954752206
 30
0.0
 11
9.949999999999999
 21
142.4
 31
0.0
  0
LINE
  5
4B7
330
1E
100
AcDbEntity
  8
0
100
AcDbLine
 10
45.25
 20
147.0
 30
0.0
 11
44.56231333585196
 21
151.5981350535466
 31
0.0
  0
LINE
  5
4B8
330
1E
100
AcDbEntity
  8
0
100
AcDbLine
 10
44.56231333585196
 20
151.5981350535466
 30
0.0
 11
42.85
 21
155.9
 31
0.0
  0
LINE
  5
4B9
330
1E
100
AcDbEntity
  8
0
100
AcDbLine
 10
27.25
 20
165.0
 30
0.0
 11
22.65
 21
164.3
 31
0.0
  0
LINE
  5
4BA
330
1E
100
AcDbEntity
  8
0
100
AcDbLine
 10
31.85
 20
164.3
 30
0.0
 11
34.69305545163774
 21
163.0228229285028
 31
0.0
  0
LINE
  5
4BB
330
1E
100
AcDbEntity
  8
0
100
AcDbLine
 10
12.75
 20
150.9
 30
0.0
 11
14.21726896836639
 21
154.1883144363647
 31
0.0
  0
LINE
  5
4BC
330
1E
100
AcDbEntity
  8
0
100
AcDbLine
 10
9.949999999999999
 20
151.6
 30
0.0
 11
11.7625770559714
 21
155.9663738618766
 31
0.0
  0
LINE
  5
4BD
330
1E
100
AcDbEntity
  8
0
100
AcDbLine
 10
11.7625770559714
 20
155.9663738618766
 30
0.0
 11
13.75
 21
158.555
 31
0.0
  0
LINE
  5
4BE
330
1E
100
AcDbEntity
  8
0
100
AcDbLine
 10
1.25
 20
153.9
 30
0.0
 11
3.85
 21
160.4
 31
0.0
  0
ENDSEC
  0
SECTION
  2
OBJECTS
  0
DICTIONARY
  5
C
330
0
100
AcDbDictionary
281
     1
  3
ACAD_GROUP
350
D
  3
ACAD_LAYOUT
350
19
  3
ACAD_MLINESTYLE
350
16
  3
ACAD_PLOTSETTINGS
350
18
  3
ACAD_PLOTSTYLENAME
350
E
  3
AcDbVariableDictionary
350
4BF
  0
DICTIONARY
  5
D
102
{ACAD_REACTORS
330
C
102
}
330
C
100
AcDbDictionary
281
     1
  0
DICTIONARY
  5
19
102
{ACAD_REACTORS
330
C
102
}
330
C
100
AcDbDictionary
281
     1
  3
Layout1
350
1D
  3
Model
350
21
  0
DICTIONARY
  5
16
102
{ACAD_REACTORS
330
C
102
}
330
C
100
AcDbDictionary
281
     1
  3
Standard
350
17
  0
DICTIONARY
  5
18
102
{ACAD_REACTORS
330
C
102
}
330
C
100
AcDbDictionary
281
     1
  0
ACDBDICTIONARYWDFLT
  5
E
102
{ACAD_REACTORS
330
C
102
}
330
C
100
AcDbDictionary
281
     1
  3
Normal
350
F
100
AcDbDictionaryWithDefault
340
F
  0
DICTIONARY
  5
4BF
102
{ACAD_REACTORS
330
C
102
}
330
C
100
AcDbDictionary
281
     1
  3
DIMASSOC
350
4C0
  0
LAYOUT
  5
1D
102
{ACAD_REACTORS
330
19
102
}
330
19
100
AcDbPlotSettings
  1

  2
hp deskjet 980c series
  4

  6

 40
0.0
 41
0.0
 42
0.0
 43
0.0
 44
0.0
 45
0.0
 46
0.0
 47
0.0
 48
0.0
 49
0.0
140
0.0
141
0.0
142
1.0
143
1.0
 70
   688
 72
     0
 73
     0
 74
     5
  7

 75
    16
147
1.0
148
0.0
149
0.0
100
AcDbLayout
  1
Layout1
 70
     1
 71
     1
 10
0.0
 20
0.0
 11
12.0
 21
9.0
 12
0.0
 22
0.0
 32
0.0
 14
1.000000000000000E+20
 24
1.000000000000000E+20
 34
1.000000000000000E+20
 15
-1.000000000000000E+20
 25
-1.000000000000000E+20
 35
-1.000000000000000E+20
146
0.0
 13
0.0
 23
0.0
 33
0.0
 16
1.0
 26
0.0
 36
0.0
 17
0.0
 27
1.0
 37
0.0
 76
     0
330
1A
  0
LAYOUT
  5
21
102
{ACAD_REACTORS
330
19
102
}
330
19
100
AcDbPlotSettings
  1

  2
hp deskjet 980c series
  4

  6

 40
0.0
 41
0.0
 42
0.0
 43
0.0
 44
0.0
 45
0.0
 46
0.0
 47
0.0
 48
0.0
 49
0.0
140
0.0
141
0.0
142
1.0
143
1.0
 70
  1712
 72
     0
 73
     0
 74
     0
  7

 75
     0
147
1.0
148
0.0
149
0.0
100
AcDbLayout
  1
Model
 70
     1
 71
     0
 10
0.0
 20
0.0
 11
12.0
 21
9.0
 12
0.0
 22
0.0
 32
0.0
 14
0.0
 24
0.0
 34
0.0
 15
0.0
 25
0.0
 35
0.0
146
0.0
 13
0.0
 23
0.0
 33
0.0
 16
1.0
 26
0.0
 36
0.0
 17
0.0
 27
1.0
 37
0.0
 76
     0
330
1E
  0
MLINESTYLE
  5
17
102
{ACAD_REACTORS
330
16
102
}
330
16
100
AcDbMlineStyle
  2
STANDARD
 70
     0
  3

 62
   256
 51
90.0
 52
90.0
 71
     2
 49
0.5
 62
   256
  6
BYLAYER
 49
-0.5
 62
   256
  6
BYLAYER
  0
ACDBPLACEHOLDER
  5
F
102
{ACAD_REACTORS
330
E
102
}
330
E
  0
DICTIONARYVAR
  5
4C0
102
{ACAD_REACTORS
330
4BF
102
}
330
4BF
100
DictionaryVariables
280
     0
  1
1
  0
ENDSEC
  0
EOF
