  0
SECTION
  2
HEADER
  9
$ACADVER
  1
AC1015
  9
$ACADMAINTVER
 70
    13
  9
$DWGCODEPAGE
  3
ANSI_1252
  9
$INSBASE
 10
0.0
 20
0.0
 30
0.0
  9
$EXTMIN
 10
-0.109199999999995
 20
0.250000000000007
 30
0.0
  9
$EXTMAX
 10
106.1091999999999
 20
157.75
 30
0.0
  9
$LIMMIN
 10
0.0
 20
0.0
  9
$LIMMAX
 10
12.0
 20
9.0
  9
$ORTHOMODE
 70
     0
  9
$REGENMODE
 70
     1
  9
$FILLMODE
 70
     1
  9
$QTEXTMODE
 70
     0
  9
$MIRRTEXT
 70
     1
  9
$LTSCALE
 40
1.0
  9
$ATTMODE
 70
     1
  9
$TEXTSIZE
 40
0.2
  9
$TRACEWID
 40
0.05
  9
$TEXTSTYLE
  7
Standard
  9
$CLAYER
  8
0
  9
$CELTYPE
  6
Continuous
  9
$CECOLOR
 62
   256
  9
$CELTSCALE
 40
1.0
  9
$DISPSILH
 70
     0
  9
$DIMSCALE
 40
1.0
  9
$DIMASZ
 40
0.18
  9
$DIMEXO
 40
0.0625
  9
$DIMDLI
 40
0.38
  9
$DIMRND
 40
0.0
  9
$DIMDLE
 40
0.0
  9
$DIMEXE
 40
0.18
  9
$DIMTP
 40
0.0
  9
$DIMTM
 40
0.0
  9
$DIMTXT
 40
0.18
  9
$DIMCEN
 40
0.09
  9
$DIMTSZ
 40
0.0
  9
$DIMTOL
 70
     0
  9
$DIMLIM
 70
     0
  9
$DIMTIH
 70
     1
  9
$DIMTOH
 70
     1
  9
$DIMSE1
 70
     0
  9
$DIMSE2
 70
     0
  9
$DIMTAD
 70
     0
  9
$DIMZIN
 70
     0
  9
$DIMBLK
  1

  9
$DIMASO
 70
     1
  9
$DIMSHO
 70
     1
  9
$DIMPOST
  1

  9
$DIMAPOST
  1

  9
$DIMALT
 70
     0
  9
$DIMALTD
 70
     2
  9
$DIMALTF
 40
25.4
  9
$DIMLFAC
 40
1.0
  9
$DIMTOFL
 70
     0
  9
$DIMTVP
 40
0.0
  9
$DIMTIX
 70
     0
  9
$DIMSOXD
 70
     0
  9
$DIMSAH
 70
     0
  9
$DIMBLK1
  1

  9
$DIMBLK2
  1

  9
$DIMSTYLE
  2
Standard
  9
$DIMCLRD
 70
     0
  9
$DIMCLRE
 70
     0
  9
$DIMCLRT
 70
     0
  9
$DIMTFAC
 40
1.0
  9
$DIMGAP
 40
0.09
  9
$DIMJUST
 70
     0
  9
$DIMSD1
 70
     0
  9
$DIMSD2
 70
     0
  9
$DIMTOLJ
 70
     1
  9
$DIMTZIN
 70
     0
  9
$DIMALTZ
 70
     0
  9
$DIMALTTZ
 70
     0
  9
$DIMUPT
 70
     0
  9
$DIMDEC
 70
     4
  9
$DIMTDEC
 70
     4
  9
$DIMALTU
 70
     2
  9
$DIMALTTD
 70
     2
  9
$DIMTXSTY
  7
Standard
  9
$DIMAUNIT
 70
     0
  9
$DIMADEC
 70
     0
  9
$DIMALTRND
 40
0.0
  9
$DIMAZIN
 70
     0
  9
$DIMDSEP
 70
    46
  9
$DIMATFIT
 70
     3
  9
$DIMFRAC
 70
     0
  9
$DIMLDRBLK
  1

  9
$DIMLUNIT
 70
     2
  9
$DIMLWD
 70
    -2
  9
$DIMLWE
 70
    -2
  9
$DIMTMOVE
 70
     0
  9
$LUNITS
 70
     2
  9
$LUPREC
 70
     4
  9
$SKETCHINC
 40
0.1
  9
$FILLETRAD
 40
0.0
  9
$AUNITS
 70
     0
  9
$AUPREC
 70
     0
  9
$MENU
  1
.
  9
$ELEVATION
 40
0.0
  9
$PELEVATION
 40
0.0
  9
$THICKNESS
 40
0.0
  9
$LIMCHECK
 70
     0
  9
$CHAMFERA
 40
0.0
  9
$CHAMFERB
 40
0.0
  9
$CHAMFERC
 40
0.0
  9
$CHAMFERD
 40
0.0
  9
$SKPOLY
 70
     0
  9
$TDCREATE
 40
2454748.420579374
  9
$TDUCREATE
 40
2454748.337246042
  9
$TDUPDATE
 40
2454748.432938680
  9
$TDUUPDATE
 40
2454748.349605347
  9
$TDINDWG
 40
0.0123594792
  9
$TDUSRTIMER
 40
0.0123594792
  9
$USRTIMER
 70
     1
  9
$ANGBASE
 50
0.0
  9
$ANGDIR
 70
     0
  9
$PDMODE
 70
     0
  9
$PDSIZE
 40
0.0
  9
$PLINEWID
 40
0.0
  9
$SPLFRAME
 70
     0
  9
$SPLINETYPE
 70
     6
  9
$SPLINESEGS
 70
     8
  9
$HANDSEED
  5
26A
  9
$SURFTAB1
 70
     6
  9
$SURFTAB2
 70
     6
  9
$SURFTYPE
 70
     6
  9
$SURFU
 70
     6
  9
$SURFV
 70
     6
  9
$UCSBASE
  2

  9
$UCSNAME
  2

  9
$UCSORG
 10
0.0
 20
0.0
 30
0.0
  9
$UCSXDIR
 10
1.0
 20
0.0
 30
0.0
  9
$UCSYDIR
 10
0.0
 20
1.0
 30
0.0
  9
$UCSORTHOREF
  2

  9
$UCSORTHOVIEW
 70
     1
  9
$UCSORGTOP
 10
0.0
 20
0.0
 30
0.0
  9
$UCSORGBOTTOM
 10
0.0
 20
0.0
 30
0.0
  9
$UCSORGLEFT
 10
0.0
 20
0.0
 30
0.0
  9
$UCSORGRIGHT
 10
0.0
 20
0.0
 30
0.0
  9
$UCSORGFRONT
 10
0.0
 20
0.0
 30
0.0
  9
$UCSORGBACK
 10
0.0
 20
0.0
 30
0.0
  9
$PUCSBASE
  2

  9
$PUCSNAME
  2

  9
$PUCSORG
 10
0.0
 20
0.0
 30
0.0
  9
$PUCSXDIR
 10
1.0
 20
0.0
 30
0.0
  9
$PUCSYDIR
 10
0.0
 20
1.0
 30
0.0
  9
$PUCSORTHOREF
  2

  9
$PUCSORTHOVIEW
 70
     0
  9
$PUCSORGTOP
 10
0.0
 20
0.0
 30
0.0
  9
$PUCSORGBOTTOM
 10
0.0
 20
0.0
 30
0.0
  9
$PUCSORGLEFT
 10
0.0
 20
0.0
 30
0.0
  9
$PUCSORGRIGHT
 10
0.0
 20
0.0
 30
0.0
  9
$PUCSORGFRONT
 10
0.0
 20
0.0
 30
0.0
  9
$PUCSORGBACK
 10
0.0
 20
0.0
 30
0.0
  9
$USERI1
 70
     0
  9
$USERI2
 70
     0
  9
$USERI3
 70
     0
  9
$USERI4
 70
     0
  9
$USERI5
 70
     0
  9
$USERR1
 40
0.0
  9
$USERR2
 40
0.0
  9
$USERR3
 40
0.0
  9
$USERR4
 40
0.0
  9
$USERR5
 40
0.0
  9
$WORLDVIEW
 70
     1
  9
$SHADEDGE
 70
     3
  9
$SHADEDIF
 70
    70
  9
$TILEMODE
 70
     1
  9
$MAXACTVP
 70
    64
  9
$PINSBASE
 10
0.0
 20
0.0
 30
0.0
  9
$PLIMCHECK
 70
     0
  9
$PEXTMIN
 10
1.000000000000000E+20
 20
1.000000000000000E+20
 30
1.000000000000000E+20
  9
$PEXTMAX
 10
-1.000000000000000E+20
 20
-1.000000000000000E+20
 30
-1.000000000000000E+20
  9
$PLIMMIN
 10
0.0
 20
0.0
  9
$PLIMMAX
 10
12.0
 20
9.0
  9
$UNITMODE
 70
     0
  9
$VISRETAIN
 70
     1
  9
$PLINEGEN
 70
     0
  9
$PSLTSCALE
 70
     1
  9
$TREEDEPTH
 70
  3020
  9
$CMLSTYLE
  2
Standard
  9
$CMLJUST
 70
     0
  9
$CMLSCALE
 40
1.0
  9
$PROXYGRAPHICS
 70
     1
  9
$MEASUREMENT
 70
     0
  9
$CELWEIGHT
370
    -1
  9
$ENDCAPS
280
     0
  9
$JOINSTYLE
280
     0
  9
$LWDISPLAY
290
     0
  9
$INSUNITS
 70
     0
  9
$HYPERLINKBASE
  1

  9
$STYLESHEET
  1

  9
$XEDIT
290
     1
  9
$CEPSNTYPE
380
     0
  9
$PSTYLEMODE
290
     1
  9
$FINGERPRINTGUID
  2
{C5FB2F11-1B26-4273-8CB9-41265BF4BC7A}
  9
$VERSIONGUID
  2
{9736CDD8-96B8-4D51-87A9-218ACB51CC22}
  9
$EXTNAMES
290
     1
  9
$PSVPSCALE
 40
0.0
  9
$OLESTARTUP
290
     0
  0
ENDSEC
  0
SECTION
  2
CLASSES
  0
CLASS
  1
ACDBDICTIONARYWDFLT
  2
AcDbDictionaryWithDefault
  3
AutoCAD 2000
 90
        0
280
     0
281
     0
  0
CLASS
  1
ACDBPLACEHOLDER
  2
AcDbPlaceHolder
  3
AutoCAD 2000
 90
        0
280
     0
281
     0
  0
CLASS
  1
LAYOUT
  2
AcDbLayout
  3
AutoCAD 2000
 90
        0
280
     0
281
     0
  0
CLASS
  1
DICTIONARYVAR
  2
AcDbDictionaryVar
  3
AutoCAD 2000
 90
        0
280
     0
281
     0
  0
ENDSEC
  0
SECTION
  2
TABLES
  0
TABLE
  2
VPORT
  5
8
330
0
100
AcDbSymbolTable
 70
     2
  0
VPORT
  5
269
330
8
100
AcDbSymbolTableRecord
100
AcDbViewportTableRecord
  2
*Active
 70
     0
 10
0.0
 20
0.0
 11
1.0
 21
1.0
 12
53.0
 22
79.0
 13
0.0
 23
0.0
 14
1.0
 24
1.0
 15
0.0
 25
0.0
 16
0.0
 26
0.0
 36
1.0
 17
0.0
 27
0.0
 37
0.0
 40
158.7084398976982
 41
2.078104993597951
 42
50.0
 43
0.0
 44
0.0
 50
0.0
 51
0.0
 71
     0
 72
   100
 73
     1
 74
     3
 75
     0
 76
     0
 77
     0
 78
     0
281
     0
 65
     1
110
0.0
120
0.0
130
0.0
111
1.0
121
0.0
131
0.0
112
0.0
122
1.0
132
0.0
 79
     1
146
0.0
  0
ENDTAB
  0
TABLE
  2
LTYPE
  5
5
330
0
100
AcDbSymbolTable
 70
     1
  0
LTYPE
  5
13
330
5
100
AcDbSymbolTableRecord
100
AcDbLinetypeTableRecord
  2
ByBlock
 70
     0
  3

 72
    65
 73
     0
 40
0.0
  0
LTYPE
  5
14
330
5
100
AcDbSymbolTableRecord
100
AcDbLinetypeTableRecord
  2
ByLayer
 70
     0
  3

 72
    65
 73
     0
 40
0.0
  0
LTYPE
  5
15
330
5
100
AcDbSymbolTableRecord
100
AcDbLinetypeTableRecord
  2
Continuous
 70
     0
  3
Solid line
 72
    65
 73
     0
 40
0.0
  0
ENDTAB
  0
TABLE
  2
LAYER
  5
2
330
0
100
AcDbSymbolTable
 70
     1
  0
LAYER
  5
10
330
2
100
AcDbSymbolTableRecord
100
AcDbLayerTableRecord
  2
0
 70
     0
 62
     7
  6
Continuous
370
    -3
390
F
  0
ENDTAB
  0
TABLE
  2
STYLE
  5
3
330
0
100
AcDbSymbolTable
 70
     1
  0
STYLE
  5
11
330
3
100
AcDbSymbolTableRecord
100
AcDbTextStyleTableRecord
  2
Standard
 70
     0
 40
0.0
 41
1.0
 50
0.0
 71
     0
 42
0.2
  3
txt
  4

  0
ENDTAB
  0
TABLE
  2
VIEW
  5
6
330
0
100
AcDbSymbolTable
 70
     0
  0
ENDTAB
  0
TABLE
  2
UCS
  5
7
330
0
100
AcDbSymbolTable
 70
     0
  0
ENDTAB
  0
TABLE
  2
APPID
  5
9
330
0
100
AcDbSymbolTable
 70
     1
  0
APPID
  5
12
330
9
100
AcDbSymbolTableRecord
100
AcDbRegAppTableRecord
  2
ACAD
 70
     0
  0
ENDTAB
  0
TABLE
  2
DIMSTYLE
  5
A
330
0
100
AcDbSymbolTable
 70
     1
100
AcDbDimStyleTable
 71
     0
  0
DIMSTYLE
105
252
330
A
100
AcDbSymbolTableRecord
100
AcDbDimStyleTableRecord
  2
Standard
 70
     0
340
11
  0
ENDTAB
  0
TABLE
  2
BLOCK_RECORD
  5
1
330
0
100
AcDbSymbolTable
 70
     0
  0
BLOCK_RECORD
  5
1E
330
1
100
AcDbSymbolTableRecord
100
AcDbBlockTableRecord
  2
*Model_Space
340
21
  0
BLOCK_RECORD
  5
1A
330
1
100
AcDbSymbolTableRecord
100
AcDbBlockTableRecord
  2
*Paper_Space
340
1D
  0
ENDTAB
  0
ENDSEC
  0
SECTION
  2
BLOCKS
  0
BLOCK
  5
1F
330
1E
100
AcDbEntity
  8
0
100
AcDbBlockBegin
  2
*Model_Space
 70
     0
 10
0.0
 20
0.0
 30
0.0
  3
*Model_Space
  1

  0
ENDBLK
  5
20
330
1E
100
AcDbEntity
  8
0
100
AcDbBlockEnd
  0
BLOCK
  5
1B
330
1A
100
AcDbEntity
 67
     1
  8
0
100
AcDbBlockBegin
  2
*Paper_Space
 70
     0
 10
0.0
 20
0.0
 30
0.0
  3
*Paper_Space
  1

  0
ENDBLK
  5
1C
330
1A
100
AcDbEntity
 67
     1
  8
0
100
AcDbBlockEnd
  0
ENDSEC
  0
SECTION
  2
ENTITIES
  0
LINE
  5
22
330
1E
100
AcDbEntity
  8
0
100
AcDbLine
 10
20.2061
 20
15.5638
 30
0.0
 11
30.4649
 21
7.383500000000009
 31
0.0
  0
LINE
  5
23
330
1E
100
AcDbEntity
  8
0
100
AcDbLine
 10
6.124400000000009
 20
51.11499699999999
 30
0.0
 11
7.698999999999999
 21
38.1855
 31
0.0
  0
LINE
  5
24
330
1E
100
AcDbEntity
  8
0
100
AcDbLine
 10
6.124400000000009
 20
51.11499699999999
 30
0.0
 11
8.149300000000009
 21
63.9816
 31
0.0
  0
LINE
  5
25
330
1E
100
AcDbEntity
  8
0
100
AcDbLine
 10
7.698999999999999
 20
38.1855
 30
0.0
 11
12.38879999999999
 21
26.1019
 31
0.0
  0
LINE
  5
26
330
1E
100
AcDbEntity
  8
0
100
AcDbLine
 10
12.38879999999999
 20
26.1019
 30
0.0
 11
20.2061
 21
15.5638
 31
0.0
  0
LINE
  5
27
330
1E
100
AcDbEntity
  8
0
100
AcDbLine
 10
36.7307
 20
45.47998999999999
 30
0.0
 11
38.64489999999999
 21
40.5458
 31
0.0
  0
LINE
  5
28
330
1E
100
AcDbEntity
  8
0
100
AcDbLine
 10
38.64489999999999
 20
40.5458
 30
0.0
 11
41.7729
 21
36.3906
 31
0.0
  0
LINE
  5
29
330
1E
100
AcDbEntity
  8
0
100
AcDbLine
 10
41.7729
 20
36.3906
 30
0.0
 11
45.8162
 21
33.1195
 31
0.0
  0
LINE
  5
2A
330
1E
100
AcDbEntity
  8
0
100
AcDbLine
 10
45.8162
 20
33.1195
 30
0.0
 11
50.6812
 21
31.0343
 31
0.0
  0
LINE
  5
2B
330
1E
100
AcDbEntity
  8
0
100
AcDbLine
 10
36.1199
 20
50.59142
 30
0.0
 11
36.7307
 21
45.47998999999999
 31
0.0
  0
LINE
  5
2C
330
1E
100
AcDbEntity
  8
0
100
AcDbLine
 10
36.1199
 20
50.59142
 30
0.0
 11
36.90879999999999
 21
55.67843
 31
0.0
  0
LINE
  5
2D
330
1E
100
AcDbEntity
  8
0
100
AcDbLine
 10
30.4649
 20
7.383500000000009
 30
0.0
 11
42.3776
 21
2.2749
 31
0.0
  0
LINE
  5
2E
330
1E
100
AcDbEntity
  8
0
100
AcDbLine
 10
30.4649
 20
7.383500000000009
 30
0.0
 11
42.3776
 21
2.2749
 31
0.0
  0
LINE
  5
2F
330
1E
100
AcDbEntity
  8
0
100
AcDbLine
 10
42.3776
 20
2.2749
 30
0.0
 11
55.2442
 21
0.250000000000007
 31
0.0
  0
LINE
  5
30
330
1E
100
AcDbEntity
  8
0
100
AcDbLine
 10
42.3776
 20
2.2749
 30
0.0
 11
55.2442
 21
0.250000000000007
 31
0.0
  0
LINE
  5
31
330
1E
100
AcDbEntity
  8
0
100
AcDbLine
 10
48.9422
 20
49.15
 30
0.0
 11
49.9422
 21
46.74999999999999
 31
0.0
  0
LINE
  5
32
330
1E
100
AcDbEntity
  8
0
100
AcDbLine
 10
49.2762
 20
49.28333
 30
0.0
 11
50.2092
 21
46.95
 31
0.0
  0
LINE
  5
33
330
1E
100
AcDbEntity
  8
0
100
AcDbLine
 10
48.6092
 20
51.75
 30
0.0
 11
48.9422
 21
49.15
 31
0.0
  0
LINE
  5
34
330
1E
100
AcDbEntity
  8
0
100
AcDbLine
 10
-0.109199999999995
 20
59.2028
 30
0.0
 11
0.123200000000004
 21
59.64553000000001
 31
0.0
  0
LINE
  5
35
330
1E
100
AcDbEntity
  8
0
100
AcDbLine
 10
0.123200000000004
 20
59.64553000000001
 30
0.0
 11
0.82030000000001
 21
60.9737
 31
0.0
  0
LINE
  5
36
330
1E
100
AcDbEntity
  8
0
100
AcDbLine
 10
0.123200000000004
 20
59.64553000000001
 30
0.0
 11
0.82030000000001
 21
60.9737
 31
0.0
  0
LINE
  5
37
330
1E
100
AcDbEntity
  8
0
100
AcDbLine
 10
-0.109199999999995
 20
59.2028
 30
0.0
 11
0.123200000000004
 21
59.64553000000001
 31
0.0
  0
LINE
  5
38
330
1E
100
AcDbEntity
  8
0
100
AcDbLine
 10
36.90879999999999
 20
55.67843
 30
0.0
 11
38.99399999999999
 21
60.54278
 31
0.0
  0
LINE
  5
39
330
1E
100
AcDbEntity
  8
0
100
AcDbLine
 10
38.99399999999999
 20
60.54278
 30
0.0
 11
42.265
 21
64.58629999999999
 31
0.0
  0
LINE
  5
3A
330
1E
100
AcDbEntity
  8
0
100
AcDbLine
 10
3.5207
 20
61.8151
 30
0.0
 11
12.0052
 21
76.1849
 31
0.0
  0
LINE
  5
3B
330
1E
100
AcDbEntity
  8
0
100
AcDbLine
 10
2.591200000000009
 20
60.04421999999999
 30
0.0
 11
3.5207
 21
61.8151
 31
0.0
  0
LINE
  5
3C
330
1E
100
AcDbEntity
  8
0
100
AcDbLine
 10
1.89410000000001
 20
58.71605
 30
0.0
 11
2.591200000000009
 21
60.04421999999999
 31
0.0
  0
LINE
  5
3D
330
1E
100
AcDbEntity
  8
0
100
AcDbLine
 10
1.66170000000001
 20
58.27333
 30
0.0
 11
1.89410000000001
 21
58.71605
 31
0.0
  0
LINE
  5
3E
330
1E
100
AcDbEntity
  8
0
100
AcDbLine
 10
1.74980000000001
 20
62.7446
 30
0.0
 11
8.586067271113059
 21
74.0571531761197
 31
0.0
  0
LINE
  5
40
330
1E
100
AcDbEntity
  8
0
100
AcDbLine
 10
8.149300000000009
 20
63.9816
 30
0.0
 11
13.258
 21
75.8943
 31
0.0
  0
LINE
  5
48
330
1E
100
AcDbEntity
  8
0
100
AcDbLine
 10
13.258
 20
75.8943
 30
0.0
 11
21.4383
 21
86.15309999999999
 31
0.0
  0
LINE
  5
4A
330
1E
100
AcDbEntity
  8
0
100
AcDbLine
 10
46.4202
 20
67.71429999999999
 30
0.0
 11
51.35419999999999
 21
69.62839999999999
 31
0.0
  0
LINE
  5
4B
330
1E
100
AcDbEntity
  8
0
100
AcDbLine
 10
21.4383
 20
86.15309999999999
 30
0.0
 11
31.9763
 21
93.97029999999999
 31
0.0
  0
LINE
  5
4C
330
1E
100
AcDbEntity
  8
0
100
AcDbLine
 10
42.265
 20
64.58629999999999
 30
0.0
 11
46.4202
 21
67.71429999999999
 31
0.0
  0
LINE
  5
51
330
1E
100
AcDbEntity
  8
0
100
AcDbLine
 10
16.9144631443338
 20
86.7438751477594
 30
0.0
 11
21.7876
 21
93.99829999999999
 31
0.0
  0
LINE
  5
52
330
1E
100
AcDbEntity
  8
0
100
AcDbLine
 10
12.0052
 20
76.1849
 30
0.0
 11
23.344
 21
92.89749999999999
 31
0.0
  0
LINE
  5
53
330
1E
100
AcDbEntity
  8
0
100
AcDbLine
 10
31.9763
 20
93.97029999999999
 30
0.0
 11
44.06
 21
98.6602
 31
0.0
  0
LINE
  5
54
330
1E
100
AcDbEntity
  8
0
100
AcDbLine
 10
23.344
 20
92.89749999999999
 30
0.0
 11
34.4069
 21
108.6797
 31
0.0
  0
LINE
  5
55
330
1E
100
AcDbEntity
  8
0
100
AcDbLine
 10
44.06
 20
98.6602
 30
0.0
 11
56.9892
 21
100.2348
 31
0.0
  0
LINE
  5
56
330
1E
100
AcDbEntity
  8
0
100
AcDbLine
 10
34.4069
 20
108.6797
 30
0.0
 11
46.8802
 21
124.7681999999999
 31
0.0
  0
LINE
  5
5A
330
1E
100
AcDbEntity
  8
0
100
AcDbLine
 10
32.9395
 20
109.8542
 30
0.0
 11
43.3089
 21
123.4588999999999
 31
0.0
  0
LINE
  5
5B
330
1E
100
AcDbEntity
  8
0
100
AcDbLine
 10
21.7876
 20
93.99829999999999
 30
0.0
 11
32.9395
 21
109.8542
 31
0.0
  0
LINE
  5
5C
330
1E
100
AcDbEntity
  8
0
100
AcDbLine
 10
16.9144631443338
 20
86.7438751477594
 30
0.0
 11
21.7876
 21
93.99829999999999
 31
0.0
  0
LINE
  5
5D
330
1E
100
AcDbEntity
  8
0
100
AcDbLine
 10
11.6396447006873
 20
78.8914845537721
 30
0.0
 11
16.9144631443338
 21
86.7438751477594
 31
0.0
  0
LINE
  5
5E
330
1E
100
AcDbEntity
  8
0
100
AcDbLine
 10
3.5207
 20
61.8151
 30
0.0
 11
12.0052
 21
76.1849
 31
0.0
  0
LINE
  5
5F
330
1E
100
AcDbEntity
  8
0
100
AcDbLine
 10
0.82030000000001
 20
60.9737
 30
0.0
 11
1.74980000000001
 21
62.7446
 31
0.0
  0
LINE
  5
60
330
1E
100
AcDbEntity
  8
0
100
AcDbLine
 10
48.9422
 20
54.35
 30
0.0
 11
49.9422
 21
56.75
 31
0.0
  0
LINE
  5
61
330
1E
100
AcDbEntity
  8
0
100
AcDbLine
 10
49.2762
 20
54.2167
 30
0.0
 11
50.2092
 21
56.55
 31
0.0
  0
LINE
  5
62
330
1E
100
AcDbEntity
  8
0
100
AcDbLine
 10
48.9422
 20
51.75
 30
0.0
 11
49.2762
 21
54.2167
 31
0.0
  0
LINE
  5
63
330
1E
100
AcDbEntity
  8
0
100
AcDbLine
 10
48.9422
 20
51.75
 30
0.0
 11
49.2762
 21
49.28333
 31
0.0
  0
LINE
  5
64
330
1E
100
AcDbEntity
  8
0
100
AcDbLine
 10
50.2092
 20
46.95
 30
0.0
 11
51.8092
 21
44.95
 31
0.0
  0
LINE
  5
65
330
1E
100
AcDbEntity
  8
0
100
AcDbLine
 10
50.6092
 20
49.61669
 30
0.0
 11
51.4092
 21
47.61667
 31
0.0
  0
LINE
  5
66
330
1E
100
AcDbEntity
  8
0
100
AcDbLine
 10
49.9422
 20
56.75
 30
0.0
 11
51.5422
 21
58.81669999999999
 31
0.0
  0
LINE
  5
67
330
1E
100
AcDbEntity
  8
0
100
AcDbLine
 10
50.2092
 20
56.55
 30
0.0
 11
51.8092
 21
58.55
 31
0.0
  0
LINE
  5
68
330
1E
100
AcDbEntity
  8
0
100
AcDbLine
 10
50.6092
 20
53.88329999999999
 30
0.0
 11
51.4092
 21
55.8833
 31
0.0
  0
LINE
  5
69
330
1E
100
AcDbEntity
  8
0
100
AcDbLine
 10
50.2762
 20
51.75
 30
0.0
 11
50.6092
 21
53.88329999999999
 31
0.0
  0
LINE
  5
6A
330
1E
100
AcDbEntity
  8
0
100
AcDbLine
 10
50.2762
 20
51.75
 30
0.0
 11
50.6092
 21
49.61669
 31
0.0
  0
LINE
  5
6B
330
1E
100
AcDbEntity
  8
0
100
AcDbLine
 10
50.6812
 20
31.0343
 30
0.0
 11
55.7682
 21
30.2454
 31
0.0
  0
LINE
  5
6C
330
1E
100
AcDbEntity
  8
0
100
AcDbLine
 10
51.8092
 20
44.95
 30
0.0
 11
53.80919999999999
 21
43.34999999999999
 31
0.0
  0
LINE
  5
6D
330
1E
100
AcDbEntity
  8
0
100
AcDbLine
 10
51.4092
 20
47.61667
 30
0.0
 11
52.74219999999999
 21
45.88333
 31
0.0
  0
LINE
  5
6E
330
1E
100
AcDbEntity
  8
0
100
AcDbLine
 10
51.6762
 20
47.75
 30
0.0
 11
52.9422
 21
46.08333
 31
0.0
  0
LINE
  5
6F
330
1E
100
AcDbEntity
  8
0
100
AcDbLine
 10
50.8762
 20
49.68331
 30
0.0
 11
51.6762
 21
47.75
 31
0.0
  0
LINE
  5
70
330
1E
100
AcDbEntity
  8
0
100
AcDbLine
 10
52.74219999999999
 20
45.88333
 30
0.0
 11
54.4762
 21
44.55
 31
0.0
  0
LINE
  5
71
330
1E
100
AcDbEntity
  8
0
100
AcDbLine
 10
52.9422
 20
46.08333
 30
0.0
 11
54.6092
 21
44.81667
 31
0.0
  0
LINE
  5
72
330
1E
100
AcDbEntity
  8
0
100
AcDbLine
 10
51.4092
 20
55.8833
 30
0.0
 11
52.74219999999999
 21
57.6167
 31
0.0
  0
LINE
  5
73
330
1E
100
AcDbEntity
  8
0
100
AcDbLine
 10
51.6762
 20
55.75
 30
0.0
 11
52.9422
 21
57.4167
 31
0.0
  0
LINE
  5
74
330
1E
100
AcDbEntity
  8
0
100
AcDbLine
 10
50.8762
 20
53.81669999999999
 30
0.0
 11
51.6762
 21
55.75
 31
0.0
  0
LINE
  5
75
330
1E
100
AcDbEntity
  8
0
100
AcDbLine
 10
50.6092
 20
51.75
 30
0.0
 11
50.8762
 21
53.81669999999999
 31
0.0
  0
LINE
  5
76
330
1E
100
AcDbEntity
  8
0
100
AcDbLine
 10
50.6092
 20
51.75
 30
0.0
 11
50.8762
 21
49.68331
 31
0.0
  0
LINE
  5
77
330
1E
100
AcDbEntity
  8
0
100
AcDbLine
 10
51.8092
 20
58.55
 30
0.0
 11
53.80919999999999
 21
60.15
 31
0.0
  0
LINE
  5
78
330
1E
100
AcDbEntity
  8
0
100
AcDbLine
 10
52.74219999999999
 20
57.6167
 30
0.0
 11
54.4762
 21
58.95
 31
0.0
  0
LINE
  5
79
330
1E
100
AcDbEntity
  8
0
100
AcDbLine
 10
53.6092
 20
43.08333
 30
0.0
 11
56.0092
 21
42.08332999999999
 31
0.0
  0
LINE
  5
7A
330
1E
100
AcDbEntity
  8
0
100
AcDbLine
 10
52.9422
 20
57.4167
 30
0.0
 11
54.6092
 21
58.6833
 31
0.0
  0
LINE
  5
7B
330
1E
100
AcDbEntity
  8
0
100
AcDbLine
 10
51.35419999999999
 20
69.62839999999999
 30
0.0
 11
56.4662
 21
70.2393
 31
0.0
  0
LINE
  5
7C
330
1E
100
AcDbEntity
  8
0
100
AcDbLine
 10
53.6092
 20
99.823162156978
 30
0.0
 11
53.6092
 21
118.8582999999999
 31
0.0
  0
LINE
  5
7D
330
1E
100
AcDbEntity
  8
0
100
AcDbLine
 10
53.6092
 20
60.41669999999999
 30
0.0
 11
53.6092
 21
69.89787955790301
 31
0.0
  0
LINE
  5
7E
330
1E
100
AcDbEntity
  8
0
100
AcDbLine
 10
53.6092
 20
60.41669999999999
 30
0.0
 11
56.0092
 21
61.4167
 31
0.0
  0
LINE
  5
7F
330
1E
100
AcDbEntity
  8
0
100
AcDbLine
 10
55.2442
 20
0.250000000000007
 30
0.0
 11
68.17319999999999
 21
1.8246
 31
0.0
  0
LINE
  5
80
330
1E
100
AcDbEntity
  8
0
100
AcDbLine
 10
55.7682
 20
30.2454
 30
0.0
 11
60.8792
 21
30.8563
 31
0.0
  0
LINE
  5
81
330
1E
100
AcDbEntity
  8
0
100
AcDbLine
 10
55.2442
 20
0.250000000000007
 30
0.0
 11
68.17319999999999
 21
1.8246
 31
0.0
  0
LINE
  5
82
330
1E
100
AcDbEntity
  8
0
100
AcDbLine
 10
53.80919999999999
 20
43.34999999999999
 30
0.0
 11
56.1422
 21
42.41667
 31
0.0
  0
LINE
  5
83
330
1E
100
AcDbEntity
  8
0
100
AcDbLine
 10
56.1422
 20
42.41667
 30
0.0
 11
58.6092
 21
42.08332999999999
 31
0.0
  0
LINE
  5
84
330
1E
100
AcDbEntity
  8
0
100
AcDbLine
 10
54.4762
 20
44.55
 30
0.0
 11
56.47619999999999
 21
43.75
 31
0.0
  0
LINE
  5
85
330
1E
100
AcDbEntity
  8
0
100
AcDbLine
 10
56.47619999999999
 20
43.75
 30
0.0
 11
58.6092
 21
43.41667
 31
0.0
  0
LINE
  5
86
330
1E
100
AcDbEntity
  8
0
100
AcDbLine
 10
54.6092
 20
44.81667
 30
0.0
 11
56.5422
 21
44.01666999999999
 31
0.0
  0
LINE
  5
87
330
1E
100
AcDbEntity
  8
0
100
AcDbLine
 10
56.5422
 20
44.01666999999999
 30
0.0
 11
58.6092
 21
43.75
 31
0.0
  0
LINE
  5
88
330
1E
100
AcDbEntity
  8
0
100
AcDbLine
 10
56.0092
 20
61.4167
 30
0.0
 11
58.6092
 21
61.75
 31
0.0
  0
LINE
  5
89
330
1E
100
AcDbEntity
  8
0
100
AcDbLine
 10
53.80919999999999
 20
60.15
 30
0.0
 11
56.1422
 21
61.0833
 31
0.0
  0
LINE
  5
8A
330
1E
100
AcDbEntity
  8
0
100
AcDbLine
 10
56.1422
 20
61.0833
 30
0.0
 11
58.6092
 21
61.4167
 31
0.0
  0
LINE
  5
8B
330
1E
100
AcDbEntity
  8
0
100
AcDbLine
 10
54.4762
 20
58.95
 30
0.0
 11
56.47619999999999
 21
59.75
 31
0.0
  0
LINE
  5
8C
330
1E
100
AcDbEntity
  8
0
100
AcDbLine
 10
56.47619999999999
 20
59.75
 30
0.0
 11
58.6092
 21
60.0833
 31
0.0
  0
LINE
  5
8D
330
1E
100
AcDbEntity
  8
0
100
AcDbLine
 10
54.6092
 20
58.6833
 30
0.0
 11
56.5422
 21
59.4833
 31
0.0
  0
LINE
  5
8E
330
1E
100
AcDbEntity
  8
0
100
AcDbLine
 10
60.8792
 20
30.8563
 30
0.0
 11
65.81319999999999
 21
32.7705
 31
0.0
  0
LINE
  5
8F
330
1E
100
AcDbEntity
  8
0
100
AcDbLine
 10
58.6092
 20
42.08332999999999
 30
0.0
 11
61.0762
 21
42.41667
 31
0.0
  0
LINE
  5
90
330
1E
100
AcDbEntity
  8
0
100
AcDbLine
 10
58.6092
 20
43.41667
 30
0.0
 11
60.7422
 21
43.75
 31
0.0
  0
LINE
  5
91
330
1E
100
AcDbEntity
  8
0
100
AcDbLine
 10
58.6092
 20
43.75
 30
0.0
 11
60.6762
 21
44.01666999999999
 31
0.0
  0
LINE
  5
92
330
1E
100
AcDbEntity
  8
0
100
AcDbLine
 10
58.6092
 20
61.75
 30
0.0
 11
61.2092
 21
61.4167
 31
0.0
  0
LINE
  5
93
330
1E
100
AcDbEntity
  8
0
100
AcDbLine
 10
58.6092
 20
61.4167
 30
0.0
 11
61.0762
 21
61.0833
 31
0.0
  0
LINE
  5
94
330
1E
100
AcDbEntity
  8
0
100
AcDbLine
 10
58.6092
 20
60.0833
 30
0.0
 11
60.7422
 21
59.75
 31
0.0
  0
LINE
  5
95
330
1E
100
AcDbEntity
  8
0
100
AcDbLine
 10
61.0762
 20
42.41667
 30
0.0
 11
63.4092
 21
43.34999999999999
 31
0.0
  0
LINE
  5
96
330
1E
100
AcDbEntity
  8
0
100
AcDbLine
 10
60.7422
 20
43.75
 30
0.0
 11
62.74219999999999
 21
44.55
 31
0.0
  0
LINE
  5
97
330
1E
100
AcDbEntity
  8
0
100
AcDbLine
 10
62.6092
 20
44.81667
 30
0.0
 11
64.2762
 21
46.08333
 31
0.0
  0
LINE
  5
98
330
1E
100
AcDbEntity
  8
0
100
AcDbLine
 10
60.6762
 20
44.01666999999999
 30
0.0
 11
62.6092
 21
44.81667
 31
0.0
  0
LINE
  5
99
330
1E
100
AcDbEntity
  8
0
100
AcDbLine
 10
63.4092
 20
43.34999999999999
 30
0.0
 11
65.40919999999999
 21
44.95
 31
0.0
  0
LINE
  5
9A
330
1E
100
AcDbEntity
  8
0
100
AcDbLine
 10
62.74219999999999
 20
44.55
 30
0.0
 11
64.4762
 21
45.88333
 31
0.0
  0
LINE
  5
9B
330
1E
100
AcDbEntity
  8
0
100
AcDbLine
 10
62.74219999999999
 20
58.95
 30
0.0
 11
64.4762
 21
57.6167
 31
0.0
  0
LINE
  5
9C
330
1E
100
AcDbEntity
  8
0
100
AcDbLine
 10
62.6092
 20
58.6833
 30
0.0
 11
64.2762
 21
57.4167
 31
0.0
  0
LINE
  5
9D
330
1E
100
AcDbEntity
  8
0
100
AcDbLine
 10
63.4092
 20
60.15
 30
0.0
 11
65.40919999999999
 21
58.55
 31
0.0
  0
LINE
  5
9E
330
1E
100
AcDbEntity
  8
0
100
AcDbLine
 10
61.2092
 20
61.4167
 30
0.0
 11
63.6092
 21
60.41669999999999
 31
0.0
  0
LINE
  5
9F
330
1E
100
AcDbEntity
  8
0
100
AcDbLine
 10
61.0762
 20
61.0833
 30
0.0
 11
63.4092
 21
60.15
 31
0.0
  0
LINE
  5
A0
330
1E
100
AcDbEntity
  8
0
100
AcDbLine
 10
60.7422
 20
59.75
 30
0.0
 11
62.74219999999999
 21
58.95
 31
0.0
  0
LINE
  5
A1
330
1E
100
AcDbEntity
  8
0
100
AcDbLine
 10
60.6762
 20
59.4833
 30
0.0
 11
62.6092
 21
58.6833
 31
0.0
  0
LINE
  5
A2
330
1E
100
AcDbEntity
  8
0
100
AcDbLine
 10
58.6092
 20
59.75
 30
0.0
 11
60.6762
 21
59.4833
 31
0.0
  0
LINE
  5
A3
330
1E
100
AcDbEntity
  8
0
100
AcDbLine
 10
58.6092
 20
41.74999999999999
 30
0.0
 11
61.2092
 21
42.08332999999999
 31
0.0
  0
LINE
  5
A4
330
1E
100
AcDbEntity
  8
0
100
AcDbLine
 10
56.5422
 20
59.4833
 30
0.0
 11
58.6092
 21
59.75
 31
0.0
  0
LINE
  5
A5
330
1E
100
AcDbEntity
  8
0
100
AcDbLine
 10
61.55319999999999
 20
69.4504
 30
0.0
 11
66.41719999999999
 21
67.3652
 31
0.0
  0
LINE
  5
A6
330
1E
100
AcDbEntity
  8
0
100
AcDbLine
 10
56.4662
 20
70.2393
 30
0.0
 11
61.55319999999999
 21
69.4504
 31
0.0
  0
LINE
  5
A7
330
1E
100
AcDbEntity
  8
0
100
AcDbLine
 10
63.6092
 20
68.5689914473684
 30
0.0
 11
63.6092
 21
60.41669999999999
 31
0.0
  0
LINE
  5
A8
330
1E
100
AcDbEntity
  8
0
100
AcDbLine
 10
65.81319999999999
 20
32.7705
 30
0.0
 11
69.96819999999999
 21
35.8984
 31
0.0
  0
LINE
  5
A9
330
1E
100
AcDbEntity
  8
0
100
AcDbLine
 10
65.40919999999999
 20
44.95
 30
0.0
 11
67.0092
 21
46.95
 31
0.0
  0
LINE
  5
AA
330
1E
100
AcDbEntity
  8
0
100
AcDbLine
 10
64.4762
 20
45.88333
 30
0.0
 11
65.8092
 21
47.61667
 31
0.0
  0
LINE
  5
AB
330
1E
100
AcDbEntity
  8
0
100
AcDbLine
 10
65.8092
 20
47.61667
 30
0.0
 11
66.6092
 21
49.61669
 31
0.0
  0
LINE
  5
AC
330
1E
100
AcDbEntity
  8
0
100
AcDbLine
 10
64.2762
 20
46.08333
 30
0.0
 11
65.54219999999999
 21
47.75
 31
0.0
  0
LINE
  5
AD
330
1E
100
AcDbEntity
  8
0
100
AcDbLine
 10
65.54219999999999
 20
47.75
 30
0.0
 11
66.3422
 21
49.68331
 31
0.0
  0
LINE
  5
AE
330
1E
100
AcDbEntity
  8
0
100
AcDbLine
 10
67.2762
 20
46.74999999999999
 30
0.0
 11
68.2762
 21
49.15
 31
0.0
  0
LINE
  5
AF
330
1E
100
AcDbEntity
  8
0
100
AcDbLine
 10
67.0092
 20
46.95
 30
0.0
 11
67.9422
 21
49.28333
 31
0.0
  0
LINE
  5
B0
330
1E
100
AcDbEntity
  8
0
100
AcDbLine
 10
68.17319999999999
 20
1.8246
 30
0.0
 11
80.25719999999999
 21
6.5144
 31
0.0
  0
LINE
  5
B1
330
1E
100
AcDbEntity
  8
0
100
AcDbLine
 10
73.2392
 20
39.942
 30
0.0
 11
75.32519999999999
 21
44.80631999999999
 31
0.0
  0
LINE
  5
B2
330
1E
100
AcDbEntity
  8
0
100
AcDbLine
 10
69.96819999999999
 20
35.8984
 30
0.0
 11
73.2392
 21
39.942
 31
0.0
  0
LINE
  5
B3
330
1E
100
AcDbEntity
  8
0
100
AcDbLine
 10
68.17319999999999
 20
1.8246
 30
0.0
 11
80.25719999999999
 21
6.5144
 31
0.0
  0
LINE
  5
B4
330
1E
100
AcDbEntity
  8
0
100
AcDbLine
 10
67.9422
 20
49.28333
 30
0.0
 11
68.2762
 21
51.75
 31
0.0
  0
LINE
  5
B5
330
1E
100
AcDbEntity
  8
0
100
AcDbLine
 10
66.6092
 20
49.61669
 30
0.0
 11
66.9422
 21
51.75
 31
0.0
  0
LINE
  5
B6
330
1E
100
AcDbEntity
  8
0
100
AcDbLine
 10
66.3422
 20
49.68331
 30
0.0
 11
66.6092
 21
51.75
 31
0.0
  0
LINE
  5
B7
330
1E
100
AcDbEntity
  8
0
100
AcDbLine
 10
65.40919999999999
 20
58.55
 30
0.0
 11
67.0092
 21
56.55
 31
0.0
  0
LINE
  5
B8
330
1E
100
AcDbEntity
  8
0
100
AcDbLine
 10
64.4762
 20
57.6167
 30
0.0
 11
65.8092
 21
55.8833
 31
0.0
  0
LINE
  5
B9
330
1E
100
AcDbEntity
  8
0
100
AcDbLine
 10
64.2762
 20
57.4167
 30
0.0
 11
65.54219999999999
 21
55.75
 31
0.0
  0
LINE
  5
BA
330
1E
100
AcDbEntity
  8
0
100
AcDbLine
 10
65.67619999999999
 20
58.81669999999999
 30
0.0
 11
67.2762
 21
56.75
 31
0.0
  0
LINE
  5
BB
330
1E
100
AcDbEntity
  8
0
100
AcDbLine
 10
66.41719999999999
 20
67.3652
 30
0.0
 11
70.46120000000001
 21
64.0941
 31
0.0
  0
LINE
  5
BC
330
1E
100
AcDbEntity
  8
0
100
AcDbLine
 10
73.5882
 20
59.93893
 30
0.0
 11
75.50320000000001
 21
55.00477
 31
0.0
  0
LINE
  5
BD
330
1E
100
AcDbEntity
  8
0
100
AcDbLine
 10
70.46120000000001
 20
64.0941
 30
0.0
 11
73.5882
 21
59.93893
 31
0.0
  0
LINE
  5
BE
330
1E
100
AcDbEntity
  8
0
100
AcDbLine
 10
69.8562
 20
98.20990000000001
 30
0.0
 11
81.7692
 21
93.10120000000001
 31
0.0
  0
LINE
  5
BF
330
1E
100
AcDbEntity
  8
0
100
AcDbLine
 10
67.2762
 20
56.75
 30
0.0
 11
68.2762
 21
54.35
 31
0.0
  0
LINE
  5
C0
330
1E
100
AcDbEntity
  8
0
100
AcDbLine
 10
68.2762
 20
54.35
 30
0.0
 11
68.6092
 21
51.75
 31
0.0
  0
LINE
  5
C1
330
1E
100
AcDbEntity
  8
0
100
AcDbLine
 10
67.0092
 20
56.55
 30
0.0
 11
67.9422
 21
54.2167
 31
0.0
  0
LINE
  5
C2
330
1E
100
AcDbEntity
  8
0
100
AcDbLine
 10
67.9422
 20
54.2167
 30
0.0
 11
68.2762
 21
51.75
 31
0.0
  0
LINE
  5
C3
330
1E
100
AcDbEntity
  8
0
100
AcDbLine
 10
65.8092
 20
55.8833
 30
0.0
 11
66.6092
 21
53.88329999999999
 31
0.0
  0
LINE
  5
C4
330
1E
100
AcDbEntity
  8
0
100
AcDbLine
 10
66.6092
 20
53.88329999999999
 30
0.0
 11
66.9422
 21
51.75
 31
0.0
  0
LINE
  5
C5
330
1E
100
AcDbEntity
  8
0
100
AcDbLine
 10
65.54219999999999
 20
55.75
 30
0.0
 11
66.3422
 21
53.81669999999999
 31
0.0
  0
LINE
  5
C6
330
1E
100
AcDbEntity
  8
0
100
AcDbLine
 10
66.3422
 20
53.81669999999999
 30
0.0
 11
66.6092
 21
51.75
 31
0.0
  0
LINE
  5
C7
330
1E
100
AcDbEntity
  8
0
100
AcDbLine
 10
63.6092
 20
60.41669999999999
 30
0.0
 11
63.6092
 21
68.5689914473684
 31
0.0
  0
LINE
  5
C8
330
1E
100
AcDbEntity
  8
0
100
AcDbLine
 10
63.6092
 20
60.41669999999999
 30
0.0
 11
65.67619999999999
 21
58.81669999999999
 31
0.0
  0
LINE
  5
C9
330
1E
100
AcDbEntity
  8
0
100
AcDbLine
 10
56.9892
 20
100.2348
 30
0.0
 11
69.8562
 21
98.20990000000001
 31
0.0
  0
LINE
  5
CA
330
1E
100
AcDbEntity
  8
0
100
AcDbLine
 10
63.6092
 20
99.1930002020673
 30
0.0
 11
63.6092
 21
118.8582999999999
 31
0.0
  0
LINE
  5
CB
330
1E
100
AcDbEntity
  8
0
100
AcDbLine
 10
53.6092
 20
69.89787955790301
 30
0.0
 11
53.6092
 21
60.41669999999999
 31
0.0
  0
LINE
  5
CC
330
1E
100
AcDbEntity
  8
0
100
AcDbLine
 10
49.76919999999999
 20
121.91
 30
0.0
 11
52.3692
 21
119.8299999999999
 31
0.0
  0
LINE
  5
CD
330
1E
100
AcDbEntity
  8
0
100
AcDbLine
 10
58.6092
 20
118.1833
 30
0.0
 11
61.8162
 21
118.6166999999999
 31
0.0
  0
LINE
  5
CE
330
1E
100
AcDbEntity
  8
0
100
AcDbLine
 10
55.2292
 20
118.1833
 30
0.0
 11
58.6092
 21
117.7499999999999
 31
0.0
  0
LINE
  5
CF
330
1E
100
AcDbEntity
  8
0
100
AcDbLine
 10
53.6092
 20
118.8582999999999
 30
0.0
 11
53.6092
 21
99.823162156978
 31
0.0
  0
LINE
  5
D0
330
1E
100
AcDbEntity
  8
0
100
AcDbLine
 10
52.3692
 20
119.8299999999999
 30
0.0
 11
55.4022
 21
118.6166999999999
 31
0.0
  0
LINE
  5
D1
330
1E
100
AcDbEntity
  8
0
100
AcDbLine
 10
55.4022
 20
118.6166999999999
 30
0.0
 11
58.6092
 21
118.1833
 31
0.0
  0
LINE
  5
D2
330
1E
100
AcDbEntity
  8
0
100
AcDbLine
 10
53.2362
 20
121.3899999999999
 30
0.0
 11
55.83619999999999
 21
120.35
 31
0.0
  0
LINE
  5
D3
330
1E
100
AcDbEntity
  8
0
100
AcDbLine
 10
55.83619999999999
 20
120.35
 30
0.0
 11
58.6092
 21
119.9167
 31
0.0
  0
LINE
  5
D4
330
1E
100
AcDbEntity
  8
0
100
AcDbLine
 10
53.4092
 20
121.7367
 30
0.0
 11
55.9222
 21
120.6967
 31
0.0
  0
LINE
  5
D5
330
1E
100
AcDbEntity
  8
0
100
AcDbLine
 10
58.6092
 20
119.9167
 30
0.0
 11
61.3822
 21
120.35
 31
0.0
  0
LINE
  5
D6
330
1E
100
AcDbEntity
  8
0
100
AcDbLine
 10
63.6092
 20
118.8582999999999
 30
0.0
 11
63.6092
 21
99.1930002020673
 31
0.0
  0
LINE
  5
D7
330
1E
100
AcDbEntity
  8
0
100
AcDbLine
 10
65.1092
 20
119.4833
 30
0.0
 11
67.7962
 21
121.5632999999999
 31
0.0
  0
LINE
  5
D8
330
1E
100
AcDbEntity
  8
0
100
AcDbLine
 10
64.84919999999999
 20
119.8299999999999
 30
0.0
 11
67.4492
 21
121.91
 31
0.0
  0
LINE
  5
D9
330
1E
100
AcDbEntity
  8
0
100
AcDbLine
 10
61.8162
 20
118.6166999999999
 30
0.0
 11
64.84919999999999
 21
119.8299999999999
 31
0.0
  0
LINE
  5
DA
330
1E
100
AcDbEntity
  8
0
100
AcDbLine
 10
61.3822
 20
120.35
 30
0.0
 11
63.9822
 21
121.3899999999999
 31
0.0
  0
LINE
  5
DB
330
1E
100
AcDbEntity
  8
0
100
AcDbLine
 10
63.9822
 20
121.3899999999999
 30
0.0
 11
66.23619999999999
 21
123.1233
 31
0.0
  0
LINE
  5
DC
330
1E
100
AcDbEntity
  8
0
100
AcDbLine
 10
63.80919999999999
 20
121.7367
 30
0.0
 11
65.9762
 21
123.3833
 31
0.0
  0
LINE
  5
DD
330
1E
100
AcDbEntity
  8
0
100
AcDbLine
 10
61.2962
 20
120.6967
 30
0.0
 11
63.80919999999999
 21
121.7367
 31
0.0
  0
LINE
  5
DE
330
1E
100
AcDbEntity
  8
0
100
AcDbLine
 10
58.6092
 20
120.35
 30
0.0
 11
61.2962
 21
120.6967
 31
0.0
  0
LINE
  5
DF
330
1E
100
AcDbEntity
  8
0
100
AcDbLine
 10
67.4492
 20
121.91
 30
0.0
 11
69.5292
 21
124.51
 31
0.0
  0
LINE
  5
E0
330
1E
100
AcDbEntity
  8
0
100
AcDbLine
 10
55.9222
 20
120.6967
 30
0.0
 11
58.6092
 21
120.35
 31
0.0
  0
LINE
  5
E1
330
1E
100
AcDbEntity
  8
0
100
AcDbLine
 10
61.9892
 20
118.1833
 30
0.0
 11
65.1092
 21
119.4833
 31
0.0
  0
LINE
  5
E2
330
1E
100
AcDbEntity
  8
0
100
AcDbLine
 10
52.1092
 20
119.4833
 30
0.0
 11
55.2292
 21
118.1833
 31
0.0
  0
LINE
  5
E3
330
1E
100
AcDbEntity
  8
0
100
AcDbLine
 10
49.42219999999999
 20
121.5632999999999
 30
0.0
 11
52.1092
 21
119.4833
 31
0.0
  0
LINE
  5
E4
330
1E
100
AcDbEntity
  8
0
100
AcDbLine
 10
43.3089
 20
123.4588999999999
 30
0.0
 11
53.56819999999999
 21
135.6929
 31
0.0
  0
LINE
  5
E6
330
1E
100
AcDbEntity
  8
0
100
AcDbLine
 10
50.9822
 20
123.1233
 30
0.0
 11
53.2362
 21
121.3899999999999
 31
0.0
  0
LINE
  5
E7
330
1E
100
AcDbEntity
  8
0
100
AcDbLine
 10
66.23619999999999
 20
123.1233
 30
0.0
 11
67.9692
 21
125.3767
 31
0.0
  0
LINE
  5
E8
330
1E
100
AcDbEntity
  8
0
100
AcDbLine
 10
65.9762
 20
123.3833
 30
0.0
 11
67.62220000000001
 21
125.55
 31
0.0
  0
LINE
  5
E9
330
1E
100
AcDbEntity
  8
0
100
AcDbLine
 10
51.2422
 20
123.3833
 30
0.0
 11
53.4092
 21
121.7367
 31
0.0
  0
LINE
  5
EA
330
1E
100
AcDbEntity
  8
0
100
AcDbLine
 10
46.8802
 20
124.7681999999999
 30
0.0
 11
47.3619199440847
 21
125.328415988135
 31
0.0
  0
LINE
  5
EB
330
1E
100
AcDbEntity
  8
0
100
AcDbLine
 10
69.5292
 20
124.51
 30
0.0
 11
70.7422
 21
127.5433
 31
0.0
  0
LINE
  5
EC
330
1E
100
AcDbEntity
  8
0
100
AcDbLine
 10
47.6892
 20
124.51
 30
0.0
 11
49.76919999999999
 21
121.91
 31
0.0
  0
LINE
  5
ED
330
1E
100
AcDbEntity
  8
0
100
AcDbLine
 10
69.87619999999999
 20
124.2499999999999
 30
0.0
 11
70.50119999999999
 21
125.75
 31
0.0
  0
LINE
  5
EE
330
1E
100
AcDbEntity
  8
0
100
AcDbLine
 10
69.87619999999999
 20
124.2499999999999
 30
0.0
 11
71.17619999999999
 21
127.37
 31
0.0
  0
LINE
  5
F0
330
1E
100
AcDbEntity
  8
0
100
AcDbLine
 10
47.03766913376861
 20
124.9808740789549
 30
0.0
 11
47.34219999999999
 21
124.2499999999999
 31
0.0
  0
LINE
  5
F1
330
1E
100
AcDbEntity
  8
0
100
AcDbLine
 10
47.3619199440847
 20
125.328415988135
 30
0.0
 11
47.6892
 21
124.51
 31
0.0
  0
LINE
  5
F2
330
1E
100
AcDbEntity
  8
0
100
AcDbLine
 10
47.3619199440847
 20
125.328415988135
 30
0.0
 11
48.18419999999999
 21
126.2847999999999
 31
0.0
  0
LINE
  5
F3
330
1E
100
AcDbEntity
  8
0
100
AcDbLine
 10
49.2492
 20
125.3767
 30
0.0
 11
50.9822
 21
123.1233
 31
0.0
  0
LINE
  5
F4
330
1E
100
AcDbEntity
  8
0
100
AcDbLine
 10
67.9692
 20
125.3767
 30
0.0
 11
69.00920000000001
 21
127.9766999999999
 31
0.0
  0
LINE
  5
F5
330
1E
100
AcDbEntity
  8
0
100
AcDbLine
 10
58.6092
 20
125.75
 30
0.0
 11
59.9092
 21
125.8499999999999
 31
0.0
  0
LINE
  5
F6
330
1E
100
AcDbEntity
  8
0
100
AcDbLine
 10
67.62220000000001
 20
125.55
 30
0.0
 11
68.6622
 21
128.0632999999999
 31
0.0
  0
LINE
  5
F7
330
1E
100
AcDbEntity
  8
0
100
AcDbLine
 10
49.59620000000001
 20
125.55
 30
0.0
 11
51.2422
 21
123.3833
 31
0.0
  0
LINE
  5
F8
330
1E
100
AcDbEntity
  8
0
100
AcDbLine
 10
47.04596461472239
 20
124.9609649246659
 30
0.0
 11
47.34219999999999
 21
124.2499999999999
 31
0.0
  0
LINE
  5
F9
330
1E
100
AcDbEntity
  8
0
100
AcDbLine
 10
70.50119999999999
 20
125.75
 30
0.0
 11
73.6092
 21
125.75
 31
0.0
  0
LINE
  5
FB
330
1E
100
AcDbEntity
  8
0
100
AcDbLine
 10
48.18419999999999
 20
126.2847999999999
 30
0.0
 11
49.4882
 21
127.8013
 31
0.0
  0
LINE
  5
FE
330
1E
100
AcDbEntity
  8
0
100
AcDbLine
 10
48.6631568931226
 20
126.841807767194
 30
0.0
 11
49.2492
 21
125.3767
 31
0.0
  0
LINE
  5
FF
330
1E
100
AcDbEntity
  8
0
100
AcDbLine
 10
58.6092
 20
126.2499999999999
 30
0.0
 11
59.8092
 21
126.35
 31
0.0
  0
LINE
  5
100
330
1E
100
AcDbEntity
  8
0
100
AcDbLine
 10
59.8092
 20
126.35
 30
0.0
 11
60.80919999999999
 21
126.8499999999999
 31
0.0
  0
LINE
  5
101
330
1E
100
AcDbEntity
  8
0
100
AcDbLine
 10
59.9092
 20
125.8499999999999
 30
0.0
 11
61.1092
 21
126.4499999999999
 31
0.0
  0
LINE
  5
102
330
1E
100
AcDbEntity
  8
0
100
AcDbLine
 10
61.1092
 20
126.4499999999999
 30
0.0
 11
62.1092
 21
127.2499999999999
 31
0.0
  0
LINE
  5
103
330
1E
100
AcDbEntity
  8
0
100
AcDbLine
 10
57.4092
 20
126.35
 30
0.0
 11
58.6092
 21
126.2499999999999
 31
0.0
  0
LINE
  5
104
330
1E
100
AcDbEntity
  8
0
100
AcDbLine
 10
57.3092
 20
125.8499999999999
 30
0.0
 11
58.6092
 21
125.75
 31
0.0
  0
LINE
  5
105
330
1E
100
AcDbEntity
  8
0
100
AcDbLine
 10
56.1092
 20
126.4499999999999
 30
0.0
 11
57.3092
 21
125.8499999999999
 31
0.0
  0
LINE
  5
106
330
1E
100
AcDbEntity
  8
0
100
AcDbLine
 10
73.6092
 20
125.95
 30
0.0
 11
73.6092
 21
126.4499999999999
 31
0.0
  0
LINE
  5
107
330
1E
100
AcDbEntity
  8
0
100
AcDbLine
 10
60.80919999999999
 20
126.8499999999999
 30
0.0
 11
61.8092
 21
127.55
 31
0.0
  0
LINE
  5
108
330
1E
100
AcDbEntity
  8
0
100
AcDbLine
 10
62.1092
 20
127.2499999999999
 30
0.0
 11
62.90919999999999
 21
128.2499999999999
 31
0.0
  0
LINE
  5
109
330
1E
100
AcDbEntity
  8
0
100
AcDbLine
 10
56.4092
 20
126.8499999999999
 30
0.0
 11
57.4092
 21
126.35
 31
0.0
  0
LINE
  5
10A
330
1E
100
AcDbEntity
  8
0
100
AcDbLine
 10
55.1092
 20
127.2499999999999
 30
0.0
 11
56.1092
 21
126.4499999999999
 31
0.0
  0
LINE
  5
10B
330
1E
100
AcDbEntity
  8
0
100
AcDbLine
 10
73.6092
 20
126.4499999999999
 30
0.0
 11
73.6092
 21
127.2499999999999
 31
0.0
  0
LINE
  5
10C
330
1E
100
AcDbEntity
  8
0
100
AcDbLine
 10
73.6092
 20
127.2499999999999
 30
0.0
 11
73.6092
 21
128.2499999999999
 31
0.0
  0
LINE
  5
10D
330
1E
100
AcDbEntity
  8
0
100
AcDbLine
 10
71.17619999999999
 20
127.37
 30
0.0
 11
71.6092
 21
130.75
 31
0.0
  0
LINE
  5
10E
330
1E
100
AcDbEntity
  8
0
100
AcDbLine
 10
48.93218637075779
 20
127.1546783215139
 30
0.0
 11
49.59620000000001
 21
125.55
 31
0.0
  0
LINE
  5
111
330
1E
100
AcDbEntity
  8
0
100
AcDbLine
 10
46.47619999999999
 20
127.5433
 30
0.0
 11
46.5247836486562
 21
127.421808836382
 31
0.0
  0
LINE
  5
112
330
1E
100
AcDbEntity
  8
0
100
AcDbLine
 10
46.0422
 20
130.75
 30
0.0
 11
46.47619999999999
 21
127.5433
 31
0.0
  0
LINE
  5
113
330
1E
100
AcDbEntity
  8
0
100
AcDbLine
 10
46.0422
 20
130.75
 30
0.0
 11
46.47619999999999
 21
133.9567
 31
0.0
  0
LINE
  5
114
330
1E
100
AcDbEntity
  8
0
100
AcDbLine
 10
46.47619999999999
 20
133.9567
 30
0.0
 11
47.6892
 21
136.99
 31
0.0
  0
LINE
  5
115
330
1E
100
AcDbEntity
  8
0
100
AcDbLine
 10
48.2092
 20
133.5233
 30
0.0
 11
49.2492
 21
136.1233
 31
0.0
  0
LINE
  5
116
330
1E
100
AcDbEntity
  8
0
100
AcDbLine
 10
47.7762
 20
130.75
 30
0.0
 11
48.0234107387205
 21
129.1666523286529
 31
0.0
  0
LINE
  5
117
330
1E
100
AcDbEntity
  8
0
100
AcDbLine
 10
47.7762
 20
130.75
 30
0.0
 11
48.2092
 21
133.5233
 31
0.0
  0
LINE
  5
118
330
1E
100
AcDbEntity
  8
0
100
AcDbLine
 10
49.4882
 20
127.8013
 30
0.0
 11
54.8902
 21
134.2758
 31
0.0
  0
LINE
  5
119
330
1E
100
AcDbEntity
  8
0
100
AcDbLine
 10
61.8092
 20
127.55
 30
0.0
 11
62.5092
 21
128.4499999999999
 31
0.0
  0
LINE
  5
11A
330
1E
100
AcDbEntity
  8
0
100
AcDbLine
 10
55.40919999999999
 20
127.55
 30
0.0
 11
56.4092
 21
126.8499999999999
 31
0.0
  0
LINE
  5
11B
330
1E
100
AcDbEntity
  8
0
100
AcDbLine
 10
54.3092
 20
128.2499999999999
 30
0.0
 11
55.1092
 21
127.2499999999999
 31
0.0
  0
LINE
  5
11C
330
1E
100
AcDbEntity
  8
0
100
AcDbLine
 10
54.3092
 20
129.55
 30
0.0
 11
54.7092
 21
128.4499999999999
 31
0.0
  0
LINE
  5
11D
330
1E
100
AcDbEntity
  8
0
100
AcDbLine
 10
54.3092
 20
131.9499999999999
 30
0.0
 11
54.7092
 21
133.05
 31
0.0
  0
LINE
  5
11E
330
1E
100
AcDbEntity
  8
0
100
AcDbLine
 10
54.1092
 20
130.75
 30
0.0
 11
54.3092
 21
131.9499999999999
 31
0.0
  0
LINE
  5
11F
330
1E
100
AcDbEntity
  8
0
100
AcDbLine
 10
54.1092
 20
130.75
 30
0.0
 11
54.3092
 21
129.55
 31
0.0
  0
LINE
  5
120
330
1E
100
AcDbEntity
  8
0
100
AcDbLine
 10
53.80919999999999
 20
129.4499999999999
 30
0.0
 11
54.3092
 21
128.2499999999999
 31
0.0
  0
LINE
  5
121
330
1E
100
AcDbEntity
  8
0
100
AcDbLine
 10
53.6092
 20
130.75
 30
0.0
 11
53.80919999999999
 21
132.05
 31
0.0
  0
LINE
  5
122
330
1E
100
AcDbEntity
  8
0
100
AcDbLine
 10
53.6092
 20
130.75
 30
0.0
 11
53.80919999999999
 21
129.4499999999999
 31
0.0
  0
LINE
  5
123
330
1E
100
AcDbEntity
  8
0
100
AcDbLine
 10
53.80919999999999
 20
132.05
 30
0.0
 11
54.3092
 21
133.25
 31
0.0
  0
LINE
  5
124
330
1E
100
AcDbEntity
  8
0
100
AcDbLine
 10
62.5092
 20
128.4499999999999
 30
0.0
 11
62.90919999999999
 21
129.55
 31
0.0
  0
LINE
  5
125
330
1E
100
AcDbEntity
  8
0
100
AcDbLine
 10
62.90919999999999
 20
131.9499999999999
 30
0.0
 11
63.1092
 21
130.75
 31
0.0
  0
LINE
  5
126
330
1E
100
AcDbEntity
  8
0
100
AcDbLine
 10
62.90919999999999
 20
129.55
 30
0.0
 11
63.1092
 21
130.75
 31
0.0
  0
LINE
  5
127
330
1E
100
AcDbEntity
  8
0
100
AcDbLine
 10
62.90919999999999
 20
128.2499999999999
 30
0.0
 11
63.4092
 21
129.4499999999999
 31
0.0
  0
LINE
  5
128
330
1E
100
AcDbEntity
  8
0
100
AcDbLine
 10
63.4092
 20
129.4499999999999
 30
0.0
 11
63.6092
 21
130.75
 31
0.0
  0
LINE
  5
129
330
1E
100
AcDbEntity
  8
0
100
AcDbLine
 10
62.5092
 20
133.05
 30
0.0
 11
62.90919999999999
 21
131.9499999999999
 31
0.0
  0
LINE
  5
12A
330
1E
100
AcDbEntity
  8
0
100
AcDbLine
 10
63.4092
 20
132.05
 30
0.0
 11
63.6092
 21
130.75
 31
0.0
  0
LINE
  5
12B
330
1E
100
AcDbEntity
  8
0
100
AcDbLine
 10
54.7092
 20
128.4499999999999
 30
0.0
 11
55.40919999999999
 21
127.55
 31
0.0
  0
LINE
  5
12C
330
1E
100
AcDbEntity
  8
0
100
AcDbLine
 10
62.90919999999999
 20
133.25
 30
0.0
 11
63.4092
 21
132.05
 31
0.0
  0
LINE
  5
12D
330
1E
100
AcDbEntity
  8
0
100
AcDbLine
 10
54.7092
 20
133.05
 30
0.0
 11
55.40919999999999
 21
133.9499999999999
 31
0.0
  0
LINE
  5
12E
330
1E
100
AcDbEntity
  8
0
100
AcDbLine
 10
54.3092
 20
133.25
 30
0.0
 11
55.1092
 21
134.25
 31
0.0
  0
LINE
  5
12F
330
1E
100
AcDbEntity
  8
0
100
AcDbLine
 10
68.6622
 20
128.0632999999999
 30
0.0
 11
69.00920000000001
 21
130.75
 31
0.0
  0
LINE
  5
130
330
1E
100
AcDbEntity
  8
0
100
AcDbLine
 10
70.7422
 20
127.5433
 30
0.0
 11
71.17619999999999
 21
130.75
 31
0.0
  0
LINE
  5
131
330
1E
100
AcDbEntity
  8
0
100
AcDbLine
 10
73.6092
 20
133.25
 30
0.0
 11
73.6092
 21
134.25
 31
0.0
  0
LINE
  5
132
330
1E
100
AcDbEntity
  8
0
100
AcDbLine
 10
73.6092
 20
132.05
 30
0.0
 11
73.6092
 21
133.25
 31
0.0
  0
LINE
  5
133
330
1E
100
AcDbEntity
  8
0
100
AcDbLine
 10
73.6092
 20
130.75
 30
0.0
 11
73.6092
 21
132.05
 31
0.0
  0
LINE
  5
134
330
1E
100
AcDbEntity
  8
0
100
AcDbLine
 10
73.6092
 20
128.2499999999999
 30
0.0
 11
73.6092
 21
129.4499999999999
 31
0.0
  0
LINE
  5
135
330
1E
100
AcDbEntity
  8
0
100
AcDbLine
 10
73.6092
 20
129.4499999999999
 30
0.0
 11
73.6092
 21
130.75
 31
0.0
  0
LINE
  5
136
330
1E
100
AcDbEntity
  8
0
100
AcDbLine
 10
69.00920000000001
 20
127.9766999999999
 30
0.0
 11
69.4422
 21
130.75
 31
0.0
  0
LINE
  5
137
330
1E
100
AcDbEntity
  8
0
100
AcDbLine
 10
68.6622
 20
133.4367
 30
0.0
 11
69.00920000000001
 21
130.75
 31
0.0
  0
LINE
  5
138
330
1E
100
AcDbEntity
  8
0
100
AcDbLine
 10
55.40919999999999
 20
133.9499999999999
 30
0.0
 11
56.4092
 21
134.65
 31
0.0
  0
LINE
  5
139
330
1E
100
AcDbEntity
  8
0
100
AcDbLine
 10
54.8902
 20
134.2758
 30
0.0
 11
56.7742
 21
135.5264
 31
0.0
  0
LINE
  5
13A
330
1E
100
AcDbEntity
  8
0
100
AcDbLine
 10
55.1092
 20
134.25
 30
0.0
 11
56.1092
 21
135.05
 31
0.0
  0
LINE
  5
13B
330
1E
100
AcDbEntity
  8
0
100
AcDbLine
 10
60.80919999999999
 20
134.65
 30
0.0
 11
61.8092
 21
133.9499999999999
 31
0.0
  0
LINE
  5
13C
330
1E
100
AcDbEntity
  8
0
100
AcDbLine
 10
61.8092
 20
133.9499999999999
 30
0.0
 11
62.5092
 21
133.05
 31
0.0
  0
LINE
  5
13D
330
1E
100
AcDbEntity
  8
0
100
AcDbLine
 10
62.5702
 20
134.1026999999999
 30
0.0
 11
63.5762
 21
135.3874999999999
 31
0.0
  0
LINE
  5
13E
330
1E
100
AcDbEntity
  8
0
100
AcDbLine
 10
62.1092
 20
134.25
 30
0.0
 11
62.90919999999999
 21
133.25
 31
0.0
  0
LINE
  5
13F
330
1E
100
AcDbEntity
  8
0
100
AcDbLine
 10
56.7742
 20
135.5264
 30
0.0
 11
58.8912
 21
136.0125999999999
 31
0.0
  0
LINE
  5
140
330
1E
100
AcDbEntity
  8
0
100
AcDbLine
 10
60.8342
 20
135.5264
 30
0.0
 11
62.5702
 21
134.1026999999999
 31
0.0
  0
LINE
  5
141
330
1E
100
AcDbEntity
  8
0
100
AcDbLine
 10
58.6092
 20
135.25
 30
0.0
 11
59.8092
 21
135.15
 31
0.0
  0
LINE
  5
142
330
1E
100
AcDbEntity
  8
0
100
AcDbLine
 10
59.8092
 20
135.15
 30
0.0
 11
60.80919999999999
 21
134.65
 31
0.0
  0
LINE
  5
143
330
1E
100
AcDbEntity
  8
0
100
AcDbLine
 10
61.1092
 20
135.05
 30
0.0
 11
62.1092
 21
134.25
 31
0.0
  0
LINE
  5
144
330
1E
100
AcDbEntity
  8
0
100
AcDbLine
 10
59.9092
 20
135.65
 30
0.0
 11
61.1092
 21
135.05
 31
0.0
  0
LINE
  5
145
330
1E
100
AcDbEntity
  8
0
100
AcDbLine
 10
57.4092
 20
135.15
 30
0.0
 11
58.6092
 21
135.25
 31
0.0
  0
LINE
  5
146
330
1E
100
AcDbEntity
  8
0
100
AcDbLine
 10
56.4092
 20
134.65
 30
0.0
 11
57.4092
 21
135.15
 31
0.0
  0
LINE
  5
147
330
1E
100
AcDbEntity
  8
0
100
AcDbLine
 10
56.1092
 20
135.05
 30
0.0
 11
57.3065017648087
 21
135.648650882404
 31
0.0
  0
LINE
  5
148
330
1E
100
AcDbEntity
  8
0
100
AcDbLine
 10
53.56819999999999
 20
135.6929
 30
0.0
 11
56.2182
 21
137.3321
 31
0.0
  0
LINE
  5
149
330
1E
100
AcDbEntity
  8
0
100
AcDbLine
 10
58.6092
 20
135.7499999999999
 30
0.0
 11
59.9092
 21
135.65
 31
0.0
  0
LINE
  5
14A
330
1E
100
AcDbEntity
  8
0
100
AcDbLine
 10
57.3139755733181
 20
135.6503673517939
 30
0.0
 11
58.6092
 21
135.7499999999999
 31
0.0
  0
LINE
  5
14B
330
1E
100
AcDbEntity
  8
0
100
AcDbLine
 10
70.50119999999999
 20
135.7499999999999
 30
0.0
 11
73.6092
 21
135.7499999999999
 31
0.0
  0
LINE
  5
14C
330
1E
100
AcDbEntity
  8
0
100
AcDbLine
 10
73.6092
 20
135.55
 30
0.0
 11
73.6092
 21
135.7499999999999
 31
0.0
  0
LINE
  5
14D
330
1E
100
AcDbEntity
  8
0
100
AcDbLine
 10
73.6092
 20
135.05
 30
0.0
 11
73.6092
 21
135.55
 31
0.0
  0
LINE
  5
14E
330
1E
100
AcDbEntity
  8
0
100
AcDbLine
 10
73.6092
 20
134.25
 30
0.0
 11
73.6092
 21
135.05
 31
0.0
  0
LINE
  5
14F
330
1E
100
AcDbEntity
  8
0
100
AcDbLine
 10
71.17619999999999
 20
134.1299999999999
 30
0.0
 11
71.6092
 21
130.75
 31
0.0
  0
LINE
  5
150
330
1E
100
AcDbEntity
  8
0
100
AcDbLine
 10
70.7422
 20
133.9567
 30
0.0
 11
71.17619999999999
 21
130.75
 31
0.0
  0
LINE
  5
151
330
1E
100
AcDbEntity
  8
0
100
AcDbLine
 10
69.00920000000001
 20
133.5233
 30
0.0
 11
69.4422
 21
130.75
 31
0.0
  0
LINE
  5
152
330
1E
100
AcDbEntity
  8
0
100
AcDbLine
 10
48.5562
 20
133.4367
 30
0.0
 11
49.59620000000001
 21
135.9499999999999
 31
0.0
  0
LINE
  5
153
330
1E
100
AcDbEntity
  8
0
100
AcDbLine
 10
48.2092
 20
130.75
 30
0.0
 11
48.3621960969306
 21
129.5654045716899
 31
0.0
  0
LINE
  5
154
330
1E
100
AcDbEntity
  8
0
100
AcDbLine
 10
48.2092
 20
130.75
 30
0.0
 11
48.5562
 21
133.4367
 31
0.0
  0
LINE
  5
155
330
1E
100
AcDbEntity
  8
0
100
AcDbLine
 10
46.0422
 20
127.37
 30
0.0
 11
46.18517813235379
 21
127.026852482351
 31
0.0
  0
LINE
  5
156
330
1E
100
AcDbEntity
  8
0
100
AcDbLine
 10
45.6092
 20
130.75
 30
0.0
 11
46.0422
 21
134.1299999999999
 31
0.0
  0
LINE
  5
157
330
1E
100
AcDbEntity
  8
0
100
AcDbLine
 10
45.6092
 20
130.75
 30
0.0
 11
46.0422
 21
127.37
 31
0.0
  0
LINE
  5
158
330
1E
100
AcDbEntity
  8
0
100
AcDbLine
 10
47.6892
 20
136.99
 30
0.0
 11
49.76919999999999
 21
139.59
 31
0.0
  0
LINE
  5
159
330
1E
100
AcDbEntity
  8
0
100
AcDbLine
 10
49.2492
 20
136.1233
 30
0.0
 11
50.9822
 21
138.3766999999999
 31
0.0
  0
LINE
  5
15A
330
1E
100
AcDbEntity
  8
0
100
AcDbLine
 10
61.3902
 20
137.2279
 30
0.0
 11
63.5762
 21
135.3874999999999
 31
0.0
  0
LINE
  5
15B
330
1E
100
AcDbEntity
  8
0
100
AcDbLine
 10
58.8912
 20
136.0125999999999
 30
0.0
 11
60.8342
 21
135.5264
 31
0.0
  0
LINE
  5
15C
330
1E
100
AcDbEntity
  8
0
100
AcDbLine
 10
69.5292
 20
136.99
 30
0.0
 11
70.7422
 21
133.9567
 31
0.0
  0
LINE
  5
15D
330
1E
100
AcDbEntity
  8
0
100
AcDbLine
 10
67.9692
 20
136.1233
 30
0.0
 11
69.00920000000001
 21
133.5233
 31
0.0
  0
LINE
  5
15E
330
1E
100
AcDbEntity
  8
0
100
AcDbLine
 10
67.62220000000001
 20
135.9499999999999
 30
0.0
 11
68.6622
 21
133.4367
 31
0.0
  0
LINE
  5
15F
330
1E
100
AcDbEntity
  8
0
100
AcDbLine
 10
49.59620000000001
 20
135.9499999999999
 30
0.0
 11
51.2422
 21
138.1167
 31
0.0
  0
LINE
  5
160
330
1E
100
AcDbEntity
  8
0
100
AcDbLine
 10
56.2182
 20
137.3321
 30
0.0
 11
58.8912
 21
138.0125999999999
 31
0.0
  0
LINE
  5
161
330
1E
100
AcDbEntity
  8
0
100
AcDbLine
 10
69.87619999999999
 20
137.25
 30
0.0
 11
70.50119999999999
 21
135.7499999999999
 31
0.0
  0
LINE
  5
162
330
1E
100
AcDbEntity
  8
0
100
AcDbLine
 10
69.87619999999999
 20
137.25
 30
0.0
 11
71.17619999999999
 21
134.1299999999999
 31
0.0
  0
LINE
  5
163
330
1E
100
AcDbEntity
  8
0
100
AcDbLine
 10
47.34219999999999
 20
137.25
 30
0.0
 11
49.42219999999999
 21
139.9367
 31
0.0
  0
LINE
  5
164
330
1E
100
AcDbEntity
  8
0
100
AcDbLine
 10
73.6092
 20
135.7499999999999
 30
0.0
 11
73.6092
 21
136.85
 31
0.0
  0
LINE
  5
165
330
1E
100
AcDbEntity
  8
0
100
AcDbLine
 10
73.6092
 20
136.85
 30
0.0
 11
73.6092
 21
135.7499999999999
 31
0.0
  0
LINE
  5
166
330
1E
100
AcDbEntity
  8
0
100
AcDbLine
 10
73.6092
 20
136.85
 30
0.0
 11
73.6092
 21
137.4499999999999
 31
0.0
  0
LINE
  5
167
330
1E
100
AcDbEntity
  8
0
100
AcDbLine
 10
49.76919999999999
 20
139.59
 30
0.0
 11
52.3692
 21
141.6699999999999
 31
0.0
  0
LINE
  5
168
330
1E
100
AcDbEntity
  8
0
100
AcDbLine
 10
50.9822
 20
138.3766999999999
 30
0.0
 11
53.2362
 21
140.11
 31
0.0
  0
LINE
  5
169
330
1E
100
AcDbEntity
  8
0
100
AcDbLine
 10
51.2422
 20
138.1167
 30
0.0
 11
53.4092
 21
139.7632999999999
 31
0.0
  0
LINE
  5
16A
330
1E
100
AcDbEntity
  8
0
100
AcDbLine
 10
52.3692
 20
141.6699999999999
 30
0.0
 11
55.4022
 21
142.8833
 31
0.0
  0
LINE
  5
16B
330
1E
100
AcDbEntity
  8
0
100
AcDbLine
 10
55.4022
 20
142.8833
 30
0.0
 11
58.6092
 21
143.3167
 31
0.0
  0
LINE
  5
16C
330
1E
100
AcDbEntity
  8
0
100
AcDbLine
 10
53.2362
 20
140.11
 30
0.0
 11
55.83619999999999
 21
141.15
 31
0.0
  0
LINE
  5
16D
330
1E
100
AcDbEntity
  8
0
100
AcDbLine
 10
55.83619999999999
 20
141.15
 30
0.0
 11
58.6092
 21
141.5833
 31
0.0
  0
LINE
  5
16E
330
1E
100
AcDbEntity
  8
0
100
AcDbLine
 10
53.4092
 20
139.7632999999999
 30
0.0
 11
55.9222
 21
140.8033
 31
0.0
  0
LINE
  5
16F
330
1E
100
AcDbEntity
  8
0
100
AcDbLine
 10
58.8912
 20
138.0125999999999
 30
0.0
 11
61.3902
 21
137.2279
 31
0.0
  0
LINE
  5
170
330
1E
100
AcDbEntity
  8
0
100
AcDbLine
 10
67.4492
 20
139.59
 30
0.0
 11
69.5292
 21
136.99
 31
0.0
  0
LINE
  5
171
330
1E
100
AcDbEntity
  8
0
100
AcDbLine
 10
66.23619999999999
 20
138.3766999999999
 30
0.0
 11
67.9692
 21
136.1233
 31
0.0
  0
LINE
  5
172
330
1E
100
AcDbEntity
  8
0
100
AcDbLine
 10
65.9762
 20
138.1167
 30
0.0
 11
67.62220000000001
 21
135.9499999999999
 31
0.0
  0
LINE
  5
173
330
1E
100
AcDbEntity
  8
0
100
AcDbLine
 10
67.7962
 20
139.9367
 30
0.0
 11
69.87619999999999
 21
137.25
 31
0.0
  0
LINE
  5
174
330
1E
100
AcDbEntity
  8
0
100
AcDbLine
 10
63.9822
 20
140.11
 30
0.0
 11
66.23619999999999
 21
138.3766999999999
 31
0.0
  0
LINE
  5
175
330
1E
100
AcDbEntity
  8
0
100
AcDbLine
 10
61.3822
 20
141.15
 30
0.0
 11
63.9822
 21
140.11
 31
0.0
  0
LINE
  5
176
330
1E
100
AcDbEntity
  8
0
100
AcDbLine
 10
63.80919999999999
 20
139.7632999999999
 30
0.0
 11
65.9762
 21
138.1167
 31
0.0
  0
LINE
  5
177
330
1E
100
AcDbEntity
  8
0
100
AcDbLine
 10
61.2962
 20
140.8033
 30
0.0
 11
63.80919999999999
 21
139.7632999999999
 31
0.0
  0
LINE
  5
178
330
1E
100
AcDbEntity
  8
0
100
AcDbLine
 10
58.6092
 20
143.3167
 30
0.0
 11
61.8162
 21
142.8833
 31
0.0
  0
LINE
  5
179
330
1E
100
AcDbEntity
  8
0
100
AcDbLine
 10
65.1092
 20
142.0167
 30
0.0
 11
67.7962
 21
139.9367
 31
0.0
  0
LINE
  5
17A
330
1E
100
AcDbEntity
  8
0
100
AcDbLine
 10
64.84919999999999
 20
141.6699999999999
 30
0.0
 11
67.4492
 21
139.59
 31
0.0
  0
LINE
  5
17B
330
1E
100
AcDbEntity
  8
0
100
AcDbLine
 10
61.9892
 20
143.3167
 30
0.0
 11
65.1092
 21
142.0167
 31
0.0
  0
LINE
  5
17C
330
1E
100
AcDbEntity
  8
0
100
AcDbLine
 10
61.8162
 20
142.8833
 30
0.0
 11
64.84919999999999
 21
141.6699999999999
 31
0.0
  0
LINE
  5
17D
330
1E
100
AcDbEntity
  8
0
100
AcDbLine
 10
58.6092
 20
141.5833
 30
0.0
 11
61.3822
 21
141.15
 31
0.0
  0
LINE
  5
17E
330
1E
100
AcDbEntity
  8
0
100
AcDbLine
 10
58.6092
 20
141.15
 30
0.0
 11
61.2962
 21
140.8033
 31
0.0
  0
LINE
  5
17F
330
1E
100
AcDbEntity
  8
0
100
AcDbLine
 10
55.9222
 20
140.8033
 30
0.0
 11
58.6092
 21
141.15
 31
0.0
  0
LINE
  5
180
330
1E
100
AcDbEntity
  8
0
100
AcDbLine
 10
58.6092
 20
143.75
 30
0.0
 11
61.9892
 21
143.3167
 31
0.0
  0
LINE
  5
181
330
1E
100
AcDbEntity
  8
0
100
AcDbLine
 10
49.42219999999999
 20
139.9367
 30
0.0
 11
52.1092
 21
142.0167
 31
0.0
  0
LINE
  5
182
330
1E
100
AcDbEntity
  8
0
100
AcDbLine
 10
73.6092
 20
137.4499999999999
 30
0.0
 11
73.6092
 21
136.85
 31
0.0
  0
LINE
  5
183
330
1E
100
AcDbEntity
  8
0
100
AcDbLine
 10
73.6092
 20
137.4499999999999
 30
0.0
 11
73.6092
 21
137.7499999999999
 31
0.0
  0
LINE
  5
184
330
1E
100
AcDbEntity
  8
0
100
AcDbLine
 10
73.6092
 20
137.7499999999999
 30
0.0
 11
73.6092
 21
137.4499999999999
 31
0.0
  0
LINE
  5
185
330
1E
100
AcDbEntity
  8
0
100
AcDbLine
 10
73.6092
 20
137.7499999999999
 30
0.0
 11
74.1092
 21
139.25
 31
0.0
  0
LINE
  5
186
330
1E
100
AcDbEntity
  8
0
100
AcDbLine
 10
73.6092
 20
125.75
 30
0.0
 11
73.6092
 21
124.65
 31
0.0
  0
LINE
  5
187
330
1E
100
AcDbEntity
  8
0
100
AcDbLine
 10
73.6092
 20
125.75
 30
0.0
 11
73.6092
 21
125.95
 31
0.0
  0
LINE
  5
188
330
1E
100
AcDbEntity
  8
0
100
AcDbLine
 10
73.6092
 20
124.65
 30
0.0
 11
73.6092
 21
124.0499999999999
 31
0.0
  0
LINE
  5
189
330
1E
100
AcDbEntity
  8
0
100
AcDbLine
 10
73.6092
 20
124.65
 30
0.0
 11
73.6092
 21
125.75
 31
0.0
  0
LINE
  5
18A
330
1E
100
AcDbEntity
  8
0
100
AcDbLine
 10
73.6092
 20
124.0499999999999
 30
0.0
 11
73.6092
 21
123.75
 31
0.0
  0
LINE
  5
18B
330
1E
100
AcDbEntity
  8
0
100
AcDbLine
 10
73.6092
 20
124.0499999999999
 30
0.0
 11
73.6092
 21
124.65
 31
0.0
  0
LINE
  5
18C
330
1E
100
AcDbEntity
  8
0
100
AcDbLine
 10
74.1092
 20
139.25
 30
0.0
 11
75.1092
 21
140.25
 31
0.0
  0
LINE
  5
18D
330
1E
100
AcDbEntity
  8
0
100
AcDbLine
 10
75.1092
 20
140.25
 30
0.0
 11
76.6092
 21
140.7499999999999
 31
0.0
  0
LINE
  5
18E
330
1E
100
AcDbEntity
  8
0
100
AcDbLine
 10
73.6092
 20
123.75
 30
0.0
 11
74.1092
 21
122.2499999999999
 31
0.0
  0
LINE
  5
18F
330
1E
100
AcDbEntity
  8
0
100
AcDbLine
 10
73.6092
 20
123.75
 30
0.0
 11
73.6092
 21
124.0499999999999
 31
0.0
  0
LINE
  5
190
330
1E
100
AcDbEntity
  8
0
100
AcDbLine
 10
74.1092
 20
122.2499999999999
 30
0.0
 11
75.1092
 21
121.25
 31
0.0
  0
LINE
  5
191
330
1E
100
AcDbEntity
  8
0
100
AcDbLine
 10
75.50320000000001
 20
55.00477
 30
0.0
 11
76.11419999999999
 21
49.89333
 31
0.0
  0
LINE
  5
192
330
1E
100
AcDbEntity
  8
0
100
AcDbLine
 10
75.32519999999999
 20
44.80631999999999
 30
0.0
 11
76.11419999999999
 21
49.89333
 31
0.0
  0
LINE
  5
193
330
1E
100
AcDbEntity
  8
0
100
AcDbLine
 10
92.02719999999999
 20
84.92090000000001
 30
0.0
 11
99.84520000000001
 21
74.38290000000001
 31
0.0
  0
LINE
  5
194
330
1E
100
AcDbEntity
  8
0
100
AcDbLine
 10
81.7692
 20
93.10120000000001
 30
0.0
 11
92.02719999999999
 21
84.92090000000001
 31
0.0
  0
LINE
  5
195
330
1E
100
AcDbEntity
  8
0
100
AcDbLine
 10
99.84520000000001
 20
74.38290000000001
 30
0.0
 11
104.5341999999999
 21
62.29919999999999
 31
0.0
  0
LINE
  5
196
330
1E
100
AcDbEntity
  8
0
100
AcDbLine
 10
104.0842
 20
36.5031
 30
0.0
 11
106.1091999999999
 21
49.36976
 31
0.0
  0
LINE
  5
197
330
1E
100
AcDbEntity
  8
0
100
AcDbLine
 10
98.9752
 20
24.59049999999999
 30
0.0
 11
104.0842
 21
36.5031
 31
0.0
  0
LINE
  5
198
330
1E
100
AcDbEntity
  8
0
100
AcDbLine
 10
90.7952
 20
14.3317
 30
0.0
 11
98.9752
 21
24.59049999999999
 31
0.0
  0
LINE
  5
199
330
1E
100
AcDbEntity
  8
0
100
AcDbLine
 10
80.25719999999999
 20
6.5144
 30
0.0
 11
90.7952
 21
14.3317
 31
0.0
  0
LINE
  5
19A
330
1E
100
AcDbEntity
  8
0
100
AcDbLine
 10
91.1092
 20
112.7499999999999
 30
0.0
 11
92.22419999999999
 21
112.7499999999999
 31
0.0
  0
LINE
  5
19B
330
1E
100
AcDbEntity
  8
0
100
AcDbLine
 10
89.43620000000001
 20
113.85
 30
0.0
 11
89.43620000000001
 21
113.25
 31
0.0
  0
LINE
  5
19C
330
1E
100
AcDbEntity
  8
0
100
AcDbLine
 10
89.43620000000001
 20
113.85
 30
0.0
 11
89.43620000000001
 21
115.5499999999999
 31
0.0
  0
LINE
  5
19D
330
1E
100
AcDbEntity
  8
0
100
AcDbLine
 10
77.16719999999999
 20
116.7499999999999
 30
0.0
 11
77.16719999999999
 21
116.25
 31
0.0
  0
LINE
  5
19E
330
1E
100
AcDbEntity
  8
0
100
AcDbLine
 10
77.16719999999999
 20
116.7499999999999
 30
0.0
 11
77.16719999999999
 21
118.1499999999999
 31
0.0
  0
LINE
  5
19F
330
1E
100
AcDbEntity
  8
0
100
AcDbLine
 10
76.6092
 20
120.75
 30
0.0
 11
76.6092
 21
119.45
 31
0.0
  0
LINE
  5
1A0
330
1E
100
AcDbEntity
  8
0
100
AcDbLine
 10
76.6092
 20
119.45
 30
0.0
 11
76.6092
 21
120.75
 31
0.0
  0
LINE
  5
1A1
330
1E
100
AcDbEntity
  8
0
100
AcDbLine
 10
76.6092
 20
119.45
 30
0.0
 11
76.6092
 21
118.25
 31
0.0
  0
LINE
  5
1A2
330
1E
100
AcDbEntity
  8
0
100
AcDbLine
 10
76.6092
 20
119.45
 30
0.0
 11
76.6092
 21
121.55
 31
0.0
  0
LINE
  5
1A3
330
1E
100
AcDbEntity
  8
0
100
AcDbLine
 10
77.16719999999999
 20
118.1499999999999
 30
0.0
 11
77.16719999999999
 21
116.7499999999999
 31
0.0
  0
LINE
  5
1A4
330
1E
100
AcDbEntity
  8
0
100
AcDbLine
 10
77.16719999999999
 20
118.1499999999999
 30
0.0
 11
77.16719999999999
 21
120.55
 31
0.0
  0
LINE
  5
1A5
330
1E
100
AcDbEntity
  8
0
100
AcDbLine
 10
77.16719999999999
 20
120.55
 30
0.0
 11
77.16719999999999
 21
123.55
 31
0.0
  0
LINE
  5
1A6
330
1E
100
AcDbEntity
  8
0
100
AcDbLine
 10
77.16719999999999
 20
120.55
 30
0.0
 11
77.16719999999999
 21
118.1499999999999
 31
0.0
  0
LINE
  5
1A7
330
1E
100
AcDbEntity
  8
0
100
AcDbLine
 10
76.6092
 20
118.25
 30
0.0
 11
76.6092
 21
119.45
 31
0.0
  0
LINE
  5
1A8
330
1E
100
AcDbEntity
  8
0
100
AcDbLine
 10
76.6092
 20
118.25
 30
0.0
 11
76.6092
 21
117.7499999999999
 31
0.0
  0
LINE
  5
1A9
330
1E
100
AcDbEntity
  8
0
100
AcDbLine
 10
76.6092
 20
117.7499999999999
 30
0.0
 11
77.16719999999999
 21
116.25
 31
0.0
  0
LINE
  5
1AA
330
1E
100
AcDbEntity
  8
0
100
AcDbLine
 10
76.6092
 20
117.7499999999999
 30
0.0
 11
76.6092
 21
118.25
 31
0.0
  0
LINE
  5
1AB
330
1E
100
AcDbEntity
  8
0
100
AcDbLine
 10
87.7632
 20
117.7499999999999
 30
0.0
 11
87.7632
 21
116.25
 31
0.0
  0
LINE
  5
1AC
330
1E
100
AcDbEntity
  8
0
100
AcDbLine
 10
87.7632
 20
117.7499999999999
 30
0.0
 11
87.7632
 21
120.15
 31
0.0
  0
LINE
  5
1AD
330
1E
100
AcDbEntity
  8
0
100
AcDbLine
 10
87.7632
 20
116.25
 30
0.0
 11
87.7632
 21
115.7499999999999
 31
0.0
  0
LINE
  5
1AE
330
1E
100
AcDbEntity
  8
0
100
AcDbLine
 10
87.7632
 20
116.25
 30
0.0
 11
87.7632
 21
117.7499999999999
 31
0.0
  0
LINE
  5
1AF
330
1E
100
AcDbEntity
  8
0
100
AcDbLine
 10
87.7632
 20
120.15
 30
0.0
 11
87.7632
 21
123.2499999999999
 31
0.0
  0
LINE
  5
1B0
330
1E
100
AcDbEntity
  8
0
100
AcDbLine
 10
87.7632
 20
120.15
 30
0.0
 11
87.7632
 21
117.7499999999999
 31
0.0
  0
LINE
  5
1B1
330
1E
100
AcDbEntity
  8
0
100
AcDbLine
 10
77.16719999999999
 20
116.25
 30
0.0
 11
78.84019999999999
 21
115.7499999999999
 31
0.0
  0
LINE
  5
1B2
330
1E
100
AcDbEntity
  8
0
100
AcDbLine
 10
77.16719999999999
 20
116.25
 30
0.0
 11
77.16719999999999
 21
116.7499999999999
 31
0.0
  0
LINE
  5
1B3
330
1E
100
AcDbEntity
  8
0
100
AcDbLine
 10
78.84019999999999
 20
115.7499999999999
 30
0.0
 11
87.7632
 21
115.7499999999999
 31
0.0
  0
LINE
  5
1B4
330
1E
100
AcDbEntity
  8
0
100
AcDbLine
 10
89.43620000000001
 20
115.5499999999999
 30
0.0
 11
89.43620000000001
 21
113.85
 31
0.0
  0
LINE
  5
1B5
330
1E
100
AcDbEntity
  8
0
100
AcDbLine
 10
89.43620000000001
 20
115.5499999999999
 30
0.0
 11
89.43620000000001
 21
118.3499999999999
 31
0.0
  0
LINE
  5
1B6
330
1E
100
AcDbEntity
  8
0
100
AcDbLine
 10
89.43620000000001
 20
118.3499999999999
 30
0.0
 11
89.43620000000001
 21
122.0499999999999
 31
0.0
  0
LINE
  5
1B7
330
1E
100
AcDbEntity
  8
0
100
AcDbLine
 10
89.43620000000001
 20
118.3499999999999
 30
0.0
 11
89.43620000000001
 21
115.5499999999999
 31
0.0
  0
LINE
  5
1B8
330
1E
100
AcDbEntity
  8
0
100
AcDbLine
 10
87.7632
 20
115.7499999999999
 30
0.0
 11
88.87820000000001
 21
114.7499999999999
 31
0.0
  0
LINE
  5
1B9
330
1E
100
AcDbEntity
  8
0
100
AcDbLine
 10
87.7632
 20
115.7499999999999
 30
0.0
 11
87.7632
 21
116.25
 31
0.0
  0
LINE
  5
1BA
330
1E
100
AcDbEntity
  8
0
100
AcDbLine
 10
88.87820000000001
 20
114.7499999999999
 30
0.0
 11
89.43620000000001
 21
113.25
 31
0.0
  0
LINE
  5
1BB
330
1E
100
AcDbEntity
  8
0
100
AcDbLine
 10
89.43620000000001
 20
113.25
 30
0.0
 11
91.1092
 21
112.7499999999999
 31
0.0
  0
LINE
  5
1BC
330
1E
100
AcDbEntity
  8
0
100
AcDbLine
 10
89.43620000000001
 20
113.25
 30
0.0
 11
89.43620000000001
 21
113.85
 31
0.0
  0
LINE
  5
1BD
330
1E
100
AcDbEntity
  8
0
100
AcDbLine
 10
92.22419999999999
 20
112.7499999999999
 30
0.0
 11
96.6862
 21
111.25
 31
0.0
  0
LINE
  5
1BE
330
1E
100
AcDbEntity
  8
0
100
AcDbLine
 10
96.6862
 20
111.25
 30
0.0
 11
100.5902
 21
108.25
 31
0.0
  0
LINE
  5
1BF
330
1E
100
AcDbEntity
  8
0
100
AcDbLine
 10
100.5902
 20
108.25
 30
0.0
 11
102.2631999999999
 21
105.75
 31
0.0
  0
LINE
  5
1C0
330
1E
100
AcDbEntity
  8
0
100
AcDbLine
 10
102.8212
 20
107.75
 30
0.0
 11
102.8212
 21
105.2499999999999
 31
0.0
  0
LINE
  5
1C1
330
1E
100
AcDbEntity
  8
0
100
AcDbLine
 10
102.8212
 20
107.75
 30
0.0
 11
102.8212
 21
112.05
 31
0.0
  0
LINE
  5
1C2
330
1E
100
AcDbEntity
  8
0
100
AcDbLine
 10
102.8212
 20
105.2499999999999
 30
0.0
 11
102.8212
 21
104.2499999999999
 31
0.0
  0
LINE
  5
1C3
330
1E
100
AcDbEntity
  8
0
100
AcDbLine
 10
102.8212
 20
105.2499999999999
 30
0.0
 11
102.8212
 21
107.75
 31
0.0
  0
LINE
  5
1C4
330
1E
100
AcDbEntity
  8
0
100
AcDbLine
 10
102.8212
 20
112.05
 30
0.0
 11
102.8212
 21
117.5499999999999
 31
0.0
  0
LINE
  5
1C5
330
1E
100
AcDbEntity
  8
0
100
AcDbLine
 10
102.8212
 20
112.05
 30
0.0
 11
102.8212
 21
107.75
 31
0.0
  0
LINE
  5
1C6
330
1E
100
AcDbEntity
  8
0
100
AcDbLine
 10
102.8212
 20
117.5499999999999
 30
0.0
 11
102.8212
 21
112.05
 31
0.0
  0
LINE
  5
1C7
330
1E
100
AcDbEntity
  8
0
100
AcDbLine
 10
102.8212
 20
117.5499999999999
 30
0.0
 11
102.8212
 21
123.95
 31
0.0
  0
LINE
  5
1C8
330
1E
100
AcDbEntity
  8
0
100
AcDbLine
 10
102.2631999999999
 20
105.75
 30
0.0
 11
102.8212
 21
104.2499999999999
 31
0.0
  0
LINE
  5
1C9
330
1E
100
AcDbEntity
  8
0
100
AcDbLine
 10
102.8212
 20
104.2499999999999
 30
0.0
 11
104.4942
 21
103.75
 31
0.0
  0
LINE
  5
1CA
330
1E
100
AcDbEntity
  8
0
100
AcDbLine
 10
102.8212
 20
104.2499999999999
 30
0.0
 11
102.8212
 21
105.2499999999999
 31
0.0
  0
LINE
  5
1CB
330
1E
100
AcDbEntity
  8
0
100
AcDbLine
 10
104.5341999999999
 20
62.29919999999999
 30
0.0
 11
106.1091999999999
 21
49.36976
 31
0.0
  0
LINE
  5
1CC
330
1E
100
AcDbEntity
  8
0
100
AcDbLine
 10
105.6092
 20
103.75
 30
0.0
 11
105.6092
 21
104.75
 31
0.0
  0
LINE
  5
1CD
330
1E
100
AcDbEntity
  8
0
100
AcDbLine
 10
105.6092
 20
107.3499999999999
 30
0.0
 11
105.6092
 21
104.75
 31
0.0
  0
LINE
  5
1CE
330
1E
100
AcDbEntity
  8
0
100
AcDbLine
 10
105.6092
 20
107.3499999999999
 30
0.0
 11
105.6092
 21
111.65
 31
0.0
  0
LINE
  5
1CF
330
1E
100
AcDbEntity
  8
0
100
AcDbLine
 10
105.6092
 20
104.75
 30
0.0
 11
105.6092
 21
103.75
 31
0.0
  0
LINE
  5
1D0
330
1E
100
AcDbEntity
  8
0
100
AcDbLine
 10
105.6092
 20
104.75
 30
0.0
 11
105.6092
 21
107.3499999999999
 31
0.0
  0
LINE
  5
1D1
330
1E
100
AcDbEntity
  8
0
100
AcDbLine
 10
105.6092
 20
111.65
 30
0.0
 11
105.6092
 21
117.3499999999999
 31
0.0
  0
LINE
  5
1D2
330
1E
100
AcDbEntity
  8
0
100
AcDbLine
 10
105.6092
 20
111.65
 30
0.0
 11
105.6092
 21
107.3499999999999
 31
0.0
  0
LINE
  5
1D3
330
1E
100
AcDbEntity
  8
0
100
AcDbLine
 10
105.6092
 20
117.3499999999999
 30
0.0
 11
105.6092
 21
111.65
 31
0.0
  0
LINE
  5
1D4
330
1E
100
AcDbEntity
  8
0
100
AcDbLine
 10
105.6092
 20
117.3499999999999
 30
0.0
 11
105.6092
 21
123.8499999999999
 31
0.0
  0
LINE
  5
1D5
330
1E
100
AcDbEntity
  8
0
100
AcDbLine
 10
104.4942
 20
103.75
 30
0.0
 11
105.6092
 21
103.75
 31
0.0
  0
LINE
  5
1D6
330
1E
100
AcDbEntity
  8
0
100
AcDbLine
 10
76.6092
 20
121.55
 30
0.0
 11
76.6092
 21
124.2499999999999
 31
0.0
  0
LINE
  5
1D7
330
1E
100
AcDbEntity
  8
0
100
AcDbLine
 10
76.6092
 20
121.55
 30
0.0
 11
76.6092
 21
119.45
 31
0.0
  0
LINE
  5
1D8
330
1E
100
AcDbEntity
  8
0
100
AcDbLine
 10
76.6092
 20
124.2499999999999
 30
0.0
 11
76.6092
 21
121.55
 31
0.0
  0
LINE
  5
1D9
330
1E
100
AcDbEntity
  8
0
100
AcDbLine
 10
76.6092
 20
124.2499999999999
 30
0.0
 11
76.6092
 21
127.4499999999999
 31
0.0
  0
LINE
  5
1DA
330
1E
100
AcDbEntity
  8
0
100
AcDbLine
 10
76.6092
 20
127.4499999999999
 30
0.0
 11
76.6092
 21
124.2499999999999
 31
0.0
  0
LINE
  5
1DB
330
1E
100
AcDbEntity
  8
0
100
AcDbLine
 10
76.6092
 20
127.4499999999999
 30
0.0
 11
76.6092
 21
130.75
 31
0.0
  0
LINE
  5
1DC
330
1E
100
AcDbEntity
  8
0
100
AcDbLine
 10
76.6092
 20
125.75
 30
0.0
 11
76.6092
 21
123.65
 31
0.0
  0
LINE
  5
1DD
330
1E
100
AcDbEntity
  8
0
100
AcDbLine
 10
76.6092
 20
134.05
 30
0.0
 11
76.6092
 21
137.25
 31
0.0
  0
LINE
  5
1DE
330
1E
100
AcDbEntity
  8
0
100
AcDbLine
 10
76.6092
 20
137.25
 30
0.0
 11
76.6092
 21
134.05
 31
0.0
  0
LINE
  5
1DF
330
1E
100
AcDbEntity
  8
0
100
AcDbLine
 10
76.6092
 20
137.85
 30
0.0
 11
76.6092
 21
135.7499999999999
 31
0.0
  0
LINE
  5
1E0
330
1E
100
AcDbEntity
  8
0
100
AcDbLine
 10
76.6092
 20
137.85
 30
0.0
 11
76.6092
 21
139.9499999999999
 31
0.0
  0
LINE
  5
1E1
330
1E
100
AcDbEntity
  8
0
100
AcDbLine
 10
76.6092
 20
135.7499999999999
 30
0.0
 11
76.6092
 21
133.3499999999999
 31
0.0
  0
LINE
  5
1E2
330
1E
100
AcDbEntity
  8
0
100
AcDbLine
 10
76.6092
 20
133.3499999999999
 30
0.0
 11
76.6092
 21
130.75
 31
0.0
  0
LINE
  5
1E3
330
1E
100
AcDbEntity
  8
0
100
AcDbLine
 10
76.6092
 20
128.15
 30
0.0
 11
76.6092
 21
125.75
 31
0.0
  0
LINE
  5
1E4
330
1E
100
AcDbEntity
  8
0
100
AcDbLine
 10
76.6092
 20
130.75
 30
0.0
 11
76.6092
 21
128.15
 31
0.0
  0
LINE
  5
1E5
330
1E
100
AcDbEntity
  8
0
100
AcDbLine
 10
76.6092
 20
130.75
 30
0.0
 11
76.6092
 21
127.4499999999999
 31
0.0
  0
LINE
  5
1E6
330
1E
100
AcDbEntity
  8
0
100
AcDbLine
 10
76.6092
 20
123.65
 30
0.0
 11
76.6092
 21
122.0499999999999
 31
0.0
  0
LINE
  5
1E7
330
1E
100
AcDbEntity
  8
0
100
AcDbLine
 10
76.6092
 20
139.9499999999999
 30
0.0
 11
76.6092
 21
142.05
 31
0.0
  0
LINE
  5
1E8
330
1E
100
AcDbEntity
  8
0
100
AcDbLine
 10
77.16719999999999
 20
123.55
 30
0.0
 11
77.16719999999999
 21
120.55
 31
0.0
  0
LINE
  5
1E9
330
1E
100
AcDbEntity
  8
0
100
AcDbLine
 10
77.16719999999999
 20
123.55
 30
0.0
 11
77.16719999999999
 21
127.0499999999999
 31
0.0
  0
LINE
  5
1EA
330
1E
100
AcDbEntity
  8
0
100
AcDbLine
 10
87.7632
 20
123.2499999999999
 30
0.0
 11
87.7632
 21
120.15
 31
0.0
  0
LINE
  5
1EB
330
1E
100
AcDbEntity
  8
0
100
AcDbLine
 10
87.7632
 20
123.2499999999999
 30
0.0
 11
87.7632
 21
126.8499999999999
 31
0.0
  0
LINE
  5
1EC
330
1E
100
AcDbEntity
  8
0
100
AcDbLine
 10
77.16719999999999
 20
127.0499999999999
 30
0.0
 11
77.16719999999999
 21
123.55
 31
0.0
  0
LINE
  5
1ED
330
1E
100
AcDbEntity
  8
0
100
AcDbLine
 10
77.16719999999999
 20
127.0499999999999
 30
0.0
 11
77.16719999999999
 21
130.75
 31
0.0
  0
LINE
  5
1EE
330
1E
100
AcDbEntity
  8
0
100
AcDbLine
 10
77.16719999999999
 20
130.75
 30
0.0
 11
77.16719999999999
 21
127.0499999999999
 31
0.0
  0
LINE
  5
1EF
330
1E
100
AcDbEntity
  8
0
100
AcDbLine
 10
77.16719999999999
 20
130.75
 30
0.0
 11
77.16719999999999
 21
134.4499999999999
 31
0.0
  0
LINE
  5
1F0
330
1E
100
AcDbEntity
  8
0
100
AcDbLine
 10
87.7632
 20
126.8499999999999
 30
0.0
 11
87.7632
 21
123.2499999999999
 31
0.0
  0
LINE
  5
1F1
330
1E
100
AcDbEntity
  8
0
100
AcDbLine
 10
87.7632
 20
126.8499999999999
 30
0.0
 11
87.7632
 21
130.75
 31
0.0
  0
LINE
  5
1F2
330
1E
100
AcDbEntity
  8
0
100
AcDbLine
 10
87.7632
 20
130.75
 30
0.0
 11
87.7632
 21
126.8499999999999
 31
0.0
  0
LINE
  5
1F3
330
1E
100
AcDbEntity
  8
0
100
AcDbLine
 10
87.7632
 20
130.75
 30
0.0
 11
87.7632
 21
134.65
 31
0.0
  0
LINE
  5
1F4
330
1E
100
AcDbEntity
  8
0
100
AcDbLine
 10
89.43620000000001
 20
122.0499999999999
 30
0.0
 11
89.43620000000001
 21
118.3499999999999
 31
0.0
  0
LINE
  5
1F5
330
1E
100
AcDbEntity
  8
0
100
AcDbLine
 10
89.43620000000001
 20
122.0499999999999
 30
0.0
 11
89.43620000000001
 21
126.2499999999999
 31
0.0
  0
LINE
  5
1F6
330
1E
100
AcDbEntity
  8
0
100
AcDbLine
 10
89.43620000000001
 20
126.2499999999999
 30
0.0
 11
89.43620000000001
 21
122.0499999999999
 31
0.0
  0
LINE
  5
1F7
330
1E
100
AcDbEntity
  8
0
100
AcDbLine
 10
89.43620000000001
 20
126.2499999999999
 30
0.0
 11
89.43620000000001
 21
130.75
 31
0.0
  0
LINE
  5
1F8
330
1E
100
AcDbEntity
  8
0
100
AcDbLine
 10
89.43620000000001
 20
130.75
 30
0.0
 11
89.43620000000001
 21
126.2499999999999
 31
0.0
  0
LINE
  5
1F9
330
1E
100
AcDbEntity
  8
0
100
AcDbLine
 10
89.43620000000001
 20
130.75
 30
0.0
 11
89.43620000000001
 21
135.25
 31
0.0
  0
LINE
  5
1FA
330
1E
100
AcDbEntity
  8
0
100
AcDbLine
 10
102.8212
 20
123.95
 30
0.0
 11
102.8212
 21
117.5499999999999
 31
0.0
  0
LINE
  5
1FB
330
1E
100
AcDbEntity
  8
0
100
AcDbLine
 10
102.8212
 20
123.95
 30
0.0
 11
102.8212
 21
130.75
 31
0.0
  0
LINE
  5
1FC
330
1E
100
AcDbEntity
  8
0
100
AcDbLine
 10
102.8212
 20
130.75
 30
0.0
 11
102.8212
 21
123.95
 31
0.0
  0
LINE
  5
1FD
330
1E
100
AcDbEntity
  8
0
100
AcDbLine
 10
102.8212
 20
130.75
 30
0.0
 11
102.8212
 21
137.55
 31
0.0
  0
LINE
  5
1FE
330
1E
100
AcDbEntity
  8
0
100
AcDbLine
 10
105.6092
 20
123.8499999999999
 30
0.0
 11
105.6092
 21
117.3499999999999
 31
0.0
  0
LINE
  5
1FF
330
1E
100
AcDbEntity
  8
0
100
AcDbLine
 10
105.6092
 20
123.8499999999999
 30
0.0
 11
105.6092
 21
130.75
 31
0.0
  0
LINE
  5
200
330
1E
100
AcDbEntity
  8
0
100
AcDbLine
 10
77.16719999999999
 20
134.4499999999999
 30
0.0
 11
77.16719999999999
 21
130.75
 31
0.0
  0
LINE
  5
201
330
1E
100
AcDbEntity
  8
0
100
AcDbLine
 10
77.16719999999999
 20
134.4499999999999
 30
0.0
 11
77.16719999999999
 21
137.9499999999999
 31
0.0
  0
LINE
  5
202
330
1E
100
AcDbEntity
  8
0
100
AcDbLine
 10
87.7632
 20
134.65
 30
0.0
 11
87.7632
 21
130.75
 31
0.0
  0
LINE
  5
203
330
1E
100
AcDbEntity
  8
0
100
AcDbLine
 10
87.7632
 20
134.65
 30
0.0
 11
87.7632
 21
138.25
 31
0.0
  0
LINE
  5
204
330
1E
100
AcDbEntity
  8
0
100
AcDbLine
 10
89.43620000000001
 20
135.25
 30
0.0
 11
89.43620000000001
 21
130.75
 31
0.0
  0
LINE
  5
205
330
1E
100
AcDbEntity
  8
0
100
AcDbLine
 10
89.43620000000001
 20
135.25
 30
0.0
 11
89.43620000000001
 21
139.4499999999999
 31
0.0
  0
LINE
  5
206
330
1E
100
AcDbEntity
  8
0
100
AcDbLine
 10
77.16719999999999
 20
137.9499999999999
 30
0.0
 11
77.16719999999999
 21
134.4499999999999
 31
0.0
  0
LINE
  5
207
330
1E
100
AcDbEntity
  8
0
100
AcDbLine
 10
77.16719999999999
 20
137.9499999999999
 30
0.0
 11
77.16719999999999
 21
140.9499999999999
 31
0.0
  0
LINE
  5
208
330
1E
100
AcDbEntity
  8
0
100
AcDbLine
 10
87.7632
 20
138.25
 30
0.0
 11
87.7632
 21
134.65
 31
0.0
  0
LINE
  5
209
330
1E
100
AcDbEntity
  8
0
100
AcDbLine
 10
87.7632
 20
138.25
 30
0.0
 11
87.7632
 21
141.3499999999999
 31
0.0
  0
LINE
  5
20A
330
1E
100
AcDbEntity
  8
0
100
AcDbLine
 10
89.43620000000001
 20
139.4499999999999
 30
0.0
 11
89.43620000000001
 21
135.25
 31
0.0
  0
LINE
  5
20B
330
1E
100
AcDbEntity
  8
0
100
AcDbLine
 10
89.43620000000001
 20
139.4499999999999
 30
0.0
 11
89.43620000000001
 21
143.1499999999999
 31
0.0
  0
LINE
  5
20C
330
1E
100
AcDbEntity
  8
0
100
AcDbLine
 10
102.8212
 20
137.55
 30
0.0
 11
102.8212
 21
130.75
 31
0.0
  0
LINE
  5
20D
330
1E
100
AcDbEntity
  8
0
100
AcDbLine
 10
102.8212
 20
137.55
 30
0.0
 11
102.8212
 21
143.9499999999999
 31
0.0
  0
LINE
  5
20E
330
1E
100
AcDbEntity
  8
0
100
AcDbLine
 10
105.6092
 20
137.65
 30
0.0
 11
105.6092
 21
130.75
 31
0.0
  0
LINE
  5
20F
330
1E
100
AcDbEntity
  8
0
100
AcDbLine
 10
105.6092
 20
137.65
 30
0.0
 11
105.6092
 21
144.15
 31
0.0
  0
LINE
  5
210
330
1E
100
AcDbEntity
  8
0
100
AcDbLine
 10
105.6092
 20
130.75
 30
0.0
 11
105.6092
 21
123.8499999999999
 31
0.0
  0
LINE
  5
211
330
1E
100
AcDbEntity
  8
0
100
AcDbLine
 10
105.6092
 20
130.75
 30
0.0
 11
105.6092
 21
137.65
 31
0.0
  0
LINE
  5
212
330
1E
100
AcDbEntity
  8
0
100
AcDbLine
 10
76.6092
 20
140.35
 30
0.0
 11
76.6092
 21
139.9499999999999
 31
0.0
  0
LINE
  5
213
330
1E
100
AcDbEntity
  8
0
100
AcDbLine
 10
76.6092
 20
143.25
 30
0.0
 11
76.6092
 21
142.05
 31
0.0
  0
LINE
  5
214
330
1E
100
AcDbEntity
  8
0
100
AcDbLine
 10
76.6092
 20
143.25
 30
0.0
 11
76.6092
 21
143.75
 31
0.0
  0
LINE
  5
215
330
1E
100
AcDbEntity
  8
0
100
AcDbLine
 10
76.6092
 20
142.05
 30
0.0
 11
76.6092
 21
140.7499999999999
 31
0.0
  0
LINE
  5
216
330
1E
100
AcDbEntity
  8
0
100
AcDbLine
 10
76.6092
 20
142.05
 30
0.0
 11
76.6092
 21
139.9499999999999
 31
0.0
  0
LINE
  5
217
330
1E
100
AcDbEntity
  8
0
100
AcDbLine
 10
76.6092
 20
142.05
 30
0.0
 11
76.6092
 21
143.25
 31
0.0
  0
LINE
  5
218
330
1E
100
AcDbEntity
  8
0
100
AcDbLine
 10
77.16719999999999
 20
140.9499999999999
 30
0.0
 11
77.16719999999999
 21
143.3499999999999
 31
0.0
  0
LINE
  5
219
330
1E
100
AcDbEntity
  8
0
100
AcDbLine
 10
77.16719999999999
 20
140.9499999999999
 30
0.0
 11
77.16719999999999
 21
137.9499999999999
 31
0.0
  0
LINE
  5
21A
330
1E
100
AcDbEntity
  8
0
100
AcDbLine
 10
77.16719999999999
 20
143.3499999999999
 30
0.0
 11
77.16719999999999
 21
140.9499999999999
 31
0.0
  0
LINE
  5
21B
330
1E
100
AcDbEntity
  8
0
100
AcDbLine
 10
77.16719999999999
 20
143.3499999999999
 30
0.0
 11
77.16719999999999
 21
144.7499999999999
 31
0.0
  0
LINE
  5
21C
330
1E
100
AcDbEntity
  8
0
100
AcDbLine
 10
77.16719999999999
 20
144.7499999999999
 30
0.0
 11
77.16719999999999
 21
143.3499999999999
 31
0.0
  0
LINE
  5
21D
330
1E
100
AcDbEntity
  8
0
100
AcDbLine
 10
77.16719999999999
 20
144.7499999999999
 30
0.0
 11
77.16719999999999
 21
145.25
 31
0.0
  0
LINE
  5
21E
330
1E
100
AcDbEntity
  8
0
100
AcDbLine
 10
76.6092
 20
143.75
 30
0.0
 11
77.16719999999999
 21
145.25
 31
0.0
  0
LINE
  5
21F
330
1E
100
AcDbEntity
  8
0
100
AcDbLine
 10
76.6092
 20
143.75
 30
0.0
 11
76.6092
 21
143.25
 31
0.0
  0
LINE
  5
220
330
1E
100
AcDbEntity
  8
0
100
AcDbLine
 10
77.16719999999999
 20
145.25
 30
0.0
 11
78.84019999999999
 21
145.75
 31
0.0
  0
LINE
  5
221
330
1E
100
AcDbEntity
  8
0
100
AcDbLine
 10
77.16719999999999
 20
145.25
 30
0.0
 11
77.16719999999999
 21
144.7499999999999
 31
0.0
  0
LINE
  5
222
330
1E
100
AcDbEntity
  8
0
100
AcDbLine
 10
87.7632
 20
141.3499999999999
 30
0.0
 11
87.7632
 21
143.75
 31
0.0
  0
LINE
  5
223
330
1E
100
AcDbEntity
  8
0
100
AcDbLine
 10
87.7632
 20
141.3499999999999
 30
0.0
 11
87.7632
 21
138.25
 31
0.0
  0
LINE
  5
224
330
1E
100
AcDbEntity
  8
0
100
AcDbLine
 10
87.7632
 20
143.75
 30
0.0
 11
87.7632
 21
141.3499999999999
 31
0.0
  0
LINE
  5
225
330
1E
100
AcDbEntity
  8
0
100
AcDbLine
 10
87.7632
 20
143.75
 30
0.0
 11
87.7632
 21
145.25
 31
0.0
  0
LINE
  5
226
330
1E
100
AcDbEntity
  8
0
100
AcDbLine
 10
87.7632
 20
145.25
 30
0.0
 11
87.7632
 21
143.75
 31
0.0
  0
LINE
  5
227
330
1E
100
AcDbEntity
  8
0
100
AcDbLine
 10
87.7632
 20
145.25
 30
0.0
 11
87.7632
 21
145.75
 31
0.0
  0
LINE
  5
228
330
1E
100
AcDbEntity
  8
0
100
AcDbLine
 10
78.84019999999999
 20
145.75
 30
0.0
 11
87.7632
 21
145.75
 31
0.0
  0
LINE
  5
229
330
1E
100
AcDbEntity
  8
0
100
AcDbLine
 10
87.7632
 20
145.75
 30
0.0
 11
88.87820000000001
 21
146.75
 31
0.0
  0
LINE
  5
22A
330
1E
100
AcDbEntity
  8
0
100
AcDbLine
 10
87.7632
 20
145.75
 30
0.0
 11
87.7632
 21
145.25
 31
0.0
  0
LINE
  5
22B
330
1E
100
AcDbEntity
  8
0
100
AcDbLine
 10
89.43620000000001
 20
143.1499999999999
 30
0.0
 11
89.43620000000001
 21
145.95
 31
0.0
  0
LINE
  5
22C
330
1E
100
AcDbEntity
  8
0
100
AcDbLine
 10
89.43620000000001
 20
143.1499999999999
 30
0.0
 11
89.43620000000001
 21
139.4499999999999
 31
0.0
  0
LINE
  5
22D
330
1E
100
AcDbEntity
  8
0
100
AcDbLine
 10
89.43620000000001
 20
145.95
 30
0.0
 11
89.43620000000001
 21
143.1499999999999
 31
0.0
  0
LINE
  5
22E
330
1E
100
AcDbEntity
  8
0
100
AcDbLine
 10
89.43620000000001
 20
145.95
 30
0.0
 11
89.43620000000001
 21
147.65
 31
0.0
  0
LINE
  5
22F
330
1E
100
AcDbEntity
  8
0
100
AcDbLine
 10
89.43620000000001
 20
147.65
 30
0.0
 11
89.43620000000001
 21
145.95
 31
0.0
  0
LINE
  5
230
330
1E
100
AcDbEntity
  8
0
100
AcDbLine
 10
89.43620000000001
 20
147.65
 30
0.0
 11
89.43620000000001
 21
148.2499999999999
 31
0.0
  0
LINE
  5
231
330
1E
100
AcDbEntity
  8
0
100
AcDbLine
 10
88.87820000000001
 20
146.75
 30
0.0
 11
89.43620000000001
 21
148.2499999999999
 31
0.0
  0
LINE
  5
232
330
1E
100
AcDbEntity
  8
0
100
AcDbLine
 10
89.43620000000001
 20
148.2499999999999
 30
0.0
 11
91.1092
 21
148.75
 31
0.0
  0
LINE
  5
233
330
1E
100
AcDbEntity
  8
0
100
AcDbLine
 10
89.43620000000001
 20
148.2499999999999
 30
0.0
 11
89.43620000000001
 21
147.65
 31
0.0
  0
LINE
  5
234
330
1E
100
AcDbEntity
  8
0
100
AcDbLine
 10
91.1092
 20
148.75
 30
0.0
 11
92.22419999999999
 21
148.75
 31
0.0
  0
LINE
  5
235
330
1E
100
AcDbEntity
  8
0
100
AcDbLine
 10
92.22419999999999
 20
148.75
 30
0.0
 11
96.6862
 21
150.2499999999999
 31
0.0
  0
LINE
  5
236
330
1E
100
AcDbEntity
  8
0
100
AcDbLine
 10
96.6862
 20
150.2499999999999
 30
0.0
 11
100.5902
 21
153.2499999999999
 31
0.0
  0
LINE
  5
237
330
1E
100
AcDbEntity
  8
0
100
AcDbLine
 10
100.5902
 20
153.2499999999999
 30
0.0
 11
102.2631999999999
 21
155.75
 31
0.0
  0
LINE
  5
238
330
1E
100
AcDbEntity
  8
0
100
AcDbLine
 10
102.8212
 20
143.9499999999999
 30
0.0
 11
102.8212
 21
137.55
 31
0.0
  0
LINE
  5
239
330
1E
100
AcDbEntity
  8
0
100
AcDbLine
 10
102.8212
 20
143.9499999999999
 30
0.0
 11
102.8212
 21
149.4499999999999
 31
0.0
  0
LINE
  5
23A
330
1E
100
AcDbEntity
  8
0
100
AcDbLine
 10
102.8212
 20
149.4499999999999
 30
0.0
 11
102.8212
 21
153.75
 31
0.0
  0
LINE
  5
23B
330
1E
100
AcDbEntity
  8
0
100
AcDbLine
 10
102.8212
 20
149.4499999999999
 30
0.0
 11
102.8212
 21
143.9499999999999
 31
0.0
  0
LINE
  5
23C
330
1E
100
AcDbEntity
  8
0
100
AcDbLine
 10
102.8212
 20
153.75
 30
0.0
 11
102.8212
 21
149.4499999999999
 31
0.0
  0
LINE
  5
23D
330
1E
100
AcDbEntity
  8
0
100
AcDbLine
 10
102.8212
 20
153.75
 30
0.0
 11
102.8212
 21
156.25
 31
0.0
  0
LINE
  5
23E
330
1E
100
AcDbEntity
  8
0
100
AcDbLine
 10
102.8212
 20
156.25
 30
0.0
 11
102.8212
 21
153.75
 31
0.0
  0
LINE
  5
23F
330
1E
100
AcDbEntity
  8
0
100
AcDbLine
 10
102.8212
 20
156.25
 30
0.0
 11
102.8212
 21
157.2499999999999
 31
0.0
  0
LINE
  5
240
330
1E
100
AcDbEntity
  8
0
100
AcDbLine
 10
102.2631999999999
 20
155.75
 30
0.0
 11
102.8212
 21
157.2499999999999
 31
0.0
  0
LINE
  5
241
330
1E
100
AcDbEntity
  8
0
100
AcDbLine
 10
102.8212
 20
157.2499999999999
 30
0.0
 11
104.4942
 21
157.75
 31
0.0
  0
LINE
  5
242
330
1E
100
AcDbEntity
  8
0
100
AcDbLine
 10
102.8212
 20
157.2499999999999
 30
0.0
 11
102.8212
 21
156.25
 31
0.0
  0
LINE
  5
243
330
1E
100
AcDbEntity
  8
0
100
AcDbLine
 10
105.6092
 20
144.15
 30
0.0
 11
105.6092
 21
137.65
 31
0.0
  0
LINE
  5
244
330
1E
100
AcDbEntity
  8
0
100
AcDbLine
 10
105.6092
 20
144.15
 30
0.0
 11
105.6092
 21
149.8499999999999
 31
0.0
  0
LINE
  5
245
330
1E
100
AcDbEntity
  8
0
100
AcDbLine
 10
105.6092
 20
149.8499999999999
 30
0.0
 11
105.6092
 21
154.15
 31
0.0
  0
LINE
  5
246
330
1E
100
AcDbEntity
  8
0
100
AcDbLine
 10
105.6092
 20
149.8499999999999
 30
0.0
 11
105.6092
 21
144.15
 31
0.0
  0
LINE
  5
247
330
1E
100
AcDbEntity
  8
0
100
AcDbLine
 10
105.6092
 20
154.15
 30
0.0
 11
105.6092
 21
149.8499999999999
 31
0.0
  0
LINE
  5
248
330
1E
100
AcDbEntity
  8
0
100
AcDbLine
 10
105.6092
 20
154.15
 30
0.0
 11
105.6092
 21
156.75
 31
0.0
  0
LINE
  5
249
330
1E
100
AcDbEntity
  8
0
100
AcDbLine
 10
105.6092
 20
156.75
 30
0.0
 11
105.6092
 21
154.15
 31
0.0
  0
LINE
  5
24A
330
1E
100
AcDbEntity
  8
0
100
AcDbLine
 10
105.6092
 20
156.75
 30
0.0
 11
105.6092
 21
157.75
 31
0.0
  0
LINE
  5
24B
330
1E
100
AcDbEntity
  8
0
100
AcDbLine
 10
105.6092
 20
157.75
 30
0.0
 11
105.6092
 21
156.75
 31
0.0
  0
LINE
  5
24C
330
1E
100
AcDbEntity
  8
0
100
AcDbLine
 10
104.4942
 20
157.75
 30
0.0
 11
105.6092
 21
157.75
 31
0.0
  0
LINE
  5
24D
330
1E
100
AcDbEntity
  8
0
100
AcDbLine
 10
76.6092
 20
140.7499999999999
 30
0.0
 11
76.6092
 21
140.35
 31
0.0
  0
LINE
  5
24E
330
1E
100
AcDbEntity
  8
0
100
AcDbLine
 10
76.6092
 20
140.7499999999999
 30
0.0
 11
76.6092
 21
142.05
 31
0.0
  0
LINE
  5
24F
330
1E
100
AcDbEntity
  8
0
100
AcDbLine
 10
76.6092
 20
122.0499999999999
 30
0.0
 11
76.6092
 21
121.15
 31
0.0
  0
LINE
  5
250
330
1E
100
AcDbEntity
  8
0
100
AcDbLine
 10
76.6092
 20
121.15
 30
0.0
 11
76.6092
 21
120.75
 31
0.0
  0
LINE
  5
251
330
1E
100
AcDbEntity
  8
0
100
AcDbLine
 10
75.1092
 20
121.25
 30
0.0
 11
76.6092
 21
120.75
 31
0.0
  0
LINE
  5
256
330
1E
100
AcDbEntity
  8
0
100
AcDbLine
 10
67.7962
 20
121.5632999999999
 30
0.0
 11
69.87619999999999
 21
124.2499999999999
 31
0.0
  0
LINE
  5
257
330
1E
100
AcDbEntity
  8
0
100
AcDbLine
 10
61.9892
 20
118.1833
 30
0.0
 11
58.6092
 21
117.7499999999999
 31
0.0
  0
LINE
  5
258
330
1E
100
AcDbEntity
  8
0
100
AcDbLine
 10
49.42219999999999
 20
121.5632999999999
 30
0.0
 11
47.34219999999999
 21
124.2499999999999
 31
0.0
  0
LINE
  5
259
330
1E
100
AcDbEntity
  8
0
100
AcDbLine
 10
-0.109199999999995
 20
59.2028
 30
0.0
 11
1.66170000000001
 21
58.27333
 31
0.0
  0
LINE
  5
25A
330
1E
100
AcDbEntity
  8
0
100
AcDbLine
 10
11.6396447006873
 20
78.8914845537721
 30
0.0
 11
8.586067271113059
 21
74.0571531761197
 31
0.0
  0
LINE
  5
25B
330
1E
100
AcDbEntity
  8
0
100
AcDbLine
 10
53.6092
 20
60.41669999999999
 30
0.0
 11
51.5422
 21
58.81669999999999
 31
0.0
  0
LINE
  5
25C
330
1E
100
AcDbEntity
  8
0
100
AcDbLine
 10
48.9422
 20
54.35
 30
0.0
 11
48.6092
 21
51.75
 31
0.0
  0
LINE
  5
25D
330
1E
100
AcDbEntity
  8
0
100
AcDbLine
 10
49.9422
 20
46.74999999999999
 30
0.0
 11
51.58220613466586
 21
44.77312524333036
 31
0.0
  0
LINE
  5
25E
330
1E
100
AcDbEntity
  8
0
100
AcDbLine
 10
51.58220613466586
 20
44.77312524333036
 30
0.0
 11
53.6092
 21
43.08333
 31
0.0
  0
LINE
  5
25F
330
1E
100
AcDbEntity
  8
0
100
AcDbLine
 10
56.0092
 20
42.08332999999999
 30
0.0
 11
58.6092
 21
41.74999999999999
 31
0.0
  0
LINE
  5
260
330
1E
100
AcDbEntity
  8
0
100
AcDbLine
 10
61.2092
 20
42.08332999999999
 30
0.0
 11
63.5646475661415
 21
42.94271855259296
 31
0.0
  0
LINE
  5
261
330
1E
100
AcDbEntity
  8
0
100
AcDbLine
 10
63.5646475661415
 20
42.94271855259296
 30
0.0
 11
65.63396105835341
 21
44.67531723529754
 31
0.0
  0
LINE
  5
262
330
1E
100
AcDbEntity
  8
0
100
AcDbLine
 10
65.63396105835341
 20
44.67531723529754
 30
0.0
 11
67.2762
 21
46.74999999999999
 31
0.0
  0
LINE
  5
263
330
1E
100
AcDbEntity
  8
0
100
AcDbLine
 10
68.6092
 20
51.75
 30
0.0
 11
68.2762
 21
49.15
 31
0.0
  0
LINE
  5
264
330
1E
100
AcDbEntity
  8
0
100
AcDbLine
 10
58.6092
 20
143.75
 30
0.0
 11
55.23504472718411
 21
143.3326997681581
 31
0.0
  0
LINE
  5
265
330
1E
100
AcDbEntity
  8
0
100
AcDbLine
 10
55.23504472718411
 20
143.3326997681581
 30
0.0
 11
52.1092
 21
142.0167
 31
0.0
  0
LINE
  5
266
330
1E
100
AcDbEntity
  8
0
100
AcDbLine
 10
47.34219999999999
 20
137.25
 30
0.0
 11
46.0422
 21
134.1299999999999
 31
0.0
  0
ENDSEC
  0
SECTION
  2
OBJECTS
  0
DICTIONARY
  5
C
330
0
100
AcDbDictionary
281
     1
  3
ACAD_GROUP
350
D
  3
ACAD_LAYOUT
350
19
  3
ACAD_MLINESTYLE
350
16
  3
ACAD_PLOTSETTINGS
350
18
  3
ACAD_PLOTSTYLENAME
350
E
  3
AcDbVariableDictionary
350
267
  0
DICTIONARY
  5
D
102
{ACAD_REACTORS
330
C
102
}
330
C
100
AcDbDictionary
281
     1
  0
DICTIONARY
  5
19
102
{ACAD_REACTORS
330
C
102
}
330
C
100
AcDbDictionary
281
     1
  3
Layout1
350
1D
  3
Model
350
21
  0
DICTIONARY
  5
16
102
{ACAD_REACTORS
330
C
102
}
330
C
100
AcDbDictionary
281
     1
  3
Standard
350
17
  0
DICTIONARY
  5
18
102
{ACAD_REACTORS
330
C
102
}
330
C
100
AcDbDictionary
281
     1
  0
ACDBDICTIONARYWDFLT
  5
E
102
{ACAD_REACTORS
330
C
102
}
330
C
100
AcDbDictionary
281
     1
  3
Normal
350
F
100
AcDbDictionaryWithDefault
340
F
  0
DICTIONARY
  5
267
102
{ACAD_REACTORS
330
C
102
}
330
C
100
AcDbDictionary
281
     1
  3
DIMASSOC
350
268
  0
LAYOUT
  5
1D
102
{ACAD_REACTORS
330
19
102
}
330
19
100
AcDbPlotSettings
  1

  2
hp deskjet 980c series
  4

  6

 40
0.0
 41
0.0
 42
0.0
 43
0.0
 44
0.0
 45
0.0
 46
0.0
 47
0.0
 48
0.0
 49
0.0
140
0.0
141
0.0
142
1.0
143
1.0
 70
   688
 72
     0
 73
     0
 74
     5
  7

 75
    16
147
1.0
148
0.0
149
0.0
100
AcDbLayout
  1
Layout1
 70
     1
 71
     1
 10
0.0
 20
0.0
 11
12.0
 21
9.0
 12
0.0
 22
0.0
 32
0.0
 14
1.000000000000000E+20
 24
1.000000000000000E+20
 34
1.000000000000000E+20
 15
-1.000000000000000E+20
 25
-1.000000000000000E+20
 35
-1.000000000000000E+20
146
0.0
 13
0.0
 23
0.0
 33
0.0
 16
1.0
 26
0.0
 36
0.0
 17
0.0
 27
1.0
 37
0.0
 76
     0
330
1A
  0
LAYOUT
  5
21
102
{ACAD_REACTORS
330
19
102
}
330
19
100
AcDbPlotSettings
  1

  2
hp deskjet 980c series
  4

  6

 40
0.0
 41
0.0
 42
0.0
 43
0.0
 44
0.0
 45
0.0
 46
0.0
 47
0.0
 48
0.0
 49
0.0
140
0.0
141
0.0
142
1.0
143
1.0
 70
  1712
 72
     0
 73
     0
 74
     0
  7

 75
     0
147
1.0
148
0.0
149
0.0
100
AcDbLayout
  1
Model
 70
     1
 71
     0
 10
0.0
 20
0.0
 11
12.0
 21
9.0
 12
0.0
 22
0.0
 32
0.0
 14
0.0
 24
0.0
 34
0.0
 15
0.0
 25
0.0
 35
0.0
146
0.0
 13
0.0
 23
0.0
 33
0.0
 16
1.0
 26
0.0
 36
0.0
 17
0.0
 27
1.0
 37
0.0
 76
     0
330
1E
  0
MLINESTYLE
  5
17
102
{ACAD_REACTORS
330
16
102
}
330
16
100
AcDbMlineStyle
  2
STANDARD
 70
     0
  3

 62
   256
 51
90.0
 52
90.0
 71
     2
 49
0.5
 62
   256
  6
BYLAYER
 49
-0.5
 62
   256
  6
BYLAYER
  0
ACDBPLACEHOLDER
  5
F
102
{ACAD_REACTORS
330
E
102
}
330
E
  0
DICTIONARYVAR
  5
268
102
{ACAD_REACTORS
330
267
102
}
330
267
100
DictionaryVariables
280
     0
  1
1
  0
ENDSEC
  0
EOF
