  0
SECTION
  2
HEADER
  9
$ACADVER
  1
AC1015
  9
$ACADMAINTVER
 70
    13
  9
$DWGCODEPAGE
  3
ANSI_1252
  9
$INSBASE
 10
0.0
 20
0.0
 30
0.0
  9
$EXTMIN
 10
0.0000000000000009
 20
0.0000000000000043
 30
0.0
  9
$EXTMAX
 10
71.0
 20
54.0
 30
0.0
  9
$LIMMIN
 10
0.0
 20
0.0
  9
$LIMMAX
 10
12.0
 20
9.0
  9
$ORTHOMODE
 70
     0
  9
$REGENMODE
 70
     1
  9
$FILLMODE
 70
     1
  9
$QTEXTMODE
 70
     0
  9
$MIRRTEXT
 70
     1
  9
$LTSCALE
 40
1.0
  9
$ATTMODE
 70
     1
  9
$TEXTSIZE
 40
0.2
  9
$TRACEWID
 40
0.05
  9
$TEXTSTYLE
  7
Standard
  9
$CLAYER
  8
0
  9
$CELTYPE
  6
Continuous
  9
$CECOLOR
 62
   256
  9
$CELTSCALE
 40
1.0
  9
$DISPSILH
 70
     0
  9
$DIMSCALE
 40
1.0
  9
$DIMASZ
 40
0.18
  9
$DIMEXO
 40
0.0625
  9
$DIMDLI
 40
0.38
  9
$DIMRND
 40
0.0
  9
$DIMDLE
 40
0.0
  9
$DIMEXE
 40
0.18
  9
$DIMTP
 40
0.0
  9
$DIMTM
 40
0.0
  9
$DIMTXT
 40
0.18
  9
$DIMCEN
 40
0.09
  9
$DIMTSZ
 40
0.0
  9
$DIMTOL
 70
     0
  9
$DIMLIM
 70
     0
  9
$DIMTIH
 70
     1
  9
$DIMTOH
 70
     1
  9
$DIMSE1
 70
     0
  9
$DIMSE2
 70
     0
  9
$DIMTAD
 70
     0
  9
$DIMZIN
 70
     0
  9
$DIMBLK
  1

  9
$DIMASO
 70
     1
  9
$DIMSHO
 70
     1
  9
$DIMPOST
  1

  9
$DIMAPOST
  1

  9
$DIMALT
 70
     0
  9
$DIMALTD
 70
     2
  9
$DIMALTF
 40
25.4
  9
$DIMLFAC
 40
1.0
  9
$DIMTOFL
 70
     0
  9
$DIMTVP
 40
0.0
  9
$DIMTIX
 70
     0
  9
$DIMSOXD
 70
     0
  9
$DIMSAH
 70
     0
  9
$DIMBLK1
  1

  9
$DIMBLK2
  1

  9
$DIMSTYLE
  2
Standard
  9
$DIMCLRD
 70
     0
  9
$DIMCLRE
 70
     0
  9
$DIMCLRT
 70
     0
  9
$DIMTFAC
 40
1.0
  9
$DIMGAP
 40
0.09
  9
$DIMJUST
 70
     0
  9
$DIMSD1
 70
     0
  9
$DIMSD2
 70
     0
  9
$DIMTOLJ
 70
     1
  9
$DIMTZIN
 70
     0
  9
$DIMALTZ
 70
     0
  9
$DIMALTTZ
 70
     0
  9
$DIMUPT
 70
     0
  9
$DIMDEC
 70
     4
  9
$DIMTDEC
 70
     4
  9
$DIMALTU
 70
     2
  9
$DIMALTTD
 70
     2
  9
$DIMTXSTY
  7
Standard
  9
$DIMAUNIT
 70
     0
  9
$DIMADEC
 70
     0
  9
$DIMALTRND
 40
0.0
  9
$DIMAZIN
 70
     0
  9
$DIMDSEP
 70
    46
  9
$DIMATFIT
 70
     3
  9
$DIMFRAC
 70
     0
  9
$DIMLDRBLK
  1

  9
$DIMLUNIT
 70
     2
  9
$DIMLWD
 70
    -2
  9
$DIMLWE
 70
    -2
  9
$DIMTMOVE
 70
     0
  9
$LUNITS
 70
     2
  9
$LUPREC
 70
     4
  9
$SKETCHINC
 40
0.1
  9
$FILLETRAD
 40
0.0
  9
$AUNITS
 70
     0
  9
$AUPREC
 70
     0
  9
$MENU
  1
.
  9
$ELEVATION
 40
0.0
  9
$PELEVATION
 40
0.0
  9
$THICKNESS
 40
0.0
  9
$LIMCHECK
 70
     0
  9
$CHAMFERA
 40
0.0
  9
$CHAMFERB
 40
0.0
  9
$CHAMFERC
 40
0.0
  9
$CHAMFERD
 40
0.0
  9
$SKPOLY
 70
     0
  9
$TDCREATE
 40
2454748.437276609
  9
$TDUCREATE
 40
2454748.353943275
  9
$TDUPDATE
 40
2454748.440489861
  9
$TDUUPDATE
 40
2454748.357156527
  9
$TDINDWG
 40
0.0032132523
  9
$TDUSRTIMER
 40
0.0032132523
  9
$USRTIMER
 70
     1
  9
$ANGBASE
 50
0.0
  9
$ANGDIR
 70
     0
  9
$PDMODE
 70
     0
  9
$PDSIZE
 40
0.0
  9
$PLINEWID
 40
0.0
  9
$SPLFRAME
 70
     0
  9
$SPLINETYPE
 70
     6
  9
$SPLINESEGS
 70
     8
  9
$HANDSEED
  5
199
  9
$SURFTAB1
 70
     6
  9
$SURFTAB2
 70
     6
  9
$SURFTYPE
 70
     6
  9
$SURFU
 70
     6
  9
$SURFV
 70
     6
  9
$UCSBASE
  2

  9
$UCSNAME
  2

  9
$UCSORG
 10
0.0
 20
0.0
 30
0.0
  9
$UCSXDIR
 10
1.0
 20
0.0
 30
0.0
  9
$UCSYDIR
 10
0.0
 20
1.0
 30
0.0
  9
$UCSORTHOREF
  2

  9
$UCSORTHOVIEW
 70
     1
  9
$UCSORGTOP
 10
0.0
 20
0.0
 30
0.0
  9
$UCSORGBOTTOM
 10
0.0
 20
0.0
 30
0.0
  9
$UCSORGLEFT
 10
0.0
 20
0.0
 30
0.0
  9
$UCSORGRIGHT
 10
0.0
 20
0.0
 30
0.0
  9
$UCSORGFRONT
 10
0.0
 20
0.0
 30
0.0
  9
$UCSORGBACK
 10
0.0
 20
0.0
 30
0.0
  9
$PUCSBASE
  2

  9
$PUCSNAME
  2

  9
$PUCSORG
 10
0.0
 20
0.0
 30
0.0
  9
$PUCSXDIR
 10
1.0
 20
0.0
 30
0.0
  9
$PUCSYDIR
 10
0.0
 20
1.0
 30
0.0
  9
$PUCSORTHOREF
  2

  9
$PUCSORTHOVIEW
 70
     0
  9
$PUCSORGTOP
 10
0.0
 20
0.0
 30
0.0
  9
$PUCSORGBOTTOM
 10
0.0
 20
0.0
 30
0.0
  9
$PUCSORGLEFT
 10
0.0
 20
0.0
 30
0.0
  9
$PUCSORGRIGHT
 10
0.0
 20
0.0
 30
0.0
  9
$PUCSORGFRONT
 10
0.0
 20
0.0
 30
0.0
  9
$PUCSORGBACK
 10
0.0
 20
0.0
 30
0.0
  9
$USERI1
 70
     0
  9
$USERI2
 70
     0
  9
$USERI3
 70
     0
  9
$USERI4
 70
     0
  9
$USERI5
 70
     0
  9
$USERR1
 40
0.0
  9
$USERR2
 40
0.0
  9
$USERR3
 40
0.0
  9
$USERR4
 40
0.0
  9
$USERR5
 40
0.0
  9
$WORLDVIEW
 70
     1
  9
$SHADEDGE
 70
     3
  9
$SHADEDIF
 70
    70
  9
$TILEMODE
 70
     1
  9
$MAXACTVP
 70
    64
  9
$PINSBASE
 10
0.0
 20
0.0
 30
0.0
  9
$PLIMCHECK
 70
     0
  9
$PEXTMIN
 10
1.000000000000000E+20
 20
1.000000000000000E+20
 30
1.000000000000000E+20
  9
$PEXTMAX
 10
-1.000000000000000E+20
 20
-1.000000000000000E+20
 30
-1.000000000000000E+20
  9
$PLIMMIN
 10
0.0
 20
0.0
  9
$PLIMMAX
 10
12.0
 20
9.0
  9
$UNITMODE
 70
     0
  9
$VISRETAIN
 70
     1
  9
$PLINEGEN
 70
     0
  9
$PSLTSCALE
 70
     1
  9
$TREEDEPTH
 70
  3020
  9
$CMLSTYLE
  2
Standard
  9
$CMLJUST
 70
     0
  9
$CMLSCALE
 40
1.0
  9
$PROXYGRAPHICS
 70
     1
  9
$MEASUREMENT
 70
     0
  9
$CELWEIGHT
370
    -1
  9
$ENDCAPS
280
     0
  9
$JOINSTYLE
280
     0
  9
$LWDISPLAY
290
     0
  9
$INSUNITS
 70
     0
  9
$HYPERLINKBASE
  1

  9
$STYLESHEET
  1

  9
$XEDIT
290
     1
  9
$CEPSNTYPE
380
     0
  9
$PSTYLEMODE
290
     1
  9
$FINGERPRINTGUID
  2
{29442293-2131-4C8F-A00A-D9308947DE53}
  9
$VERSIONGUID
  2
{CFC80AC5-F047-4B5F-8A19-11F7C8FD1578}
  9
$EXTNAMES
290
     1
  9
$PSVPSCALE
 40
0.0
  9
$OLESTARTUP
290
     0
  0
ENDSEC
  0
SECTION
  2
CLASSES
  0
CLASS
  1
ACDBDICTIONARYWDFLT
  2
AcDbDictionaryWithDefault
  3
AutoCAD 2000
 90
        0
280
     0
281
     0
  0
CLASS
  1
ACDBPLACEHOLDER
  2
AcDbPlaceHolder
  3
AutoCAD 2000
 90
        0
280
     0
281
     0
  0
CLASS
  1
LAYOUT
  2
AcDbLayout
  3
AutoCAD 2000
 90
        0
280
     0
281
     0
  0
CLASS
  1
DICTIONARYVAR
  2
AcDbDictionaryVar
  3
AutoCAD 2000
 90
        0
280
     0
281
     0
  0
ENDSEC
  0
SECTION
  2
TABLES
  0
TABLE
  2
VPORT
  5
8
330
0
100
AcDbSymbolTable
 70
     2
  0
VPORT
  5
198
330
8
100
AcDbSymbolTableRecord
100
AcDbViewportTableRecord
  2
*Active
 70
     0
 10
0.0
 20
0.0
 11
1.0
 21
1.0
 12
35.5
 22
27.0
 13
0.0
 23
0.0
 14
1.0
 24
1.0
 15
0.0
 25
0.0
 16
0.0
 26
0.0
 36
1.0
 17
0.0
 27
0.0
 37
0.0
 40
54.41432225063937
 41
2.078104993597951
 42
50.0
 43
0.0
 44
0.0
 50
0.0
 51
0.0
 71
     0
 72
   100
 73
     1
 74
     3
 75
     0
 76
     0
 77
     0
 78
     0
281
     0
 65
     1
110
0.0
120
0.0
130
0.0
111
1.0
121
0.0
131
0.0
112
0.0
122
1.0
132
0.0
 79
     1
146
0.0
  0
ENDTAB
  0
TABLE
  2
LTYPE
  5
5
330
0
100
AcDbSymbolTable
 70
     1
  0
LTYPE
  5
13
330
5
100
AcDbSymbolTableRecord
100
AcDbLinetypeTableRecord
  2
ByBlock
 70
     0
  3

 72
    65
 73
     0
 40
0.0
  0
LTYPE
  5
14
330
5
100
AcDbSymbolTableRecord
100
AcDbLinetypeTableRecord
  2
ByLayer
 70
     0
  3

 72
    65
 73
     0
 40
0.0
  0
LTYPE
  5
15
330
5
100
AcDbSymbolTableRecord
100
AcDbLinetypeTableRecord
  2
Continuous
 70
     0
  3
Solid line
 72
    65
 73
     0
 40
0.0
  0
ENDTAB
  0
TABLE
  2
LAYER
  5
2
330
0
100
AcDbSymbolTable
 70
     1
  0
LAYER
  5
10
330
2
100
AcDbSymbolTableRecord
100
AcDbLayerTableRecord
  2
0
 70
     0
 62
     7
  6
Continuous
370
    -3
390
F
  0
ENDTAB
  0
TABLE
  2
STYLE
  5
3
330
0
100
AcDbSymbolTable
 70
     1
  0
STYLE
  5
11
330
3
100
AcDbSymbolTableRecord
100
AcDbTextStyleTableRecord
  2
Standard
 70
     0
 40
0.0
 41
1.0
 50
0.0
 71
     0
 42
0.2
  3
txt
  4

  0
ENDTAB
  0
TABLE
  2
VIEW
  5
6
330
0
100
AcDbSymbolTable
 70
     0
  0
ENDTAB
  0
TABLE
  2
UCS
  5
7
330
0
100
AcDbSymbolTable
 70
     0
  0
ENDTAB
  0
TABLE
  2
APPID
  5
9
330
0
100
AcDbSymbolTable
 70
     1
  0
APPID
  5
12
330
9
100
AcDbSymbolTableRecord
100
AcDbRegAppTableRecord
  2
ACAD
 70
     0
  0
ENDTAB
  0
TABLE
  2
DIMSTYLE
  5
A
330
0
100
AcDbSymbolTable
 70
     1
100
AcDbDimStyleTable
 71
     0
  0
DIMSTYLE
105
18D
330
A
100
AcDbSymbolTableRecord
100
AcDbDimStyleTableRecord
  2
Standard
 70
     0
340
11
  0
ENDTAB
  0
TABLE
  2
BLOCK_RECORD
  5
1
330
0
100
AcDbSymbolTable
 70
     0
  0
BLOCK_RECORD
  5
1E
330
1
100
AcDbSymbolTableRecord
100
AcDbBlockTableRecord
  2
*Model_Space
340
21
  0
BLOCK_RECORD
  5
1A
330
1
100
AcDbSymbolTableRecord
100
AcDbBlockTableRecord
  2
*Paper_Space
340
1D
  0
ENDTAB
  0
ENDSEC
  0
SECTION
  2
BLOCKS
  0
BLOCK
  5
1F
330
1E
100
AcDbEntity
  8
0
100
AcDbBlockBegin
  2
*Model_Space
 70
     0
 10
0.0
 20
0.0
 30
0.0
  3
*Model_Space
  1

  0
ENDBLK
  5
20
330
1E
100
AcDbEntity
  8
0
100
AcDbBlockEnd
  0
BLOCK
  5
1B
330
1A
100
AcDbEntity
 67
     1
  8
0
100
AcDbBlockBegin
  2
*Paper_Space
 70
     0
 10
0.0
 20
0.0
 30
0.0
  3
*Paper_Space
  1

  0
ENDBLK
  5
1C
330
1A
100
AcDbEntity
 67
     1
  8
0
100
AcDbBlockEnd
  0
ENDSEC
  0
SECTION
  2
ENTITIES
  0
LINE
  5
22
330
1E
100
AcDbEntity
  8
0
100
AcDbLine
 10
2.399999999999999
 20
19.8
 30
0.0
 11
4.799999999999999
 21
16.8
 31
0.0
  0
LINE
  5
23
330
1E
100
AcDbEntity
  8
0
100
AcDbLine
 10
8.5
 20
15.7333
 30
0.0
 11
11.61999999999999
 21
14.4333
 31
0.0
  0
LINE
  5
24
330
1E
100
AcDbEntity
  8
0
100
AcDbLine
 10
5.81333
 20
17.8133
 30
0.0
 11
8.5
 21
15.7333
 31
0.0
  0
LINE
  5
25
330
1E
100
AcDbEntity
  8
0
100
AcDbLine
 10
8.759999999999999
 20
16.07999999999999
 30
0.0
 11
11.79329999999999
 21
14.8667
 31
0.0
  0
LINE
  5
26
330
1E
100
AcDbEntity
  8
0
100
AcDbLine
 10
9.626669999999998
 20
17.64
 30
0.0
 11
12.22669999999999
 21
16.6
 31
0.0
  0
LINE
  5
27
330
1E
100
AcDbEntity
  8
0
100
AcDbLine
 10
6.16
 20
18.16
 30
0.0
 11
8.759999999999999
 21
16.07999999999999
 31
0.0
  0
LINE
  5
28
330
1E
100
AcDbEntity
  8
0
100
AcDbLine
 10
7.37333
 20
19.3733
 30
0.0
 11
9.626669999999998
 21
17.64
 31
0.0
  0
LINE
  5
29
330
1E
100
AcDbEntity
  8
0
100
AcDbLine
 10
7.633329999999999
 20
19.6333
 30
0.0
 11
9.8
 21
17.98669999999999
 31
0.0
  0
LINE
  5
2A
330
1E
100
AcDbEntity
  8
0
100
AcDbLine
 10
9.8
 20
17.98669999999999
 30
0.0
 11
12.3133
 21
16.9467
 31
0.0
  0
LINE
  5
2B
330
1E
100
AcDbEntity
  8
0
100
AcDbLine
 10
4.799999999999999
 20
16.8
 30
0.0
 11
7.799999999999999
 21
14.4
 31
0.0
  0
LINE
  5
2C
330
1E
100
AcDbEntity
  8
0
100
AcDbLine
 10
7.799999999999999
 20
14.4
 30
0.0
 11
11.3
 21
13.0
 31
0.0
  0
LINE
  5
2D
330
1E
100
AcDbEntity
  8
0
100
AcDbLine
 10
4.4
 20
16.39999999999999
 30
0.0
 11
7.5
 21
14.0
 31
0.0
  0
LINE
  5
2E
330
1E
100
AcDbEntity
  8
0
100
AcDbLine
 10
7.5
 20
14.0
 30
0.0
 11
11.1
 21
12.5
 31
0.0
  0
LINE
  5
2F
330
1E
100
AcDbEntity
  8
0
100
AcDbLine
 10
15.0
 20
12.5
 30
0.0
 11
18.7
 21
13.0
 31
0.0
  0
LINE
  5
30
330
1E
100
AcDbEntity
  8
0
100
AcDbLine
 10
15.0
 20
12.0
 30
0.0
 11
18.89999999999999
 21
12.5
 31
0.0
  0
LINE
  5
31
330
1E
100
AcDbEntity
  8
0
100
AcDbLine
 10
11.61999999999999
 20
14.4333
 30
0.0
 11
15.0
 21
14.0
 31
0.0
  0
LINE
  5
32
330
1E
100
AcDbEntity
  8
0
100
AcDbLine
 10
15.0
 20
14.0
 30
0.0
 11
18.38
 21
14.4333
 31
0.0
  0
LINE
  5
33
330
1E
100
AcDbEntity
  8
0
100
AcDbLine
 10
18.38
 20
14.4333
 30
0.0
 11
21.49999999999999
 21
15.7333
 31
0.0
  0
LINE
  5
34
330
1E
100
AcDbEntity
  8
0
100
AcDbLine
 10
18.2067
 20
14.8667
 30
0.0
 11
21.24
 21
16.07999999999999
 31
0.0
  0
LINE
  5
35
330
1E
100
AcDbEntity
  8
0
100
AcDbLine
 10
15.0
 20
14.4333
 30
0.0
 11
18.2067
 21
14.8667
 31
0.0
  0
LINE
  5
36
330
1E
100
AcDbEntity
  8
0
100
AcDbLine
 10
15.0
 20
16.1667
 30
0.0
 11
17.7733
 21
16.6
 31
0.0
  0
LINE
  5
37
330
1E
100
AcDbEntity
  8
0
100
AcDbLine
 10
11.79329999999999
 20
14.8667
 30
0.0
 11
15.0
 21
14.4333
 31
0.0
  0
LINE
  5
38
330
1E
100
AcDbEntity
  8
0
100
AcDbLine
 10
11.3
 20
13.0
 30
0.0
 11
15.0
 21
12.5
 31
0.0
  0
LINE
  5
39
330
1E
100
AcDbEntity
  8
0
100
AcDbLine
 10
22.5
 20
14.0
 30
0.0
 11
25.6
 21
16.39999999999999
 31
0.0
  0
LINE
  5
3A
330
1E
100
AcDbEntity
  8
0
100
AcDbLine
 10
21.49999999999999
 20
15.7333
 30
0.0
 11
24.1867
 21
17.8133
 31
0.0
  0
LINE
  5
3B
330
1E
100
AcDbEntity
  8
0
100
AcDbLine
 10
21.24
 20
16.07999999999999
 30
0.0
 11
23.83999999999999
 21
18.16
 31
0.0
  0
LINE
  5
3C
330
1E
100
AcDbEntity
  8
0
100
AcDbLine
 10
22.2
 20
14.4
 30
0.0
 11
25.2
 21
16.8
 31
0.0
  0
LINE
  5
3D
330
1E
100
AcDbEntity
  8
0
100
AcDbLine
 10
18.7
 20
13.0
 30
0.0
 11
22.2
 21
14.4
 31
0.0
  0
LINE
  5
3E
330
1E
100
AcDbEntity
  8
0
100
AcDbLine
 10
17.7733
 20
16.6
 30
0.0
 11
20.3733
 21
17.64
 31
0.0
  0
LINE
  5
3F
330
1E
100
AcDbEntity
  8
0
100
AcDbLine
 10
15.0
 20
16.6
 30
0.0
 11
17.6867
 21
16.9467
 31
0.0
  0
LINE
  5
40
330
1E
100
AcDbEntity
  8
0
100
AcDbLine
 10
12.22669999999999
 20
16.6
 30
0.0
 11
15.0
 21
16.1667
 31
0.0
  0
LINE
  5
41
330
1E
100
AcDbEntity
  8
0
100
AcDbLine
 10
24.1867
 20
17.8133
 30
0.0
 11
26.2667
 21
20.5
 31
0.0
  0
LINE
  5
42
330
1E
100
AcDbEntity
  8
0
100
AcDbLine
 10
23.83999999999999
 20
18.16
 30
0.0
 11
25.92
 21
20.76
 31
0.0
  0
LINE
  5
43
330
1E
100
AcDbEntity
  8
0
100
AcDbLine
 10
22.62669999999999
 20
19.3733
 30
0.0
 11
24.35999999999999
 21
21.62669999999999
 31
0.0
  0
LINE
  5
44
330
1E
100
AcDbEntity
  8
0
100
AcDbLine
 10
22.3667
 20
19.6333
 30
0.0
 11
24.0133
 21
21.8
 31
0.0
  0
LINE
  5
45
330
1E
100
AcDbEntity
  8
0
100
AcDbLine
 10
20.3733
 20
17.64
 30
0.0
 11
22.62669999999999
 21
19.3733
 31
0.0
  0
LINE
  5
46
330
1E
100
AcDbEntity
  8
0
100
AcDbLine
 10
20.2
 20
17.98669999999999
 30
0.0
 11
22.3667
 21
19.6333
 31
0.0
  0
LINE
  5
47
330
1E
100
AcDbEntity
  8
0
100
AcDbLine
 10
17.6867
 20
16.9467
 30
0.0
 11
20.2
 21
17.98669999999999
 31
0.0
  0
LINE
  5
48
330
1E
100
AcDbEntity
  8
0
100
AcDbLine
 10
12.3133
 20
16.9467
 30
0.0
 11
15.0
 21
16.6
 31
0.0
  0
LINE
  5
49
330
1E
100
AcDbEntity
  8
0
100
AcDbLine
 10
25.2
 20
16.8
 30
0.0
 11
27.6
 21
19.8
 31
0.0
  0
LINE
  5
4A
330
1E
100
AcDbEntity
  8
0
100
AcDbLine
 10
27.6
 20
19.8
 30
0.0
 11
29.0
 21
23.3
 31
0.0
  0
LINE
  5
4B
330
1E
100
AcDbEntity
  8
0
100
AcDbLine
 10
25.6
 20
16.39999999999999
 30
0.0
 11
28.0
 21
19.5
 31
0.0
  0
LINE
  5
4C
330
1E
100
AcDbEntity
  8
0
100
AcDbLine
 10
28.0
 20
19.5
 30
0.0
 11
29.0416666666667
 21
22.0
 31
0.0
  0
LINE
  5
4D
330
1E
100
AcDbEntity
  8
0
100
AcDbLine
 10
28.0
 20
19.5
 30
0.0
 11
29.5
 21
23.1
 31
0.0
  0
LINE
  5
4E
330
1E
100
AcDbEntity
  8
0
100
AcDbLine
 10
18.89999999999999
 20
12.5
 30
0.0
 11
22.5
 21
14.0
 31
0.0
  0
LINE
  5
4F
330
1E
100
AcDbEntity
  8
0
100
AcDbLine
 10
11.1
 20
12.5
 30
0.0
 11
15.0
 21
12.0
 31
0.0
  0
LINE
  5
50
330
1E
100
AcDbEntity
  8
0
100
AcDbLine
 10
3.73333
 20
20.5
 30
0.0
 11
5.81333
 21
17.8133
 31
0.0
  0
LINE
  5
51
330
1E
100
AcDbEntity
  8
0
100
AcDbLine
 10
26.2667
 20
20.5
 30
0.0
 11
27.5667
 21
23.62
 31
0.0
  0
LINE
  5
52
330
1E
100
AcDbEntity
  8
0
100
AcDbLine
 10
25.92
 20
20.76
 30
0.0
 11
27.1333
 21
23.79329999999999
 31
0.0
  0
LINE
  5
53
330
1E
100
AcDbEntity
  8
0
100
AcDbLine
 10
4.08
 20
20.76
 30
0.0
 11
6.16
 21
18.16
 31
0.0
  0
LINE
  5
54
330
1E
100
AcDbEntity
  8
0
100
AcDbLine
 10
0.500000000000001
 20
23.1
 30
0.0
 11
2.0
 21
19.5
 31
0.0
  0
LINE
  5
55
330
1E
100
AcDbEntity
  8
0
100
AcDbLine
 10
0.500000000000001
 20
23.1
 30
0.0
 11
2.0
 21
19.5
 31
0.0
  0
LINE
  5
56
330
1E
100
AcDbEntity
  8
0
100
AcDbLine
 10
0.0000000000000009
 20
27.0
 30
0.0
 11
0.500000000000001
 21
30.89999999999999
 31
0.0
  0
LINE
  5
57
330
1E
100
AcDbEntity
  8
0
100
AcDbLine
 10
0.0000000000000009
 20
27.0
 30
0.0
 11
0.500000000000001
 21
23.1
 31
0.0
  0
LINE
  5
58
330
1E
100
AcDbEntity
  8
0
100
AcDbLine
 10
0.0000000000000009
 20
27.0
 30
0.0
 11
0.500000000000001
 21
30.89999999999999
 31
0.0
  0
LINE
  5
59
330
1E
100
AcDbEntity
  8
0
100
AcDbLine
 10
0.0000000000000009
 20
27.0
 30
0.0
 11
0.500000000000001
 21
23.1
 31
0.0
  0
LINE
  5
5A
330
1E
100
AcDbEntity
  8
0
100
AcDbLine
 10
0.500000000000001
 20
27.0
 30
0.0
 11
1.0
 21
30.7
 31
0.0
  0
LINE
  5
5B
330
1E
100
AcDbEntity
  8
0
100
AcDbLine
 10
0.500000000000001
 20
27.0
 30
0.0
 11
1.0
 21
23.3
 31
0.0
  0
LINE
  5
5C
330
1E
100
AcDbEntity
  8
0
100
AcDbLine
 10
0.500000000000001
 20
30.89999999999999
 30
0.0
 11
2.0
 21
34.5
 31
0.0
  0
LINE
  5
5D
330
1E
100
AcDbEntity
  8
0
100
AcDbLine
 10
5.639999999999999
 20
21.62669999999999
 30
0.0
 11
7.37333
 21
19.3733
 31
0.0
  0
LINE
  5
5E
330
1E
100
AcDbEntity
  8
0
100
AcDbLine
 10
24.35999999999999
 20
21.62669999999999
 30
0.0
 11
25.4
 21
24.2267
 31
0.0
  0
LINE
  5
5F
330
1E
100
AcDbEntity
  8
0
100
AcDbLine
 10
24.0133
 20
21.8
 30
0.0
 11
25.0533
 21
24.3133
 31
0.0
  0
LINE
  5
60
330
1E
100
AcDbEntity
  8
0
100
AcDbLine
 10
5.986669999999999
 20
21.8
 30
0.0
 11
7.633329999999999
 21
19.6333
 31
0.0
  0
LINE
  5
61
330
1E
100
AcDbEntity
  8
0
100
AcDbLine
 10
39.0
 20
22.1
 30
0.0
 11
39.0
 21
23.5
 31
0.0
  0
LINE
  5
62
330
1E
100
AcDbEntity
  8
0
100
AcDbLine
 10
39.0
 20
22.1
 30
0.0
 11
39.0
 21
20.89999999999999
 31
0.0
  0
LINE
  5
63
330
1E
100
AcDbEntity
  8
0
100
AcDbLine
 10
1.0
 20
23.3
 30
0.0
 11
2.399999999999999
 21
19.8
 31
0.0
  0
LINE
  5
64
330
1E
100
AcDbEntity
  8
0
100
AcDbLine
 10
29.5
 20
23.1
 30
0.0
 11
30.0
 21
27.0
 31
0.0
  0
LINE
  5
65
330
1E
100
AcDbEntity
  8
0
100
AcDbLine
 10
29.0
 20
23.3
 30
0.0
 11
29.5
 21
27.0
 31
0.0
  0
LINE
  5
66
330
1E
100
AcDbEntity
  8
0
100
AcDbLine
 10
39.0
 20
22.2
 30
0.0
 11
39.0
 21
22.0
 31
0.0
  0
LINE
  5
67
330
1E
100
AcDbEntity
  8
0
100
AcDbLine
 10
39.0
 20
22.7
 30
0.0
 11
39.0
 21
22.2
 31
0.0
  0
LINE
  5
68
330
1E
100
AcDbEntity
  8
0
100
AcDbLine
 10
2.433329999999999
 20
23.62
 30
0.0
 11
3.73333
 21
20.5
 31
0.0
  0
LINE
  5
69
330
1E
100
AcDbEntity
  8
0
100
AcDbLine
 10
2.86667
 20
23.79329999999999
 30
0.0
 11
4.08
 21
20.76
 31
0.0
  0
LINE
  5
6A
330
1E
100
AcDbEntity
  8
0
100
AcDbLine
 10
27.5667
 20
23.62
 30
0.0
 11
28.0
 21
27.0
 31
0.0
  0
LINE
  5
6B
330
1E
100
AcDbEntity
  8
0
100
AcDbLine
 10
27.1333
 20
23.79329999999999
 30
0.0
 11
27.5667
 21
27.0
 31
0.0
  0
LINE
  5
6C
330
1E
100
AcDbEntity
  8
0
100
AcDbLine
 10
25.4
 20
24.2267
 30
0.0
 11
25.8333
 21
27.0
 31
0.0
  0
LINE
  5
6D
330
1E
100
AcDbEntity
  8
0
100
AcDbLine
 10
25.0533
 20
24.3133
 30
0.0
 11
25.4
 21
27.0
 31
0.0
  0
LINE
  5
6E
330
1E
100
AcDbEntity
  8
0
100
AcDbLine
 10
4.599999999999999
 20
24.2267
 30
0.0
 11
5.639999999999999
 21
21.62669999999999
 31
0.0
  0
LINE
  5
6F
330
1E
100
AcDbEntity
  8
0
100
AcDbLine
 10
4.94667
 20
24.3133
 30
0.0
 11
5.986669999999999
 21
21.8
 31
0.0
  0
LINE
  5
70
330
1E
100
AcDbEntity
  8
0
100
AcDbLine
 10
39.0
 20
25.2
 30
0.0
 11
39.0
 21
23.5
 31
0.0
  0
LINE
  5
71
330
1E
100
AcDbEntity
  8
0
100
AcDbLine
 10
39.0
 20
25.2
 30
0.0
 11
39.0
 21
27.0
 31
0.0
  0
LINE
  5
72
330
1E
100
AcDbEntity
  8
0
100
AcDbLine
 10
39.0
 20
23.5
 30
0.0
 11
39.0
 21
22.7
 31
0.0
  0
LINE
  5
73
330
1E
100
AcDbEntity
  8
0
100
AcDbLine
 10
39.0
 20
23.5
 30
0.0
 11
39.0
 21
22.1
 31
0.0
  0
LINE
  5
74
330
1E
100
AcDbEntity
  8
0
100
AcDbLine
 10
39.0
 20
23.5
 30
0.0
 11
39.0
 21
25.2
 31
0.0
  0
LINE
  5
75
330
1E
100
AcDbEntity
  8
0
100
AcDbLine
 10
39.0
 20
24.5
 30
0.0
 11
39.0
 21
23.5
 31
0.0
  0
LINE
  5
76
330
1E
100
AcDbEntity
  8
0
100
AcDbLine
 10
2.0
 20
27.0
 30
0.0
 11
2.433329999999999
 21
30.38
 31
0.0
  0
LINE
  5
77
330
1E
100
AcDbEntity
  8
0
100
AcDbLine
 10
2.0
 20
27.0
 30
0.0
 11
2.433329999999999
 21
23.62
 31
0.0
  0
LINE
  5
78
330
1E
100
AcDbEntity
  8
0
100
AcDbLine
 10
2.433329999999999
 20
27.0
 30
0.0
 11
2.86667
 21
30.2067
 31
0.0
  0
LINE
  5
79
330
1E
100
AcDbEntity
  8
0
100
AcDbLine
 10
2.433329999999999
 20
27.0
 30
0.0
 11
2.86667
 21
23.79329999999999
 31
0.0
  0
LINE
  5
7A
330
1E
100
AcDbEntity
  8
0
100
AcDbLine
 10
4.166669999999999
 20
27.0
 30
0.0
 11
4.599999999999999
 21
29.7733
 31
0.0
  0
LINE
  5
7B
330
1E
100
AcDbEntity
  8
0
100
AcDbLine
 10
4.166669999999999
 20
27.0
 30
0.0
 11
4.599999999999999
 21
24.2267
 31
0.0
  0
LINE
  5
7C
330
1E
100
AcDbEntity
  8
0
100
AcDbLine
 10
4.599999999999999
 20
27.0
 30
0.0
 11
4.94667
 21
29.68669999999999
 31
0.0
  0
LINE
  5
7D
330
1E
100
AcDbEntity
  8
0
100
AcDbLine
 10
4.599999999999999
 20
27.0
 30
0.0
 11
4.94667
 21
24.3133
 31
0.0
  0
LINE
  5
7E
330
1E
100
AcDbEntity
  8
0
100
AcDbLine
 10
39.0
 20
28.8
 30
0.0
 11
39.0
 21
30.5
 31
0.0
  0
LINE
  5
7F
330
1E
100
AcDbEntity
  8
0
100
AcDbLine
 10
39.0
 20
25.7
 30
0.0
 11
39.0
 21
24.5
 31
0.0
  0
LINE
  5
80
330
1E
100
AcDbEntity
  8
0
100
AcDbLine
 10
39.0
 20
27.0
 30
0.0
 11
39.0
 21
25.7
 31
0.0
  0
LINE
  5
81
330
1E
100
AcDbEntity
  8
0
100
AcDbLine
 10
39.0
 20
27.0
 30
0.0
 11
39.0
 21
25.2
 31
0.0
  0
LINE
  5
82
330
1E
100
AcDbEntity
  8
0
100
AcDbLine
 10
2.433329999999999
 20
30.38
 30
0.0
 11
3.73333
 21
33.5
 31
0.0
  0
LINE
  5
83
330
1E
100
AcDbEntity
  8
0
100
AcDbLine
 10
2.86667
 20
30.2067
 30
0.0
 11
4.08
 21
33.24
 31
0.0
  0
LINE
  5
84
330
1E
100
AcDbEntity
  8
0
100
AcDbLine
 10
4.599999999999999
 20
29.7733
 30
0.0
 11
5.639999999999999
 21
32.3733
 31
0.0
  0
LINE
  5
85
330
1E
100
AcDbEntity
  8
0
100
AcDbLine
 10
27.1333
 20
30.2067
 30
0.0
 11
27.5667
 21
27.0
 31
0.0
  0
LINE
  5
86
330
1E
100
AcDbEntity
  8
0
100
AcDbLine
 10
25.4
 20
29.7733
 30
0.0
 11
25.8333
 21
27.0
 31
0.0
  0
LINE
  5
87
330
1E
100
AcDbEntity
  8
0
100
AcDbLine
 10
25.0533
 20
29.68669999999999
 30
0.0
 11
25.4
 21
27.0
 31
0.0
  0
LINE
  5
88
330
1E
100
AcDbEntity
  8
0
100
AcDbLine
 10
4.94667
 20
29.68669999999999
 30
0.0
 11
5.986669999999999
 21
32.2
 31
0.0
  0
LINE
  5
89
330
1E
100
AcDbEntity
  8
0
100
AcDbLine
 10
1.0
 20
30.7
 30
0.0
 11
2.399999999999999
 21
34.2
 31
0.0
  0
LINE
  5
8A
330
1E
100
AcDbEntity
  8
0
100
AcDbLine
 10
29.5
 20
30.89999999999999
 30
0.0
 11
30.0
 21
27.0
 31
0.0
  0
LINE
  5
8B
330
1E
100
AcDbEntity
  8
0
100
AcDbLine
 10
29.0
 20
30.7
 30
0.0
 11
29.5
 21
27.0
 31
0.0
  0
LINE
  5
8C
330
1E
100
AcDbEntity
  8
0
100
AcDbLine
 10
39.0
 20
31.89999999999999
 30
0.0
 11
39.0
 21
30.5
 31
0.0
  0
LINE
  5
8D
330
1E
100
AcDbEntity
  8
0
100
AcDbLine
 10
39.0
 20
31.89999999999999
 30
0.0
 11
39.0
 21
33.1
 31
0.0
  0
LINE
  5
8E
330
1E
100
AcDbEntity
  8
0
100
AcDbLine
 10
29.0416666666667
 20
32.0
 30
0.0
 11
39.0
 21
32.0
 31
0.0
  0
LINE
  5
8F
330
1E
100
AcDbEntity
  8
0
100
AcDbLine
 10
39.0
 20
31.8
 30
0.0
 11
39.0
 21
31.3
 31
0.0
  0
LINE
  5
90
330
1E
100
AcDbEntity
  8
0
100
AcDbLine
 10
39.0
 20
31.3
 30
0.0
 11
39.0
 21
30.5
 31
0.0
  0
LINE
  5
91
330
1E
100
AcDbEntity
  8
0
100
AcDbLine
 10
39.0
 20
30.5
 30
0.0
 11
39.0
 21
29.5
 31
0.0
  0
LINE
  5
92
330
1E
100
AcDbEntity
  8
0
100
AcDbLine
 10
39.0
 20
30.5
 30
0.0
 11
39.0
 21
28.8
 31
0.0
  0
LINE
  5
93
330
1E
100
AcDbEntity
  8
0
100
AcDbLine
 10
39.0
 20
30.5
 30
0.0
 11
39.0
 21
31.89999999999999
 31
0.0
  0
LINE
  5
94
330
1E
100
AcDbEntity
  8
0
100
AcDbLine
 10
39.0
 20
29.5
 30
0.0
 11
39.0
 21
28.3
 31
0.0
  0
LINE
  5
95
330
1E
100
AcDbEntity
  8
0
100
AcDbLine
 10
39.0
 20
28.3
 30
0.0
 11
39.0
 21
27.0
 31
0.0
  0
LINE
  5
96
330
1E
100
AcDbEntity
  8
0
100
AcDbLine
 10
29.0416666666667
 20
22.0
 30
0.0
 11
39.0
 21
22.0
 31
0.0
  0
LINE
  5
97
330
1E
100
AcDbEntity
  8
0
100
AcDbLine
 10
0.500000000000001
 20
30.89999999999999
 30
0.0
 11
2.0
 21
34.5
 31
0.0
  0
LINE
  5
98
330
1E
100
AcDbEntity
  8
0
100
AcDbLine
 10
3.73333
 20
33.5
 30
0.0
 11
5.81333
 21
36.1867
 31
0.0
  0
LINE
  5
99
330
1E
100
AcDbEntity
  8
0
100
AcDbLine
 10
4.08
 20
33.24
 30
0.0
 11
6.16
 21
35.84
 31
0.0
  0
LINE
  5
9A
330
1E
100
AcDbEntity
  8
0
100
AcDbLine
 10
5.639999999999999
 20
32.3733
 30
0.0
 11
7.37333
 21
34.6267
 31
0.0
  0
LINE
  5
9B
330
1E
100
AcDbEntity
  8
0
100
AcDbLine
 10
26.2667
 20
33.5
 30
0.0
 11
27.5667
 21
30.38
 31
0.0
  0
LINE
  5
9C
330
1E
100
AcDbEntity
  8
0
100
AcDbLine
 10
25.92
 20
33.24
 30
0.0
 11
27.1333
 21
30.2067
 31
0.0
  0
LINE
  5
9D
330
1E
100
AcDbEntity
  8
0
100
AcDbLine
 10
24.35999999999999
 20
32.3733
 30
0.0
 11
25.4
 21
29.7733
 31
0.0
  0
LINE
  5
9E
330
1E
100
AcDbEntity
  8
0
100
AcDbLine
 10
24.0133
 20
32.2
 30
0.0
 11
25.0533
 21
29.68669999999999
 31
0.0
  0
LINE
  5
9F
330
1E
100
AcDbEntity
  8
0
100
AcDbLine
 10
5.986669999999999
 20
32.2
 30
0.0
 11
7.633329999999999
 21
34.3667
 31
0.0
  0
LINE
  5
A0
330
1E
100
AcDbEntity
  8
0
100
AcDbLine
 10
39.0
 20
32.0
 30
0.0
 11
39.0
 21
33.1
 31
0.0
  0
LINE
  5
A1
330
1E
100
AcDbEntity
  8
0
100
AcDbLine
 10
39.0
 20
32.0
 30
0.0
 11
39.0
 21
31.8
 31
0.0
  0
LINE
  5
A2
330
1E
100
AcDbEntity
  8
0
100
AcDbLine
 10
39.0
 20
33.1
 30
0.0
 11
39.0
 21
33.7
 31
0.0
  0
LINE
  5
A3
330
1E
100
AcDbEntity
  8
0
100
AcDbLine
 10
39.0
 20
33.1
 30
0.0
 11
39.0
 21
32.0
 31
0.0
  0
LINE
  5
A4
330
1E
100
AcDbEntity
  8
0
100
AcDbLine
 10
39.0
 20
33.1
 30
0.0
 11
39.0
 21
31.89999999999999
 31
0.0
  0
LINE
  5
A5
330
1E
100
AcDbEntity
  8
0
100
AcDbLine
 10
2.399999999999999
 20
34.2
 30
0.0
 11
4.799999999999999
 21
37.2
 31
0.0
  0
LINE
  5
A6
330
1E
100
AcDbEntity
  8
0
100
AcDbLine
 10
2.0
 20
34.5
 30
0.0
 11
4.4
 21
37.6
 31
0.0
  0
LINE
  5
A7
330
1E
100
AcDbEntity
  8
0
100
AcDbLine
 10
5.81333
 20
36.1867
 30
0.0
 11
8.5
 21
38.2667
 31
0.0
  0
LINE
  5
A8
330
1E
100
AcDbEntity
  8
0
100
AcDbLine
 10
6.16
 20
35.84
 30
0.0
 11
8.759999999999999
 21
37.92
 31
0.0
  0
LINE
  5
A9
330
1E
100
AcDbEntity
  8
0
100
AcDbLine
 10
7.37333
 20
34.6267
 30
0.0
 11
9.626669999999998
 21
36.36
 31
0.0
  0
LINE
  5
AA
330
1E
100
AcDbEntity
  8
0
100
AcDbLine
 10
9.626669999999998
 20
36.36
 30
0.0
 11
12.22669999999999
 21
37.4
 31
0.0
  0
LINE
  5
AB
330
1E
100
AcDbEntity
  8
0
100
AcDbLine
 10
7.633329999999999
 20
34.3667
 30
0.0
 11
9.8
 21
36.0133
 31
0.0
  0
LINE
  5
AC
330
1E
100
AcDbEntity
  8
0
100
AcDbLine
 10
20.3733
 20
36.36
 30
0.0
 11
22.62669999999999
 21
34.6267
 31
0.0
  0
LINE
  5
AD
330
1E
100
AcDbEntity
  8
0
100
AcDbLine
 10
20.2
 20
36.0133
 30
0.0
 11
22.3667
 21
34.3667
 31
0.0
  0
LINE
  5
AE
330
1E
100
AcDbEntity
  8
0
100
AcDbLine
 10
17.6867
 20
37.0533
 30
0.0
 11
20.2
 21
36.0133
 31
0.0
  0
LINE
  5
AF
330
1E
100
AcDbEntity
  8
0
100
AcDbLine
 10
9.8
 20
36.0133
 30
0.0
 11
12.3133
 21
37.0533
 31
0.0
  0
LINE
  5
B0
330
1E
100
AcDbEntity
  8
0
100
AcDbLine
 10
8.5
 20
38.2667
 30
0.0
 11
11.61999999999999
 21
39.56669999999999
 31
0.0
  0
LINE
  5
B1
330
1E
100
AcDbEntity
  8
0
100
AcDbLine
 10
8.759999999999999
 20
37.92
 30
0.0
 11
11.79329999999999
 21
39.1333
 31
0.0
  0
LINE
  5
B2
330
1E
100
AcDbEntity
  8
0
100
AcDbLine
 10
11.61999999999999
 20
39.56669999999999
 30
0.0
 11
15.0
 21
40.0
 31
0.0
  0
LINE
  5
B3
330
1E
100
AcDbEntity
  8
0
100
AcDbLine
 10
11.79329999999999
 20
39.1333
 30
0.0
 11
15.0
 21
39.56669999999999
 31
0.0
  0
LINE
  5
B4
330
1E
100
AcDbEntity
  8
0
100
AcDbLine
 10
17.7733
 20
37.4
 30
0.0
 11
20.3733
 21
36.36
 31
0.0
  0
LINE
  5
B5
330
1E
100
AcDbEntity
  8
0
100
AcDbLine
 10
15.0
 20
39.56669999999999
 30
0.0
 11
18.2067
 21
39.1333
 31
0.0
  0
LINE
  5
B6
330
1E
100
AcDbEntity
  8
0
100
AcDbLine
 10
21.49999999999999
 20
38.2667
 30
0.0
 11
24.1867
 21
36.1867
 31
0.0
  0
LINE
  5
B7
330
1E
100
AcDbEntity
  8
0
100
AcDbLine
 10
21.24
 20
37.92
 30
0.0
 11
23.83999999999999
 21
35.84
 31
0.0
  0
LINE
  5
B8
330
1E
100
AcDbEntity
  8
0
100
AcDbLine
 10
18.38
 20
39.56669999999999
 30
0.0
 11
21.49999999999999
 21
38.2667
 31
0.0
  0
LINE
  5
B9
330
1E
100
AcDbEntity
  8
0
100
AcDbLine
 10
18.2067
 20
39.1333
 30
0.0
 11
21.24
 21
37.92
 31
0.0
  0
LINE
  5
BA
330
1E
100
AcDbEntity
  8
0
100
AcDbLine
 10
15.0
 20
37.8333
 30
0.0
 11
17.7733
 21
37.4
 31
0.0
  0
LINE
  5
BB
330
1E
100
AcDbEntity
  8
0
100
AcDbLine
 10
15.0
 20
37.4
 30
0.0
 11
17.6867
 21
37.0533
 31
0.0
  0
LINE
  5
BC
330
1E
100
AcDbEntity
  8
0
100
AcDbLine
 10
12.22669999999999
 20
37.4
 30
0.0
 11
15.0
 21
37.8333
 31
0.0
  0
LINE
  5
BD
330
1E
100
AcDbEntity
  8
0
100
AcDbLine
 10
12.3133
 20
37.0533
 30
0.0
 11
15.0
 21
37.4
 31
0.0
  0
LINE
  5
BE
330
1E
100
AcDbEntity
  8
0
100
AcDbLine
 10
4.799999999999999
 20
37.2
 30
0.0
 11
7.799999999999999
 21
39.6
 31
0.0
  0
LINE
  5
BF
330
1E
100
AcDbEntity
  8
0
100
AcDbLine
 10
7.799999999999999
 20
39.6
 30
0.0
 11
11.3
 21
41.0
 31
0.0
  0
LINE
  5
C0
330
1E
100
AcDbEntity
  8
0
100
AcDbLine
 10
24.1867
 20
36.1867
 30
0.0
 11
26.2667
 21
33.5
 31
0.0
  0
LINE
  5
C1
330
1E
100
AcDbEntity
  8
0
100
AcDbLine
 10
23.83999999999999
 20
35.84
 30
0.0
 11
25.92
 21
33.24
 31
0.0
  0
LINE
  5
C2
330
1E
100
AcDbEntity
  8
0
100
AcDbLine
 10
22.62669999999999
 20
34.6267
 30
0.0
 11
24.35999999999999
 21
32.3733
 31
0.0
  0
LINE
  5
C3
330
1E
100
AcDbEntity
  8
0
100
AcDbLine
 10
22.3667
 20
34.3667
 30
0.0
 11
24.0133
 21
32.2
 31
0.0
  0
LINE
  5
C4
330
1E
100
AcDbEntity
  8
0
100
AcDbLine
 10
25.6
 20
37.6
 30
0.0
 11
28.0
 21
34.5
 31
0.0
  0
LINE
  5
C5
330
1E
100
AcDbEntity
  8
0
100
AcDbLine
 10
28.0
 20
34.5
 30
0.0
 11
29.5
 21
30.89999999999999
 31
0.0
  0
LINE
  5
C6
330
1E
100
AcDbEntity
  8
0
100
AcDbLine
 10
25.2
 20
37.2
 30
0.0
 11
27.6
 21
34.2
 31
0.0
  0
LINE
  5
C7
330
1E
100
AcDbEntity
  8
0
100
AcDbLine
 10
27.6
 20
34.2
 30
0.0
 11
29.0
 21
30.7
 31
0.0
  0
LINE
  5
C8
330
1E
100
AcDbEntity
  8
0
100
AcDbLine
 10
22.2
 20
39.6
 30
0.0
 11
25.2
 21
37.2
 31
0.0
  0
LINE
  5
C9
330
1E
100
AcDbEntity
  8
0
100
AcDbLine
 10
22.5
 20
40.0
 30
0.0
 11
25.6
 21
37.6
 31
0.0
  0
LINE
  5
CA
330
1E
100
AcDbEntity
  8
0
100
AcDbLine
 10
4.4
 20
37.6
 30
0.0
 11
7.5
 21
40.0
 31
0.0
  0
LINE
  5
CB
330
1E
100
AcDbEntity
  8
0
100
AcDbLine
 10
11.3
 20
41.0
 30
0.0
 11
15.0
 21
41.5
 31
0.0
  0
LINE
  5
CC
330
1E
100
AcDbEntity
  8
0
100
AcDbLine
 10
18.7
 20
41.0
 30
0.0
 11
22.2
 21
39.6
 31
0.0
  0
LINE
  5
CD
330
1E
100
AcDbEntity
  8
0
100
AcDbLine
 10
15.0
 20
41.5
 30
0.0
 11
18.7
 21
41.0
 31
0.0
  0
LINE
  5
CE
330
1E
100
AcDbEntity
  8
0
100
AcDbLine
 10
15.0
 20
42.0
 30
0.0
 11
18.89999999999999
 21
41.5
 31
0.0
  0
LINE
  5
CF
330
1E
100
AcDbEntity
  8
0
100
AcDbLine
 10
7.5
 20
40.0
 30
0.0
 11
11.1
 21
41.5
 31
0.0
  0
LINE
  5
D0
330
1E
100
AcDbEntity
  8
0
100
AcDbLine
 10
39.0
 20
34.0
 30
0.0
 11
39.5
 21
35.5
 31
0.0
  0
LINE
  5
D1
330
1E
100
AcDbEntity
  8
0
100
AcDbLine
 10
39.0
 20
34.0
 30
0.0
 11
39.0
 21
33.7
 31
0.0
  0
LINE
  5
D2
330
1E
100
AcDbEntity
  8
0
100
AcDbLine
 10
39.0
 20
33.7
 30
0.0
 11
39.0
 21
34.0
 31
0.0
  0
LINE
  5
D3
330
1E
100
AcDbEntity
  8
0
100
AcDbLine
 10
39.0
 20
33.7
 30
0.0
 11
39.0
 21
33.1
 31
0.0
  0
LINE
  5
D4
330
1E
100
AcDbEntity
  8
0
100
AcDbLine
 10
39.0
 20
22.0
 30
0.0
 11
39.0
 21
20.89999999999999
 31
0.0
  0
LINE
  5
D5
330
1E
100
AcDbEntity
  8
0
100
AcDbLine
 10
39.0
 20
20.89999999999999
 30
0.0
 11
39.0
 21
22.0
 31
0.0
  0
LINE
  5
D6
330
1E
100
AcDbEntity
  8
0
100
AcDbLine
 10
39.0
 20
20.89999999999999
 30
0.0
 11
39.0
 21
20.0
 31
0.0
  0
LINE
  5
D7
330
1E
100
AcDbEntity
  8
0
100
AcDbLine
 10
39.0
 20
20.89999999999999
 30
0.0
 11
39.0
 21
22.1
 31
0.0
  0
LINE
  5
D8
330
1E
100
AcDbEntity
  8
0
100
AcDbLine
 10
39.5
 20
35.5
 30
0.0
 11
40.49999999999999
 21
36.5
 31
0.0
  0
LINE
  5
D9
330
1E
100
AcDbEntity
  8
0
100
AcDbLine
 10
39.0
 20
20.0
 30
0.0
 11
39.0
 21
20.89999999999999
 31
0.0
  0
LINE
  5
DA
330
1E
100
AcDbEntity
  8
0
100
AcDbLine
 10
39.0
 20
20.0
 30
0.0
 11
39.5
 21
18.5
 31
0.0
  0
LINE
  5
DB
330
1E
100
AcDbEntity
  8
0
100
AcDbLine
 10
56.5
 20
9.000000000000008
 30
0.0
 11
57.6154
 21
9.000000000000008
 31
0.0
  0
LINE
  5
DC
330
1E
100
AcDbEntity
  8
0
100
AcDbLine
 10
54.8269
 20
10.1
 30
0.0
 11
54.8269
 21
9.500000000000008
 31
0.0
  0
LINE
  5
DD
330
1E
100
AcDbEntity
  8
0
100
AcDbLine
 10
54.8269
 20
10.1
 30
0.0
 11
54.8269
 21
11.8
 31
0.0
  0
LINE
  5
DE
330
1E
100
AcDbEntity
  8
0
100
AcDbLine
 10
42.5577
 20
13.0
 30
0.0
 11
42.5577
 21
12.5
 31
0.0
  0
LINE
  5
DF
330
1E
100
AcDbEntity
  8
0
100
AcDbLine
 10
42.5577
 20
13.0
 30
0.0
 11
42.5577
 21
14.4
 31
0.0
  0
LINE
  5
E0
330
1E
100
AcDbEntity
  8
0
100
AcDbLine
 10
42.0
 20
17.4
 30
0.0
 11
42.0
 21
18.3
 31
0.0
  0
LINE
  5
E1
330
1E
100
AcDbEntity
  8
0
100
AcDbLine
 10
42.0
 20
18.3
 30
0.0
 11
42.0
 21
19.9
 31
0.0
  0
LINE
  5
E2
330
1E
100
AcDbEntity
  8
0
100
AcDbLine
 10
40.49999999999999
 20
17.5
 30
0.0
 11
42.0
 21
17.0
 31
0.0
  0
LINE
  5
E3
330
1E
100
AcDbEntity
  8
0
100
AcDbLine
 10
42.0
 20
19.9
 30
0.0
 11
42.0
 21
22.0
 31
0.0
  0
LINE
  5
E4
330
1E
100
AcDbEntity
  8
0
100
AcDbLine
 10
42.0
 20
22.0
 30
0.0
 11
42.0
 21
24.39999999999999
 31
0.0
  0
LINE
  5
E5
330
1E
100
AcDbEntity
  8
0
100
AcDbLine
 10
42.0
 20
24.39999999999999
 30
0.0
 11
42.0
 21
27.0
 31
0.0
  0
LINE
  5
E6
330
1E
100
AcDbEntity
  8
0
100
AcDbLine
 10
42.0
 20
20.5
 30
0.0
 11
42.0
 21
23.7
 31
0.0
  0
LINE
  5
E7
330
1E
100
AcDbEntity
  8
0
100
AcDbLine
 10
42.0
 20
23.7
 30
0.0
 11
42.0
 21
20.5
 31
0.0
  0
LINE
  5
E8
330
1E
100
AcDbEntity
  8
0
100
AcDbLine
 10
42.0
 20
23.7
 30
0.0
 11
42.0
 21
27.0
 31
0.0
  0
LINE
  5
E9
330
1E
100
AcDbEntity
  8
0
100
AcDbLine
 10
42.0
 20
29.6
 30
0.0
 11
42.0
 21
32.0
 31
0.0
  0
LINE
  5
EA
330
1E
100
AcDbEntity
  8
0
100
AcDbLine
 10
42.0
 20
34.1
 30
0.0
 11
42.0
 21
35.7
 31
0.0
  0
LINE
  5
EB
330
1E
100
AcDbEntity
  8
0
100
AcDbLine
 10
42.0
 20
35.7
 30
0.0
 11
42.0
 21
36.6
 31
0.0
  0
LINE
  5
EC
330
1E
100
AcDbEntity
  8
0
100
AcDbLine
 10
42.0
 20
32.0
 30
0.0
 11
42.0
 21
34.1
 31
0.0
  0
LINE
  5
ED
330
1E
100
AcDbEntity
  8
0
100
AcDbLine
 10
42.0
 20
30.3
 30
0.0
 11
42.0
 21
33.5
 31
0.0
  0
LINE
  5
EE
330
1E
100
AcDbEntity
  8
0
100
AcDbLine
 10
42.0
 20
33.5
 30
0.0
 11
42.0
 21
30.3
 31
0.0
  0
LINE
  5
EF
330
1E
100
AcDbEntity
  8
0
100
AcDbLine
 10
42.0
 20
27.0
 30
0.0
 11
42.0
 21
23.7
 31
0.0
  0
LINE
  5
F0
330
1E
100
AcDbEntity
  8
0
100
AcDbLine
 10
42.0
 20
27.0
 30
0.0
 11
42.0
 21
29.6
 31
0.0
  0
LINE
  5
F1
330
1E
100
AcDbEntity
  8
0
100
AcDbLine
 10
42.0
 20
17.0
 30
0.0
 11
42.0
 21
15.7
 31
0.0
  0
LINE
  5
F2
330
1E
100
AcDbEntity
  8
0
100
AcDbLine
 10
42.0
 20
17.0
 30
0.0
 11
42.0
 21
17.4
 31
0.0
  0
LINE
  5
F3
330
1E
100
AcDbEntity
  8
0
100
AcDbLine
 10
42.0
 20
15.7
 30
0.0
 11
42.0
 21
14.5
 31
0.0
  0
LINE
  5
F4
330
1E
100
AcDbEntity
  8
0
100
AcDbLine
 10
42.0
 20
15.7
 30
0.0
 11
42.0
 21
17.0
 31
0.0
  0
LINE
  5
F5
330
1E
100
AcDbEntity
  8
0
100
AcDbLine
 10
42.5577
 20
14.4
 30
0.0
 11
42.5577
 21
13.0
 31
0.0
  0
LINE
  5
F6
330
1E
100
AcDbEntity
  8
0
100
AcDbLine
 10
42.5577
 20
14.4
 30
0.0
 11
42.5577
 21
16.8
 31
0.0
  0
LINE
  5
F7
330
1E
100
AcDbEntity
  8
0
100
AcDbLine
 10
42.5577
 20
16.8
 30
0.0
 11
42.5577
 21
19.8
 31
0.0
  0
LINE
  5
F8
330
1E
100
AcDbEntity
  8
0
100
AcDbLine
 10
42.5577
 20
16.8
 30
0.0
 11
42.5577
 21
14.4
 31
0.0
  0
LINE
  5
F9
330
1E
100
AcDbEntity
  8
0
100
AcDbLine
 10
42.5577
 20
19.8
 30
0.0
 11
42.5577
 21
16.8
 31
0.0
  0
LINE
  5
FA
330
1E
100
AcDbEntity
  8
0
100
AcDbLine
 10
42.5577
 20
19.8
 30
0.0
 11
42.5577
 21
23.3
 31
0.0
  0
LINE
  5
FB
330
1E
100
AcDbEntity
  8
0
100
AcDbLine
 10
42.5577
 20
23.3
 30
0.0
 11
42.5577
 21
19.8
 31
0.0
  0
LINE
  5
FC
330
1E
100
AcDbEntity
  8
0
100
AcDbLine
 10
42.5577
 20
23.3
 30
0.0
 11
42.5577
 21
27.0
 31
0.0
  0
LINE
  5
FD
330
1E
100
AcDbEntity
  8
0
100
AcDbLine
 10
42.5577
 20
34.2
 30
0.0
 11
42.5577
 21
30.7
 31
0.0
  0
LINE
  5
FE
330
1E
100
AcDbEntity
  8
0
100
AcDbLine
 10
42.5577
 20
34.2
 30
0.0
 11
42.5577
 21
37.2
 31
0.0
  0
LINE
  5
FF
330
1E
100
AcDbEntity
  8
0
100
AcDbLine
 10
42.5577
 20
30.7
 30
0.0
 11
42.5577
 21
27.0
 31
0.0
  0
LINE
  5
100
330
1E
100
AcDbEntity
  8
0
100
AcDbLine
 10
42.5577
 20
30.7
 30
0.0
 11
42.5577
 21
34.2
 31
0.0
  0
LINE
  5
101
330
1E
100
AcDbEntity
  8
0
100
AcDbLine
 10
42.5577
 20
27.0
 30
0.0
 11
42.5577
 21
23.3
 31
0.0
  0
LINE
  5
102
330
1E
100
AcDbEntity
  8
0
100
AcDbLine
 10
42.5577
 20
27.0
 30
0.0
 11
42.5577
 21
30.7
 31
0.0
  0
LINE
  5
103
330
1E
100
AcDbEntity
  8
0
100
AcDbLine
 10
42.0
 20
14.5
 30
0.0
 11
42.0
 21
14.0
 31
0.0
  0
LINE
  5
104
330
1E
100
AcDbEntity
  8
0
100
AcDbLine
 10
42.0
 20
14.5
 30
0.0
 11
42.0
 21
15.7
 31
0.0
  0
LINE
  5
105
330
1E
100
AcDbEntity
  8
0
100
AcDbLine
 10
42.0
 20
14.0
 30
0.0
 11
42.5577
 21
12.5
 31
0.0
  0
LINE
  5
106
330
1E
100
AcDbEntity
  8
0
100
AcDbLine
 10
42.0
 20
14.0
 30
0.0
 11
42.0
 21
14.5
 31
0.0
  0
LINE
  5
107
330
1E
100
AcDbEntity
  8
0
100
AcDbLine
 10
53.1538
 20
14.0
 30
0.0
 11
53.1538
 21
12.5
 31
0.0
  0
LINE
  5
108
330
1E
100
AcDbEntity
  8
0
100
AcDbLine
 10
53.1538
 20
14.0
 30
0.0
 11
53.1538
 21
16.39999999999999
 31
0.0
  0
LINE
  5
109
330
1E
100
AcDbEntity
  8
0
100
AcDbLine
 10
53.1538
 20
12.5
 30
0.0
 11
53.1538
 21
12.0
 31
0.0
  0
LINE
  5
10A
330
1E
100
AcDbEntity
  8
0
100
AcDbLine
 10
53.1538
 20
12.5
 30
0.0
 11
53.1538
 21
14.0
 31
0.0
  0
LINE
  5
10B
330
1E
100
AcDbEntity
  8
0
100
AcDbLine
 10
53.1538
 20
16.39999999999999
 30
0.0
 11
53.1538
 21
19.5
 31
0.0
  0
LINE
  5
10C
330
1E
100
AcDbEntity
  8
0
100
AcDbLine
 10
53.1538
 20
16.39999999999999
 30
0.0
 11
53.1538
 21
14.0
 31
0.0
  0
LINE
  5
10D
330
1E
100
AcDbEntity
  8
0
100
AcDbLine
 10
53.1538
 20
19.5
 30
0.0
 11
53.1538
 21
16.39999999999999
 31
0.0
  0
LINE
  5
10E
330
1E
100
AcDbEntity
  8
0
100
AcDbLine
 10
53.1538
 20
19.5
 30
0.0
 11
53.1538
 21
23.1
 31
0.0
  0
LINE
  5
10F
330
1E
100
AcDbEntity
  8
0
100
AcDbLine
 10
53.1538
 20
23.1
 30
0.0
 11
53.1538
 21
19.5
 31
0.0
  0
LINE
  5
110
330
1E
100
AcDbEntity
  8
0
100
AcDbLine
 10
53.1538
 20
23.1
 30
0.0
 11
53.1538
 21
27.0
 31
0.0
  0
LINE
  5
111
330
1E
100
AcDbEntity
  8
0
100
AcDbLine
 10
53.1538
 20
27.0
 30
0.0
 11
53.1538
 21
23.1
 31
0.0
  0
LINE
  5
112
330
1E
100
AcDbEntity
  8
0
100
AcDbLine
 10
53.1538
 20
27.0
 30
0.0
 11
53.1538
 21
30.89999999999999
 31
0.0
  0
LINE
  5
113
330
1E
100
AcDbEntity
  8
0
100
AcDbLine
 10
42.5577
 20
12.5
 30
0.0
 11
44.2308
 21
12.0
 31
0.0
  0
LINE
  5
114
330
1E
100
AcDbEntity
  8
0
100
AcDbLine
 10
42.5577
 20
12.5
 30
0.0
 11
42.5577
 21
13.0
 31
0.0
  0
LINE
  5
115
330
1E
100
AcDbEntity
  8
0
100
AcDbLine
 10
44.2308
 20
12.0
 30
0.0
 11
53.1538
 21
12.0
 31
0.0
  0
LINE
  5
116
330
1E
100
AcDbEntity
  8
0
100
AcDbLine
 10
53.1538
 20
30.89999999999999
 30
0.0
 11
53.1538
 21
34.5
 31
0.0
  0
LINE
  5
117
330
1E
100
AcDbEntity
  8
0
100
AcDbLine
 10
53.1538
 20
34.5
 30
0.0
 11
53.1538
 21
30.89999999999999
 31
0.0
  0
LINE
  5
118
330
1E
100
AcDbEntity
  8
0
100
AcDbLine
 10
53.1538
 20
34.5
 30
0.0
 11
53.1538
 21
37.6
 31
0.0
  0
LINE
  5
119
330
1E
100
AcDbEntity
  8
0
100
AcDbLine
 10
54.8269
 20
11.8
 30
0.0
 11
54.8269
 21
10.1
 31
0.0
  0
LINE
  5
11A
330
1E
100
AcDbEntity
  8
0
100
AcDbLine
 10
54.8269
 20
11.8
 30
0.0
 11
54.8269
 21
14.59999999999999
 31
0.0
  0
LINE
  5
11B
330
1E
100
AcDbEntity
  8
0
100
AcDbLine
 10
53.1538
 20
12.0
 30
0.0
 11
54.26919999999999
 21
11.0
 31
0.0
  0
LINE
  5
11C
330
1E
100
AcDbEntity
  8
0
100
AcDbLine
 10
53.1538
 20
12.0
 30
0.0
 11
53.1538
 21
12.5
 31
0.0
  0
LINE
  5
11D
330
1E
100
AcDbEntity
  8
0
100
AcDbLine
 10
54.26919999999999
 20
11.0
 30
0.0
 11
54.8269
 21
9.500000000000008
 31
0.0
  0
LINE
  5
11E
330
1E
100
AcDbEntity
  8
0
100
AcDbLine
 10
54.8269
 20
14.59999999999999
 30
0.0
 11
54.8269
 21
18.3
 31
0.0
  0
LINE
  5
11F
330
1E
100
AcDbEntity
  8
0
100
AcDbLine
 10
54.8269
 20
18.3
 30
0.0
 11
54.8269
 21
14.59999999999999
 31
0.0
  0
LINE
  5
120
330
1E
100
AcDbEntity
  8
0
100
AcDbLine
 10
54.8269
 20
18.3
 30
0.0
 11
54.8269
 21
22.5
 31
0.0
  0
LINE
  5
121
330
1E
100
AcDbEntity
  8
0
100
AcDbLine
 10
54.8269
 20
22.5
 30
0.0
 11
54.8269
 21
18.3
 31
0.0
  0
LINE
  5
122
330
1E
100
AcDbEntity
  8
0
100
AcDbLine
 10
54.8269
 20
22.5
 30
0.0
 11
54.8269
 21
27.0
 31
0.0
  0
LINE
  5
123
330
1E
100
AcDbEntity
  8
0
100
AcDbLine
 10
54.8269
 20
35.7
 30
0.0
 11
54.8269
 21
31.5
 31
0.0
  0
LINE
  5
124
330
1E
100
AcDbEntity
  8
0
100
AcDbLine
 10
54.8269
 20
35.7
 30
0.0
 11
54.8269
 21
39.39999999999999
 31
0.0
  0
LINE
  5
125
330
1E
100
AcDbEntity
  8
0
100
AcDbLine
 10
54.8269
 20
31.5
 30
0.0
 11
54.8269
 21
27.0
 31
0.0
  0
LINE
  5
126
330
1E
100
AcDbEntity
  8
0
100
AcDbLine
 10
54.8269
 20
31.5
 30
0.0
 11
54.8269
 21
35.7
 31
0.0
  0
LINE
  5
127
330
1E
100
AcDbEntity
  8
0
100
AcDbLine
 10
54.8269
 20
27.0
 30
0.0
 11
54.8269
 21
22.5
 31
0.0
  0
LINE
  5
128
330
1E
100
AcDbEntity
  8
0
100
AcDbLine
 10
54.8269
 20
27.0
 30
0.0
 11
54.8269
 21
31.5
 31
0.0
  0
LINE
  5
129
330
1E
100
AcDbEntity
  8
0
100
AcDbLine
 10
54.8269
 20
9.500000000000008
 30
0.0
 11
56.5
 21
9.000000000000008
 31
0.0
  0
LINE
  5
12A
330
1E
100
AcDbEntity
  8
0
100
AcDbLine
 10
54.8269
 20
9.500000000000008
 30
0.0
 11
54.8269
 21
10.1
 31
0.0
  0
LINE
  5
12B
330
1E
100
AcDbEntity
  8
0
100
AcDbLine
 10
57.6154
 20
9.000000000000008
 30
0.0
 11
62.0769
 21
7.500000000000009
 31
0.0
  0
LINE
  5
12C
330
1E
100
AcDbEntity
  8
0
100
AcDbLine
 10
65.9808
 20
4.500000000000009
 30
0.0
 11
67.6538
 21
2.0
 31
0.0
  0
LINE
  5
12D
330
1E
100
AcDbEntity
  8
0
100
AcDbLine
 10
67.6538
 20
2.0
 30
0.0
 11
68.2115
 21
0.500000000000004
 31
0.0
  0
LINE
  5
12E
330
1E
100
AcDbEntity
  8
0
100
AcDbLine
 10
68.2115
 20
4.000000000000009
 30
0.0
 11
68.2115
 21
1.5
 31
0.0
  0
LINE
  5
12F
330
1E
100
AcDbEntity
  8
0
100
AcDbLine
 10
68.2115
 20
4.000000000000009
 30
0.0
 11
68.2115
 21
8.300000000000009
 31
0.0
  0
LINE
  5
130
330
1E
100
AcDbEntity
  8
0
100
AcDbLine
 10
68.2115
 20
1.5
 30
0.0
 11
68.2115
 21
0.500000000000004
 31
0.0
  0
LINE
  5
131
330
1E
100
AcDbEntity
  8
0
100
AcDbLine
 10
68.2115
 20
1.5
 30
0.0
 11
68.2115
 21
4.000000000000009
 31
0.0
  0
LINE
  5
132
330
1E
100
AcDbEntity
  8
0
100
AcDbLine
 10
68.2115
 20
8.300000000000009
 30
0.0
 11
68.2115
 21
13.8
 31
0.0
  0
LINE
  5
133
330
1E
100
AcDbEntity
  8
0
100
AcDbLine
 10
68.2115
 20
8.300000000000009
 30
0.0
 11
68.2115
 21
4.000000000000009
 31
0.0
  0
LINE
  5
134
330
1E
100
AcDbEntity
  8
0
100
AcDbLine
 10
68.2115
 20
13.8
 30
0.0
 11
68.2115
 21
8.300000000000009
 31
0.0
  0
LINE
  5
135
330
1E
100
AcDbEntity
  8
0
100
AcDbLine
 10
68.2115
 20
13.8
 30
0.0
 11
68.2115
 21
20.2
 31
0.0
  0
LINE
  5
136
330
1E
100
AcDbEntity
  8
0
100
AcDbLine
 10
68.2115
 20
20.2
 30
0.0
 11
68.2115
 21
13.8
 31
0.0
  0
LINE
  5
137
330
1E
100
AcDbEntity
  8
0
100
AcDbLine
 10
68.2115
 20
20.2
 30
0.0
 11
68.2115
 21
27.0
 31
0.0
  0
LINE
  5
138
330
1E
100
AcDbEntity
  8
0
100
AcDbLine
 10
68.2115
 20
33.79999999999999
 30
0.0
 11
68.2115
 21
27.0
 31
0.0
  0
LINE
  5
139
330
1E
100
AcDbEntity
  8
0
100
AcDbLine
 10
68.2115
 20
33.79999999999999
 30
0.0
 11
68.2115
 21
40.2
 31
0.0
  0
LINE
  5
13A
330
1E
100
AcDbEntity
  8
0
100
AcDbLine
 10
68.2115
 20
27.0
 30
0.0
 11
68.2115
 21
20.2
 31
0.0
  0
LINE
  5
13B
330
1E
100
AcDbEntity
  8
0
100
AcDbLine
 10
68.2115
 20
27.0
 30
0.0
 11
68.2115
 21
33.79999999999999
 31
0.0
  0
LINE
  5
13C
330
1E
100
AcDbEntity
  8
0
100
AcDbLine
 10
62.0769
 20
7.500000000000009
 30
0.0
 11
65.9808
 21
4.500000000000009
 31
0.0
  0
LINE
  5
13D
330
1E
100
AcDbEntity
  8
0
100
AcDbLine
 10
68.2115
 20
0.500000000000004
 30
0.0
 11
69.8846
 21
0.0000000000000043
 31
0.0
  0
LINE
  5
13E
330
1E
100
AcDbEntity
  8
0
100
AcDbLine
 10
68.2115
 20
0.500000000000004
 30
0.0
 11
69.8846
 21
0.0000000000000043
 31
0.0
  0
LINE
  5
13F
330
1E
100
AcDbEntity
  8
0
100
AcDbLine
 10
68.2115
 20
0.500000000000004
 30
0.0
 11
68.2115
 21
1.5
 31
0.0
  0
LINE
  5
140
330
1E
100
AcDbEntity
  8
0
100
AcDbLine
 10
71.0
 20
0.0000000000000043
 30
0.0
 11
71.0
 21
1.0
 31
0.0
  0
LINE
  5
141
330
1E
100
AcDbEntity
  8
0
100
AcDbLine
 10
71.0
 20
3.6
 30
0.0
 11
71.0
 21
1.0
 31
0.0
  0
LINE
  5
142
330
1E
100
AcDbEntity
  8
0
100
AcDbLine
 10
71.0
 20
3.6
 30
0.0
 11
71.0
 21
7.900000000000009
 31
0.0
  0
LINE
  5
143
330
1E
100
AcDbEntity
  8
0
100
AcDbLine
 10
71.0
 20
1.0
 30
0.0
 11
71.0
 21
0.0000000000000043
 31
0.0
  0
LINE
  5
144
330
1E
100
AcDbEntity
  8
0
100
AcDbLine
 10
71.0
 20
1.0
 30
0.0
 11
71.0
 21
3.6
 31
0.0
  0
LINE
  5
145
330
1E
100
AcDbEntity
  8
0
100
AcDbLine
 10
71.0
 20
7.900000000000009
 30
0.0
 11
71.0
 21
13.6
 31
0.0
  0
LINE
  5
146
330
1E
100
AcDbEntity
  8
0
100
AcDbLine
 10
71.0
 20
7.900000000000009
 30
0.0
 11
71.0
 21
3.6
 31
0.0
  0
LINE
  5
147
330
1E
100
AcDbEntity
  8
0
100
AcDbLine
 10
71.0
 20
13.6
 30
0.0
 11
71.0
 21
7.900000000000009
 31
0.0
  0
LINE
  5
148
330
1E
100
AcDbEntity
  8
0
100
AcDbLine
 10
71.0
 20
13.6
 30
0.0
 11
71.0
 21
20.1
 31
0.0
  0
LINE
  5
149
330
1E
100
AcDbEntity
  8
0
100
AcDbLine
 10
71.0
 20
20.1
 30
0.0
 11
71.0
 21
13.6
 31
0.0
  0
LINE
  5
14A
330
1E
100
AcDbEntity
  8
0
100
AcDbLine
 10
71.0
 20
20.1
 30
0.0
 11
71.0
 21
27.0
 31
0.0
  0
LINE
  5
14B
330
1E
100
AcDbEntity
  8
0
100
AcDbLine
 10
71.0
 20
33.9
 30
0.0
 11
71.0
 21
27.0
 31
0.0
  0
LINE
  5
14C
330
1E
100
AcDbEntity
  8
0
100
AcDbLine
 10
71.0
 20
33.9
 30
0.0
 11
71.0
 21
40.4
 31
0.0
  0
LINE
  5
14D
330
1E
100
AcDbEntity
  8
0
100
AcDbLine
 10
71.0
 20
27.0
 30
0.0
 11
71.0
 21
20.1
 31
0.0
  0
LINE
  5
14E
330
1E
100
AcDbEntity
  8
0
100
AcDbLine
 10
71.0
 20
27.0
 30
0.0
 11
71.0
 21
33.9
 31
0.0
  0
LINE
  5
14F
330
1E
100
AcDbEntity
  8
0
100
AcDbLine
 10
69.8846
 20
0.0000000000000043
 30
0.0
 11
71.0
 21
0.0000000000000043
 31
0.0
  0
LINE
  5
150
330
1E
100
AcDbEntity
  8
0
100
AcDbLine
 10
42.0
 20
36.6
 30
0.0
 11
42.0
 21
37.0
 31
0.0
  0
LINE
  5
151
330
1E
100
AcDbEntity
  8
0
100
AcDbLine
 10
42.0
 20
37.0
 30
0.0
 11
42.0
 21
38.3
 31
0.0
  0
LINE
  5
152
330
1E
100
AcDbEntity
  8
0
100
AcDbLine
 10
42.0
 20
38.3
 30
0.0
 11
42.0
 21
39.5
 31
0.0
  0
LINE
  5
153
330
1E
100
AcDbEntity
  8
0
100
AcDbLine
 10
42.0
 20
38.3
 30
0.0
 11
42.0
 21
37.0
 31
0.0
  0
LINE
  5
154
330
1E
100
AcDbEntity
  8
0
100
AcDbLine
 10
42.0
 20
39.5
 30
0.0
 11
42.0
 21
38.3
 31
0.0
  0
LINE
  5
155
330
1E
100
AcDbEntity
  8
0
100
AcDbLine
 10
42.0
 20
39.5
 30
0.0
 11
42.0
 21
40.0
 31
0.0
  0
LINE
  5
156
330
1E
100
AcDbEntity
  8
0
100
AcDbLine
 10
42.5577
 20
37.2
 30
0.0
 11
42.5577
 21
39.6
 31
0.0
  0
LINE
  5
157
330
1E
100
AcDbEntity
  8
0
100
AcDbLine
 10
42.5577
 20
37.2
 30
0.0
 11
42.5577
 21
34.2
 31
0.0
  0
LINE
  5
158
330
1E
100
AcDbEntity
  8
0
100
AcDbLine
 10
53.1538
 20
37.6
 30
0.0
 11
53.1538
 21
40.0
 31
0.0
  0
LINE
  5
159
330
1E
100
AcDbEntity
  8
0
100
AcDbLine
 10
53.1538
 20
37.6
 30
0.0
 11
53.1538
 21
34.5
 31
0.0
  0
LINE
  5
15A
330
1E
100
AcDbEntity
  8
0
100
AcDbLine
 10
42.5577
 20
39.6
 30
0.0
 11
42.5577
 21
37.2
 31
0.0
  0
LINE
  5
15B
330
1E
100
AcDbEntity
  8
0
100
AcDbLine
 10
42.5577
 20
39.6
 30
0.0
 11
42.5577
 21
41.0
 31
0.0
  0
LINE
  5
15C
330
1E
100
AcDbEntity
  8
0
100
AcDbLine
 10
42.5577
 20
41.0
 30
0.0
 11
42.5577
 21
39.6
 31
0.0
  0
LINE
  5
15D
330
1E
100
AcDbEntity
  8
0
100
AcDbLine
 10
42.5577
 20
41.0
 30
0.0
 11
42.5577
 21
41.5
 31
0.0
  0
LINE
  5
15E
330
1E
100
AcDbEntity
  8
0
100
AcDbLine
 10
53.1538
 20
40.0
 30
0.0
 11
53.1538
 21
37.6
 31
0.0
  0
LINE
  5
15F
330
1E
100
AcDbEntity
  8
0
100
AcDbLine
 10
53.1538
 20
40.0
 30
0.0
 11
53.1538
 21
41.5
 31
0.0
  0
LINE
  5
160
330
1E
100
AcDbEntity
  8
0
100
AcDbLine
 10
53.1538
 20
41.5
 30
0.0
 11
53.1538
 21
40.0
 31
0.0
  0
LINE
  5
161
330
1E
100
AcDbEntity
  8
0
100
AcDbLine
 10
53.1538
 20
41.5
 30
0.0
 11
53.1538
 21
42.0
 31
0.0
  0
LINE
  5
162
330
1E
100
AcDbEntity
  8
0
100
AcDbLine
 10
54.8269
 20
39.39999999999999
 30
0.0
 11
54.8269
 21
42.2
 31
0.0
  0
LINE
  5
163
330
1E
100
AcDbEntity
  8
0
100
AcDbLine
 10
54.8269
 20
39.39999999999999
 30
0.0
 11
54.8269
 21
35.7
 31
0.0
  0
LINE
  5
164
330
1E
100
AcDbEntity
  8
0
100
AcDbLine
 10
42.0
 20
40.0
 30
0.0
 11
42.0
 21
39.5
 31
0.0
  0
LINE
  5
165
330
1E
100
AcDbEntity
  8
0
100
AcDbLine
 10
42.0
 20
40.0
 30
0.0
 11
42.5577
 21
41.5
 31
0.0
  0
LINE
  5
166
330
1E
100
AcDbEntity
  8
0
100
AcDbLine
 10
44.2308
 20
42.0
 30
0.0
 11
53.1538
 21
42.0
 31
0.0
  0
LINE
  5
167
330
1E
100
AcDbEntity
  8
0
100
AcDbLine
 10
53.1538
 20
42.0
 30
0.0
 11
53.1538
 21
41.5
 31
0.0
  0
LINE
  5
168
330
1E
100
AcDbEntity
  8
0
100
AcDbLine
 10
53.1538
 20
42.0
 30
0.0
 11
54.26919999999999
 21
43.0
 31
0.0
  0
LINE
  5
169
330
1E
100
AcDbEntity
  8
0
100
AcDbLine
 10
54.26919999999999
 20
43.0
 30
0.0
 11
54.8269
 21
44.5
 31
0.0
  0
LINE
  5
16A
330
1E
100
AcDbEntity
  8
0
100
AcDbLine
 10
54.8269
 20
42.2
 30
0.0
 11
54.8269
 21
39.39999999999999
 31
0.0
  0
LINE
  5
16B
330
1E
100
AcDbEntity
  8
0
100
AcDbLine
 10
54.8269
 20
42.2
 30
0.0
 11
54.8269
 21
43.89999999999999
 31
0.0
  0
LINE
  5
16C
330
1E
100
AcDbEntity
  8
0
100
AcDbLine
 10
54.8269
 20
43.89999999999999
 30
0.0
 11
54.8269
 21
42.2
 31
0.0
  0
LINE
  5
16D
330
1E
100
AcDbEntity
  8
0
100
AcDbLine
 10
54.8269
 20
43.89999999999999
 30
0.0
 11
54.8269
 21
44.5
 31
0.0
  0
LINE
  5
16E
330
1E
100
AcDbEntity
  8
0
100
AcDbLine
 10
42.5577
 20
41.5
 30
0.0
 11
44.2308
 21
42.0
 31
0.0
  0
LINE
  5
16F
330
1E
100
AcDbEntity
  8
0
100
AcDbLine
 10
42.5577
 20
41.5
 30
0.0
 11
42.5577
 21
41.0
 31
0.0
  0
LINE
  5
170
330
1E
100
AcDbEntity
  8
0
100
AcDbLine
 10
56.5
 20
45.0
 30
0.0
 11
57.6154
 21
45.0
 31
0.0
  0
LINE
  5
171
330
1E
100
AcDbEntity
  8
0
100
AcDbLine
 10
54.8269
 20
44.5
 30
0.0
 11
56.5
 21
45.0
 31
0.0
  0
LINE
  5
172
330
1E
100
AcDbEntity
  8
0
100
AcDbLine
 10
54.8269
 20
44.5
 30
0.0
 11
54.8269
 21
43.89999999999999
 31
0.0
  0
LINE
  5
173
330
1E
100
AcDbEntity
  8
0
100
AcDbLine
 10
57.6154
 20
45.0
 30
0.0
 11
62.0769
 21
46.5
 31
0.0
  0
LINE
  5
174
330
1E
100
AcDbEntity
  8
0
100
AcDbLine
 10
68.2115
 20
40.2
 30
0.0
 11
68.2115
 21
33.79999999999999
 31
0.0
  0
LINE
  5
175
330
1E
100
AcDbEntity
  8
0
100
AcDbLine
 10
68.2115
 20
40.2
 30
0.0
 11
68.2115
 21
45.7
 31
0.0
  0
LINE
  5
176
330
1E
100
AcDbEntity
  8
0
100
AcDbLine
 10
68.2115
 20
45.7
 30
0.0
 11
68.2115
 21
50.0
 31
0.0
  0
LINE
  5
177
330
1E
100
AcDbEntity
  8
0
100
AcDbLine
 10
68.2115
 20
45.7
 30
0.0
 11
68.2115
 21
40.2
 31
0.0
  0
LINE
  5
178
330
1E
100
AcDbEntity
  8
0
100
AcDbLine
 10
62.0769
 20
46.5
 30
0.0
 11
65.9808
 21
49.5
 31
0.0
  0
LINE
  5
179
330
1E
100
AcDbEntity
  8
0
100
AcDbLine
 10
67.6538
 20
52.0
 30
0.0
 11
68.2115
 21
53.5
 31
0.0
  0
LINE
  5
17A
330
1E
100
AcDbEntity
  8
0
100
AcDbLine
 10
68.2115
 20
50.0
 30
0.0
 11
68.2115
 21
45.7
 31
0.0
  0
LINE
  5
17B
330
1E
100
AcDbEntity
  8
0
100
AcDbLine
 10
68.2115
 20
50.0
 30
0.0
 11
68.2115
 21
52.5
 31
0.0
  0
LINE
  5
17C
330
1E
100
AcDbEntity
  8
0
100
AcDbLine
 10
68.2115
 20
52.5
 30
0.0
 11
68.2115
 21
50.0
 31
0.0
  0
LINE
  5
17D
330
1E
100
AcDbEntity
  8
0
100
AcDbLine
 10
68.2115
 20
52.5
 30
0.0
 11
68.2115
 21
53.5
 31
0.0
  0
LINE
  5
17E
330
1E
100
AcDbEntity
  8
0
100
AcDbLine
 10
65.9808
 20
49.5
 30
0.0
 11
67.6538
 21
52.0
 31
0.0
  0
LINE
  5
17F
330
1E
100
AcDbEntity
  8
0
100
AcDbLine
 10
71.0
 20
40.4
 30
0.0
 11
71.0
 21
33.9
 31
0.0
  0
LINE
  5
180
330
1E
100
AcDbEntity
  8
0
100
AcDbLine
 10
71.0
 20
40.4
 30
0.0
 11
71.0
 21
46.1
 31
0.0
  0
LINE
  5
181
330
1E
100
AcDbEntity
  8
0
100
AcDbLine
 10
71.0
 20
46.1
 30
0.0
 11
71.0
 21
50.4
 31
0.0
  0
LINE
  5
182
330
1E
100
AcDbEntity
  8
0
100
AcDbLine
 10
71.0
 20
46.1
 30
0.0
 11
71.0
 21
40.4
 31
0.0
  0
LINE
  5
183
330
1E
100
AcDbEntity
  8
0
100
AcDbLine
 10
69.8846
 20
54.0
 30
0.0
 11
71.0
 21
54.0
 31
0.0
  0
LINE
  5
184
330
1E
100
AcDbEntity
  8
0
100
AcDbLine
 10
71.0
 20
50.4
 30
0.0
 11
71.0
 21
46.1
 31
0.0
  0
LINE
  5
185
330
1E
100
AcDbEntity
  8
0
100
AcDbLine
 10
71.0
 20
50.4
 30
0.0
 11
71.0
 21
53.0
 31
0.0
  0
LINE
  5
186
330
1E
100
AcDbEntity
  8
0
100
AcDbLine
 10
71.0
 20
53.0
 30
0.0
 11
71.0
 21
50.4
 31
0.0
  0
LINE
  5
187
330
1E
100
AcDbEntity
  8
0
100
AcDbLine
 10
71.0
 20
53.0
 30
0.0
 11
71.0
 21
54.0
 31
0.0
  0
LINE
  5
188
330
1E
100
AcDbEntity
  8
0
100
AcDbLine
 10
71.0
 20
54.0
 30
0.0
 11
71.0
 21
53.0
 31
0.0
  0
LINE
  5
189
330
1E
100
AcDbEntity
  8
0
100
AcDbLine
 10
68.2115
 20
53.5
 30
0.0
 11
69.8846
 21
54.0
 31
0.0
  0
LINE
  5
18A
330
1E
100
AcDbEntity
  8
0
100
AcDbLine
 10
68.2115
 20
53.5
 30
0.0
 11
68.2115
 21
52.5
 31
0.0
  0
LINE
  5
18B
330
1E
100
AcDbEntity
  8
0
100
AcDbLine
 10
40.49999999999999
 20
36.5
 30
0.0
 11
42.0
 21
37.0
 31
0.0
  0
LINE
  5
18C
330
1E
100
AcDbEntity
  8
0
100
AcDbLine
 10
39.5
 20
18.5
 30
0.0
 11
40.49999999999999
 21
17.5
 31
0.0
  0
LINE
  5
191
330
1E
100
AcDbEntity
  8
0
100
AcDbLine
 10
28.0
 20
27.0
 30
0.0
 11
27.5667
 21
30.38
 31
0.0
  0
LINE
  5
192
330
1E
100
AcDbEntity
  8
0
100
AcDbLine
 10
18.89999999999999
 20
41.5
 30
0.0
 11
22.5
 21
40.0
 31
0.0
  0
LINE
  5
193
330
1E
100
AcDbEntity
  8
0
100
AcDbLine
 10
18.38
 20
39.56669999999999
 30
0.0
 11
15.0
 21
40.0
 31
0.0
  0
LINE
  5
194
330
1E
100
AcDbEntity
  8
0
100
AcDbLine
 10
15.0
 20
42.0
 30
0.0
 11
11.1
 21
41.5
 31
0.0
  0
LINE
  5
195
330
1E
100
AcDbEntity
  8
0
100
AcDbLine
 10
4.4
 20
16.39999999999999
 30
0.0
 11
2.0
 21
19.5
 31
0.0
  0
ENDSEC
  0
SECTION
  2
OBJECTS
  0
DICTIONARY
  5
C
330
0
100
AcDbDictionary
281
     1
  3
ACAD_GROUP
350
D
  3
ACAD_LAYOUT
350
19
  3
ACAD_MLINESTYLE
350
16
  3
ACAD_PLOTSETTINGS
350
18
  3
ACAD_PLOTSTYLENAME
350
E
  3
AcDbVariableDictionary
350
196
  0
DICTIONARY
  5
D
102
{ACAD_REACTORS
330
C
102
}
330
C
100
AcDbDictionary
281
     1
  0
DICTIONARY
  5
19
102
{ACAD_REACTORS
330
C
102
}
330
C
100
AcDbDictionary
281
     1
  3
Layout1
350
1D
  3
Model
350
21
  0
DICTIONARY
  5
16
102
{ACAD_REACTORS
330
C
102
}
330
C
100
AcDbDictionary
281
     1
  3
Standard
350
17
  0
DICTIONARY
  5
18
102
{ACAD_REACTORS
330
C
102
}
330
C
100
AcDbDictionary
281
     1
  0
ACDBDICTIONARYWDFLT
  5
E
102
{ACAD_REACTORS
330
C
102
}
330
C
100
AcDbDictionary
281
     1
  3
Normal
350
F
100
AcDbDictionaryWithDefault
340
F
  0
DICTIONARY
  5
196
102
{ACAD_REACTORS
330
C
102
}
330
C
100
AcDbDictionary
281
     1
  3
DIMASSOC
350
197
  0
LAYOUT
  5
1D
102
{ACAD_REACTORS
330
19
102
}
330
19
100
AcDbPlotSettings
  1

  2
hp deskjet 980c series
  4

  6

 40
0.0
 41
0.0
 42
0.0
 43
0.0
 44
0.0
 45
0.0
 46
0.0
 47
0.0
 48
0.0
 49
0.0
140
0.0
141
0.0
142
1.0
143
1.0
 70
   688
 72
     0
 73
     0
 74
     5
  7

 75
    16
147
1.0
148
0.0
149
0.0
100
AcDbLayout
  1
Layout1
 70
     1
 71
     1
 10
0.0
 20
0.0
 11
12.0
 21
9.0
 12
0.0
 22
0.0
 32
0.0
 14
1.000000000000000E+20
 24
1.000000000000000E+20
 34
1.000000000000000E+20
 15
-1.000000000000000E+20
 25
-1.000000000000000E+20
 35
-1.000000000000000E+20
146
0.0
 13
0.0
 23
0.0
 33
0.0
 16
1.0
 26
0.0
 36
0.0
 17
0.0
 27
1.0
 37
0.0
 76
     0
330
1A
  0
LAYOUT
  5
21
102
{ACAD_REACTORS
330
19
102
}
330
19
100
AcDbPlotSettings
  1

  2
hp deskjet 980c series
  4

  6

 40
0.0
 41
0.0
 42
0.0
 43
0.0
 44
0.0
 45
0.0
 46
0.0
 47
0.0
 48
0.0
 49
0.0
140
0.0
141
0.0
142
1.0
143
1.0
 70
  1712
 72
     0
 73
     0
 74
     0
  7

 75
     0
147
1.0
148
0.0
149
0.0
100
AcDbLayout
  1
Model
 70
     1
 71
     0
 10
0.0
 20
0.0
 11
12.0
 21
9.0
 12
0.0
 22
0.0
 32
0.0
 14
0.0
 24
0.0
 34
0.0
 15
0.0
 25
0.0
 35
0.0
146
0.0
 13
0.0
 23
0.0
 33
0.0
 16
1.0
 26
0.0
 36
0.0
 17
0.0
 27
1.0
 37
0.0
 76
     0
330
1E
  0
MLINESTYLE
  5
17
102
{ACAD_REACTORS
330
16
102
}
330
16
100
AcDbMlineStyle
  2
STANDARD
 70
     0
  3

 62
   256
 51
90.0
 52
90.0
 71
     2
 49
0.5
 62
   256
  6
BYLAYER
 49
-0.5
 62
   256
  6
BYLAYER
  0
ACDBPLACEHOLDER
  5
F
102
{ACAD_REACTORS
330
E
102
}
330
E
  0
DICTIONARYVAR
  5
197
102
{ACAD_REACTORS
330
196
102
}
330
196
100
DictionaryVariables
280
     0
  1
1
  0
ENDSEC
  0
EOF
