  0
SECTION
  2
HEADER
  9
$ACADVER
  1
AC1015
  9
$ACADMAINTVER
 70
    13
  9
$DWGCODEPAGE
  3
ANSI_1252
  9
$INSBASE
 10
0.0
 20
0.0
 30
0.0
  9
$EXTMIN
 10
0.0000000000000094
 20
-0.0000000000000097
 30
0.0
  9
$EXTMAX
 10
136.0
 20
148.0
 30
0.0
  9
$LIMMIN
 10
0.0
 20
0.0
  9
$LIMMAX
 10
12.0
 20
9.0
  9
$ORTHOMODE
 70
     0
  9
$REGENMODE
 70
     1
  9
$FILLMODE
 70
     1
  9
$QTEXTMODE
 70
     0
  9
$MIRRTEXT
 70
     1
  9
$LTSCALE
 40
1.0
  9
$ATTMODE
 70
     1
  9
$TEXTSIZE
 40
0.2
  9
$TRACEWID
 40
0.05
  9
$TEXTSTYLE
  7
Standard
  9
$CLAYER
  8
0
  9
$CELTYPE
  6
Continuous
  9
$CECOLOR
 62
   256
  9
$CELTSCALE
 40
1.0
  9
$DISPSILH
 70
     0
  9
$DIMSCALE
 40
1.0
  9
$DIMASZ
 40
0.18
  9
$DIMEXO
 40
0.0625
  9
$DIMDLI
 40
0.38
  9
$DIMRND
 40
0.0
  9
$DIMDLE
 40
0.0
  9
$DIMEXE
 40
0.18
  9
$DIMTP
 40
0.0
  9
$DIMTM
 40
0.0
  9
$DIMTXT
 40
0.18
  9
$DIMCEN
 40
0.09
  9
$DIMTSZ
 40
0.0
  9
$DIMTOL
 70
     0
  9
$DIMLIM
 70
     0
  9
$DIMTIH
 70
     1
  9
$DIMTOH
 70
     1
  9
$DIMSE1
 70
     0
  9
$DIMSE2
 70
     0
  9
$DIMTAD
 70
     0
  9
$DIMZIN
 70
     0
  9
$DIMBLK
  1

  9
$DIMASO
 70
     1
  9
$DIMSHO
 70
     1
  9
$DIMPOST
  1

  9
$DIMAPOST
  1

  9
$DIMALT
 70
     0
  9
$DIMALTD
 70
     2
  9
$DIMALTF
 40
25.4
  9
$DIMLFAC
 40
1.0
  9
$DIMTOFL
 70
     0
  9
$DIMTVP
 40
0.0
  9
$DIMTIX
 70
     0
  9
$DIMSOXD
 70
     0
  9
$DIMSAH
 70
     0
  9
$DIMBLK1
  1

  9
$DIMBLK2
  1

  9
$DIMSTYLE
  2
Standard
  9
$DIMCLRD
 70
     0
  9
$DIMCLRE
 70
     0
  9
$DIMCLRT
 70
     0
  9
$DIMTFAC
 40
1.0
  9
$DIMGAP
 40
0.09
  9
$DIMJUST
 70
     0
  9
$DIMSD1
 70
     0
  9
$DIMSD2
 70
     0
  9
$DIMTOLJ
 70
     1
  9
$DIMTZIN
 70
     0
  9
$DIMALTZ
 70
     0
  9
$DIMALTTZ
 70
     0
  9
$DIMUPT
 70
     0
  9
$DIMDEC
 70
     4
  9
$DIMTDEC
 70
     4
  9
$DIMALTU
 70
     2
  9
$DIMALTTD
 70
     2
  9
$DIMTXSTY
  7
Standard
  9
$DIMAUNIT
 70
     0
  9
$DIMADEC
 70
     0
  9
$DIMALTRND
 40
0.0
  9
$DIMAZIN
 70
     0
  9
$DIMDSEP
 70
    46
  9
$DIMATFIT
 70
     3
  9
$DIMFRAC
 70
     0
  9
$DIMLDRBLK
  1

  9
$DIMLUNIT
 70
     2
  9
$DIMLWD
 70
    -2
  9
$DIMLWE
 70
    -2
  9
$DIMTMOVE
 70
     0
  9
$LUNITS
 70
     2
  9
$LUPREC
 70
     4
  9
$SKETCHINC
 40
0.1
  9
$FILLETRAD
 40
0.0
  9
$AUNITS
 70
     0
  9
$AUPREC
 70
     0
  9
$MENU
  1
.
  9
$ELEVATION
 40
0.0
  9
$PELEVATION
 40
0.0
  9
$THICKNESS
 40
0.0
  9
$LIMCHECK
 70
     0
  9
$CHAMFERA
 40
0.0
  9
$CHAMFERB
 40
0.0
  9
$CHAMFERC
 40
0.0
  9
$CHAMFERD
 40
0.0
  9
$SKPOLY
 70
     0
  9
$TDCREATE
 40
2454748.442370648
  9
$TDUCREATE
 40
2454748.359037314
  9
$TDUPDATE
 40
2454748.448857187
  9
$TDUUPDATE
 40
2454748.365523854
  9
$TDINDWG
 40
0.0064865394
  9
$TDUSRTIMER
 40
0.0064865394
  9
$USRTIMER
 70
     1
  9
$ANGBASE
 50
0.0
  9
$ANGDIR
 70
     0
  9
$PDMODE
 70
     0
  9
$PDSIZE
 40
0.0
  9
$PLINEWID
 40
0.0
  9
$SPLFRAME
 70
     0
  9
$SPLINETYPE
 70
     6
  9
$SPLINESEGS
 70
     8
  9
$HANDSEED
  5
253
  9
$SURFTAB1
 70
     6
  9
$SURFTAB2
 70
     6
  9
$SURFTYPE
 70
     6
  9
$SURFU
 70
     6
  9
$SURFV
 70
     6
  9
$UCSBASE
  2

  9
$UCSNAME
  2

  9
$UCSORG
 10
0.0
 20
0.0
 30
0.0
  9
$UCSXDIR
 10
1.0
 20
0.0
 30
0.0
  9
$UCSYDIR
 10
0.0
 20
1.0
 30
0.0
  9
$UCSORTHOREF
  2

  9
$UCSORTHOVIEW
 70
     1
  9
$UCSORGTOP
 10
0.0
 20
0.0
 30
0.0
  9
$UCSORGBOTTOM
 10
0.0
 20
0.0
 30
0.0
  9
$UCSORGLEFT
 10
0.0
 20
0.0
 30
0.0
  9
$UCSORGRIGHT
 10
0.0
 20
0.0
 30
0.0
  9
$UCSORGFRONT
 10
0.0
 20
0.0
 30
0.0
  9
$UCSORGBACK
 10
0.0
 20
0.0
 30
0.0
  9
$PUCSBASE
  2

  9
$PUCSNAME
  2

  9
$PUCSORG
 10
0.0
 20
0.0
 30
0.0
  9
$PUCSXDIR
 10
1.0
 20
0.0
 30
0.0
  9
$PUCSYDIR
 10
0.0
 20
1.0
 30
0.0
  9
$PUCSORTHOREF
  2

  9
$PUCSORTHOVIEW
 70
     0
  9
$PUCSORGTOP
 10
0.0
 20
0.0
 30
0.0
  9
$PUCSORGBOTTOM
 10
0.0
 20
0.0
 30
0.0
  9
$PUCSORGLEFT
 10
0.0
 20
0.0
 30
0.0
  9
$PUCSORGRIGHT
 10
0.0
 20
0.0
 30
0.0
  9
$PUCSORGFRONT
 10
0.0
 20
0.0
 30
0.0
  9
$PUCSORGBACK
 10
0.0
 20
0.0
 30
0.0
  9
$USERI1
 70
     0
  9
$USERI2
 70
     0
  9
$USERI3
 70
     0
  9
$USERI4
 70
     0
  9
$USERI5
 70
     0
  9
$USERR1
 40
0.0
  9
$USERR2
 40
0.0
  9
$USERR3
 40
0.0
  9
$USERR4
 40
0.0
  9
$USERR5
 40
0.0
  9
$WORLDVIEW
 70
     1
  9
$SHADEDGE
 70
     3
  9
$SHADEDIF
 70
    70
  9
$TILEMODE
 70
     1
  9
$MAXACTVP
 70
    64
  9
$PINSBASE
 10
0.0
 20
0.0
 30
0.0
  9
$PLIMCHECK
 70
     0
  9
$PEXTMIN
 10
1.000000000000000E+20
 20
1.000000000000000E+20
 30
1.000000000000000E+20
  9
$PEXTMAX
 10
-1.000000000000000E+20
 20
-1.000000000000000E+20
 30
-1.000000000000000E+20
  9
$PLIMMIN
 10
0.0
 20
0.0
  9
$PLIMMAX
 10
12.0
 20
9.0
  9
$UNITMODE
 70
     0
  9
$VISRETAIN
 70
     1
  9
$PLINEGEN
 70
     0
  9
$PSLTSCALE
 70
     1
  9
$TREEDEPTH
 70
  3020
  9
$CMLSTYLE
  2
Standard
  9
$CMLJUST
 70
     0
  9
$CMLSCALE
 40
1.0
  9
$PROXYGRAPHICS
 70
     1
  9
$MEASUREMENT
 70
     0
  9
$CELWEIGHT
370
    -1
  9
$ENDCAPS
280
     0
  9
$JOINSTYLE
280
     0
  9
$LWDISPLAY
290
     0
  9
$INSUNITS
 70
     0
  9
$HYPERLINKBASE
  1

  9
$STYLESHEET
  1

  9
$XEDIT
290
     1
  9
$CEPSNTYPE
380
     0
  9
$PSTYLEMODE
290
     1
  9
$FINGERPRINTGUID
  2
{34597A49-322F-413D-9439-3BCEF1128454}
  9
$VERSIONGUID
  2
{3AF035F0-56DC-486D-A7F9-1313B2D53686}
  9
$EXTNAMES
290
     1
  9
$PSVPSCALE
 40
0.0
  9
$OLESTARTUP
290
     0
  0
ENDSEC
  0
SECTION
  2
CLASSES
  0
CLASS
  1
ACDBDICTIONARYWDFLT
  2
AcDbDictionaryWithDefault
  3
AutoCAD 2000
 90
        0
280
     0
281
     0
  0
CLASS
  1
ACDBPLACEHOLDER
  2
AcDbPlaceHolder
  3
AutoCAD 2000
 90
        0
280
     0
281
     0
  0
CLASS
  1
LAYOUT
  2
AcDbLayout
  3
AutoCAD 2000
 90
        0
280
     0
281
     0
  0
CLASS
  1
DICTIONARYVAR
  2
AcDbDictionaryVar
  3
AutoCAD 2000
 90
        0
280
     0
281
     0
  0
ENDSEC
  0
SECTION
  2
TABLES
  0
TABLE
  2
VPORT
  5
8
330
0
100
AcDbSymbolTable
 70
     2
  0
VPORT
  5
252
330
8
100
AcDbSymbolTableRecord
100
AcDbViewportTableRecord
  2
*Active
 70
     0
 10
0.0
 20
0.0
 11
1.0
 21
1.0
 12
68.00000000000001
 22
73.99999999999998
 13
0.0
 23
0.0
 14
1.0
 24
1.0
 15
0.0
 25
0.0
 16
0.0
 26
0.0
 36
1.0
 17
0.0
 27
0.0
 37
0.0
 40
149.1355498721227
 41
2.078104993597951
 42
50.0
 43
0.0
 44
0.0
 50
0.0
 51
0.0
 71
     0
 72
   100
 73
     1
 74
     3
 75
     0
 76
     0
 77
     0
 78
     0
281
     0
 65
     1
110
0.0
120
0.0
130
0.0
111
1.0
121
0.0
131
0.0
112
0.0
122
1.0
132
0.0
 79
     1
146
0.0
  0
ENDTAB
  0
TABLE
  2
LTYPE
  5
5
330
0
100
AcDbSymbolTable
 70
     1
  0
LTYPE
  5
13
330
5
100
AcDbSymbolTableRecord
100
AcDbLinetypeTableRecord
  2
ByBlock
 70
     0
  3

 72
    65
 73
     0
 40
0.0
  0
LTYPE
  5
14
330
5
100
AcDbSymbolTableRecord
100
AcDbLinetypeTableRecord
  2
ByLayer
 70
     0
  3

 72
    65
 73
     0
 40
0.0
  0
LTYPE
  5
15
330
5
100
AcDbSymbolTableRecord
100
AcDbLinetypeTableRecord
  2
Continuous
 70
     0
  3
Solid line
 72
    65
 73
     0
 40
0.0
  0
ENDTAB
  0
TABLE
  2
LAYER
  5
2
330
0
100
AcDbSymbolTable
 70
     1
  0
LAYER
  5
10
330
2
100
AcDbSymbolTableRecord
100
AcDbLayerTableRecord
  2
0
 70
     0
 62
     7
  6
Continuous
370
    -3
390
F
  0
ENDTAB
  0
TABLE
  2
STYLE
  5
3
330
0
100
AcDbSymbolTable
 70
     1
  0
STYLE
  5
11
330
3
100
AcDbSymbolTableRecord
100
AcDbTextStyleTableRecord
  2
Standard
 70
     0
 40
0.0
 41
1.0
 50
0.0
 71
     0
 42
0.2
  3
txt
  4

  0
ENDTAB
  0
TABLE
  2
VIEW
  5
6
330
0
100
AcDbSymbolTable
 70
     0
  0
ENDTAB
  0
TABLE
  2
UCS
  5
7
330
0
100
AcDbSymbolTable
 70
     0
  0
ENDTAB
  0
TABLE
  2
APPID
  5
9
330
0
100
AcDbSymbolTable
 70
     1
  0
APPID
  5
12
330
9
100
AcDbSymbolTableRecord
100
AcDbRegAppTableRecord
  2
ACAD
 70
     0
  0
ENDTAB
  0
TABLE
  2
DIMSTYLE
  5
A
330
0
100
AcDbSymbolTable
 70
     1
100
AcDbDimStyleTable
 71
     0
  0
DIMSTYLE
105
24C
330
A
100
AcDbSymbolTableRecord
100
AcDbDimStyleTableRecord
  2
Standard
 70
     0
340
11
  0
ENDTAB
  0
TABLE
  2
BLOCK_RECORD
  5
1
330
0
100
AcDbSymbolTable
 70
     0
  0
BLOCK_RECORD
  5
1E
330
1
100
AcDbSymbolTableRecord
100
AcDbBlockTableRecord
  2
*Model_Space
340
21
  0
BLOCK_RECORD
  5
1A
330
1
100
AcDbSymbolTableRecord
100
AcDbBlockTableRecord
  2
*Paper_Space
340
1D
  0
ENDTAB
  0
ENDSEC
  0
SECTION
  2
BLOCKS
  0
BLOCK
  5
1F
330
1E
100
AcDbEntity
  8
0
100
AcDbBlockBegin
  2
*Model_Space
 70
     0
 10
0.0
 20
0.0
 30
0.0
  3
*Model_Space
  1

  0
ENDBLK
  5
20
330
1E
100
AcDbEntity
  8
0
100
AcDbBlockEnd
  0
BLOCK
  5
1B
330
1A
100
AcDbEntity
 67
     1
  8
0
100
AcDbBlockBegin
  2
*Paper_Space
 70
     0
 10
0.0
 20
0.0
 30
0.0
  3
*Paper_Space
  1

  0
ENDBLK
  5
1C
330
1A
100
AcDbEntity
 67
     1
  8
0
100
AcDbBlockEnd
  0
ENDSEC
  0
SECTION
  2
ENTITIES
  0
LINE
  5
22
330
1E
100
AcDbEntity
  8
0
100
AcDbLine
 10
22.5
 20
3.0
 30
0.0
 11
22.5
 21
69.0
 31
0.0
  0
LINE
  5
23
330
1E
100
AcDbEntity
  8
0
100
AcDbLine
 10
22.5
 20
2.99999999999999
 30
0.0
 11
23.0
 21
1.499999999999989
 31
0.0
  0
LINE
  5
24
330
1E
100
AcDbEntity
  8
0
100
AcDbLine
 10
22.5
 20
2.99999999999999
 30
0.0
 11
22.5
 21
69.0
 31
0.0
  0
LINE
  5
25
330
1E
100
AcDbEntity
  8
0
100
AcDbLine
 10
19.5
 20
69.5
 30
0.0
 11
23.39999999999999
 21
69.5
 31
0.0
  0
LINE
  5
26
330
1E
100
AcDbEntity
  8
0
100
AcDbLine
 10
20.4
 20
69.0
 30
0.0
 11
24.3
 21
69.0
 31
0.0
  0
LINE
  5
27
330
1E
100
AcDbEntity
  8
0
100
AcDbLine
 10
19.0
 20
69.0
 30
0.0
 11
20.4
 21
69.0
 31
0.0
  0
LINE
  5
28
330
1E
100
AcDbEntity
  8
0
100
AcDbLine
 10
17.5
 20
70.5
 30
0.0
 11
18.0
 21
69.5
 31
0.0
  0
LINE
  5
29
330
1E
100
AcDbEntity
  8
0
100
AcDbLine
 10
17.5
 20
70.5
 30
0.0
 11
17.5
 21
71.5
 31
0.0
  0
LINE
  5
2A
330
1E
100
AcDbEntity
  8
0
100
AcDbLine
 10
18.0
 20
69.5
 30
0.0
 11
19.0
 21
69.0
 31
0.0
  0
LINE
  5
2B
330
1E
100
AcDbEntity
  8
0
100
AcDbLine
 10
18.0
 20
69.5
 30
0.0
 11
19.5
 21
69.5
 31
0.0
  0
LINE
  5
2C
330
1E
100
AcDbEntity
  8
0
100
AcDbLine
 10
35.2
 20
-0.0000000000000063
 30
0.0
 11
42.09999999999999
 21
-0.0000000000000067
 31
0.0
  0
LINE
  5
2D
330
1E
100
AcDbEntity
  8
0
100
AcDbLine
 10
29.9
 20
-0.0000000000000059
 30
0.0
 11
35.2
 21
-0.0000000000000063
 31
0.0
  0
LINE
  5
2E
330
1E
100
AcDbEntity
  8
0
100
AcDbLine
 10
26.69999999999999
 20
-0.0000000000000057
 30
0.0
 11
29.9
 21
-0.0000000000000059
 31
0.0
  0
LINE
  5
2F
330
1E
100
AcDbEntity
  8
0
100
AcDbLine
 10
25.5
 20
-0.0000000000000057
 30
0.0
 11
26.69999999999999
 21
-0.0000000000000057
 31
0.0
  0
LINE
  5
30
330
1E
100
AcDbEntity
  8
0
100
AcDbLine
 10
23.0
 20
1.499999999999989
 30
0.0
 11
24.0
 21
0.499999999999994
 31
0.0
  0
LINE
  5
31
330
1E
100
AcDbEntity
  8
0
100
AcDbLine
 10
23.0
 20
1.499999999999989
 30
0.0
 11
24.0
 21
0.499999999999994
 31
0.0
  0
LINE
  5
32
330
1E
100
AcDbEntity
  8
0
100
AcDbLine
 10
24.0
 20
0.499999999999994
 30
0.0
 11
25.5
 21
-0.0000000000000057
 31
0.0
  0
LINE
  5
33
330
1E
100
AcDbEntity
  8
0
100
AcDbLine
 10
24.0
 20
0.499999999999994
 30
0.0
 11
25.5
 21
-0.0000000000000056
 31
0.0
  0
LINE
  5
34
330
1E
100
AcDbEntity
  8
0
100
AcDbLine
 10
38.9
 20
69.0
 30
0.0
 11
48.39999999999999
 21
69.0
 31
0.0
  0
LINE
  5
35
330
1E
100
AcDbEntity
  8
0
100
AcDbLine
 10
38.9
 20
69.0
 30
0.0
 11
40.6
 21
69.0
 31
0.0
  0
LINE
  5
36
330
1E
100
AcDbEntity
  8
0
100
AcDbLine
 10
67.0
 20
-0.0000000000000082
 30
0.0
 11
74.90000000000001
 21
-0.0000000000000087
 31
0.0
  0
LINE
  5
37
330
1E
100
AcDbEntity
  8
0
100
AcDbLine
 10
58.5
 20
-0.0000000000000077
 30
0.0
 11
67.0
 21
-0.0000000000000082
 31
0.0
  0
LINE
  5
38
330
1E
100
AcDbEntity
  8
0
100
AcDbLine
 10
42.09999999999999
 20
-0.0000000000000067
 30
0.0
 11
50.0
 21
-0.0000000000000072
 31
0.0
  0
LINE
  5
39
330
1E
100
AcDbEntity
  8
0
100
AcDbLine
 10
50.0
 20
-0.0000000000000072
 30
0.0
 11
58.5
 21
-0.0000000000000077
 31
0.0
  0
LINE
  5
3A
330
1E
100
AcDbEntity
  8
0
100
AcDbLine
 10
81.79999999999999
 20
-0.0000000000000091
 30
0.0
 11
87.09999999999999
 21
-0.0000000000000094
 31
0.0
  0
LINE
  5
3B
330
1E
100
AcDbEntity
  8
0
100
AcDbLine
 10
74.90000000000001
 20
-0.0000000000000087
 30
0.0
 11
81.79999999999999
 21
-0.0000000000000091
 31
0.0
  0
LINE
  5
3C
330
1E
100
AcDbEntity
  8
0
100
AcDbLine
 10
78.09999999999999
 20
69.0
 30
0.0
 11
86.4
 21
69.0
 31
0.0
  0
LINE
  5
3D
330
1E
100
AcDbEntity
  8
0
100
AcDbLine
 10
68.59999999999999
 20
69.0
 30
0.0
 11
78.09999999999999
 21
69.0
 31
0.0
  0
LINE
  5
3E
330
1E
100
AcDbEntity
  8
0
100
AcDbLine
 10
76.4
 20
69.0
 30
0.0
 11
83.9
 21
69.0
 31
0.0
  0
LINE
  5
3F
330
1E
100
AcDbEntity
  8
0
100
AcDbLine
 10
67.8
 20
69.0
 30
0.0
 11
76.4
 21
69.0
 31
0.0
  0
LINE
  5
40
330
1E
100
AcDbEntity
  8
0
100
AcDbLine
 10
58.5
 20
69.0
 30
0.0
 11
67.8
 21
69.0
 31
0.0
  0
LINE
  5
41
330
1E
100
AcDbEntity
  8
0
100
AcDbLine
 10
58.5
 20
69.0
 30
0.0
 11
68.59999999999999
 21
69.0
 31
0.0
  0
LINE
  5
42
330
1E
100
AcDbEntity
  8
0
100
AcDbLine
 10
91.5
 20
-0.0000000000000097
 30
0.0
 11
93.0
 21
0.4999999999999901
 31
0.0
  0
LINE
  5
43
330
1E
100
AcDbEntity
  8
0
100
AcDbLine
 10
93.0
 20
0.4999999999999901
 30
0.0
 11
94.0
 21
1.499999999999989
 31
0.0
  0
LINE
  5
44
330
1E
100
AcDbEntity
  8
0
100
AcDbLine
 10
87.09999999999999
 20
-0.0000000000000094
 30
0.0
 11
90.29999999999999
 21
-0.0000000000000096
 31
0.0
  0
LINE
  5
45
330
1E
100
AcDbEntity
  8
0
100
AcDbLine
 10
90.29999999999999
 20
-0.0000000000000096
 30
0.0
 11
91.5
 21
-0.0000000000000097
 31
0.0
  0
LINE
  5
46
330
1E
100
AcDbEntity
  8
0
100
AcDbLine
 10
93.0
 20
0.4999999999999901
 30
0.0
 11
94.0
 21
1.499999999999989
 31
0.0
  0
LINE
  5
47
330
1E
100
AcDbEntity
  8
0
100
AcDbLine
 10
91.5
 20
-0.0000000000000097
 30
0.0
 11
93.0
 21
0.4999999999999901
 31
0.0
  0
LINE
  5
48
330
1E
100
AcDbEntity
  8
0
100
AcDbLine
 10
86.4
 20
69.0
 30
0.0
 11
92.70000000000001
 21
69.0
 31
0.0
  0
LINE
  5
49
330
1E
100
AcDbEntity
  8
0
100
AcDbLine
 10
92.70000000000001
 20
69.0
 30
0.0
 11
96.6
 21
69.0
 31
0.0
  0
LINE
  5
4A
330
1E
100
AcDbEntity
  8
0
100
AcDbLine
 10
83.9
 20
69.0
 30
0.0
 11
89.7
 21
69.0
 31
0.0
  0
LINE
  5
4B
330
1E
100
AcDbEntity
  8
0
100
AcDbLine
 10
89.7
 20
69.0
 30
0.0
 11
93.2
 21
69.0
 31
0.0
  0
LINE
  5
4C
330
1E
100
AcDbEntity
  8
0
100
AcDbLine
 10
94.50000000000001
 20
2.99999999999999
 30
0.0
 11
94.50000000000001
 21
69.0
 31
0.0
  0
LINE
  5
4D
330
1E
100
AcDbEntity
  8
0
100
AcDbLine
 10
94.50000000000001
 20
2.99999999999999
 30
0.0
 11
94.50000000000001
 21
69.0
 31
0.0
  0
LINE
  5
4E
330
1E
100
AcDbEntity
  8
0
100
AcDbLine
 10
94.0
 20
1.499999999999989
 30
0.0
 11
94.50000000000001
 21
2.99999999999999
 31
0.0
  0
LINE
  5
4F
330
1E
100
AcDbEntity
  8
0
100
AcDbLine
 10
98.0
 20
69.0
 30
0.0
 11
99.0
 21
69.5
 31
0.0
  0
LINE
  5
50
330
1E
100
AcDbEntity
  8
0
100
AcDbLine
 10
96.6
 20
69.0
 30
0.0
 11
98.0
 21
69.0
 31
0.0
  0
LINE
  5
51
330
1E
100
AcDbEntity
  8
0
100
AcDbLine
 10
93.2
 20
69.0
 30
0.0
 11
94.50000000000001
 21
69.0
 31
0.0
  0
LINE
  5
52
330
1E
100
AcDbEntity
  8
0
100
AcDbLine
 10
48.39999999999999
 20
69.0
 30
0.0
 11
58.5
 21
69.0
 31
0.0
  0
LINE
  5
53
330
1E
100
AcDbEntity
  8
0
100
AcDbLine
 10
40.6
 20
69.0
 30
0.0
 11
49.2
 21
69.0
 31
0.0
  0
LINE
  5
54
330
1E
100
AcDbEntity
  8
0
100
AcDbLine
 10
23.39999999999999
 20
69.5
 30
0.0
 11
29.9
 21
69.5
 31
0.0
  0
LINE
  5
55
330
1E
100
AcDbEntity
  8
0
100
AcDbLine
 10
24.3
 20
69.0
 30
0.0
 11
30.6
 21
69.0
 31
0.0
  0
LINE
  5
56
330
1E
100
AcDbEntity
  8
0
100
AcDbLine
 10
27.3
 20
69.0
 30
0.0
 11
30.6
 21
69.0
 31
0.0
  0
LINE
  5
57
330
1E
100
AcDbEntity
  8
0
100
AcDbLine
 10
23.8
 20
69.0
 30
0.0
 11
27.3
 21
69.0
 31
0.0
  0
LINE
  5
58
330
1E
100
AcDbEntity
  8
0
100
AcDbLine
 10
29.9
 20
69.5
 30
0.0
 11
38.39999999999999
 21
69.5
 31
0.0
  0
LINE
  5
59
330
1E
100
AcDbEntity
  8
0
100
AcDbLine
 10
78.59999999999999
 20
69.5
 30
0.0
 11
87.09999999999999
 21
69.5
 31
0.0
  0
LINE
  5
5A
330
1E
100
AcDbEntity
  8
0
100
AcDbLine
 10
68.9
 20
69.5
 30
0.0
 11
78.59999999999999
 21
69.5
 31
0.0
  0
LINE
  5
5B
330
1E
100
AcDbEntity
  8
0
100
AcDbLine
 10
58.5
 20
69.5
 30
0.0
 11
68.9
 21
69.5
 31
0.0
  0
LINE
  5
5C
330
1E
100
AcDbEntity
  8
0
100
AcDbLine
 10
87.09999999999999
 20
69.5
 30
0.0
 11
93.59999999999999
 21
69.5
 31
0.0
  0
LINE
  5
5D
330
1E
100
AcDbEntity
  8
0
100
AcDbLine
 10
99.0
 20
69.5
 30
0.0
 11
99.50000000000001
 21
70.5
 31
0.0
  0
LINE
  5
5E
330
1E
100
AcDbEntity
  8
0
100
AcDbLine
 10
93.59999999999999
 20
69.5
 30
0.0
 11
97.5
 21
69.5
 31
0.0
  0
LINE
  5
5F
330
1E
100
AcDbEntity
  8
0
100
AcDbLine
 10
97.5
 20
69.5
 30
0.0
 11
99.0
 21
69.5
 31
0.0
  0
LINE
  5
60
330
1E
100
AcDbEntity
  8
0
100
AcDbLine
 10
38.39999999999999
 20
69.5
 30
0.0
 11
48.1
 21
69.5
 31
0.0
  0
LINE
  5
61
330
1E
100
AcDbEntity
  8
0
100
AcDbLine
 10
99.50000000000001
 20
70.5
 30
0.0
 11
99.50000000000001
 21
71.5
 31
0.0
  0
LINE
  5
62
330
1E
100
AcDbEntity
  8
0
100
AcDbLine
 10
48.1
 20
69.5
 30
0.0
 11
58.5
 21
69.5
 31
0.0
  0
LINE
  5
63
330
1E
100
AcDbEntity
  8
0
100
AcDbLine
 10
30.6
 20
69.0
 30
0.0
 11
38.9
 21
69.0
 31
0.0
  0
LINE
  5
64
330
1E
100
AcDbEntity
  8
0
100
AcDbLine
 10
49.2
 20
69.0
 30
0.0
 11
58.5
 21
69.0
 31
0.0
  0
LINE
  5
65
330
1E
100
AcDbEntity
  8
0
100
AcDbLine
 10
22.5
 20
69.0
 30
0.0
 11
23.8
 21
69.0
 31
0.0
  0
LINE
  5
66
330
1E
100
AcDbEntity
  8
0
100
AcDbLine
 10
99.50000000000001
 20
71.5
 30
0.0
 11
99.50000000000001
 21
70.5
 31
0.0
  0
LINE
  5
67
330
1E
100
AcDbEntity
  8
0
100
AcDbLine
 10
17.5
 20
71.5
 30
0.0
 11
18.0
 21
72.5
 31
0.0
  0
LINE
  5
68
330
1E
100
AcDbEntity
  8
0
100
AcDbLine
 10
17.5
 20
71.5
 30
0.0
 11
17.5
 21
70.5
 31
0.0
  0
LINE
  5
69
330
1E
100
AcDbEntity
  8
0
100
AcDbLine
 10
23.39999999999999
 20
72.5
 30
0.0
 11
29.9
 21
72.5
 31
0.0
  0
LINE
  5
6A
330
1E
100
AcDbEntity
  8
0
100
AcDbLine
 10
19.5
 20
72.5
 30
0.0
 11
23.39999999999999
 21
72.5
 31
0.0
  0
LINE
  5
6B
330
1E
100
AcDbEntity
  8
0
100
AcDbLine
 10
29.9
 20
72.5
 30
0.0
 11
38.39999999999999
 21
72.5
 31
0.0
  0
LINE
  5
6C
330
1E
100
AcDbEntity
  8
0
100
AcDbLine
 10
38.39999999999999
 20
72.5
 30
0.0
 11
48.1
 21
72.5
 31
0.0
  0
LINE
  5
6D
330
1E
100
AcDbEntity
  8
0
100
AcDbLine
 10
87.09999999999999
 20
72.5
 30
0.0
 11
93.59999999999999
 21
72.5
 31
0.0
  0
LINE
  5
6E
330
1E
100
AcDbEntity
  8
0
100
AcDbLine
 10
93.59999999999999
 20
72.5
 30
0.0
 11
97.5
 21
72.5
 31
0.0
  0
LINE
  5
6F
330
1E
100
AcDbEntity
  8
0
100
AcDbLine
 10
78.59999999999999
 20
72.5
 30
0.0
 11
87.09999999999999
 21
72.5
 31
0.0
  0
LINE
  5
70
330
1E
100
AcDbEntity
  8
0
100
AcDbLine
 10
68.9
 20
72.5
 30
0.0
 11
78.59999999999999
 21
72.5
 31
0.0
  0
LINE
  5
71
330
1E
100
AcDbEntity
  8
0
100
AcDbLine
 10
58.5
 20
72.5
 30
0.0
 11
68.9
 21
72.5
 31
0.0
  0
LINE
  5
72
330
1E
100
AcDbEntity
  8
0
100
AcDbLine
 10
97.5
 20
72.5
 30
0.0
 11
99.0
 21
72.5
 31
0.0
  0
LINE
  5
73
330
1E
100
AcDbEntity
  8
0
100
AcDbLine
 10
48.1
 20
72.5
 30
0.0
 11
58.5
 21
72.5
 31
0.0
  0
LINE
  5
74
330
1E
100
AcDbEntity
  8
0
100
AcDbLine
 10
77.9
 20
73.0
 30
0.0
 11
86.0
 21
73.0
 31
0.0
  0
LINE
  5
75
330
1E
100
AcDbEntity
  8
0
100
AcDbLine
 10
68.5
 20
73.0
 30
0.0
 11
77.9
 21
73.0
 31
0.0
  0
LINE
  5
76
330
1E
100
AcDbEntity
  8
0
100
AcDbLine
 10
58.5
 20
73.0
 30
0.0
 11
68.5
 21
73.0
 31
0.0
  0
LINE
  5
77
330
1E
100
AcDbEntity
  8
0
100
AcDbLine
 10
86.0
 20
73.0
 30
0.0
 11
92.3
 21
73.0
 31
0.0
  0
LINE
  5
78
330
1E
100
AcDbEntity
  8
0
100
AcDbLine
 10
92.3
 20
73.0
 30
0.0
 11
96.09999999999999
 21
73.0
 31
0.0
  0
LINE
  5
79
330
1E
100
AcDbEntity
  8
0
100
AcDbLine
 10
97.5
 20
73.0
 30
0.0
 11
99.0
 21
72.5
 31
0.0
  0
LINE
  5
7A
330
1E
100
AcDbEntity
  8
0
100
AcDbLine
 10
97.5
 20
73.0
 30
0.0
 11
97.5
 21
74.01428571428571
 31
0.0
  0
LINE
  5
7B
330
1E
100
AcDbEntity
  8
0
100
AcDbLine
 10
96.09999999999999
 20
73.0
 30
0.0
 11
97.5
 21
73.0
 31
0.0
  0
LINE
  5
7C
330
1E
100
AcDbEntity
  8
0
100
AcDbLine
 10
39.1
 20
73.0
 30
0.0
 11
48.5
 21
73.0
 31
0.0
  0
LINE
  5
7D
330
1E
100
AcDbEntity
  8
0
100
AcDbLine
 10
24.7
 20
73.0
 30
0.0
 11
31.0
 21
73.0
 31
0.0
  0
LINE
  5
7E
330
1E
100
AcDbEntity
  8
0
100
AcDbLine
 10
20.89999999999999
 20
73.0
 30
0.0
 11
24.7
 21
73.0
 31
0.0
  0
LINE
  5
7F
330
1E
100
AcDbEntity
  8
0
100
AcDbLine
 10
31.0
 20
73.0
 30
0.0
 11
39.1
 21
73.0
 31
0.0
  0
LINE
  5
80
330
1E
100
AcDbEntity
  8
0
100
AcDbLine
 10
48.5
 20
73.0
 30
0.0
 11
58.5
 21
73.0
 31
0.0
  0
LINE
  5
81
330
1E
100
AcDbEntity
  8
0
100
AcDbLine
 10
19.5
 20
73.0
 30
0.0
 11
19.5
 21
85.0
 31
0.0
  0
LINE
  5
82
330
1E
100
AcDbEntity
  8
0
100
AcDbLine
 10
19.5
 20
73.0
 30
0.0
 11
20.89999999999999
 21
73.0
 31
0.0
  0
LINE
  5
83
330
1E
100
AcDbEntity
  8
0
100
AcDbLine
 10
18.0
 20
72.5
 30
0.0
 11
19.5
 21
73.0
 31
0.0
  0
LINE
  5
84
330
1E
100
AcDbEntity
  8
0
100
AcDbLine
 10
18.0
 20
72.5
 30
0.0
 11
19.5
 21
72.5
 31
0.0
  0
LINE
  5
85
330
1E
100
AcDbEntity
  8
0
100
AcDbLine
 10
99.0
 20
72.5
 30
0.0
 11
99.50000000000001
 21
71.5
 31
0.0
  0
LINE
  5
86
330
1E
100
AcDbEntity
  8
0
100
AcDbLine
 10
97.5
 20
74.0
 30
0.0
 11
104.0
 21
74.0
 31
0.0
  0
LINE
  5
87
330
1E
100
AcDbEntity
  8
0
100
AcDbLine
 10
97.5
 20
74.01428571428571
 30
0.0
 11
97.5
 21
73.0
 31
0.0
  0
LINE
  5
88
330
1E
100
AcDbEntity
  8
0
100
AcDbLine
 10
104.0
 20
74.2
 30
0.0
 11
104.0
 21
74.7
 31
0.0
  0
LINE
  5
89
330
1E
100
AcDbEntity
  8
0
100
AcDbLine
 10
104.0
 20
74.7
 30
0.0
 11
104.0
 21
75.5
 31
0.0
  0
LINE
  5
8A
330
1E
100
AcDbEntity
  8
0
100
AcDbLine
 10
104.0
 20
75.5
 30
0.0
 11
104.0
 21
76.5
 31
0.0
  0
LINE
  5
8B
330
1E
100
AcDbEntity
  8
0
100
AcDbLine
 10
104.0
 20
76.5
 30
0.0
 11
104.0
 21
77.7
 31
0.0
  0
LINE
  5
8C
330
1E
100
AcDbEntity
  8
0
100
AcDbLine
 10
104.0
 20
83.8
 30
0.0
 11
104.0
 21
84.0
 31
0.0
  0
LINE
  5
8D
330
1E
100
AcDbEntity
  8
0
100
AcDbLine
 10
104.0
 20
83.3
 30
0.0
 11
104.0
 21
83.8
 31
0.0
  0
LINE
  5
8E
330
1E
100
AcDbEntity
  8
0
100
AcDbLine
 10
104.0
 20
82.5
 30
0.0
 11
104.0
 21
83.3
 31
0.0
  0
LINE
  5
8F
330
1E
100
AcDbEntity
  8
0
100
AcDbLine
 10
104.0
 20
81.5
 30
0.0
 11
104.0
 21
82.5
 31
0.0
  0
LINE
  5
90
330
1E
100
AcDbEntity
  8
0
100
AcDbLine
 10
104.0
 20
80.29999999999999
 30
0.0
 11
104.0
 21
81.5
 31
0.0
  0
LINE
  5
91
330
1E
100
AcDbEntity
  8
0
100
AcDbLine
 10
104.0
 20
79.0
 30
0.0
 11
104.0
 21
80.29999999999999
 31
0.0
  0
LINE
  5
92
330
1E
100
AcDbEntity
  8
0
100
AcDbLine
 10
104.0
 20
77.7
 30
0.0
 11
104.0
 21
79.0
 31
0.0
  0
LINE
  5
93
330
1E
100
AcDbEntity
  8
0
100
AcDbLine
 10
97.5
 20
84.0
 30
0.0
 11
97.5
 21
85.0
 31
0.0
  0
LINE
  5
94
330
1E
100
AcDbEntity
  8
0
100
AcDbLine
 10
97.5
 20
84.0
 30
0.0
 11
104.0
 21
84.0
 31
0.0
  0
LINE
  5
95
330
1E
100
AcDbEntity
  8
0
100
AcDbLine
 10
24.7
 20
85.0
 30
0.0
 11
31.0
 21
85.0
 31
0.0
  0
LINE
  5
96
330
1E
100
AcDbEntity
  8
0
100
AcDbLine
 10
20.89999999999999
 20
85.0
 30
0.0
 11
24.7
 21
85.0
 31
0.0
  0
LINE
  5
97
330
1E
100
AcDbEntity
  8
0
100
AcDbLine
 10
19.5
 20
85.0
 30
0.0
 11
20.89999999999999
 21
85.0
 31
0.0
  0
LINE
  5
98
330
1E
100
AcDbEntity
  8
0
100
AcDbLine
 10
19.5
 20
85.0
 30
0.0
 11
19.5
 21
73.0
 31
0.0
  0
LINE
  5
99
330
1E
100
AcDbEntity
  8
0
100
AcDbLine
 10
31.0
 20
85.0
 30
0.0
 11
39.1
 21
85.0
 31
0.0
  0
LINE
  5
9A
330
1E
100
AcDbEntity
  8
0
100
AcDbLine
 10
77.9
 20
85.0
 30
0.0
 11
86.0
 21
85.0
 31
0.0
  0
LINE
  5
9B
330
1E
100
AcDbEntity
  8
0
100
AcDbLine
 10
68.5
 20
85.0
 30
0.0
 11
77.9
 21
85.0
 31
0.0
  0
LINE
  5
9C
330
1E
100
AcDbEntity
  8
0
100
AcDbLine
 10
58.5
 20
85.0
 30
0.0
 11
68.5
 21
85.0
 31
0.0
  0
LINE
  5
9D
330
1E
100
AcDbEntity
  8
0
100
AcDbLine
 10
86.0
 20
85.0
 30
0.0
 11
92.3
 21
85.0
 31
0.0
  0
LINE
  5
9E
330
1E
100
AcDbEntity
  8
0
100
AcDbLine
 10
97.5
 20
85.0
 30
0.0
 11
99.0
 21
85.5
 31
0.0
  0
LINE
  5
9F
330
1E
100
AcDbEntity
  8
0
100
AcDbLine
 10
97.5
 20
85.0
 30
0.0
 11
97.5
 21
84.0
 31
0.0
  0
LINE
  5
A0
330
1E
100
AcDbEntity
  8
0
100
AcDbLine
 10
92.3
 20
85.0
 30
0.0
 11
96.09999999999999
 21
85.0
 31
0.0
  0
LINE
  5
A1
330
1E
100
AcDbEntity
  8
0
100
AcDbLine
 10
96.09999999999999
 20
85.0
 30
0.0
 11
97.5
 21
85.0
 31
0.0
  0
LINE
  5
A2
330
1E
100
AcDbEntity
  8
0
100
AcDbLine
 10
39.1
 20
85.0
 30
0.0
 11
48.5
 21
85.0
 31
0.0
  0
LINE
  5
A3
330
1E
100
AcDbEntity
  8
0
100
AcDbLine
 10
23.39999999999999
 20
85.5
 30
0.0
 11
29.9
 21
85.5
 31
0.0
  0
LINE
  5
A4
330
1E
100
AcDbEntity
  8
0
100
AcDbLine
 10
19.5
 20
85.5
 30
0.0
 11
23.39999999999999
 21
85.5
 31
0.0
  0
LINE
  5
A5
330
1E
100
AcDbEntity
  8
0
100
AcDbLine
 10
29.9
 20
85.5
 30
0.0
 11
38.39999999999999
 21
85.5
 31
0.0
  0
LINE
  5
A6
330
1E
100
AcDbEntity
  8
0
100
AcDbLine
 10
38.39999999999999
 20
85.5
 30
0.0
 11
48.1
 21
85.5
 31
0.0
  0
LINE
  5
A7
330
1E
100
AcDbEntity
  8
0
100
AcDbLine
 10
78.59999999999999
 20
85.5
 30
0.0
 11
87.09999999999999
 21
85.5
 31
0.0
  0
LINE
  5
A8
330
1E
100
AcDbEntity
  8
0
100
AcDbLine
 10
68.9
 20
85.5
 30
0.0
 11
78.59999999999999
 21
85.5
 31
0.0
  0
LINE
  5
A9
330
1E
100
AcDbEntity
  8
0
100
AcDbLine
 10
58.5
 20
85.5
 30
0.0
 11
68.9
 21
85.5
 31
0.0
  0
LINE
  5
AA
330
1E
100
AcDbEntity
  8
0
100
AcDbLine
 10
87.09999999999999
 20
85.5
 30
0.0
 11
93.59999999999999
 21
85.5
 31
0.0
  0
LINE
  5
AB
330
1E
100
AcDbEntity
  8
0
100
AcDbLine
 10
93.59999999999999
 20
85.5
 30
0.0
 11
97.5
 21
85.5
 31
0.0
  0
LINE
  5
AC
330
1E
100
AcDbEntity
  8
0
100
AcDbLine
 10
97.5
 20
85.5
 30
0.0
 11
99.0
 21
85.5
 31
0.0
  0
LINE
  5
AD
330
1E
100
AcDbEntity
  8
0
100
AcDbLine
 10
99.0
 20
85.5
 30
0.0
 11
99.50000000000001
 21
86.5
 31
0.0
  0
LINE
  5
AE
330
1E
100
AcDbEntity
  8
0
100
AcDbLine
 10
48.1
 20
85.5
 30
0.0
 11
58.5
 21
85.5
 31
0.0
  0
LINE
  5
AF
330
1E
100
AcDbEntity
  8
0
100
AcDbLine
 10
48.5
 20
85.0
 30
0.0
 11
58.5
 21
85.0
 31
0.0
  0
LINE
  5
B0
330
1E
100
AcDbEntity
  8
0
100
AcDbLine
 10
18.0
 20
85.5
 30
0.0
 11
19.5
 21
85.0
 31
0.0
  0
LINE
  5
B1
330
1E
100
AcDbEntity
  8
0
100
AcDbLine
 10
18.0
 20
85.5
 30
0.0
 11
19.5
 21
85.5
 31
0.0
  0
LINE
  5
B2
330
1E
100
AcDbEntity
  8
0
100
AcDbLine
 10
104.0
 20
84.0
 30
0.0
 11
104.0
 21
85.09999999999999
 31
0.0
  0
LINE
  5
B3
330
1E
100
AcDbEntity
  8
0
100
AcDbLine
 10
104.0
 20
85.09999999999999
 30
0.0
 11
104.0
 21
84.0
 31
0.0
  0
LINE
  5
B4
330
1E
100
AcDbEntity
  8
0
100
AcDbLine
 10
104.0
 20
85.09999999999999
 30
0.0
 11
104.0
 21
85.7
 31
0.0
  0
LINE
  5
B5
330
1E
100
AcDbEntity
  8
0
100
AcDbLine
 10
17.5
 20
86.5
 30
0.0
 11
17.5
 21
87.5
 31
0.0
  0
LINE
  5
B6
330
1E
100
AcDbEntity
  8
0
100
AcDbLine
 10
17.5
 20
86.5
 30
0.0
 11
18.0
 21
85.5
 31
0.0
  0
LINE
  5
B7
330
1E
100
AcDbEntity
  8
0
100
AcDbLine
 10
0.00000000000001
 20
147.9
 30
0.0
 11
0.39532000000001
 21
147.476
 31
0.0
  0
LINE
  5
B8
330
1E
100
AcDbEntity
  8
0
100
AcDbLine
 10
0.00000000000001
 20
148.0
 30
0.0
 11
16.44299999999999
 21
146.555
 31
0.0
  0
LINE
  5
B9
330
1E
100
AcDbEntity
  8
0
100
AcDbLine
 10
0.00000000000001
 20
147.9
 30
0.0
 11
0.00000000000001
 21
148.0
 31
0.0
  0
LINE
  5
BA
330
1E
100
AcDbEntity
  8
0
100
AcDbLine
 10
0.9727520000000099
 20
146.726
 30
0.0
 11
1.61261000000001
 21
145.867
 31
0.0
  0
LINE
  5
BB
330
1E
100
AcDbEntity
  8
0
100
AcDbLine
 10
1.61261000000001
 20
145.867
 30
0.0
 11
2.424140000000009
 21
144.7899999999999
 31
0.0
  0
LINE
  5
BC
330
1E
100
AcDbEntity
  8
0
100
AcDbLine
 10
2.424140000000009
 20
144.7899999999999
 30
0.0
 11
3.188840000000009
 21
143.7589999999999
 31
0.0
  0
LINE
  5
BD
330
1E
100
AcDbEntity
  8
0
100
AcDbLine
 10
0.39532000000001
 20
147.476
 30
0.0
 11
0.9727520000000099
 21
146.726
 31
0.0
  0
LINE
  5
BE
330
1E
100
AcDbEntity
  8
0
100
AcDbLine
 10
0.0000000000000094
 20
148.0
 30
0.0
 11
16.44299999999999
 21
146.555
 31
0.0
  0
LINE
  5
BF
330
1E
100
AcDbEntity
  8
0
100
AcDbLine
 10
15.5
 20
104.4999999999999
 30
0.0
 11
16.5
 21
105.4999999999999
 31
0.0
  0
LINE
  5
C0
330
1E
100
AcDbEntity
  8
0
100
AcDbLine
 10
15.0
 20
103.0
 30
0.0
 11
15.5
 21
101.5
 31
0.0
  0
LINE
  5
C1
330
1E
100
AcDbEntity
  8
0
100
AcDbLine
 10
15.0
 20
103.0
 30
0.0
 11
15.5
 21
104.4999999999999
 31
0.0
  0
LINE
  5
C2
330
1E
100
AcDbEntity
  8
0
100
AcDbLine
 10
15.0
 20
103.0
 30
0.0
 11
16.6
 21
103.0
 31
0.0
  0
LINE
  5
C3
330
1E
100
AcDbEntity
  8
0
100
AcDbLine
 10
15.5
 20
101.5
 30
0.0
 11
16.5
 21
100.5
 31
0.0
  0
LINE
  5
C4
330
1E
100
AcDbEntity
  8
0
100
AcDbLine
 10
18.0
 20
106.0
 30
0.0
 11
19.5
 21
106.0
 31
0.0
  0
LINE
  5
C5
330
1E
100
AcDbEntity
  8
0
100
AcDbLine
 10
16.6
 20
103.0
 30
0.0
 11
20.8
 21
103.0
 31
0.0
  0
LINE
  5
C6
330
1E
100
AcDbEntity
  8
0
100
AcDbLine
 10
16.5
 20
105.4999999999999
 30
0.0
 11
18.0
 21
106.0
 31
0.0
  0
LINE
  5
C7
330
1E
100
AcDbEntity
  8
0
100
AcDbLine
 10
16.5
 20
100.5
 30
0.0
 11
18.5
 21
99.0
 31
0.0
  0
LINE
  5
C8
330
1E
100
AcDbEntity
  8
0
100
AcDbLine
 10
16.00789999999999
 20
138.567
 30
0.0
 11
31.9484
 21
135.7679999999999
 31
0.0
  0
LINE
  5
C9
330
1E
100
AcDbEntity
  8
0
100
AcDbLine
 10
5.498570000000009
 20
140.714
 30
0.0
 11
6.076010000000009
 21
139.965
 31
0.0
  0
LINE
  5
CA
330
1E
100
AcDbEntity
  8
0
100
AcDbLine
 10
6.076010000000009
 20
139.965
 30
0.0
 11
6.356920000000009
 21
139.543
 31
0.0
  0
LINE
  5
CB
330
1E
100
AcDbEntity
  8
0
100
AcDbLine
 10
6.356920000000009
 20
139.543
 30
0.0
 11
6.434950000000009
 21
139.4339999999999
 31
0.0
  0
LINE
  5
CC
330
1E
100
AcDbEntity
  8
0
100
AcDbLine
 10
6.434950000000009
 20
139.4339999999999
 30
0.0
 11
16.00789999999999
 21
138.567
 31
0.0
  0
LINE
  5
CD
330
1E
100
AcDbEntity
  8
0
100
AcDbLine
 10
4.843110000000009
 20
141.589
 30
0.0
 11
5.498570000000009
 21
140.714
 31
0.0
  0
LINE
  5
CE
330
1E
100
AcDbEntity
  8
0
100
AcDbLine
 10
16.44299999999999
 20
146.555
 30
0.0
 11
33.1706
 21
143.674
 31
0.0
  0
LINE
  5
CF
330
1E
100
AcDbEntity
  8
0
100
AcDbLine
 10
4.015980000000009
 20
142.682
 30
0.0
 11
4.843110000000009
 21
141.589
 31
0.0
  0
LINE
  5
D0
330
1E
100
AcDbEntity
  8
0
100
AcDbLine
 10
3.188840000000009
 20
143.7589999999999
 30
0.0
 11
4.015980000000009
 21
142.682
 31
0.0
  0
LINE
  5
D1
330
1E
100
AcDbEntity
  8
0
100
AcDbLine
 10
17.5
 20
87.5
 30
0.0
 11
18.0
 21
88.49999999999999
 31
0.0
  0
LINE
  5
D2
330
1E
100
AcDbEntity
  8
0
100
AcDbLine
 10
17.5
 20
87.5
 30
0.0
 11
17.5
 21
86.5
 31
0.0
  0
LINE
  5
D3
330
1E
100
AcDbEntity
  8
0
100
AcDbLine
 10
23.39999999999999
 20
88.49999999999999
 30
0.0
 11
29.9
 21
88.49999999999999
 31
0.0
  0
LINE
  5
D4
330
1E
100
AcDbEntity
  8
0
100
AcDbLine
 10
19.5
 20
88.49999999999999
 30
0.0
 11
23.39999999999999
 21
88.49999999999999
 31
0.0
  0
LINE
  5
D5
330
1E
100
AcDbEntity
  8
0
100
AcDbLine
 10
24.3
 20
89.0
 30
0.0
 11
30.6
 21
89.0
 31
0.0
  0
LINE
  5
D6
330
1E
100
AcDbEntity
  8
0
100
AcDbLine
 10
20.4
 20
89.0
 30
0.0
 11
24.3
 21
89.0
 31
0.0
  0
LINE
  5
D7
330
1E
100
AcDbEntity
  8
0
100
AcDbLine
 10
19.0
 20
89.0
 30
0.0
 11
20.4
 21
89.0
 31
0.0
  0
LINE
  5
D8
330
1E
100
AcDbEntity
  8
0
100
AcDbLine
 10
29.9
 20
88.49999999999999
 30
0.0
 11
38.39999999999999
 21
88.49999999999999
 31
0.0
  0
LINE
  5
D9
330
1E
100
AcDbEntity
  8
0
100
AcDbLine
 10
38.39999999999999
 20
88.49999999999999
 30
0.0
 11
48.1
 21
88.49999999999999
 31
0.0
  0
LINE
  5
DA
330
1E
100
AcDbEntity
  8
0
100
AcDbLine
 10
30.6
 20
89.0
 30
0.0
 11
38.9
 21
89.0
 31
0.0
  0
LINE
  5
DB
330
1E
100
AcDbEntity
  8
0
100
AcDbLine
 10
78.59999999999999
 20
88.49999999999999
 30
0.0
 11
87.09999999999999
 21
88.49999999999999
 31
0.0
  0
LINE
  5
DC
330
1E
100
AcDbEntity
  8
0
100
AcDbLine
 10
68.9
 20
88.49999999999999
 30
0.0
 11
78.59999999999999
 21
88.49999999999999
 31
0.0
  0
LINE
  5
DD
330
1E
100
AcDbEntity
  8
0
100
AcDbLine
 10
58.5
 20
88.49999999999999
 30
0.0
 11
68.9
 21
88.49999999999999
 31
0.0
  0
LINE
  5
DE
330
1E
100
AcDbEntity
  8
0
100
AcDbLine
 10
87.09999999999999
 20
88.49999999999999
 30
0.0
 11
93.59999999999999
 21
88.49999999999999
 31
0.0
  0
LINE
  5
DF
330
1E
100
AcDbEntity
  8
0
100
AcDbLine
 10
93.59999999999999
 20
88.49999999999999
 30
0.0
 11
97.5
 21
88.49999999999999
 31
0.0
  0
LINE
  5
E0
330
1E
100
AcDbEntity
  8
0
100
AcDbLine
 10
99.50000000000001
 20
87.5
 30
0.0
 11
99.50000000000001
 21
86.5
 31
0.0
  0
LINE
  5
E1
330
1E
100
AcDbEntity
  8
0
100
AcDbLine
 10
99.50000000000001
 20
86.5
 30
0.0
 11
99.50000000000001
 21
87.5
 31
0.0
  0
LINE
  5
E2
330
1E
100
AcDbEntity
  8
0
100
AcDbLine
 10
99.0
 20
88.49999999999999
 30
0.0
 11
99.50000000000001
 21
87.5
 31
0.0
  0
LINE
  5
E3
330
1E
100
AcDbEntity
  8
0
100
AcDbLine
 10
97.5
 20
88.49999999999999
 30
0.0
 11
99.0
 21
88.49999999999999
 31
0.0
  0
LINE
  5
E4
330
1E
100
AcDbEntity
  8
0
100
AcDbLine
 10
78.09999999999999
 20
89.0
 30
0.0
 11
86.4
 21
89.0
 31
0.0
  0
LINE
  5
E5
330
1E
100
AcDbEntity
  8
0
100
AcDbLine
 10
68.59999999999999
 20
89.0
 30
0.0
 11
78.09999999999999
 21
89.0
 31
0.0
  0
LINE
  5
E6
330
1E
100
AcDbEntity
  8
0
100
AcDbLine
 10
58.5
 20
89.0
 30
0.0
 11
68.59999999999999
 21
89.0
 31
0.0
  0
LINE
  5
E7
330
1E
100
AcDbEntity
  8
0
100
AcDbLine
 10
94.50000000000001
 20
89.0
 30
0.0
 11
96.0
 21
89.50000000000001
 31
0.0
  0
LINE
  5
E8
330
1E
100
AcDbEntity
  8
0
100
AcDbLine
 10
86.4
 20
89.0
 30
0.0
 11
92.70000000000001
 21
89.0
 31
0.0
  0
LINE
  5
E9
330
1E
100
AcDbEntity
  8
0
100
AcDbLine
 10
92.70000000000001
 20
89.0
 30
0.0
 11
96.6
 21
89.0
 31
0.0
  0
LINE
  5
EA
330
1E
100
AcDbEntity
  8
0
100
AcDbLine
 10
98.0
 20
89.0
 30
0.0
 11
99.0
 21
88.49999999999999
 31
0.0
  0
LINE
  5
EB
330
1E
100
AcDbEntity
  8
0
100
AcDbLine
 10
96.6
 20
89.0
 30
0.0
 11
98.0
 21
89.0
 31
0.0
  0
LINE
  5
EC
330
1E
100
AcDbEntity
  8
0
100
AcDbLine
 10
48.1
 20
88.49999999999999
 30
0.0
 11
58.5
 21
88.49999999999999
 31
0.0
  0
LINE
  5
ED
330
1E
100
AcDbEntity
  8
0
100
AcDbLine
 10
38.9
 20
89.0
 30
0.0
 11
48.39999999999999
 21
89.0
 31
0.0
  0
LINE
  5
EE
330
1E
100
AcDbEntity
  8
0
100
AcDbLine
 10
19.5
 20
106.0
 30
0.0
 11
23.39999999999999
 21
106.0
 31
0.0
  0
LINE
  5
EF
330
1E
100
AcDbEntity
  8
0
100
AcDbLine
 10
18.5
 20
99.0
 30
0.0
 11
20.0
 21
96.5
 31
0.0
  0
LINE
  5
F0
330
1E
100
AcDbEntity
  8
0
100
AcDbLine
 10
20.8
 20
103.0
 30
0.0
 11
27.8
 21
103.0
 31
0.0
  0
LINE
  5
F1
330
1E
100
AcDbEntity
  8
0
100
AcDbLine
 10
20.5
 20
94.0
 30
0.0
 11
20.5
 21
91.0
 31
0.0
  0
LINE
  5
F2
330
1E
100
AcDbEntity
  8
0
100
AcDbLine
 10
20.0
 20
96.5
 30
0.0
 11
20.5
 21
94.0
 31
0.0
  0
LINE
  5
F3
330
1E
100
AcDbEntity
  8
0
100
AcDbLine
 10
20.5
 20
91.0
 30
0.0
 11
21.0
 21
89.50000000000001
 31
0.0
  0
LINE
  5
F4
330
1E
100
AcDbEntity
  8
0
100
AcDbLine
 10
20.5
 20
91.0
 30
0.0
 11
20.5
 21
94.0
 31
0.0
  0
LINE
  5
F5
330
1E
100
AcDbEntity
  8
0
100
AcDbLine
 10
32.0
 20
89.50000000000001
 30
0.0
 11
39.9
 21
89.50000000000001
 31
0.0
  0
LINE
  5
F6
330
1E
100
AcDbEntity
  8
0
100
AcDbLine
 10
39.9
 20
89.50000000000001
 30
0.0
 11
48.9
 21
89.50000000000001
 31
0.0
  0
LINE
  5
F7
330
1E
100
AcDbEntity
  8
0
100
AcDbLine
 10
26.0
 20
89.50000000000001
 30
0.0
 11
32.0
 21
89.50000000000001
 31
0.0
  0
LINE
  5
F8
330
1E
100
AcDbEntity
  8
0
100
AcDbLine
 10
27.8
 20
103.0
 30
0.0
 11
36.89999999999999
 21
103.0
 31
0.0
  0
LINE
  5
F9
330
1E
100
AcDbEntity
  8
0
100
AcDbLine
 10
36.89999999999999
 20
103.0
 30
0.0
 11
47.29999999999999
 21
103.0
 31
0.0
  0
LINE
  5
FA
330
1E
100
AcDbEntity
  8
0
100
AcDbLine
 10
29.9
 20
106.0
 30
0.0
 11
38.39999999999999
 21
106.0
 31
0.0
  0
LINE
  5
FB
330
1E
100
AcDbEntity
  8
0
100
AcDbLine
 10
38.39999999999999
 20
106.0
 30
0.0
 11
48.1
 21
106.0
 31
0.0
  0
LINE
  5
FC
330
1E
100
AcDbEntity
  8
0
100
AcDbLine
 10
23.39999999999999
 20
106.0
 30
0.0
 11
29.9
 21
106.0
 31
0.0
  0
LINE
  5
FD
330
1E
100
AcDbEntity
  8
0
100
AcDbLine
 10
22.39999999999999
 20
89.50000000000001
 30
0.0
 11
26.0
 21
89.50000000000001
 31
0.0
  0
LINE
  5
FE
330
1E
100
AcDbEntity
  8
0
100
AcDbLine
 10
21.0
 20
89.50000000000001
 30
0.0
 11
22.5
 21
89.0
 31
0.0
  0
LINE
  5
FF
330
1E
100
AcDbEntity
  8
0
100
AcDbLine
 10
21.0
 20
89.50000000000001
 30
0.0
 11
22.39999999999999
 21
89.50000000000001
 31
0.0
  0
LINE
  5
100
330
1E
100
AcDbEntity
  8
0
100
AcDbLine
 10
34.1
 20
109.0
 30
0.0
 11
41.39999999999999
 21
109.0
 31
0.0
  0
LINE
  5
101
330
1E
100
AcDbEntity
  8
0
100
AcDbLine
 10
41.39999999999999
 20
109.0
 30
0.0
 11
49.6
 21
109.0
 31
0.0
  0
LINE
  5
102
330
1E
100
AcDbEntity
  8
0
100
AcDbLine
 10
28.6
 20
109.0
 30
0.0
 11
34.1
 21
109.0
 31
0.0
  0
LINE
  5
103
330
1E
100
AcDbEntity
  8
0
100
AcDbLine
 10
25.2
 20
109.0
 30
0.0
 11
28.6
 21
109.0
 31
0.0
  0
LINE
  5
104
330
1E
100
AcDbEntity
  8
0
100
AcDbLine
 10
24.0
 20
109.0
 30
0.0
 11
25.2
 21
109.0
 31
0.0
  0
LINE
  5
105
330
1E
100
AcDbEntity
  8
0
100
AcDbLine
 10
45.89999999999999
 20
110.4999999999999
 30
0.0
 11
48.3
 21
110.4999999999999
 31
0.0
  0
LINE
  5
106
330
1E
100
AcDbEntity
  8
0
100
AcDbLine
 10
44.5
 20
110.4999999999999
 30
0.0
 11
45.89999999999999
 21
110.4999999999999
 31
0.0
  0
LINE
  5
107
330
1E
100
AcDbEntity
  8
0
100
AcDbLine
 10
46.0
 20
111.0
 30
0.0
 11
47.2
 21
111.0
 31
0.0
  0
LINE
  5
108
330
1E
100
AcDbEntity
  8
0
100
AcDbLine
 10
45.49999999999999
 20
111.0
 30
0.0
 11
46.0
 21
111.0
 31
0.0
  0
LINE
  5
109
330
1E
100
AcDbEntity
  8
0
100
AcDbLine
 10
44.0
 20
110.4999999999999
 30
0.0
 11
45.49999999999999
 21
111.0
 31
0.0
  0
LINE
  5
10A
330
1E
100
AcDbEntity
  8
0
100
AcDbLine
 10
44.0
 20
110.4999999999999
 30
0.0
 11
44.5
 21
110.4999999999999
 31
0.0
  0
LINE
  5
10B
330
1E
100
AcDbEntity
  8
0
100
AcDbLine
 10
43.5
 20
109.0
 30
0.0
 11
44.0
 21
110.4999999999999
 31
0.0
  0
LINE
  5
10C
330
1E
100
AcDbEntity
  8
0
100
AcDbLine
 10
22.5
 20
108.4999999999999
 30
0.0
 11
24.0
 21
109.0
 31
0.0
  0
LINE
  5
10D
330
1E
100
AcDbEntity
  8
0
100
AcDbLine
 10
21.49999999999999
 20
107.4999999999999
 30
0.0
 11
22.5
 21
108.4999999999999
 31
0.0
  0
LINE
  5
10E
330
1E
100
AcDbEntity
  8
0
100
AcDbLine
 10
21.0
 20
106.0
 30
0.0
 11
21.49999999999999
 21
107.4999999999999
 31
0.0
  0
LINE
  5
10F
330
1E
100
AcDbEntity
  8
0
100
AcDbLine
 10
47.0
 20
116.514
 30
0.0
 11
47.0
 21
111.0
 31
0.0
  0
LINE
  5
110
330
1E
100
AcDbEntity
  8
0
100
AcDbLine
 10
47.0
 20
116.514
 30
0.0
 11
47.4
 21
116.514
 31
0.0
  0
LINE
  5
111
330
1E
100
AcDbEntity
  8
0
100
AcDbLine
 10
46.0
 20
116.514
 30
0.0
 11
47.0
 21
116.514
 31
0.0
  0
LINE
  5
112
330
1E
100
AcDbEntity
  8
0
100
AcDbLine
 10
46.0
 20
116.514
 30
0.0
 11
47.2
 21
116.514
 31
0.0
  0
LINE
  5
113
330
1E
100
AcDbEntity
  8
0
100
AcDbLine
 10
31.9484
 20
135.7679999999999
 30
0.0
 11
42.96307149388449
 21
133.3933729712019
 31
0.0
  0
LINE
  5
114
330
1E
100
AcDbEntity
  8
0
100
AcDbLine
 10
33.1706
 20
143.674
 30
0.0
 11
42.5
 21
141.6627112743529
 31
0.0
  0
LINE
  5
115
330
1E
100
AcDbEntity
  8
0
100
AcDbLine
 10
42.5
 20
142.703
 30
0.0
 11
44.5
 21
143.622
 31
0.0
  0
LINE
  5
116
330
1E
100
AcDbEntity
  8
0
100
AcDbLine
 10
42.5
 20
142.703
 30
0.0
 11
42.5
 21
141.6627112743529
 31
0.0
  0
LINE
  5
117
330
1E
100
AcDbEntity
  8
0
100
AcDbLine
 10
42.5
 20
142.703
 30
0.0
 11
43.1
 21
142.703
 31
0.0
  0
LINE
  5
118
330
1E
100
AcDbEntity
  8
0
100
AcDbLine
 10
42.5
 20
141.6627112743529
 30
0.0
 11
42.5
 21
142.703
 31
0.0
  0
LINE
  5
119
330
1E
100
AcDbEntity
  8
0
100
AcDbLine
 10
43.1
 20
142.703
 30
0.0
 11
44.59999999999999
 21
142.703
 31
0.0
  0
LINE
  5
11A
330
1E
100
AcDbEntity
  8
0
100
AcDbLine
 10
42.96078250546379
 20
133.414408774788
 30
0.0
 11
43.0
 21
133.054
 31
0.0
  0
LINE
  5
11B
330
1E
100
AcDbEntity
  8
0
100
AcDbLine
 10
43.0
 20
133.054
 30
0.0
 11
44.0
 21
123.405
 31
0.0
  0
LINE
  5
11C
330
1E
100
AcDbEntity
  8
0
100
AcDbLine
 10
44.59999999999999
 20
142.703
 30
0.0
 11
47.2
 21
142.703
 31
0.0
  0
LINE
  5
11D
330
1E
100
AcDbEntity
  8
0
100
AcDbLine
 10
44.5
 20
143.622
 30
0.0
 11
50.5
 21
144.54
 31
0.0
  0
LINE
  5
11E
330
1E
100
AcDbEntity
  8
0
100
AcDbLine
 10
44.0
 20
123.405
 30
0.0
 11
45.49999999999999
 21
116.514
 31
0.0
  0
LINE
  5
11F
330
1E
100
AcDbEntity
  8
0
100
AcDbLine
 10
45.49999999999999
 20
116.514
 30
0.0
 11
46.0
 21
116.514
 31
0.0
  0
LINE
  5
120
330
1E
100
AcDbEntity
  8
0
100
AcDbLine
 10
47.29999999999999
 20
103.0
 30
0.0
 11
58.5
 21
103.0
 31
0.0
  0
LINE
  5
121
330
1E
100
AcDbEntity
  8
0
100
AcDbLine
 10
47.2
 20
111.0
 30
0.0
 11
49.29999999999999
 21
111.0
 31
0.0
  0
LINE
  5
122
330
1E
100
AcDbEntity
  8
0
100
AcDbLine
 10
47.2
 20
142.703
 30
0.0
 11
50.5
 21
142.703
 31
0.0
  0
LINE
  5
123
330
1E
100
AcDbEntity
  8
0
100
AcDbLine
 10
47.2
 20
116.514
 30
0.0
 11
49.29999999999999
 21
116.514
 31
0.0
  0
LINE
  5
124
330
1E
100
AcDbEntity
  8
0
100
AcDbLine
 10
48.9
 20
89.50000000000001
 30
0.0
 11
58.5
 21
89.50000000000001
 31
0.0
  0
LINE
  5
125
330
1E
100
AcDbEntity
  8
0
100
AcDbLine
 10
49.29999999999999
 20
111.0
 30
0.0
 11
52.0
 21
111.0
 31
0.0
  0
LINE
  5
126
330
1E
100
AcDbEntity
  8
0
100
AcDbLine
 10
48.3
 20
110.4999999999999
 30
0.0
 11
51.29999999999999
 21
110.4999999999999
 31
0.0
  0
LINE
  5
127
330
1E
100
AcDbEntity
  8
0
100
AcDbLine
 10
49.6
 20
109.0
 30
0.0
 11
58.5
 21
109.0
 31
0.0
  0
LINE
  5
128
330
1E
100
AcDbEntity
  8
0
100
AcDbLine
 10
48.1
 20
106.0
 30
0.0
 11
58.5
 21
106.0
 31
0.0
  0
LINE
  5
129
330
1E
100
AcDbEntity
  8
0
100
AcDbLine
 10
49.29999999999999
 20
116.514
 30
0.0
 11
52.0
 21
116.514
 31
0.0
  0
LINE
  5
12A
330
1E
100
AcDbEntity
  8
0
100
AcDbLine
 10
52.0
 20
111.0
 30
0.0
 11
55.2
 21
111.0
 31
0.0
  0
LINE
  5
12B
330
1E
100
AcDbEntity
  8
0
100
AcDbLine
 10
51.29999999999999
 20
110.4999999999999
 30
0.0
 11
54.8
 21
110.4999999999999
 31
0.0
  0
LINE
  5
12C
330
1E
100
AcDbEntity
  8
0
100
AcDbLine
 10
55.2
 20
111.0
 30
0.0
 11
58.5
 21
111.0
 31
0.0
  0
LINE
  5
12D
330
1E
100
AcDbEntity
  8
0
100
AcDbLine
 10
54.8
 20
110.4999999999999
 30
0.0
 11
58.5
 21
110.4999999999999
 31
0.0
  0
LINE
  5
12E
330
1E
100
AcDbEntity
  8
0
100
AcDbLine
 10
52.0
 20
116.514
 30
0.0
 11
55.2
 21
116.514
 31
0.0
  0
LINE
  5
12F
330
1E
100
AcDbEntity
  8
0
100
AcDbLine
 10
55.2
 20
116.514
 30
0.0
 11
58.5
 21
116.514
 31
0.0
  0
LINE
  5
130
330
1E
100
AcDbEntity
  8
0
100
AcDbLine
 10
50.4
 20
116.514
 30
0.0
 11
52.8
 21
116.514
 31
0.0
  0
LINE
  5
131
330
1E
100
AcDbEntity
  8
0
100
AcDbLine
 10
52.8
 20
116.514
 30
0.0
 11
55.5
 21
116.514
 31
0.0
  0
LINE
  5
132
330
1E
100
AcDbEntity
  8
0
100
AcDbLine
 10
58.5
 20
111.0
 30
0.0
 11
61.79999999999999
 21
111.0
 31
0.0
  0
LINE
  5
133
330
1E
100
AcDbEntity
  8
0
100
AcDbLine
 10
58.5
 20
110.4999999999999
 30
0.0
 11
62.2
 21
110.4999999999999
 31
0.0
  0
LINE
  5
134
330
1E
100
AcDbEntity
  8
0
100
AcDbLine
 10
58.5
 20
109.0
 30
0.0
 11
67.40000000000001
 21
109.0
 31
0.0
  0
LINE
  5
135
330
1E
100
AcDbEntity
  8
0
100
AcDbLine
 10
58.5
 20
106.0
 30
0.0
 11
68.9
 21
106.0
 31
0.0
  0
LINE
  5
136
330
1E
100
AcDbEntity
  8
0
100
AcDbLine
 10
58.5
 20
103.0
 30
0.0
 11
69.7
 21
103.0
 31
0.0
  0
LINE
  5
137
330
1E
100
AcDbEntity
  8
0
100
AcDbLine
 10
58.5
 20
89.50000000000001
 30
0.0
 11
68.09999999999999
 21
89.50000000000001
 31
0.0
  0
LINE
  5
138
330
1E
100
AcDbEntity
  8
0
100
AcDbLine
 10
61.79999999999999
 20
111.0
 30
0.0
 11
65.0
 21
111.0
 31
0.0
  0
LINE
  5
139
330
1E
100
AcDbEntity
  8
0
100
AcDbLine
 10
67.7
 20
111.0
 30
0.0
 11
69.8
 21
111.0
 31
0.0
  0
LINE
  5
13A
330
1E
100
AcDbEntity
  8
0
100
AcDbLine
 10
65.0
 20
111.0
 30
0.0
 11
67.7
 21
111.0
 31
0.0
  0
LINE
  5
13B
330
1E
100
AcDbEntity
  8
0
100
AcDbLine
 10
65.7
 20
110.4999999999999
 30
0.0
 11
68.7
 21
110.4999999999999
 31
0.0
  0
LINE
  5
13C
330
1E
100
AcDbEntity
  8
0
100
AcDbLine
 10
62.2
 20
110.4999999999999
 30
0.0
 11
65.7
 21
110.4999999999999
 31
0.0
  0
LINE
  5
13D
330
1E
100
AcDbEntity
  8
0
100
AcDbLine
 10
67.40000000000001
 20
109.0
 30
0.0
 11
75.59999999999999
 21
109.0
 31
0.0
  0
LINE
  5
13E
330
1E
100
AcDbEntity
  8
0
100
AcDbLine
 10
68.09999999999999
 20
89.50000000000001
 30
0.0
 11
77.09999999999999
 21
89.50000000000001
 31
0.0
  0
LINE
  5
13F
330
1E
100
AcDbEntity
  8
0
100
AcDbLine
 10
67.7
 20
116.514
 30
0.0
 11
69.8
 21
116.514
 31
0.0
  0
LINE
  5
140
330
1E
100
AcDbEntity
  8
0
100
AcDbLine
 10
66.6
 20
116.514
 30
0.0
 11
68.5
 21
116.514
 31
0.0
  0
LINE
  5
141
330
1E
100
AcDbEntity
  8
0
100
AcDbLine
 10
68.7
 20
110.4999999999999
 30
0.0
 11
71.09999999999999
 21
110.4999999999999
 31
0.0
  0
LINE
  5
142
330
1E
100
AcDbEntity
  8
0
100
AcDbLine
 10
68.9
 20
106.0
 30
0.0
 11
78.59999999999999
 21
106.0
 31
0.0
  0
LINE
  5
143
330
1E
100
AcDbEntity
  8
0
100
AcDbLine
 10
69.8
 20
111.0
 30
0.0
 11
71.0
 21
111.0
 31
0.0
  0
LINE
  5
144
330
1E
100
AcDbEntity
  8
0
100
AcDbLine
 10
69.7
 20
103.0
 30
0.0
 11
80.09999999999999
 21
103.0
 31
0.0
  0
LINE
  5
145
330
1E
100
AcDbEntity
  8
0
100
AcDbLine
 10
69.8
 20
116.514
 30
0.0
 11
71.0
 21
116.514
 31
0.0
  0
LINE
  5
146
330
1E
100
AcDbEntity
  8
0
100
AcDbLine
 10
68.5
 20
116.514
 30
0.0
 11
69.59999999999999
 21
116.514
 31
0.0
  0
LINE
  5
147
330
1E
100
AcDbEntity
  8
0
100
AcDbLine
 10
69.59999999999999
 20
116.514
 30
0.0
 11
70.0
 21
116.514
 31
0.0
  0
LINE
  5
148
330
1E
100
AcDbEntity
  8
0
100
AcDbLine
 10
71.0
 20
111.0
 30
0.0
 11
71.5
 21
111.0
 31
0.0
  0
LINE
  5
149
330
1E
100
AcDbEntity
  8
0
100
AcDbLine
 10
70.0
 20
111.0
 30
0.0
 11
70.0
 21
116.514
 31
0.0
  0
LINE
  5
14A
330
1E
100
AcDbEntity
  8
0
100
AcDbLine
 10
65.0
 20
116.514
 30
0.0
 11
67.7
 21
116.514
 31
0.0
  0
LINE
  5
14B
330
1E
100
AcDbEntity
  8
0
100
AcDbLine
 10
61.79999999999999
 20
116.514
 30
0.0
 11
65.0
 21
116.514
 31
0.0
  0
LINE
  5
14C
330
1E
100
AcDbEntity
  8
0
100
AcDbLine
 10
64.2
 20
116.514
 30
0.0
 11
66.6
 21
116.514
 31
0.0
  0
LINE
  5
14D
330
1E
100
AcDbEntity
  8
0
100
AcDbLine
 10
61.5
 20
116.514
 30
0.0
 11
64.2
 21
116.514
 31
0.0
  0
LINE
  5
14E
330
1E
100
AcDbEntity
  8
0
100
AcDbLine
 10
58.5
 20
116.514
 30
0.0
 11
61.5
 21
116.514
 31
0.0
  0
LINE
  5
14F
330
1E
100
AcDbEntity
  8
0
100
AcDbLine
 10
58.5
 20
116.514
 30
0.0
 11
61.79999999999999
 21
116.514
 31
0.0
  0
LINE
  5
150
330
1E
100
AcDbEntity
  8
0
100
AcDbLine
 10
85.0
 20
89.50000000000001
 30
0.0
 11
91.0
 21
89.50000000000001
 31
0.0
  0
LINE
  5
151
330
1E
100
AcDbEntity
  8
0
100
AcDbLine
 10
89.19999999999999
 20
103.0
 30
0.0
 11
96.2
 21
103.0
 31
0.0
  0
LINE
  5
152
330
1E
100
AcDbEntity
  8
0
100
AcDbLine
 10
91.0
 20
89.50000000000001
 30
0.0
 11
94.59999999999999
 21
89.50000000000001
 31
0.0
  0
LINE
  5
153
330
1E
100
AcDbEntity
  8
0
100
AcDbLine
 10
94.59999999999999
 20
89.50000000000001
 30
0.0
 11
96.0
 21
89.50000000000001
 31
0.0
  0
LINE
  5
154
330
1E
100
AcDbEntity
  8
0
100
AcDbLine
 10
87.09999999999999
 20
106.0
 30
0.0
 11
93.59999999999999
 21
106.0
 31
0.0
  0
LINE
  5
155
330
1E
100
AcDbEntity
  8
0
100
AcDbLine
 10
93.59999999999999
 20
106.0
 30
0.0
 11
97.5
 21
106.0
 31
0.0
  0
LINE
  5
156
330
1E
100
AcDbEntity
  8
0
100
AcDbLine
 10
78.59999999999999
 20
106.0
 30
0.0
 11
87.09999999999999
 21
106.0
 31
0.0
  0
LINE
  5
157
330
1E
100
AcDbEntity
  8
0
100
AcDbLine
 10
80.09999999999999
 20
103.0
 30
0.0
 11
89.19999999999999
 21
103.0
 31
0.0
  0
LINE
  5
158
330
1E
100
AcDbEntity
  8
0
100
AcDbLine
 10
77.09999999999999
 20
89.50000000000001
 30
0.0
 11
85.0
 21
89.50000000000001
 31
0.0
  0
LINE
  5
159
330
1E
100
AcDbEntity
  8
0
100
AcDbLine
 10
82.9
 20
109.0
 30
0.0
 11
88.40000000000001
 21
109.0
 31
0.0
  0
LINE
  5
15A
330
1E
100
AcDbEntity
  8
0
100
AcDbLine
 10
88.40000000000001
 20
109.0
 30
0.0
 11
91.79999999999999
 21
109.0
 31
0.0
  0
LINE
  5
15B
330
1E
100
AcDbEntity
  8
0
100
AcDbLine
 10
91.79999999999999
 20
109.0
 30
0.0
 11
93.0
 21
109.0
 31
0.0
  0
LINE
  5
15C
330
1E
100
AcDbEntity
  8
0
100
AcDbLine
 10
75.59999999999999
 20
109.0
 30
0.0
 11
82.9
 21
109.0
 31
0.0
  0
LINE
  5
15D
330
1E
100
AcDbEntity
  8
0
100
AcDbLine
 10
71.09999999999999
 20
110.4999999999999
 30
0.0
 11
72.5
 21
110.4999999999999
 31
0.0
  0
LINE
  5
15E
330
1E
100
AcDbEntity
  8
0
100
AcDbLine
 10
72.5
 20
110.4999999999999
 30
0.0
 11
73.0
 21
110.4999999999999
 31
0.0
  0
LINE
  5
15F
330
1E
100
AcDbEntity
  8
0
100
AcDbLine
 10
71.5
 20
111.0
 30
0.0
 11
73.0
 21
110.4999999999999
 31
0.0
  0
LINE
  5
160
330
1E
100
AcDbEntity
  8
0
100
AcDbLine
 10
73.0
 20
110.4999999999999
 30
0.0
 11
73.5
 21
109.0
 31
0.0
  0
LINE
  5
161
330
1E
100
AcDbEntity
  8
0
100
AcDbLine
 10
93.0
 20
109.0
 30
0.0
 11
94.50000000000001
 21
108.4999999999999
 31
0.0
  0
LINE
  5
162
330
1E
100
AcDbEntity
  8
0
100
AcDbLine
 10
94.50000000000001
 20
108.4999999999999
 30
0.0
 11
95.5
 21
107.4999999999999
 31
0.0
  0
LINE
  5
163
330
1E
100
AcDbEntity
  8
0
100
AcDbLine
 10
95.5
 20
107.4999999999999
 30
0.0
 11
96.0
 21
106.0
 31
0.0
  0
LINE
  5
164
330
1E
100
AcDbEntity
  8
0
100
AcDbLine
 10
96.5
 20
91.0
 30
0.0
 11
96.5
 21
94.0
 31
0.0
  0
LINE
  5
165
330
1E
100
AcDbEntity
  8
0
100
AcDbLine
 10
96.2
 20
103.0
 30
0.0
 11
100.4
 21
103.0
 31
0.0
  0
LINE
  5
166
330
1E
100
AcDbEntity
  8
0
100
AcDbLine
 10
100.4
 20
103.0
 30
0.0
 11
102.0
 21
103.0
 31
0.0
  0
LINE
  5
167
330
1E
100
AcDbEntity
  8
0
100
AcDbLine
 10
97.5
 20
106.0
 30
0.0
 11
99.0
 21
106.0
 31
0.0
  0
LINE
  5
168
330
1E
100
AcDbEntity
  8
0
100
AcDbLine
 10
99.0
 20
106.0
 30
0.0
 11
100.5
 21
105.4999999999999
 31
0.0
  0
LINE
  5
169
330
1E
100
AcDbEntity
  8
0
100
AcDbLine
 10
100.5
 20
105.4999999999999
 30
0.0
 11
101.5
 21
104.4999999999999
 31
0.0
  0
LINE
  5
16A
330
1E
100
AcDbEntity
  8
0
100
AcDbLine
 10
101.5
 20
104.4999999999999
 30
0.0
 11
102.0
 21
103.0
 31
0.0
  0
LINE
  5
16B
330
1E
100
AcDbEntity
  8
0
100
AcDbLine
 10
101.5
 20
101.5
 30
0.0
 11
102.0
 21
103.0
 31
0.0
  0
LINE
  5
16C
330
1E
100
AcDbEntity
  8
0
100
AcDbLine
 10
100.5
 20
100.5
 30
0.0
 11
101.5
 21
101.5
 31
0.0
  0
LINE
  5
16D
330
1E
100
AcDbEntity
  8
0
100
AcDbLine
 10
98.50000000000001
 20
99.0
 30
0.0
 11
100.5
 21
100.5
 31
0.0
  0
LINE
  5
16E
330
1E
100
AcDbEntity
  8
0
100
AcDbLine
 10
97.0
 20
96.5
 30
0.0
 11
98.50000000000001
 21
99.0
 31
0.0
  0
LINE
  5
16F
330
1E
100
AcDbEntity
  8
0
100
AcDbLine
 10
96.5
 20
94.0
 30
0.0
 11
96.5
 21
91.0
 31
0.0
  0
LINE
  5
170
330
1E
100
AcDbEntity
  8
0
100
AcDbLine
 10
96.5
 20
94.0
 30
0.0
 11
97.0
 21
96.5
 31
0.0
  0
LINE
  5
171
330
1E
100
AcDbEntity
  8
0
100
AcDbLine
 10
96.0
 20
89.50000000000001
 30
0.0
 11
96.5
 21
91.0
 31
0.0
  0
LINE
  5
172
330
1E
100
AcDbEntity
  8
0
100
AcDbLine
 10
71.5
 20
116.514
 30
0.0
 11
73.0
 21
123.405
 31
0.0
  0
LINE
  5
173
330
1E
100
AcDbEntity
  8
0
100
AcDbLine
 10
71.0
 20
116.514
 30
0.0
 11
71.5
 21
116.514
 31
0.0
  0
LINE
  5
174
330
1E
100
AcDbEntity
  8
0
100
AcDbLine
 10
70.0
 20
116.514
 30
0.0
 11
70.0
 21
111.0
 31
0.0
  0
LINE
  5
175
330
1E
100
AcDbEntity
  8
0
100
AcDbLine
 10
70.0
 20
116.514
 30
0.0
 11
71.0
 21
116.514
 31
0.0
  0
LINE
  5
176
330
1E
100
AcDbEntity
  8
0
100
AcDbLine
 10
55.5
 20
116.514
 30
0.0
 11
58.5
 21
116.514
 31
0.0
  0
LINE
  5
177
330
1E
100
AcDbEntity
  8
0
100
AcDbLine
 10
50.5
 20
142.703
 30
0.0
 11
54.4
 21
142.703
 31
0.0
  0
LINE
  5
178
330
1E
100
AcDbEntity
  8
0
100
AcDbLine
 10
69.8
 20
142.703
 30
0.0
 11
72.40000000000001
 21
142.703
 31
0.0
  0
LINE
  5
179
330
1E
100
AcDbEntity
  8
0
100
AcDbLine
 10
72.40000000000001
 20
142.703
 30
0.0
 11
73.9
 21
142.703
 31
0.0
  0
LINE
  5
17A
330
1E
100
AcDbEntity
  8
0
100
AcDbLine
 10
73.9
 20
142.703
 30
0.0
 11
74.5
 21
142.703
 31
0.0
  0
LINE
  5
17B
330
1E
100
AcDbEntity
  8
0
100
AcDbLine
 10
66.5
 20
142.703
 30
0.0
 11
69.8
 21
142.703
 31
0.0
  0
LINE
  5
17C
330
1E
100
AcDbEntity
  8
0
100
AcDbLine
 10
62.6
 20
142.703
 30
0.0
 11
66.5
 21
142.703
 31
0.0
  0
LINE
  5
17D
330
1E
100
AcDbEntity
  8
0
100
AcDbLine
 10
58.5
 20
142.703
 30
0.0
 11
62.6
 21
142.703
 31
0.0
  0
LINE
  5
17E
330
1E
100
AcDbEntity
  8
0
100
AcDbLine
 10
66.5
 20
144.54
 30
0.0
 11
72.5
 21
143.622
 31
0.0
  0
LINE
  5
17F
330
1E
100
AcDbEntity
  8
0
100
AcDbLine
 10
72.5
 20
143.622
 30
0.0
 11
74.5
 21
142.703
 31
0.0
  0
LINE
  5
180
330
1E
100
AcDbEntity
  8
0
100
AcDbLine
 10
74.5
 20
137.6489999999999
 30
0.0
 11
74.5
 21
142.703
 31
0.0
  0
LINE
  5
181
330
1E
100
AcDbEntity
  8
0
100
AcDbLine
 10
74.5
 20
142.703
 30
0.0
 11
74.5
 21
137.6489999999999
 31
0.0
  0
LINE
  5
182
330
1E
100
AcDbEntity
  8
0
100
AcDbLine
 10
74.0
 20
133.054
 30
0.0
 11
74.5
 21
137.6489999999999
 31
0.0
  0
LINE
  5
183
330
1E
100
AcDbEntity
  8
0
100
AcDbLine
 10
73.0
 20
123.405
 30
0.0
 11
74.0
 21
133.054
 31
0.0
  0
LINE
  5
184
330
1E
100
AcDbEntity
  8
0
100
AcDbLine
 10
54.4
 20
142.703
 30
0.0
 11
58.5
 21
142.703
 31
0.0
  0
LINE
  5
185
330
1E
100
AcDbEntity
  8
0
100
AcDbLine
 10
48.5
 20
116.514
 30
0.0
 11
50.4
 21
116.514
 31
0.0
  0
LINE
  5
186
330
1E
100
AcDbEntity
  8
0
100
AcDbLine
 10
47.4
 20
116.514
 30
0.0
 11
48.5
 21
116.514
 31
0.0
  0
LINE
  5
187
330
1E
100
AcDbEntity
  8
0
100
AcDbLine
 10
58.5
 20
145.0
 30
0.0
 11
66.5
 21
144.54
 31
0.0
  0
LINE
  5
188
330
1E
100
AcDbEntity
  8
0
100
AcDbLine
 10
50.5
 20
144.54
 30
0.0
 11
58.5
 21
145.0
 31
0.0
  0
LINE
  5
189
330
1E
100
AcDbEntity
  8
0
100
AcDbLine
 10
47.0
 20
111.0
 30
0.0
 11
47.0
 21
116.514
 31
0.0
  0
LINE
  5
18A
330
1E
100
AcDbEntity
  8
0
100
AcDbLine
 10
48.39999999999999
 20
89.0
 30
0.0
 11
58.5
 21
89.0
 31
0.0
  0
LINE
  5
18B
330
1E
100
AcDbEntity
  8
0
100
AcDbLine
 10
18.0
 20
88.49999999999999
 30
0.0
 11
19.0
 21
89.0
 31
0.0
  0
LINE
  5
18C
330
1E
100
AcDbEntity
  8
0
100
AcDbLine
 10
18.0
 20
88.49999999999999
 30
0.0
 11
19.5
 21
88.49999999999999
 31
0.0
  0
LINE
  5
18D
330
1E
100
AcDbEntity
  8
0
100
AcDbLine
 10
104.0
 20
85.7
 30
0.0
 11
104.0
 21
85.09999999999999
 31
0.0
  0
LINE
  5
18E
330
1E
100
AcDbEntity
  8
0
100
AcDbLine
 10
104.0
 20
85.7
 30
0.0
 11
104.0
 21
86.0
 31
0.0
  0
LINE
  5
18F
330
1E
100
AcDbEntity
  8
0
100
AcDbLine
 10
104.0
 20
86.0
 30
0.0
 11
104.0
 21
85.7
 31
0.0
  0
LINE
  5
190
330
1E
100
AcDbEntity
  8
0
100
AcDbLine
 10
104.0
 20
86.0
 30
0.0
 11
104.4999999999999
 21
87.5
 31
0.0
  0
LINE
  5
191
330
1E
100
AcDbEntity
  8
0
100
AcDbLine
 10
104.0
 20
74.0
 30
0.0
 11
104.0
 21
72.9
 31
0.0
  0
LINE
  5
192
330
1E
100
AcDbEntity
  8
0
100
AcDbLine
 10
104.0
 20
74.0
 30
0.0
 11
104.0
 21
74.2
 31
0.0
  0
LINE
  5
193
330
1E
100
AcDbEntity
  8
0
100
AcDbLine
 10
104.0
 20
72.9
 30
0.0
 11
104.0
 21
72.3
 31
0.0
  0
LINE
  5
194
330
1E
100
AcDbEntity
  8
0
100
AcDbLine
 10
104.0
 20
72.9
 30
0.0
 11
104.0
 21
74.0
 31
0.0
  0
LINE
  5
195
330
1E
100
AcDbEntity
  8
0
100
AcDbLine
 10
104.0
 20
72.3
 30
0.0
 11
104.0
 21
72.0
 31
0.0
  0
LINE
  5
196
330
1E
100
AcDbEntity
  8
0
100
AcDbLine
 10
104.0
 20
72.3
 30
0.0
 11
104.0
 21
72.9
 31
0.0
  0
LINE
  5
197
330
1E
100
AcDbEntity
  8
0
100
AcDbLine
 10
104.4999999999999
 20
87.5
 30
0.0
 11
105.4999999999999
 21
88.49999999999999
 31
0.0
  0
LINE
  5
198
330
1E
100
AcDbEntity
  8
0
100
AcDbLine
 10
105.4999999999999
 20
88.49999999999999
 30
0.0
 11
107.0
 21
89.0
 31
0.0
  0
LINE
  5
199
330
1E
100
AcDbEntity
  8
0
100
AcDbLine
 10
104.0
 20
72.0
 30
0.0
 11
104.4999999999999
 21
70.5
 31
0.0
  0
LINE
  5
19A
330
1E
100
AcDbEntity
  8
0
100
AcDbLine
 10
104.0
 20
72.0
 30
0.0
 11
104.0
 21
72.3
 31
0.0
  0
LINE
  5
19B
330
1E
100
AcDbEntity
  8
0
100
AcDbLine
 10
104.4999999999999
 20
70.5
 30
0.0
 11
105.4999999999999
 21
69.5
 31
0.0
  0
LINE
  5
19C
330
1E
100
AcDbEntity
  8
0
100
AcDbLine
 10
121.5
 20
61.0
 30
0.0
 11
122.615
 21
61.0
 31
0.0
  0
LINE
  5
19D
330
1E
100
AcDbEntity
  8
0
100
AcDbLine
 10
119.827
 20
62.1
 30
0.0
 11
119.827
 21
61.5
 31
0.0
  0
LINE
  5
19E
330
1E
100
AcDbEntity
  8
0
100
AcDbLine
 10
119.827
 20
62.1
 30
0.0
 11
119.827
 21
63.79999999999999
 31
0.0
  0
LINE
  5
19F
330
1E
100
AcDbEntity
  8
0
100
AcDbLine
 10
107.5579999999999
 20
65.0
 30
0.0
 11
107.5579999999999
 21
64.5
 31
0.0
  0
LINE
  5
1A0
330
1E
100
AcDbEntity
  8
0
100
AcDbLine
 10
107.5579999999999
 20
65.0
 30
0.0
 11
107.5579999999999
 21
66.4
 31
0.0
  0
LINE
  5
1A1
330
1E
100
AcDbEntity
  8
0
100
AcDbLine
 10
107.0
 20
66.5
 30
0.0
 11
107.0
 21
66.0
 31
0.0
  0
LINE
  5
1A2
330
1E
100
AcDbEntity
  8
0
100
AcDbLine
 10
107.0
 20
66.5
 30
0.0
 11
107.0
 21
67.7
 31
0.0
  0
LINE
  5
1A3
330
1E
100
AcDbEntity
  8
0
100
AcDbLine
 10
107.0
 20
69.0
 30
0.0
 11
107.0
 21
67.7
 31
0.0
  0
LINE
  5
1A4
330
1E
100
AcDbEntity
  8
0
100
AcDbLine
 10
107.5579999999999
 20
66.4
 30
0.0
 11
107.5579999999999
 21
65.0
 31
0.0
  0
LINE
  5
1A5
330
1E
100
AcDbEntity
  8
0
100
AcDbLine
 10
107.5579999999999
 20
66.4
 30
0.0
 11
107.5579999999999
 21
68.79999999999999
 31
0.0
  0
LINE
  5
1A6
330
1E
100
AcDbEntity
  8
0
100
AcDbLine
 10
107.5579999999999
 20
68.79999999999999
 30
0.0
 11
107.5579999999999
 21
71.79999999999999
 31
0.0
  0
LINE
  5
1A7
330
1E
100
AcDbEntity
  8
0
100
AcDbLine
 10
107.5579999999999
 20
68.79999999999999
 30
0.0
 11
107.5579999999999
 21
66.4
 31
0.0
  0
LINE
  5
1A8
330
1E
100
AcDbEntity
  8
0
100
AcDbLine
 10
107.0
 20
67.7
 30
0.0
 11
107.0
 21
69.0
 31
0.0
  0
LINE
  5
1A9
330
1E
100
AcDbEntity
  8
0
100
AcDbLine
 10
107.0
 20
67.7
 30
0.0
 11
107.0
 21
66.5
 31
0.0
  0
LINE
  5
1AA
330
1E
100
AcDbEntity
  8
0
100
AcDbLine
 10
107.0
 20
66.0
 30
0.0
 11
107.5579999999999
 21
64.5
 31
0.0
  0
LINE
  5
1AB
330
1E
100
AcDbEntity
  8
0
100
AcDbLine
 10
107.0
 20
66.0
 30
0.0
 11
107.0
 21
66.5
 31
0.0
  0
LINE
  5
1AC
330
1E
100
AcDbEntity
  8
0
100
AcDbLine
 10
118.154
 20
66.0
 30
0.0
 11
118.154
 21
64.5
 31
0.0
  0
LINE
  5
1AD
330
1E
100
AcDbEntity
  8
0
100
AcDbLine
 10
118.154
 20
66.0
 30
0.0
 11
118.154
 21
68.4
 31
0.0
  0
LINE
  5
1AE
330
1E
100
AcDbEntity
  8
0
100
AcDbLine
 10
118.154
 20
64.5
 30
0.0
 11
118.154
 21
64.0
 31
0.0
  0
LINE
  5
1AF
330
1E
100
AcDbEntity
  8
0
100
AcDbLine
 10
118.154
 20
64.5
 30
0.0
 11
118.154
 21
66.0
 31
0.0
  0
LINE
  5
1B0
330
1E
100
AcDbEntity
  8
0
100
AcDbLine
 10
118.154
 20
68.4
 30
0.0
 11
118.154
 21
71.5
 31
0.0
  0
LINE
  5
1B1
330
1E
100
AcDbEntity
  8
0
100
AcDbLine
 10
118.154
 20
68.4
 30
0.0
 11
118.154
 21
66.0
 31
0.0
  0
LINE
  5
1B2
330
1E
100
AcDbEntity
  8
0
100
AcDbLine
 10
107.5579999999999
 20
64.5
 30
0.0
 11
109.231
 21
64.0
 31
0.0
  0
LINE
  5
1B3
330
1E
100
AcDbEntity
  8
0
100
AcDbLine
 10
107.5579999999999
 20
64.5
 30
0.0
 11
107.5579999999999
 21
65.0
 31
0.0
  0
LINE
  5
1B4
330
1E
100
AcDbEntity
  8
0
100
AcDbLine
 10
109.231
 20
64.0
 30
0.0
 11
118.154
 21
64.0
 31
0.0
  0
LINE
  5
1B5
330
1E
100
AcDbEntity
  8
0
100
AcDbLine
 10
118.154
 20
64.0
 30
0.0
 11
119.269
 21
63.0
 31
0.0
  0
LINE
  5
1B6
330
1E
100
AcDbEntity
  8
0
100
AcDbLine
 10
118.154
 20
64.0
 30
0.0
 11
118.154
 21
64.5
 31
0.0
  0
LINE
  5
1B7
330
1E
100
AcDbEntity
  8
0
100
AcDbLine
 10
119.269
 20
63.0
 30
0.0
 11
119.827
 21
61.5
 31
0.0
  0
LINE
  5
1B8
330
1E
100
AcDbEntity
  8
0
100
AcDbLine
 10
119.827
 20
63.79999999999999
 30
0.0
 11
119.827
 21
66.6
 31
0.0
  0
LINE
  5
1B9
330
1E
100
AcDbEntity
  8
0
100
AcDbLine
 10
119.827
 20
66.6
 30
0.0
 11
119.827
 21
70.3
 31
0.0
  0
LINE
  5
1BA
330
1E
100
AcDbEntity
  8
0
100
AcDbLine
 10
119.827
 20
66.6
 30
0.0
 11
119.827
 21
63.79999999999999
 31
0.0
  0
LINE
  5
1BB
330
1E
100
AcDbEntity
  8
0
100
AcDbLine
 10
119.827
 20
61.5
 30
0.0
 11
121.5
 21
61.0
 31
0.0
  0
LINE
  5
1BC
330
1E
100
AcDbEntity
  8
0
100
AcDbLine
 10
119.827
 20
61.5
 30
0.0
 11
119.827
 21
62.1
 31
0.0
  0
LINE
  5
1BD
330
1E
100
AcDbEntity
  8
0
100
AcDbLine
 10
122.615
 20
61.0
 30
0.0
 11
127.077
 21
59.5
 31
0.0
  0
LINE
  5
1BE
330
1E
100
AcDbEntity
  8
0
100
AcDbLine
 10
127.077
 20
59.5
 30
0.0
 11
130.9809999999999
 21
56.5
 31
0.0
  0
LINE
  5
1BF
330
1E
100
AcDbEntity
  8
0
100
AcDbLine
 10
130.9809999999999
 20
56.5
 30
0.0
 11
132.654
 21
54.0
 31
0.0
  0
LINE
  5
1C0
330
1E
100
AcDbEntity
  8
0
100
AcDbLine
 10
133.212
 20
56.0
 30
0.0
 11
133.212
 21
53.5
 31
0.0
  0
LINE
  5
1C1
330
1E
100
AcDbEntity
  8
0
100
AcDbLine
 10
133.212
 20
56.0
 30
0.0
 11
133.212
 21
60.3
 31
0.0
  0
LINE
  5
1C2
330
1E
100
AcDbEntity
  8
0
100
AcDbLine
 10
133.212
 20
53.5
 30
0.0
 11
133.212
 21
52.5
 31
0.0
  0
LINE
  5
1C3
330
1E
100
AcDbEntity
  8
0
100
AcDbLine
 10
133.212
 20
53.5
 30
0.0
 11
133.212
 21
56.0
 31
0.0
  0
LINE
  5
1C4
330
1E
100
AcDbEntity
  8
0
100
AcDbLine
 10
133.212
 20
60.3
 30
0.0
 11
133.212
 21
65.8
 31
0.0
  0
LINE
  5
1C5
330
1E
100
AcDbEntity
  8
0
100
AcDbLine
 10
133.212
 20
60.3
 30
0.0
 11
133.212
 21
56.0
 31
0.0
  0
LINE
  5
1C6
330
1E
100
AcDbEntity
  8
0
100
AcDbLine
 10
133.212
 20
65.8
 30
0.0
 11
133.212
 21
60.3
 31
0.0
  0
LINE
  5
1C7
330
1E
100
AcDbEntity
  8
0
100
AcDbLine
 10
133.212
 20
65.8
 30
0.0
 11
133.212
 21
72.2
 31
0.0
  0
LINE
  5
1C8
330
1E
100
AcDbEntity
  8
0
100
AcDbLine
 10
132.654
 20
54.0
 30
0.0
 11
133.212
 21
52.5
 31
0.0
  0
LINE
  5
1C9
330
1E
100
AcDbEntity
  8
0
100
AcDbLine
 10
133.212
 20
52.5
 30
0.0
 11
134.8849999999999
 21
52.0
 31
0.0
  0
LINE
  5
1CA
330
1E
100
AcDbEntity
  8
0
100
AcDbLine
 10
133.212
 20
52.5
 30
0.0
 11
133.212
 21
53.5
 31
0.0
  0
LINE
  5
1CB
330
1E
100
AcDbEntity
  8
0
100
AcDbLine
 10
136.0
 20
52.0
 30
0.0
 11
136.0
 21
53.0
 31
0.0
  0
LINE
  5
1CC
330
1E
100
AcDbEntity
  8
0
100
AcDbLine
 10
136.0
 20
55.6
 30
0.0
 11
136.0
 21
53.0
 31
0.0
  0
LINE
  5
1CD
330
1E
100
AcDbEntity
  8
0
100
AcDbLine
 10
136.0
 20
55.6
 30
0.0
 11
136.0
 21
59.9
 31
0.0
  0
LINE
  5
1CE
330
1E
100
AcDbEntity
  8
0
100
AcDbLine
 10
136.0
 20
53.0
 30
0.0
 11
136.0
 21
52.0
 31
0.0
  0
LINE
  5
1CF
330
1E
100
AcDbEntity
  8
0
100
AcDbLine
 10
136.0
 20
53.0
 30
0.0
 11
136.0
 21
55.6
 31
0.0
  0
LINE
  5
1D0
330
1E
100
AcDbEntity
  8
0
100
AcDbLine
 10
136.0
 20
59.9
 30
0.0
 11
136.0
 21
65.59999999999999
 31
0.0
  0
LINE
  5
1D1
330
1E
100
AcDbEntity
  8
0
100
AcDbLine
 10
136.0
 20
59.9
 30
0.0
 11
136.0
 21
55.6
 31
0.0
  0
LINE
  5
1D2
330
1E
100
AcDbEntity
  8
0
100
AcDbLine
 10
136.0
 20
65.59999999999999
 30
0.0
 11
136.0
 21
59.9
 31
0.0
  0
LINE
  5
1D3
330
1E
100
AcDbEntity
  8
0
100
AcDbLine
 10
136.0
 20
65.59999999999999
 30
0.0
 11
136.0
 21
72.09999999999999
 31
0.0
  0
LINE
  5
1D4
330
1E
100
AcDbEntity
  8
0
100
AcDbLine
 10
134.8849999999999
 20
52.0
 30
0.0
 11
136.0
 21
52.0
 31
0.0
  0
LINE
  5
1D5
330
1E
100
AcDbEntity
  8
0
100
AcDbLine
 10
107.0
 20
72.5
 30
0.0
 11
107.0
 21
75.7
 31
0.0
  0
LINE
  5
1D6
330
1E
100
AcDbEntity
  8
0
100
AcDbLine
 10
107.0
 20
75.7
 30
0.0
 11
107.0
 21
72.5
 31
0.0
  0
LINE
  5
1D7
330
1E
100
AcDbEntity
  8
0
100
AcDbLine
 10
107.0
 20
75.7
 30
0.0
 11
107.0
 21
79.0
 31
0.0
  0
LINE
  5
1D8
330
1E
100
AcDbEntity
  8
0
100
AcDbLine
 10
107.0
 20
74.0
 30
0.0
 11
107.0
 21
71.90000000000001
 31
0.0
  0
LINE
  5
1D9
330
1E
100
AcDbEntity
  8
0
100
AcDbLine
 10
107.0
 20
82.3
 30
0.0
 11
107.0
 21
85.5
 31
0.0
  0
LINE
  5
1DA
330
1E
100
AcDbEntity
  8
0
100
AcDbLine
 10
107.0
 20
85.5
 30
0.0
 11
107.0
 21
82.3
 31
0.0
  0
LINE
  5
1DB
330
1E
100
AcDbEntity
  8
0
100
AcDbLine
 10
107.0
 20
85.5
 30
0.0
 11
107.0
 21
88.2
 31
0.0
  0
LINE
  5
1DC
330
1E
100
AcDbEntity
  8
0
100
AcDbLine
 10
107.0
 20
88.2
 30
0.0
 11
107.0
 21
90.29999999999999
 31
0.0
  0
LINE
  5
1DD
330
1E
100
AcDbEntity
  8
0
100
AcDbLine
 10
107.0
 20
88.2
 30
0.0
 11
107.0
 21
85.5
 31
0.0
  0
LINE
  5
1DE
330
1E
100
AcDbEntity
  8
0
100
AcDbLine
 10
107.0
 20
86.09999999999999
 30
0.0
 11
107.0
 21
84.0
 31
0.0
  0
LINE
  5
1DF
330
1E
100
AcDbEntity
  8
0
100
AcDbLine
 10
107.0
 20
84.0
 30
0.0
 11
107.0
 21
81.6
 31
0.0
  0
LINE
  5
1E0
330
1E
100
AcDbEntity
  8
0
100
AcDbLine
 10
107.0
 20
81.6
 30
0.0
 11
107.0
 21
79.0
 31
0.0
  0
LINE
  5
1E1
330
1E
100
AcDbEntity
  8
0
100
AcDbLine
 10
107.0
 20
87.70000000000001
 30
0.0
 11
107.0
 21
88.2
 31
0.0
  0
LINE
  5
1E2
330
1E
100
AcDbEntity
  8
0
100
AcDbLine
 10
107.0
 20
87.70000000000001
 30
0.0
 11
107.0
 21
86.09999999999999
 31
0.0
  0
LINE
  5
1E3
330
1E
100
AcDbEntity
  8
0
100
AcDbLine
 10
107.0
 20
76.4
 30
0.0
 11
107.0
 21
74.0
 31
0.0
  0
LINE
  5
1E4
330
1E
100
AcDbEntity
  8
0
100
AcDbLine
 10
107.0
 20
79.0
 30
0.0
 11
107.0
 21
76.4
 31
0.0
  0
LINE
  5
1E5
330
1E
100
AcDbEntity
  8
0
100
AcDbLine
 10
107.0
 20
79.0
 30
0.0
 11
107.0
 21
75.7
 31
0.0
  0
LINE
  5
1E6
330
1E
100
AcDbEntity
  8
0
100
AcDbLine
 10
107.0
 20
71.90000000000001
 30
0.0
 11
107.0
 21
70.3
 31
0.0
  0
LINE
  5
1E7
330
1E
100
AcDbEntity
  8
0
100
AcDbLine
 10
107.5579999999999
 20
71.79999999999999
 30
0.0
 11
107.5579999999999
 21
68.79999999999999
 31
0.0
  0
LINE
  5
1E8
330
1E
100
AcDbEntity
  8
0
100
AcDbLine
 10
107.5579999999999
 20
71.79999999999999
 30
0.0
 11
107.5579999999999
 21
75.3
 31
0.0
  0
LINE
  5
1E9
330
1E
100
AcDbEntity
  8
0
100
AcDbLine
 10
118.154
 20
71.5
 30
0.0
 11
118.154
 21
68.4
 31
0.0
  0
LINE
  5
1EA
330
1E
100
AcDbEntity
  8
0
100
AcDbLine
 10
118.154
 20
71.5
 30
0.0
 11
118.154
 21
75.09999999999999
 31
0.0
  0
LINE
  5
1EB
330
1E
100
AcDbEntity
  8
0
100
AcDbLine
 10
107.5579999999999
 20
75.3
 30
0.0
 11
107.5579999999999
 21
71.79999999999999
 31
0.0
  0
LINE
  5
1EC
330
1E
100
AcDbEntity
  8
0
100
AcDbLine
 10
107.5579999999999
 20
75.3
 30
0.0
 11
107.5579999999999
 21
79.0
 31
0.0
  0
LINE
  5
1ED
330
1E
100
AcDbEntity
  8
0
100
AcDbLine
 10
107.5579999999999
 20
79.0
 30
0.0
 11
107.5579999999999
 21
75.3
 31
0.0
  0
LINE
  5
1EE
330
1E
100
AcDbEntity
  8
0
100
AcDbLine
 10
107.5579999999999
 20
79.0
 30
0.0
 11
107.5579999999999
 21
82.70000000000001
 31
0.0
  0
LINE
  5
1EF
330
1E
100
AcDbEntity
  8
0
100
AcDbLine
 10
118.154
 20
75.09999999999999
 30
0.0
 11
118.154
 21
71.5
 31
0.0
  0
LINE
  5
1F0
330
1E
100
AcDbEntity
  8
0
100
AcDbLine
 10
118.154
 20
75.09999999999999
 30
0.0
 11
118.154
 21
79.0
 31
0.0
  0
LINE
  5
1F1
330
1E
100
AcDbEntity
  8
0
100
AcDbLine
 10
118.154
 20
79.0
 30
0.0
 11
118.154
 21
75.09999999999999
 31
0.0
  0
LINE
  5
1F2
330
1E
100
AcDbEntity
  8
0
100
AcDbLine
 10
118.154
 20
79.0
 30
0.0
 11
118.154
 21
82.9
 31
0.0
  0
LINE
  5
1F3
330
1E
100
AcDbEntity
  8
0
100
AcDbLine
 10
119.827
 20
70.3
 30
0.0
 11
119.827
 21
66.6
 31
0.0
  0
LINE
  5
1F4
330
1E
100
AcDbEntity
  8
0
100
AcDbLine
 10
119.827
 20
70.3
 30
0.0
 11
119.827
 21
74.5
 31
0.0
  0
LINE
  5
1F5
330
1E
100
AcDbEntity
  8
0
100
AcDbLine
 10
119.827
 20
74.5
 30
0.0
 11
119.827
 21
70.3
 31
0.0
  0
LINE
  5
1F6
330
1E
100
AcDbEntity
  8
0
100
AcDbLine
 10
119.827
 20
74.5
 30
0.0
 11
119.827
 21
79.0
 31
0.0
  0
LINE
  5
1F7
330
1E
100
AcDbEntity
  8
0
100
AcDbLine
 10
119.827
 20
79.0
 30
0.0
 11
119.827
 21
74.5
 31
0.0
  0
LINE
  5
1F8
330
1E
100
AcDbEntity
  8
0
100
AcDbLine
 10
119.827
 20
79.0
 30
0.0
 11
119.827
 21
83.49999999999999
 31
0.0
  0
LINE
  5
1F9
330
1E
100
AcDbEntity
  8
0
100
AcDbLine
 10
133.212
 20
72.2
 30
0.0
 11
133.212
 21
65.8
 31
0.0
  0
LINE
  5
1FA
330
1E
100
AcDbEntity
  8
0
100
AcDbLine
 10
133.212
 20
72.2
 30
0.0
 11
133.212
 21
79.0
 31
0.0
  0
LINE
  5
1FB
330
1E
100
AcDbEntity
  8
0
100
AcDbLine
 10
133.212
 20
79.0
 30
0.0
 11
133.212
 21
72.2
 31
0.0
  0
LINE
  5
1FC
330
1E
100
AcDbEntity
  8
0
100
AcDbLine
 10
133.212
 20
79.0
 30
0.0
 11
133.212
 21
85.8
 31
0.0
  0
LINE
  5
1FD
330
1E
100
AcDbEntity
  8
0
100
AcDbLine
 10
136.0
 20
72.09999999999999
 30
0.0
 11
136.0
 21
65.59999999999999
 31
0.0
  0
LINE
  5
1FE
330
1E
100
AcDbEntity
  8
0
100
AcDbLine
 10
136.0
 20
72.09999999999999
 30
0.0
 11
136.0
 21
79.0
 31
0.0
  0
LINE
  5
1FF
330
1E
100
AcDbEntity
  8
0
100
AcDbLine
 10
107.0
 20
91.5
 30
0.0
 11
107.0
 21
90.29999999999999
 31
0.0
  0
LINE
  5
200
330
1E
100
AcDbEntity
  8
0
100
AcDbLine
 10
107.0
 20
91.5
 30
0.0
 11
107.0
 21
92.0
 31
0.0
  0
LINE
  5
201
330
1E
100
AcDbEntity
  8
0
100
AcDbLine
 10
107.0
 20
90.29999999999999
 30
0.0
 11
107.0
 21
91.5
 31
0.0
  0
LINE
  5
202
330
1E
100
AcDbEntity
  8
0
100
AcDbLine
 10
107.5579999999999
 20
86.2
 30
0.0
 11
107.5579999999999
 21
82.70000000000001
 31
0.0
  0
LINE
  5
203
330
1E
100
AcDbEntity
  8
0
100
AcDbLine
 10
107.5579999999999
 20
86.2
 30
0.0
 11
107.5579999999999
 21
89.19999999999999
 31
0.0
  0
LINE
  5
204
330
1E
100
AcDbEntity
  8
0
100
AcDbLine
 10
107.5579999999999
 20
82.70000000000001
 30
0.0
 11
107.5579999999999
 21
79.0
 31
0.0
  0
LINE
  5
205
330
1E
100
AcDbEntity
  8
0
100
AcDbLine
 10
107.5579999999999
 20
82.70000000000001
 30
0.0
 11
107.5579999999999
 21
86.2
 31
0.0
  0
LINE
  5
206
330
1E
100
AcDbEntity
  8
0
100
AcDbLine
 10
107.5579999999999
 20
89.19999999999999
 30
0.0
 11
107.5579999999999
 21
91.6
 31
0.0
  0
LINE
  5
207
330
1E
100
AcDbEntity
  8
0
100
AcDbLine
 10
107.5579999999999
 20
89.19999999999999
 30
0.0
 11
107.5579999999999
 21
86.2
 31
0.0
  0
LINE
  5
208
330
1E
100
AcDbEntity
  8
0
100
AcDbLine
 10
107.5579999999999
 20
91.6
 30
0.0
 11
107.5579999999999
 21
89.19999999999999
 31
0.0
  0
LINE
  5
209
330
1E
100
AcDbEntity
  8
0
100
AcDbLine
 10
107.5579999999999
 20
91.6
 30
0.0
 11
107.5579999999999
 21
93.0
 31
0.0
  0
LINE
  5
20A
330
1E
100
AcDbEntity
  8
0
100
AcDbLine
 10
107.5579999999999
 20
93.0
 30
0.0
 11
107.5579999999999
 21
91.6
 31
0.0
  0
LINE
  5
20B
330
1E
100
AcDbEntity
  8
0
100
AcDbLine
 10
107.5579999999999
 20
93.0
 30
0.0
 11
107.5579999999999
 21
93.49999999999999
 31
0.0
  0
LINE
  5
20C
330
1E
100
AcDbEntity
  8
0
100
AcDbLine
 10
107.0
 20
92.0
 30
0.0
 11
107.5579999999999
 21
93.49999999999999
 31
0.0
  0
LINE
  5
20D
330
1E
100
AcDbEntity
  8
0
100
AcDbLine
 10
107.0
 20
92.0
 30
0.0
 11
107.0
 21
91.5
 31
0.0
  0
LINE
  5
20E
330
1E
100
AcDbEntity
  8
0
100
AcDbLine
 10
107.5579999999999
 20
93.49999999999999
 30
0.0
 11
109.231
 21
94.0
 31
0.0
  0
LINE
  5
20F
330
1E
100
AcDbEntity
  8
0
100
AcDbLine
 10
107.5579999999999
 20
93.49999999999999
 30
0.0
 11
107.5579999999999
 21
93.0
 31
0.0
  0
LINE
  5
210
330
1E
100
AcDbEntity
  8
0
100
AcDbLine
 10
118.154
 20
86.5
 30
0.0
 11
118.154
 21
82.9
 31
0.0
  0
LINE
  5
211
330
1E
100
AcDbEntity
  8
0
100
AcDbLine
 10
118.154
 20
86.5
 30
0.0
 11
118.154
 21
89.59999999999999
 31
0.0
  0
LINE
  5
212
330
1E
100
AcDbEntity
  8
0
100
AcDbLine
 10
118.154
 20
82.9
 30
0.0
 11
118.154
 21
79.0
 31
0.0
  0
LINE
  5
213
330
1E
100
AcDbEntity
  8
0
100
AcDbLine
 10
118.154
 20
82.9
 30
0.0
 11
118.154
 21
86.5
 31
0.0
  0
LINE
  5
214
330
1E
100
AcDbEntity
  8
0
100
AcDbLine
 10
118.154
 20
89.59999999999999
 30
0.0
 11
118.154
 21
92.0
 31
0.0
  0
LINE
  5
215
330
1E
100
AcDbEntity
  8
0
100
AcDbLine
 10
118.154
 20
89.59999999999999
 30
0.0
 11
118.154
 21
86.5
 31
0.0
  0
LINE
  5
216
330
1E
100
AcDbEntity
  8
0
100
AcDbLine
 10
118.154
 20
92.0
 30
0.0
 11
118.154
 21
89.59999999999999
 31
0.0
  0
LINE
  5
217
330
1E
100
AcDbEntity
  8
0
100
AcDbLine
 10
118.154
 20
92.0
 30
0.0
 11
118.154
 21
93.49999999999999
 31
0.0
  0
LINE
  5
218
330
1E
100
AcDbEntity
  8
0
100
AcDbLine
 10
118.154
 20
93.49999999999999
 30
0.0
 11
118.154
 21
92.0
 31
0.0
  0
LINE
  5
219
330
1E
100
AcDbEntity
  8
0
100
AcDbLine
 10
118.154
 20
93.49999999999999
 30
0.0
 11
118.154
 21
94.0
 31
0.0
  0
LINE
  5
21A
330
1E
100
AcDbEntity
  8
0
100
AcDbLine
 10
109.231
 20
94.0
 30
0.0
 11
118.154
 21
94.0
 31
0.0
  0
LINE
  5
21B
330
1E
100
AcDbEntity
  8
0
100
AcDbLine
 10
118.154
 20
94.0
 30
0.0
 11
119.269
 21
95.0
 31
0.0
  0
LINE
  5
21C
330
1E
100
AcDbEntity
  8
0
100
AcDbLine
 10
118.154
 20
94.0
 30
0.0
 11
118.154
 21
93.49999999999999
 31
0.0
  0
LINE
  5
21D
330
1E
100
AcDbEntity
  8
0
100
AcDbLine
 10
119.827
 20
87.70000000000001
 30
0.0
 11
119.827
 21
83.49999999999999
 31
0.0
  0
LINE
  5
21E
330
1E
100
AcDbEntity
  8
0
100
AcDbLine
 10
119.827
 20
87.70000000000001
 30
0.0
 11
119.827
 21
91.4
 31
0.0
  0
LINE
  5
21F
330
1E
100
AcDbEntity
  8
0
100
AcDbLine
 10
119.827
 20
83.49999999999999
 30
0.0
 11
119.827
 21
79.0
 31
0.0
  0
LINE
  5
220
330
1E
100
AcDbEntity
  8
0
100
AcDbLine
 10
119.827
 20
83.49999999999999
 30
0.0
 11
119.827
 21
87.70000000000001
 31
0.0
  0
LINE
  5
221
330
1E
100
AcDbEntity
  8
0
100
AcDbLine
 10
119.827
 20
91.4
 30
0.0
 11
119.827
 21
94.19999999999999
 31
0.0
  0
LINE
  5
222
330
1E
100
AcDbEntity
  8
0
100
AcDbLine
 10
119.827
 20
91.4
 30
0.0
 11
119.827
 21
87.70000000000001
 31
0.0
  0
LINE
  5
223
330
1E
100
AcDbEntity
  8
0
100
AcDbLine
 10
119.827
 20
94.19999999999999
 30
0.0
 11
119.827
 21
91.4
 31
0.0
  0
LINE
  5
224
330
1E
100
AcDbEntity
  8
0
100
AcDbLine
 10
119.827
 20
94.19999999999999
 30
0.0
 11
119.827
 21
95.90000000000001
 31
0.0
  0
LINE
  5
225
330
1E
100
AcDbEntity
  8
0
100
AcDbLine
 10
119.827
 20
95.90000000000001
 30
0.0
 11
119.827
 21
94.19999999999999
 31
0.0
  0
LINE
  5
226
330
1E
100
AcDbEntity
  8
0
100
AcDbLine
 10
119.827
 20
95.90000000000001
 30
0.0
 11
119.827
 21
96.5
 31
0.0
  0
LINE
  5
227
330
1E
100
AcDbEntity
  8
0
100
AcDbLine
 10
119.269
 20
95.0
 30
0.0
 11
119.827
 21
96.5
 31
0.0
  0
LINE
  5
228
330
1E
100
AcDbEntity
  8
0
100
AcDbLine
 10
119.827
 20
96.5
 30
0.0
 11
121.5
 21
97.0
 31
0.0
  0
LINE
  5
229
330
1E
100
AcDbEntity
  8
0
100
AcDbLine
 10
119.827
 20
96.5
 30
0.0
 11
119.827
 21
95.90000000000001
 31
0.0
  0
LINE
  5
22A
330
1E
100
AcDbEntity
  8
0
100
AcDbLine
 10
121.5
 20
97.0
 30
0.0
 11
122.615
 21
97.0
 31
0.0
  0
LINE
  5
22B
330
1E
100
AcDbEntity
  8
0
100
AcDbLine
 10
122.615
 20
97.0
 30
0.0
 11
127.077
 21
98.50000000000001
 31
0.0
  0
LINE
  5
22C
330
1E
100
AcDbEntity
  8
0
100
AcDbLine
 10
127.077
 20
98.50000000000001
 30
0.0
 11
130.9809999999999
 21
101.5
 31
0.0
  0
LINE
  5
22D
330
1E
100
AcDbEntity
  8
0
100
AcDbLine
 10
130.9809999999999
 20
101.5
 30
0.0
 11
132.654
 21
104.0
 31
0.0
  0
LINE
  5
22E
330
1E
100
AcDbEntity
  8
0
100
AcDbLine
 10
133.212
 20
92.2
 30
0.0
 11
133.212
 21
85.8
 31
0.0
  0
LINE
  5
22F
330
1E
100
AcDbEntity
  8
0
100
AcDbLine
 10
133.212
 20
92.2
 30
0.0
 11
133.212
 21
97.70000000000001
 31
0.0
  0
LINE
  5
230
330
1E
100
AcDbEntity
  8
0
100
AcDbLine
 10
133.212
 20
85.8
 30
0.0
 11
133.212
 21
79.0
 31
0.0
  0
LINE
  5
231
330
1E
100
AcDbEntity
  8
0
100
AcDbLine
 10
133.212
 20
85.8
 30
0.0
 11
133.212
 21
92.2
 31
0.0
  0
LINE
  5
232
330
1E
100
AcDbEntity
  8
0
100
AcDbLine
 10
133.212
 20
97.70000000000001
 30
0.0
 11
133.212
 21
102.0
 31
0.0
  0
LINE
  5
233
330
1E
100
AcDbEntity
  8
0
100
AcDbLine
 10
133.212
 20
97.70000000000001
 30
0.0
 11
133.212
 21
92.2
 31
0.0
  0
LINE
  5
234
330
1E
100
AcDbEntity
  8
0
100
AcDbLine
 10
133.212
 20
102.0
 30
0.0
 11
133.212
 21
97.70000000000001
 31
0.0
  0
LINE
  5
235
330
1E
100
AcDbEntity
  8
0
100
AcDbLine
 10
133.212
 20
102.0
 30
0.0
 11
133.212
 21
104.4999999999999
 31
0.0
  0
LINE
  5
236
330
1E
100
AcDbEntity
  8
0
100
AcDbLine
 10
133.212
 20
104.4999999999999
 30
0.0
 11
133.212
 21
102.0
 31
0.0
  0
LINE
  5
237
330
1E
100
AcDbEntity
  8
0
100
AcDbLine
 10
133.212
 20
104.4999999999999
 30
0.0
 11
133.212
 21
105.4999999999999
 31
0.0
  0
LINE
  5
238
330
1E
100
AcDbEntity
  8
0
100
AcDbLine
 10
132.654
 20
104.0
 30
0.0
 11
133.212
 21
105.4999999999999
 31
0.0
  0
LINE
  5
239
330
1E
100
AcDbEntity
  8
0
100
AcDbLine
 10
133.212
 20
105.4999999999999
 30
0.0
 11
134.8849999999999
 21
106.0
 31
0.0
  0
LINE
  5
23A
330
1E
100
AcDbEntity
  8
0
100
AcDbLine
 10
133.212
 20
105.4999999999999
 30
0.0
 11
133.212
 21
104.4999999999999
 31
0.0
  0
LINE
  5
23B
330
1E
100
AcDbEntity
  8
0
100
AcDbLine
 10
136.0
 20
92.4
 30
0.0
 11
136.0
 21
85.90000000000001
 31
0.0
  0
LINE
  5
23C
330
1E
100
AcDbEntity
  8
0
100
AcDbLine
 10
136.0
 20
92.4
 30
0.0
 11
136.0
 21
98.1
 31
0.0
  0
LINE
  5
23D
330
1E
100
AcDbEntity
  8
0
100
AcDbLine
 10
136.0
 20
85.90000000000001
 30
0.0
 11
136.0
 21
79.0
 31
0.0
  0
LINE
  5
23E
330
1E
100
AcDbEntity
  8
0
100
AcDbLine
 10
136.0
 20
85.90000000000001
 30
0.0
 11
136.0
 21
92.4
 31
0.0
  0
LINE
  5
23F
330
1E
100
AcDbEntity
  8
0
100
AcDbLine
 10
136.0
 20
98.1
 30
0.0
 11
136.0
 21
102.4
 31
0.0
  0
LINE
  5
240
330
1E
100
AcDbEntity
  8
0
100
AcDbLine
 10
136.0
 20
98.1
 30
0.0
 11
136.0
 21
92.4
 31
0.0
  0
LINE
  5
241
330
1E
100
AcDbEntity
  8
0
100
AcDbLine
 10
136.0
 20
102.4
 30
0.0
 11
136.0
 21
98.1
 31
0.0
  0
LINE
  5
242
330
1E
100
AcDbEntity
  8
0
100
AcDbLine
 10
136.0
 20
102.4
 30
0.0
 11
136.0
 21
105.0
 31
0.0
  0
LINE
  5
243
330
1E
100
AcDbEntity
  8
0
100
AcDbLine
 10
136.0
 20
105.0
 30
0.0
 11
136.0
 21
102.4
 31
0.0
  0
LINE
  5
244
330
1E
100
AcDbEntity
  8
0
100
AcDbLine
 10
136.0
 20
105.0
 30
0.0
 11
136.0
 21
106.0
 31
0.0
  0
LINE
  5
245
330
1E
100
AcDbEntity
  8
0
100
AcDbLine
 10
136.0
 20
106.0
 30
0.0
 11
136.0
 21
105.0
 31
0.0
  0
LINE
  5
246
330
1E
100
AcDbEntity
  8
0
100
AcDbLine
 10
134.8849999999999
 20
106.0
 30
0.0
 11
136.0
 21
106.0
 31
0.0
  0
LINE
  5
247
330
1E
100
AcDbEntity
  8
0
100
AcDbLine
 10
136.0
 20
79.0
 30
0.0
 11
136.0
 21
72.09999999999999
 31
0.0
  0
LINE
  5
248
330
1E
100
AcDbEntity
  8
0
100
AcDbLine
 10
136.0
 20
79.0
 30
0.0
 11
136.0
 21
85.90000000000001
 31
0.0
  0
LINE
  5
249
330
1E
100
AcDbEntity
  8
0
100
AcDbLine
 10
107.0
 20
70.3
 30
0.0
 11
107.0
 21
69.40000000000001
 31
0.0
  0
LINE
  5
24A
330
1E
100
AcDbEntity
  8
0
100
AcDbLine
 10
107.0
 20
69.40000000000001
 30
0.0
 11
107.0
 21
69.0
 31
0.0
  0
LINE
  5
24B
330
1E
100
AcDbEntity
  8
0
100
AcDbLine
 10
105.4999999999999
 20
69.5
 30
0.0
 11
107.0
 21
69.0
 31
0.0
  0
ENDSEC
  0
SECTION
  2
OBJECTS
  0
DICTIONARY
  5
C
330
0
100
AcDbDictionary
281
     1
  3
ACAD_GROUP
350
D
  3
ACAD_LAYOUT
350
19
  3
ACAD_MLINESTYLE
350
16
  3
ACAD_PLOTSETTINGS
350
18
  3
ACAD_PLOTSTYLENAME
350
E
  3
AcDbVariableDictionary
350
250
  0
DICTIONARY
  5
D
102
{ACAD_REACTORS
330
C
102
}
330
C
100
AcDbDictionary
281
     1
  0
DICTIONARY
  5
19
102
{ACAD_REACTORS
330
C
102
}
330
C
100
AcDbDictionary
281
     1
  3
Layout1
350
1D
  3
Model
350
21
  0
DICTIONARY
  5
16
102
{ACAD_REACTORS
330
C
102
}
330
C
100
AcDbDictionary
281
     1
  3
Standard
350
17
  0
DICTIONARY
  5
18
102
{ACAD_REACTORS
330
C
102
}
330
C
100
AcDbDictionary
281
     1
  0
ACDBDICTIONARYWDFLT
  5
E
102
{ACAD_REACTORS
330
C
102
}
330
C
100
AcDbDictionary
281
     1
  3
Normal
350
F
100
AcDbDictionaryWithDefault
340
F
  0
DICTIONARY
  5
250
102
{ACAD_REACTORS
330
C
102
}
330
C
100
AcDbDictionary
281
     1
  3
DIMASSOC
350
251
  0
LAYOUT
  5
1D
102
{ACAD_REACTORS
330
19
102
}
330
19
100
AcDbPlotSettings
  1

  2
hp deskjet 980c series
  4

  6

 40
0.0
 41
0.0
 42
0.0
 43
0.0
 44
0.0
 45
0.0
 46
0.0
 47
0.0
 48
0.0
 49
0.0
140
0.0
141
0.0
142
1.0
143
1.0
 70
   688
 72
     0
 73
     0
 74
     5
  7

 75
    16
147
1.0
148
0.0
149
0.0
100
AcDbLayout
  1
Layout1
 70
     1
 71
     1
 10
0.0
 20
0.0
 11
12.0
 21
9.0
 12
0.0
 22
0.0
 32
0.0
 14
1.000000000000000E+20
 24
1.000000000000000E+20
 34
1.000000000000000E+20
 15
-1.000000000000000E+20
 25
-1.000000000000000E+20
 35
-1.000000000000000E+20
146
0.0
 13
0.0
 23
0.0
 33
0.0
 16
1.0
 26
0.0
 36
0.0
 17
0.0
 27
1.0
 37
0.0
 76
     0
330
1A
  0
LAYOUT
  5
21
102
{ACAD_REACTORS
330
19
102
}
330
19
100
AcDbPlotSettings
  1

  2
hp deskjet 980c series
  4

  6

 40
0.0
 41
0.0
 42
0.0
 43
0.0
 44
0.0
 45
0.0
 46
0.0
 47
0.0
 48
0.0
 49
0.0
140
0.0
141
0.0
142
1.0
143
1.0
 70
  1712
 72
     0
 73
     0
 74
     0
  7

 75
     0
147
1.0
148
0.0
149
0.0
100
AcDbLayout
  1
Model
 70
     1
 71
     0
 10
0.0
 20
0.0
 11
12.0
 21
9.0
 12
0.0
 22
0.0
 32
0.0
 14
0.0
 24
0.0
 34
0.0
 15
0.0
 25
0.0
 35
0.0
146
0.0
 13
0.0
 23
0.0
 33
0.0
 16
1.0
 26
0.0
 36
0.0
 17
0.0
 27
1.0
 37
0.0
 76
     0
330
1E
  0
MLINESTYLE
  5
17
102
{ACAD_REACTORS
330
16
102
}
330
16
100
AcDbMlineStyle
  2
STANDARD
 70
     0
  3

 62
   256
 51
90.0
 52
90.0
 71
     2
 49
0.5
 62
   256
  6
BYLAYER
 49
-0.5
 62
   256
  6
BYLAYER
  0
ACDBPLACEHOLDER
  5
F
102
{ACAD_REACTORS
330
E
102
}
330
E
  0
DICTIONARYVAR
  5
251
102
{ACAD_REACTORS
330
250
102
}
330
250
100
DictionaryVariables
280
     0
  1
1
  0
ENDSEC
  0
EOF
