  0
SECTION
  2
HEADER
  9
$ACADVER
  1
AC1015
  9
$ACADMAINTVER
 70
    13
  9
$DWGCODEPAGE
  3
ANSI_1252
  9
$INSBASE
 10
0.0
 20
0.0
 30
0.0
  9
$EXTMIN
 10
0.06525849999999
 20
0.0144000000000155
 30
0.0
  9
$EXTMAX
 10
243.9347414999999
 20
1009.9856
 30
0.0
  9
$LIMMIN
 10
0.0
 20
0.0
  9
$LIMMAX
 10
12.0
 20
9.0
  9
$ORTHOMODE
 70
     0
  9
$REGENMODE
 70
     1
  9
$FILLMODE
 70
     1
  9
$QTEXTMODE
 70
     0
  9
$MIRRTEXT
 70
     1
  9
$LTSCALE
 40
1.0
  9
$ATTMODE
 70
     1
  9
$TEXTSIZE
 40
0.2
  9
$TRACEWID
 40
0.05
  9
$TEXTSTYLE
  7
Standard
  9
$CLAYER
  8
0
  9
$CELTYPE
  6
Continuous
  9
$CECOLOR
 62
   256
  9
$CELTSCALE
 40
1.0
  9
$DISPSILH
 70
     0
  9
$DIMSCALE
 40
1.0
  9
$DIMASZ
 40
0.18
  9
$DIMEXO
 40
0.0625
  9
$DIMDLI
 40
0.38
  9
$DIMRND
 40
0.0
  9
$DIMDLE
 40
0.0
  9
$DIMEXE
 40
0.18
  9
$DIMTP
 40
0.0
  9
$DIMTM
 40
0.0
  9
$DIMTXT
 40
0.18
  9
$DIMCEN
 40
0.09
  9
$DIMTSZ
 40
0.0
  9
$DIMTOL
 70
     0
  9
$DIMLIM
 70
     0
  9
$DIMTIH
 70
     1
  9
$DIMTOH
 70
     1
  9
$DIMSE1
 70
     0
  9
$DIMSE2
 70
     0
  9
$DIMTAD
 70
     0
  9
$DIMZIN
 70
     0
  9
$DIMBLK
  1

  9
$DIMASO
 70
     1
  9
$DIMSHO
 70
     1
  9
$DIMPOST
  1

  9
$DIMAPOST
  1

  9
$DIMALT
 70
     0
  9
$DIMALTD
 70
     2
  9
$DIMALTF
 40
25.4
  9
$DIMLFAC
 40
1.0
  9
$DIMTOFL
 70
     0
  9
$DIMTVP
 40
0.0
  9
$DIMTIX
 70
     0
  9
$DIMSOXD
 70
     0
  9
$DIMSAH
 70
     0
  9
$DIMBLK1
  1

  9
$DIMBLK2
  1

  9
$DIMSTYLE
  2
Standard
  9
$DIMCLRD
 70
     0
  9
$DIMCLRE
 70
     0
  9
$DIMCLRT
 70
     0
  9
$DIMTFAC
 40
1.0
  9
$DIMGAP
 40
0.09
  9
$DIMJUST
 70
     0
  9
$DIMSD1
 70
     0
  9
$DIMSD2
 70
     0
  9
$DIMTOLJ
 70
     1
  9
$DIMTZIN
 70
     0
  9
$DIMALTZ
 70
     0
  9
$DIMALTTZ
 70
     0
  9
$DIMUPT
 70
     0
  9
$DIMDEC
 70
     4
  9
$DIMTDEC
 70
     4
  9
$DIMALTU
 70
     2
  9
$DIMALTTD
 70
     2
  9
$DIMTXSTY
  7
Standard
  9
$DIMAUNIT
 70
     0
  9
$DIMADEC
 70
     0
  9
$DIMALTRND
 40
0.0
  9
$DIMAZIN
 70
     0
  9
$DIMDSEP
 70
    46
  9
$DIMATFIT
 70
     3
  9
$DIMFRAC
 70
     0
  9
$DIMLDRBLK
  1

  9
$DIMLUNIT
 70
     2
  9
$DIMLWD
 70
    -2
  9
$DIMLWE
 70
    -2
  9
$DIMTMOVE
 70
     0
  9
$LUNITS
 70
     2
  9
$LUPREC
 70
     4
  9
$SKETCHINC
 40
0.1
  9
$FILLETRAD
 40
0.0
  9
$AUNITS
 70
     0
  9
$AUPREC
 70
     0
  9
$MENU
  1
.
  9
$ELEVATION
 40
0.0
  9
$PELEVATION
 40
0.0
  9
$THICKNESS
 40
0.0
  9
$LIMCHECK
 70
     0
  9
$CHAMFERA
 40
0.0
  9
$CHAMFERB
 40
0.0
  9
$CHAMFERC
 40
0.0
  9
$CHAMFERD
 40
0.0
  9
$SKPOLY
 70
     0
  9
$TDCREATE
 40
2454749.789382233
  9
$TDUCREATE
 40
2454749.706048900
  9
$TDUPDATE
 40
2454749.796010914
  9
$TDUUPDATE
 40
2454749.712677581
  9
$TDINDWG
 40
0.0066288657
  9
$TDUSRTIMER
 40
0.0066288657
  9
$USRTIMER
 70
     1
  9
$ANGBASE
 50
0.0
  9
$ANGDIR
 70
     0
  9
$PDMODE
 70
     0
  9
$PDSIZE
 40
0.0
  9
$PLINEWID
 40
0.0
  9
$SPLFRAME
 70
     0
  9
$SPLINETYPE
 70
     6
  9
$SPLINESEGS
 70
     8
  9
$HANDSEED
  5
592
  9
$SURFTAB1
 70
     6
  9
$SURFTAB2
 70
     6
  9
$SURFTYPE
 70
     6
  9
$SURFU
 70
     6
  9
$SURFV
 70
     6
  9
$UCSBASE
  2

  9
$UCSNAME
  2

  9
$UCSORG
 10
0.0
 20
0.0
 30
0.0
  9
$UCSXDIR
 10
1.0
 20
0.0
 30
0.0
  9
$UCSYDIR
 10
0.0
 20
1.0
 30
0.0
  9
$UCSORTHOREF
  2

  9
$UCSORTHOVIEW
 70
     1
  9
$UCSORGTOP
 10
0.0
 20
0.0
 30
0.0
  9
$UCSORGBOTTOM
 10
0.0
 20
0.0
 30
0.0
  9
$UCSORGLEFT
 10
0.0
 20
0.0
 30
0.0
  9
$UCSORGRIGHT
 10
0.0
 20
0.0
 30
0.0
  9
$UCSORGFRONT
 10
0.0
 20
0.0
 30
0.0
  9
$UCSORGBACK
 10
0.0
 20
0.0
 30
0.0
  9
$PUCSBASE
  2

  9
$PUCSNAME
  2

  9
$PUCSORG
 10
0.0
 20
0.0
 30
0.0
  9
$PUCSXDIR
 10
1.0
 20
0.0
 30
0.0
  9
$PUCSYDIR
 10
0.0
 20
1.0
 30
0.0
  9
$PUCSORTHOREF
  2

  9
$PUCSORTHOVIEW
 70
     0
  9
$PUCSORGTOP
 10
0.0
 20
0.0
 30
0.0
  9
$PUCSORGBOTTOM
 10
0.0
 20
0.0
 30
0.0
  9
$PUCSORGLEFT
 10
0.0
 20
0.0
 30
0.0
  9
$PUCSORGRIGHT
 10
0.0
 20
0.0
 30
0.0
  9
$PUCSORGFRONT
 10
0.0
 20
0.0
 30
0.0
  9
$PUCSORGBACK
 10
0.0
 20
0.0
 30
0.0
  9
$USERI1
 70
     0
  9
$USERI2
 70
     0
  9
$USERI3
 70
     0
  9
$USERI4
 70
     0
  9
$USERI5
 70
     0
  9
$USERR1
 40
0.0
  9
$USERR2
 40
0.0
  9
$USERR3
 40
0.0
  9
$USERR4
 40
0.0
  9
$USERR5
 40
0.0
  9
$WORLDVIEW
 70
     1
  9
$SHADEDGE
 70
     3
  9
$SHADEDIF
 70
    70
  9
$TILEMODE
 70
     1
  9
$MAXACTVP
 70
    64
  9
$PINSBASE
 10
0.0
 20
0.0
 30
0.0
  9
$PLIMCHECK
 70
     0
  9
$PEXTMIN
 10
1.000000000000000E+20
 20
1.000000000000000E+20
 30
1.000000000000000E+20
  9
$PEXTMAX
 10
-1.000000000000000E+20
 20
-1.000000000000000E+20
 30
-1.000000000000000E+20
  9
$PLIMMIN
 10
0.0
 20
0.0
  9
$PLIMMAX
 10
12.0
 20
9.0
  9
$UNITMODE
 70
     0
  9
$VISRETAIN
 70
     1
  9
$PLINEGEN
 70
     0
  9
$PSLTSCALE
 70
     1
  9
$TREEDEPTH
 70
  3020
  9
$CMLSTYLE
  2
Standard
  9
$CMLJUST
 70
     0
  9
$CMLSCALE
 40
1.0
  9
$PROXYGRAPHICS
 70
     1
  9
$MEASUREMENT
 70
     0
  9
$CELWEIGHT
370
    -1
  9
$ENDCAPS
280
     0
  9
$JOINSTYLE
280
     0
  9
$LWDISPLAY
290
     0
  9
$INSUNITS
 70
     0
  9
$HYPERLINKBASE
  1

  9
$STYLESHEET
  1

  9
$XEDIT
290
     1
  9
$CEPSNTYPE
380
     0
  9
$PSTYLEMODE
290
     1
  9
$FINGERPRINTGUID
  2
{9559C2EB-71EC-4671-B55E-D577AC7041B8}
  9
$VERSIONGUID
  2
{CDA5059D-1EA3-4D2E-8450-64AB1558697A}
  9
$EXTNAMES
290
     1
  9
$PSVPSCALE
 40
0.0
  9
$OLESTARTUP
290
     0
  0
ENDSEC
  0
SECTION
  2
CLASSES
  0
CLASS
  1
ACDBDICTIONARYWDFLT
  2
AcDbDictionaryWithDefault
  3
AutoCAD 2000
 90
        0
280
     0
281
     0
  0
CLASS
  1
ACDBPLACEHOLDER
  2
AcDbPlaceHolder
  3
AutoCAD 2000
 90
        0
280
     0
281
     0
  0
CLASS
  1
LAYOUT
  2
AcDbLayout
  3
AutoCAD 2000
 90
        0
280
     0
281
     0
  0
CLASS
  1
DICTIONARYVAR
  2
AcDbDictionaryVar
  3
AutoCAD 2000
 90
        0
280
     0
281
     0
  0
ENDSEC
  0
SECTION
  2
TABLES
  0
TABLE
  2
VPORT
  5
8
330
0
100
AcDbSymbolTable
 70
     4
  0
VPORT
  5
591
330
8
100
AcDbSymbolTableRecord
100
AcDbViewportTableRecord
  2
*Active
 70
     0
 10
0.0
 20
0.0
 11
1.0
 21
1.0
 12
121.9999999999999
 22
505.0
 13
0.0
 23
0.0
 14
1.0
 24
1.0
 15
0.0
 25
0.0
 16
0.0
 26
0.0
 36
1.0
 17
0.0
 27
0.0
 37
0.0
 40
1017.720339641943
 41
2.078104993597951
 42
50.0
 43
0.0
 44
0.0
 50
0.0
 51
0.0
 71
     0
 72
   100
 73
     1
 74
     3
 75
     0
 76
     0
 77
     0
 78
     0
281
     0
 65
     1
110
0.0
120
0.0
130
0.0
111
1.0
121
0.0
131
0.0
112
0.0
122
1.0
132
0.0
 79
     1
146
0.0
  0
ENDTAB
  0
TABLE
  2
LTYPE
  5
5
330
0
100
AcDbSymbolTable
 70
     1
  0
LTYPE
  5
13
330
5
100
AcDbSymbolTableRecord
100
AcDbLinetypeTableRecord
  2
ByBlock
 70
     0
  3

 72
    65
 73
     0
 40
0.0
  0
LTYPE
  5
14
330
5
100
AcDbSymbolTableRecord
100
AcDbLinetypeTableRecord
  2
ByLayer
 70
     0
  3

 72
    65
 73
     0
 40
0.0
  0
LTYPE
  5
15
330
5
100
AcDbSymbolTableRecord
100
AcDbLinetypeTableRecord
  2
Continuous
 70
     0
  3
Solid line
 72
    65
 73
     0
 40
0.0
  0
ENDTAB
  0
TABLE
  2
LAYER
  5
2
330
0
100
AcDbSymbolTable
 70
     1
  0
LAYER
  5
10
330
2
100
AcDbSymbolTableRecord
100
AcDbLayerTableRecord
  2
0
 70
     0
 62
     7
  6
Continuous
370
    -3
390
F
  0
ENDTAB
  0
TABLE
  2
STYLE
  5
3
330
0
100
AcDbSymbolTable
 70
     1
  0
STYLE
  5
11
330
3
100
AcDbSymbolTableRecord
100
AcDbTextStyleTableRecord
  2
Standard
 70
     0
 40
0.0
 41
1.0
 50
0.0
 71
     0
 42
0.2
  3
txt
  4

  0
ENDTAB
  0
TABLE
  2
VIEW
  5
6
330
0
100
AcDbSymbolTable
 70
     0
  0
ENDTAB
  0
TABLE
  2
UCS
  5
7
330
0
100
AcDbSymbolTable
 70
     0
  0
ENDTAB
  0
TABLE
  2
APPID
  5
9
330
0
100
AcDbSymbolTable
 70
     1
  0
APPID
  5
12
330
9
100
AcDbSymbolTableRecord
100
AcDbRegAppTableRecord
  2
ACAD
 70
     0
  0
ENDTAB
  0
TABLE
  2
DIMSTYLE
  5
A
330
0
100
AcDbSymbolTable
 70
     1
100
AcDbDimStyleTable
 71
     0
  0
DIMSTYLE
105
585
330
A
100
AcDbSymbolTableRecord
100
AcDbDimStyleTableRecord
  2
Standard
 70
     0
340
11
  0
ENDTAB
  0
TABLE
  2
BLOCK_RECORD
  5
1
330
0
100
AcDbSymbolTable
 70
     0
  0
BLOCK_RECORD
  5
1E
330
1
100
AcDbSymbolTableRecord
100
AcDbBlockTableRecord
  2
*Model_Space
340
21
  0
BLOCK_RECORD
  5
1A
330
1
100
AcDbSymbolTableRecord
100
AcDbBlockTableRecord
  2
*Paper_Space
340
1D
  0
ENDTAB
  0
ENDSEC
  0
SECTION
  2
BLOCKS
  0
BLOCK
  5
1F
330
1E
100
AcDbEntity
  8
0
100
AcDbBlockBegin
  2
*Model_Space
 70
     0
 10
0.0
 20
0.0
 30
0.0
  3
*Model_Space
  1

  0
ENDBLK
  5
20
330
1E
100
AcDbEntity
  8
0
100
AcDbBlockEnd
  0
BLOCK
  5
1B
330
1A
100
AcDbEntity
 67
     1
  8
0
100
AcDbBlockBegin
  2
*Paper_Space
 70
     0
 10
0.0
 20
0.0
 30
0.0
  3
*Paper_Space
  1

  0
ENDBLK
  5
1C
330
1A
100
AcDbEntity
 67
     1
  8
0
100
AcDbBlockEnd
  0
ENDSEC
  0
SECTION
  2
ENTITIES
  0
LINE
  5
22
330
1E
100
AcDbEntity
  8
0
100
AcDbLine
 10
175.8017414999999
 20
28.9856
 30
0.0
 11
177.0147415
 21
28.9856
 31
0.0
  0
LINE
  5
23
330
1E
100
AcDbEntity
  8
0
100
AcDbLine
 10
176.2347415
 20
28.4856
 30
0.0
 11
176.6677415
 21
28.4856
 31
0.0
  0
LINE
  5
24
330
1E
100
AcDbEntity
  8
0
100
AcDbLine
 10
174.9347415
 20
30.4856
 30
0.0
 11
175.3677415
 21
31.4856
 31
0.0
  0
LINE
  5
25
330
1E
100
AcDbEntity
  8
0
100
AcDbLine
 10
174.9347415
 20
30.4856
 30
0.0
 11
174.9347415
 21
29.9856
 31
0.0
  0
LINE
  5
26
330
1E
100
AcDbEntity
  8
0
100
AcDbLine
 10
175.8017414999999
 20
31.4856
 30
0.0
 11
177.0147415
 21
31.4856
 31
0.0
  0
LINE
  5
27
330
1E
100
AcDbEntity
  8
0
100
AcDbLine
 10
176.2347415
 20
31.9856
 30
0.0
 11
176.6677415
 21
32.9856
 31
0.0
  0
LINE
  5
28
330
1E
100
AcDbEntity
  8
0
100
AcDbLine
 10
176.2347415
 20
31.9856
 30
0.0
 11
176.6677415
 21
31.9856
 31
0.0
  0
LINE
  5
29
330
1E
100
AcDbEntity
  8
0
100
AcDbLine
 10
175.3677415
 20
31.4856
 30
0.0
 11
176.2347415
 21
31.9856
 31
0.0
  0
LINE
  5
2A
330
1E
100
AcDbEntity
  8
0
100
AcDbLine
 10
175.3677415
 20
31.4856
 30
0.0
 11
175.8017414999999
 21
31.4856
 31
0.0
  0
LINE
  5
2B
330
1E
100
AcDbEntity
  8
0
100
AcDbLine
 10
174.9347415
 20
29.9856
 30
0.0
 11
175.3677415
 21
28.9856
 31
0.0
  0
LINE
  5
2C
330
1E
100
AcDbEntity
  8
0
100
AcDbLine
 10
174.9347415
 20
29.9856
 30
0.0
 11
174.9347415
 21
30.4856
 31
0.0
  0
LINE
  5
2D
330
1E
100
AcDbEntity
  8
0
100
AcDbLine
 10
175.3677415
 20
28.9856
 30
0.0
 11
176.2347415
 21
28.4856
 31
0.0
  0
LINE
  5
2E
330
1E
100
AcDbEntity
  8
0
100
AcDbLine
 10
175.3677415
 20
28.9856
 30
0.0
 11
175.8017414999999
 21
28.9856
 31
0.0
  0
LINE
  5
2F
330
1E
100
AcDbEntity
  8
0
100
AcDbLine
 10
176.6677415
 20
32.9856
 30
0.0
 11
177.1017415
 21
32.9856
 31
0.0
  0
LINE
  5
30
330
1E
100
AcDbEntity
  8
0
100
AcDbLine
 10
176.9347415
 20
32.9856
 30
0.0
 11
176.9347415
 21
100.6284571428569
 31
0.0
  0
LINE
  5
31
330
1E
100
AcDbEntity
  8
0
100
AcDbLine
 10
176.9347415
 20
32.9856
 30
0.0
 11
176.9347415
 21
100.6284571428569
 31
0.0
  0
LINE
  5
32
330
1E
100
AcDbEntity
  8
0
100
AcDbLine
 10
176.6677415
 20
31.9856
 30
0.0
 11
177.7947415
 21
31.9856
 31
0.0
  0
LINE
  5
33
330
1E
100
AcDbEntity
  8
0
100
AcDbLine
 10
176.6677415
 20
28.4856
 30
0.0
 11
177.7947415
 21
28.4856
 31
0.0
  0
LINE
  5
34
330
1E
100
AcDbEntity
  8
0
100
AcDbLine
 10
176.3347415
 20
100.9856
 30
0.0
 11
177.5347414999999
 21
100.9856
 31
0.0
  0
LINE
  5
35
330
1E
100
AcDbEntity
  8
0
100
AcDbLine
 10
174.9347415
 20
101.9856
 30
0.0
 11
175.4347414999999
 21
101.9856
 31
0.0
  0
LINE
  5
36
330
1E
100
AcDbEntity
  8
0
100
AcDbLine
 10
172.9347415
 20
132.9856
 30
0.0
 11
172.9347415
 21
133.4856
 31
0.0
  0
LINE
  5
37
330
1E
100
AcDbEntity
  8
0
100
AcDbLine
 10
172.9347415
 20
132.9856
 30
0.0
 11
173.4347415
 21
131.9856
 31
0.0
  0
LINE
  5
38
330
1E
100
AcDbEntity
  8
0
100
AcDbLine
 10
153.0517415
 20
696.7786
 30
0.0
 11
153.3987415
 21
696.9786
 31
0.0
  0
LINE
  5
39
330
1E
100
AcDbEntity
  8
0
100
AcDbLine
 10
153.0517415
 20
696.7786
 30
0.0
 11
181.4597415
 21
649.6666
 31
0.0
  0
LINE
  5
3A
330
1E
100
AcDbEntity
  8
0
100
AcDbLine
 10
153.3987415
 20
696.9786
 30
0.0
 11
154.3507415
 21
697.5285999999999
 31
0.0
  0
LINE
  5
3B
330
1E
100
AcDbEntity
  8
0
100
AcDbLine
 10
152.4877414999999
 20
698.6925999999999
 30
0.0
 11
154.1037415
 21
697.8936
 31
0.0
  0
LINE
  5
3C
330
1E
100
AcDbEntity
  8
0
100
AcDbLine
 10
154.3507415
 20
697.5285999999999
 30
0.0
 11
155.0852483669079
 21
697.9525255914721
 31
0.0
  0
LINE
  5
3D
330
1E
100
AcDbEntity
  8
0
100
AcDbLine
 10
154.3507415
 20
697.5285999999999
 30
0.0
 11
155.9967415
 21
698.4786
 31
0.0
  0
LINE
  5
3E
330
1E
100
AcDbEntity
  8
0
100
AcDbLine
 10
154.1037415
 20
697.8936
 30
0.0
 11
155.0852483669079
 21
697.9525255914721
 31
0.0
  0
LINE
  5
41
330
1E
100
AcDbEntity
  8
0
100
AcDbLine
 10
155.9967415
 20
698.4786
 30
0.0
 11
158.0747415
 21
699.6786
 31
0.0
  0
LINE
  5
42
330
1E
100
AcDbEntity
  8
0
100
AcDbLine
 10
171.8127415
 20
642.9656
 30
0.0
 11
172.4647414999999
 21
638.8476
 31
0.0
  0
LINE
  5
43
330
1E
100
AcDbEntity
  8
0
100
AcDbLine
 10
171.8127415
 20
642.9656
 30
0.0
 11
172.4157415
 21
647.1146
 31
0.0
  0
LINE
  5
44
330
1E
100
AcDbEntity
  8
0
100
AcDbLine
 10
158.0747415
 20
699.6786
 30
0.0
 11
160.4127415
 21
701.0285999999999
 31
0.0
  0
LINE
  5
47
330
1E
100
AcDbEntity
  8
0
100
AcDbLine
 10
116.7057415
 20
753.6675999999999
 30
0.0
 11
122.5227415
 21
742.5915999999999
 31
0.0
  0
LINE
  5
48
330
1E
100
AcDbEntity
  8
0
100
AcDbLine
 10
122.5227415
 20
742.5915999999999
 30
0.0
 11
129.2057415
 21
732.0166
 31
0.0
  0
LINE
  5
49
330
1E
100
AcDbEntity
  8
0
100
AcDbLine
 10
129.2057415
 20
732.0166
 30
0.0
 11
141.2557415
 21
714.1475999999999
 31
0.0
  0
LINE
  5
4A
330
1E
100
AcDbEntity
  8
0
100
AcDbLine
 10
147.9387414999999
 20
703.5715999999999
 30
0.0
 11
148.0057415
 21
702.4556
 31
0.0
  0
LINE
  5
4B
330
1E
100
AcDbEntity
  8
0
100
AcDbLine
 10
147.9387414999999
 20
703.5715999999999
 30
0.0
 11
148.5547415
 21
704.5046
 31
0.0
  0
LINE
  5
4D
330
1E
100
AcDbEntity
  8
0
100
AcDbLine
 10
148.9007415
 20
704.7046
 30
0.0
 11
149.8537415
 21
705.2545999999999
 31
0.0
  0
LINE
  5
4E
330
1E
100
AcDbEntity
  8
0
100
AcDbLine
 10
148.5547415
 20
704.5046
 30
0.0
 11
148.9007415
 21
704.7046
 31
0.0
  0
LINE
  5
4F
330
1E
100
AcDbEntity
  8
0
100
AcDbLine
 10
149.8537415
 20
705.2545999999999
 30
0.0
 11
151.4987415
 21
706.2046
 31
0.0
  0
LINE
  5
50
330
1E
100
AcDbEntity
  8
0
100
AcDbLine
 10
149.4777415
 20
703.3056
 30
0.0
 11
151.2957414999999
 21
704.3555999999999
 31
0.0
  0
LINE
  5
51
330
1E
100
AcDbEntity
  8
0
100
AcDbLine
 10
148.4387415
 20
702.7055999999999
 30
0.0
 11
149.4777415
 21
703.3056
 31
0.0
  0
LINE
  5
52
330
1E
100
AcDbEntity
  8
0
100
AcDbLine
 10
148.0057415
 20
702.4556
 30
0.0
 11
148.9387414999999
 21
701.8396
 31
0.0
  0
LINE
  5
53
330
1E
100
AcDbEntity
  8
0
100
AcDbLine
 10
148.0057415
 20
702.4556
 30
0.0
 11
148.4387415
 21
702.7055999999999
 31
0.0
  0
LINE
  5
54
330
1E
100
AcDbEntity
  8
0
100
AcDbLine
 10
148.9387414999999
 20
701.8396
 30
0.0
 11
150.0547414999999
 21
701.9066
 31
0.0
  0
LINE
  5
56
330
1E
100
AcDbEntity
  8
0
100
AcDbLine
 10
151.3537415
 20
702.6566
 30
0.0
 11
152.9987414999999
 21
703.6065999999999
 31
0.0
  0
LINE
  5
57
330
1E
100
AcDbEntity
  8
0
100
AcDbLine
 10
150.4007415
 20
702.1065999999999
 30
0.0
 11
151.3537415
 21
702.6566
 31
0.0
  0
LINE
  5
58
330
1E
100
AcDbEntity
  8
0
100
AcDbLine
 10
151.4987415
 20
706.2046
 30
0.0
 11
153.5777415
 21
707.4046
 31
0.0
  0
LINE
  5
59
330
1E
100
AcDbEntity
  8
0
100
AcDbLine
 10
153.5777415
 20
707.4046
 30
0.0
 11
155.9157415
 21
708.7545999999999
 31
0.0
  0
LINE
  5
5A
330
1E
100
AcDbEntity
  8
0
100
AcDbLine
 10
151.2957414999999
 20
704.3555999999999
 30
0.0
 11
153.6347414999999
 21
705.7056
 31
0.0
  0
LINE
  5
5B
330
1E
100
AcDbEntity
  8
0
100
AcDbLine
 10
153.6347414999999
 20
705.7056
 30
0.0
 11
156.4057415
 21
707.3056
 31
0.0
  0
LINE
  5
5C
330
1E
100
AcDbEntity
  8
0
100
AcDbLine
 10
152.9987414999999
 20
703.6065999999999
 30
0.0
 11
155.0777414999999
 21
704.8066
 31
0.0
  0
LINE
  5
5D
330
1E
100
AcDbEntity
  8
0
100
AcDbLine
 10
150.0547414999999
 20
701.9066
 30
0.0
 11
151.0547415
 21
700.1746
 31
0.0
  0
LINE
  5
5E
330
1E
100
AcDbEntity
  8
0
100
AcDbLine
 10
150.0547414999999
 20
701.9066
 30
0.0
 11
150.4007415
 21
702.1065999999999
 31
0.0
  0
LINE
  5
5F
330
1E
100
AcDbEntity
  8
0
100
AcDbLine
 10
151.0547415
 20
700.1746
 30
0.0
 11
152.4877414999999
 21
698.6925999999999
 31
0.0
  0
LINE
  5
60
330
1E
100
AcDbEntity
  8
0
100
AcDbLine
 10
141.2557415
 20
714.1475999999999
 30
0.0
 11
148.5547415
 21
704.5046
 31
0.0
  0
LINE
  5
61
330
1E
100
AcDbEntity
  8
0
100
AcDbLine
 10
101.4387415
 20
784.1126
 30
0.0
 11
102.5547415
 21
784.1796
 31
0.0
  0
LINE
  5
63
330
1E
100
AcDbEntity
  8
0
100
AcDbLine
 10
100.5057415
 20
784.7286
 30
0.0
 11
101.4387415
 21
784.1126
 31
0.0
  0
LINE
  5
64
330
1E
100
AcDbEntity
  8
0
100
AcDbLine
 10
100.5057415
 20
784.7286
 30
0.0
 11
100.9387415
 21
784.9786
 31
0.0
  0
LINE
  5
65
330
1E
100
AcDbEntity
  8
0
100
AcDbLine
 10
141.8207414999999
 20
768.1676
 30
0.0
 11
148.5037414999999
 21
757.5915999999999
 31
0.0
  0
LINE
  5
66
330
1E
100
AcDbEntity
  8
0
100
AcDbLine
 10
102.9007415
 20
784.3796
 30
0.0
 11
103.8537414999999
 21
784.9296
 31
0.0
  0
LINE
  5
67
330
1E
100
AcDbEntity
  8
0
100
AcDbLine
 10
107.2557415
 20
773.0366
 30
0.0
 11
116.7057415
 21
753.6675999999999
 31
0.0
  0
LINE
  5
68
330
1E
100
AcDbEntity
  8
0
100
AcDbLine
 10
102.5547415
 20
784.1796
 30
0.0
 11
107.2557415
 21
773.0366
 31
0.0
  0
LINE
  5
69
330
1E
100
AcDbEntity
  8
0
100
AcDbLine
 10
102.5547415
 20
784.1796
 30
0.0
 11
102.9007415
 21
784.3796
 31
0.0
  0
LINE
  5
6A
330
1E
100
AcDbEntity
  8
0
100
AcDbLine
 10
148.5037414999999
 20
757.5915999999999
 30
0.0
 11
154.3207414999999
 21
746.5166
 31
0.0
  0
LINE
  5
6B
330
1E
100
AcDbEntity
  8
0
100
AcDbLine
 10
155.0777414999999
 20
704.8066
 30
0.0
 11
157.4157414999999
 21
706.1566
 31
0.0
  0
LINE
  5
6C
330
1E
100
AcDbEntity
  8
0
100
AcDbLine
 10
155.9157415
 20
708.7545999999999
 30
0.0
 11
158.5137415
 21
710.2546
 31
0.0
  0
LINE
  5
6E
330
1E
100
AcDbEntity
  8
0
100
AcDbLine
 10
156.4057415
 20
707.3056
 30
0.0
 11
159.2637415
 21
708.9555999999999
 31
0.0
  0
LINE
  5
70
330
1E
100
AcDbEntity
  8
0
100
AcDbLine
 10
158.5137415
 20
710.2546
 30
0.0
 11
161.1117415
 21
711.7545999999999
 31
0.0
  0
LINE
  5
72
330
1E
100
AcDbEntity
  8
0
100
AcDbLine
 10
157.4157414999999
 20
706.1566
 30
0.0
 11
160.0137415
 21
707.6566
 31
0.0
  0
LINE
  5
73
330
1E
100
AcDbEntity
  8
0
100
AcDbLine
 10
154.3207414999999
 20
746.5166
 30
0.0
 11
163.7717415
 21
727.1475999999999
 31
0.0
  0
LINE
  5
74
330
1E
100
AcDbEntity
  8
0
100
AcDbLine
 10
51.6153415
 20
786.4086
 30
0.0
 11
52.5653415
 21
784.7625999999999
 31
0.0
  0
LINE
  5
75
330
1E
100
AcDbEntity
  8
0
100
AcDbLine
 10
100.9387415
 20
784.9786
 30
0.0
 11
101.9777415
 21
785.5786000000001
 31
0.0
  0
LINE
  5
76
330
1E
100
AcDbEntity
  8
0
100
AcDbLine
 10
103.8537414999999
 20
784.9296
 30
0.0
 11
105.4987415
 21
785.8795999999999
 31
0.0
  0
LINE
  5
77
330
1E
100
AcDbEntity
  8
0
100
AcDbLine
 10
101.9777415
 20
785.5786000000001
 30
0.0
 11
103.7957415
 21
786.6286
 31
0.0
  0
LINE
  5
78
330
1E
100
AcDbEntity
  8
0
100
AcDbLine
 10
103.7957415
 20
786.6286
 30
0.0
 11
106.1347414999999
 21
787.9786
 31
0.0
  0
LINE
  5
79
330
1E
100
AcDbEntity
  8
0
100
AcDbLine
 10
105.4987415
 20
785.8795999999999
 30
0.0
 11
107.5767415
 21
787.0796
 31
0.0
  0
LINE
  5
7A
330
1E
100
AcDbEntity
  8
0
100
AcDbLine
 10
100.4387415
 20
785.8446
 30
0.0
 11
101.0547415
 21
786.7776
 31
0.0
  0
LINE
  5
7B
330
1E
100
AcDbEntity
  8
0
100
AcDbLine
 10
100.4387415
 20
785.8446
 30
0.0
 11
100.5057415
 21
784.7286
 31
0.0
  0
LINE
  5
7D
330
1E
100
AcDbEntity
  8
0
100
AcDbLine
 10
129.7717414999999
 20
786.0365999999999
 30
0.0
 11
141.8207414999999
 21
768.1676
 31
0.0
  0
LINE
  5
7E
330
1E
100
AcDbEntity
  8
0
100
AcDbLine
 10
54.5473415
 20
785.3296
 30
0.0
 11
55.5964415
 21
786.5126
 31
0.0
  0
LINE
  5
7F
330
1E
100
AcDbEntity
  8
0
100
AcDbLine
 10
54.1143415
 20
785.0796
 30
0.0
 11
54.5473415
 21
785.3296
 31
0.0
  0
LINE
  5
80
330
1E
100
AcDbEntity
  8
0
100
AcDbLine
 10
52.5653415
 20
784.7625999999999
 30
0.0
 11
54.1143415
 21
785.0796
 31
0.0
  0
LINE
  5
81
330
1E
100
AcDbEntity
  8
0
100
AcDbLine
 10
51.3822415
 20
785.8115999999999
 30
0.0
 11
52.5653415
 21
784.7625999999999
 31
0.0
  0
LINE
  5
82
330
1E
100
AcDbEntity
  8
0
100
AcDbLine
 10
48.7204115986135
 20
790.4229673611618
 30
0.0
 11
50.48234149999999
 21
787.3705999999999
 31
0.0
  0
LINE
  5
83
330
1E
100
AcDbEntity
  8
0
100
AcDbLine
 10
49.06534149999999
 20
790.8256
 30
0.0
 11
51.6153415
 21
786.4086
 31
0.0
  0
LINE
  5
84
330
1E
100
AcDbEntity
  8
0
100
AcDbLine
 10
47.98234149999999
 20
791.7016
 30
0.0
 11
50.48234149999999
 21
787.3705999999999
 31
0.0
  0
LINE
  5
85
330
1E
100
AcDbEntity
  8
0
100
AcDbLine
 10
48.7204115986135
 20
790.4229673611618
 30
0.0
 11
50.48234149999999
 21
787.3705999999999
 31
0.0
  0
LINE
  5
86
330
1E
100
AcDbEntity
  8
0
100
AcDbLine
 10
50.48234149999999
 20
787.3705999999999
 30
0.0
 11
50.6956415000315
 21
787.001075941717
 31
0.0
  0
LINE
  5
87
330
1E
100
AcDbEntity
  8
0
100
AcDbLine
 10
50.48234149999999
 20
787.3705999999999
 30
0.0
 11
51.3822415
 21
785.8115999999999
 31
0.0
  0
LINE
  5
88
330
1E
100
AcDbEntity
  8
0
100
AcDbLine
 10
33.06534149999999
 20
818.5385999999999
 30
0.0
 11
39.36534149999999
 21
807.6266
 31
0.0
  0
LINE
  5
89
330
1E
100
AcDbEntity
  8
0
100
AcDbLine
 10
13.1822415
 20
851.9766
 30
0.0
 11
19.4822415
 21
841.0645999999999
 31
0.0
  0
LINE
  5
8A
330
1E
100
AcDbEntity
  8
0
100
AcDbLine
 10
7.81526149999999
 20
862.2726
 30
0.0
 11
13.2653415
 21
852.8325999999999
 31
0.0
  0
LINE
  5
8B
330
1E
100
AcDbEntity
  8
0
100
AcDbLine
 10
3.78225149999999
 20
868.2576
 30
0.0
 11
7.88224149999999
 21
861.1565999999999
 31
0.0
  0
LINE
  5
8C
330
1E
100
AcDbEntity
  8
0
100
AcDbLine
 10
3.56526149999999
 20
869.6336
 30
0.0
 11
7.81526149999999
 21
862.2726
 31
0.0
  0
LINE
  5
8D
330
1E
100
AcDbEntity
  8
0
100
AcDbLine
 10
7.67936149999999
 20
870.5076
 30
0.0
 11
11.77944149999999
 21
863.4066
 31
0.0
  0
LINE
  5
8E
330
1E
100
AcDbEntity
  8
0
100
AcDbLine
 10
6.59634149999999
 20
871.3836
 30
0.0
 11
10.84644149999999
 21
864.0226
 31
0.0
  0
LINE
  5
8F
330
1E
100
AcDbEntity
  8
0
100
AcDbLine
 10
3.56526149999999
 20
869.6336
 30
0.0
 11
7.81526149999999
 21
862.2726
 31
0.0
  0
LINE
  5
90
330
1E
100
AcDbEntity
  8
0
100
AcDbLine
 10
1.804398626612939
 20
871.6832274741959
 30
0.0
 11
3.78225149999999
 21
868.2576
 31
0.0
  0
LINE
  5
91
330
1E
100
AcDbEntity
  8
0
100
AcDbLine
 10
3.78225149999999
 20
868.2576
 30
0.0
 11
7.88224149999999
 21
861.1565999999999
 31
0.0
  0
LINE
  5
92
330
1E
100
AcDbEntity
  8
0
100
AcDbLine
 10
1.804398626612939
 20
871.6832274741959
 30
0.0
 11
3.78225149999999
 21
868.2576
 31
0.0
  0
LINE
  5
93
330
1E
100
AcDbEntity
  8
0
100
AcDbLine
 10
0.06525849999999
 20
875.6956
 30
0.0
 11
1.01526149999999
 21
874.0505999999999
 31
0.0
  0
LINE
  5
94
330
1E
100
AcDbEntity
  8
0
100
AcDbLine
 10
0.0652584999999901
 20
875.6956
 30
0.0
 11
1.11430149999999
 21
876.8786
 31
0.0
  0
LINE
  5
95
330
1E
100
AcDbEntity
  8
0
100
AcDbLine
 10
0.06525849999999
 20
875.6956
 30
0.0
 11
1.11430149999999
 21
876.8786
 31
0.0
  0
LINE
  5
96
330
1E
100
AcDbEntity
  8
0
100
AcDbLine
 10
0.06525849999999
 20
875.6956
 30
0.0
 11
0.38224549999999
 21
874.1466
 31
0.0
  0
LINE
  5
97
330
1E
100
AcDbEntity
  8
0
100
AcDbLine
 10
0.06525849999999
 20
875.6956
 30
0.0
 11
1.01526149999999
 21
874.0505999999999
 31
0.0
  0
LINE
  5
98
330
1E
100
AcDbEntity
  8
0
100
AcDbLine
 10
0.06525849999999
 20
875.6956
 30
0.0
 11
0.38224549999999
 21
874.1466
 31
0.0
  0
LINE
  5
99
330
1E
100
AcDbEntity
  8
0
100
AcDbLine
 10
1.01526149999999
 20
874.0505999999999
 30
0.0
 11
3.56526149999999
 21
869.6336
 31
0.0
  0
LINE
  5
9A
330
1E
100
AcDbEntity
  8
0
100
AcDbLine
 10
4.04635149999999
 20
875.8005999999999
 30
0.0
 11
6.59634149999999
 21
871.3836
 31
0.0
  0
LINE
  5
9B
330
1E
100
AcDbEntity
  8
0
100
AcDbLine
 10
5.17936149999999
 20
874.8376
 30
0.0
 11
7.67936149999999
 21
870.5076
 31
0.0
  0
LINE
  5
9C
330
1E
100
AcDbEntity
  8
0
100
AcDbLine
 10
4.27935149999999
 20
876.3965999999999
 30
0.0
 11
9.292491499999989
 21
878.7136
 31
0.0
  0
LINE
  5
9D
330
1E
100
AcDbEntity
  8
0
100
AcDbLine
 10
4.27935149999999
 20
876.3965999999999
 30
0.0
 11
5.17936149999999
 21
874.8376
 31
0.0
  0
LINE
  5
9E
330
1E
100
AcDbEntity
  8
0
100
AcDbLine
 10
3.09634149999999
 20
877.4456
 30
0.0
 11
4.27935149999999
 21
876.3965999999999
 31
0.0
  0
LINE
  5
9F
330
1E
100
AcDbEntity
  8
0
100
AcDbLine
 10
3.09634149999999
 20
877.4456
 30
0.0
 11
4.04635149999999
 21
875.8005999999999
 31
0.0
  0
LINE
  5
A0
330
1E
100
AcDbEntity
  8
0
100
AcDbLine
 10
1.547311499999989
 20
877.1285999999999
 30
0.0
 11
3.09634149999999
 21
877.4456
 31
0.0
  0
LINE
  5
A1
330
1E
100
AcDbEntity
  8
0
100
AcDbLine
 10
1.11430149999999
 20
876.8786
 30
0.0
 11
1.547311499999989
 21
877.1285999999999
 31
0.0
  0
LINE
  5
A2
330
1E
100
AcDbEntity
  8
0
100
AcDbLine
 10
1.28224149999999
 20
872.5875999999999
 30
0.0
 11
1.76761620632279
 21
871.746934371311
 31
0.0
  0
LINE
  5
A3
330
1E
100
AcDbEntity
  8
0
100
AcDbLine
 10
1.28224149999999
 20
872.5875999999999
 30
0.0
 11
1.76761620632279
 21
871.746934371311
 31
0.0
  0
LINE
  5
A4
330
1E
100
AcDbEntity
  8
0
100
AcDbLine
 10
1.28224149999999
 20
872.5875999999999
 30
0.0
 11
3.78225149999999
 21
868.2576
 31
0.0
  0
LINE
  5
A5
330
1E
100
AcDbEntity
  8
0
100
AcDbLine
 10
0.38224549999999
 20
874.1466
 30
0.0
 11
1.28224149999999
 21
872.5875999999999
 31
0.0
  0
LINE
  5
A6
330
1E
100
AcDbEntity
  8
0
100
AcDbLine
 10
10.84644149999999
 20
864.0226
 30
0.0
 11
16.2964415
 21
854.5825999999999
 31
0.0
  0
LINE
  5
A7
330
1E
100
AcDbEntity
  8
0
100
AcDbLine
 10
11.77944149999999
 20
863.4066
 30
0.0
 11
17.0794415
 21
854.2265999999999
 31
0.0
  0
LINE
  5
A8
330
1E
100
AcDbEntity
  8
0
100
AcDbLine
 10
13.2653415
 20
852.8325999999999
 30
0.0
 11
19.5653415
 21
841.9206
 31
0.0
  0
LINE
  5
A9
330
1E
100
AcDbEntity
  8
0
100
AcDbLine
 10
17.0794415
 20
854.2265999999999
 30
0.0
 11
23.2294415
 21
843.5745999999999
 31
0.0
  0
LINE
  5
AA
330
1E
100
AcDbEntity
  8
0
100
AcDbLine
 10
19.17464149999999
 20
865.5976
 30
0.0
 11
24.2246415
 21
856.8505999999999
 31
0.0
  0
LINE
  5
AB
330
1E
100
AcDbEntity
  8
0
100
AcDbLine
 10
18.1915415
 20
866.3006000000001
 30
0.0
 11
23.3915415
 21
857.2936
 31
0.0
  0
LINE
  5
AC
330
1E
100
AcDbEntity
  8
0
100
AcDbLine
 10
16.2964415
 20
854.5825999999999
 30
0.0
 11
22.5964415
 21
843.6706
 31
0.0
  0
LINE
  5
AD
330
1E
100
AcDbEntity
  8
0
100
AcDbLine
 10
15.2746415
 20
872.3526000000001
 30
0.0
 11
19.17464149999999
 21
865.5976
 31
0.0
  0
LINE
  5
AE
330
1E
100
AcDbEntity
  8
0
100
AcDbLine
 10
18.07264149999999
 20
873.5066000000001
 30
0.0
 11
21.9226415
 21
866.8376
 31
0.0
  0
LINE
  5
AF
330
1E
100
AcDbEntity
  8
0
100
AcDbLine
 10
15.7226415
 20
877.5766
 30
0.0
 11
18.07264149999999
 21
873.5066000000001
 31
0.0
  0
LINE
  5
B0
330
1E
100
AcDbEntity
  8
0
100
AcDbLine
 10
12.9246415
 20
876.4226
 30
0.0
 11
15.2746415
 21
872.3526000000001
 31
0.0
  0
LINE
  5
B1
330
1E
100
AcDbEntity
  8
0
100
AcDbLine
 10
14.1915415
 20
873.2286
 30
0.0
 11
18.1915415
 21
866.3006000000001
 31
0.0
  0
LINE
  5
B2
330
1E
100
AcDbEntity
  8
0
100
AcDbLine
 10
11.74154149999999
 20
877.4715999999999
 30
0.0
 11
14.1915415
 21
873.2286
 31
0.0
  0
LINE
  5
B3
330
1E
100
AcDbEntity
  8
0
100
AcDbLine
 10
12.02464149999999
 20
877.9816
 30
0.0
 11
13.7566415
 21
878.9816
 31
0.0
  0
LINE
  5
B4
330
1E
100
AcDbEntity
  8
0
100
AcDbLine
 10
12.02464149999999
 20
877.9816
 30
0.0
 11
12.9246415
 21
876.4226
 31
0.0
  0
LINE
  5
B5
330
1E
100
AcDbEntity
  8
0
100
AcDbLine
 10
9.292491499999989
 20
878.7136
 30
0.0
 11
10.8415415
 21
879.0306000000001
 31
0.0
  0
LINE
  5
B6
330
1E
100
AcDbEntity
  8
0
100
AcDbLine
 10
10.8415415
 20
879.0306000000001
 30
0.0
 11
12.02464149999999
 21
877.9816
 31
0.0
  0
LINE
  5
B7
330
1E
100
AcDbEntity
  8
0
100
AcDbLine
 10
10.8415415
 20
879.0306000000001
 30
0.0
 11
11.74154149999999
 21
877.4715999999999
 31
0.0
  0
LINE
  5
B8
330
1E
100
AcDbEntity
  8
0
100
AcDbLine
 10
17.4377415
 20
879.6056
 30
0.0
 11
19.8377415
 21
875.4485999999999
 31
0.0
  0
LINE
  5
B9
330
1E
100
AcDbEntity
  8
0
100
AcDbLine
 10
18.0867415
 20
881.4816
 30
0.0
 11
19.8858415
 21
881.3655999999999
 31
0.0
  0
LINE
  5
BA
330
1E
100
AcDbEntity
  8
0
100
AcDbLine
 10
16.5377415
 20
881.1645999999999
 30
0.0
 11
18.0867415
 21
881.4816
 31
0.0
  0
LINE
  5
BB
330
1E
100
AcDbEntity
  8
0
100
AcDbLine
 10
16.5377415
 20
881.1645999999999
 30
0.0
 11
17.4377415
 21
879.6056
 31
0.0
  0
LINE
  5
BC
330
1E
100
AcDbEntity
  8
0
100
AcDbLine
 10
15.4887415
 20
879.9815999999999
 30
0.0
 11
16.5377415
 21
881.1645999999999
 31
0.0
  0
LINE
  5
BD
330
1E
100
AcDbEntity
  8
0
100
AcDbLine
 10
14.8726415
 20
879.0485999999999
 30
0.0
 11
15.4887415
 21
879.9815999999999
 31
0.0
  0
LINE
  5
BE
330
1E
100
AcDbEntity
  8
0
100
AcDbLine
 10
14.8726415
 20
879.0485999999999
 30
0.0
 11
15.7226415
 21
877.5766
 31
0.0
  0
LINE
  5
BF
330
1E
100
AcDbEntity
  8
0
100
AcDbLine
 10
13.7566415
 20
878.9816
 30
0.0
 11
14.8726415
 21
879.0485999999999
 31
0.0
  0
LINE
  5
C0
330
1E
100
AcDbEntity
  8
0
100
AcDbLine
 10
7.88224149999999
 20
861.1565999999999
 30
0.0
 11
13.1822415
 21
851.9766
 31
0.0
  0
LINE
  5
C1
330
1E
100
AcDbEntity
  8
0
100
AcDbLine
 10
13.1822415
 20
851.9766
 30
0.0
 11
19.4822415
 21
841.0645999999999
 31
0.0
  0
LINE
  5
C2
330
1E
100
AcDbEntity
  8
0
100
AcDbLine
 10
19.5653415
 20
841.9206
 30
0.0
 11
26.3153415
 21
830.2296
 31
0.0
  0
LINE
  5
C3
330
1E
100
AcDbEntity
  8
0
100
AcDbLine
 10
24.2246415
 20
856.8505999999999
 30
0.0
 11
30.02464149999999
 21
846.8046000000001
 31
0.0
  0
LINE
  5
C4
330
1E
100
AcDbEntity
  8
0
100
AcDbLine
 10
23.3915415
 20
857.2936
 30
0.0
 11
29.4415415
 21
846.8146
 31
0.0
  0
LINE
  5
C5
330
1E
100
AcDbEntity
  8
0
100
AcDbLine
 10
23.2294415
 20
843.5745999999999
 30
0.0
 11
29.77944149999999
 21
832.2295999999999
 31
0.0
  0
LINE
  5
C6
330
1E
100
AcDbEntity
  8
0
100
AcDbLine
 10
22.5964415
 20
843.6706
 30
0.0
 11
29.3464415
 21
831.9796
 31
0.0
  0
LINE
  5
C7
330
1E
100
AcDbEntity
  8
0
100
AcDbLine
 10
23.7377415
 20
868.6935999999999
 30
0.0
 11
28.83774149999999
 21
859.8606
 31
0.0
  0
LINE
  5
C8
330
1E
100
AcDbEntity
  8
0
100
AcDbLine
 10
21.9226415
 20
866.8376
 30
0.0
 11
26.92264149999999
 21
858.1775999999999
 31
0.0
  0
LINE
  5
C9
330
1E
100
AcDbEntity
  8
0
100
AcDbLine
 10
19.8377415
 20
875.4485999999999
 30
0.0
 11
23.7377415
 21
868.6935999999999
 31
0.0
  0
LINE
  5
CA
330
1E
100
AcDbEntity
  8
0
100
AcDbLine
 10
26.3153415
 20
830.2296
 30
0.0
 11
33.06534149999999
 21
818.5385999999999
 31
0.0
  0
LINE
  5
CB
330
1E
100
AcDbEntity
  8
0
100
AcDbLine
 10
25.8822415
 20
829.9796
 30
0.0
 11
32.43224149999999
 21
818.6346
 31
0.0
  0
LINE
  5
CC
330
1E
100
AcDbEntity
  8
0
100
AcDbLine
 10
36.09644149999999
 20
820.2885999999999
 30
0.0
 11
42.39644149999999
 21
809.3766
 31
0.0
  0
LINE
  5
CD
330
1E
100
AcDbEntity
  8
0
100
AcDbLine
 10
29.4415415
 20
846.8146
 30
0.0
 11
35.84154149999999
 21
835.7295999999999
 31
0.0
  0
LINE
  5
CE
330
1E
100
AcDbEntity
  8
0
100
AcDbLine
 10
28.83774149999999
 20
859.8606
 30
0.0
 11
34.7377415
 21
849.6415999999999
 31
0.0
  0
LINE
  5
CF
330
1E
100
AcDbEntity
  8
0
100
AcDbLine
 10
26.92264149999999
 20
858.1775999999999
 30
0.0
 11
32.72264149999999
 21
848.1316000000001
 31
0.0
  0
LINE
  5
D0
330
1E
100
AcDbEntity
  8
0
100
AcDbLine
 10
30.02464149999999
 20
846.8046000000001
 30
0.0
 11
36.2746415
 21
835.9795999999999
 31
0.0
  0
LINE
  5
D1
330
1E
100
AcDbEntity
  8
0
100
AcDbLine
 10
34.7377415
 20
849.6415999999999
 30
0.0
 11
41.03774149999999
 21
838.7296
 31
0.0
  0
LINE
  5
D2
330
1E
100
AcDbEntity
  8
0
100
AcDbLine
 10
32.72264149999999
 20
848.1316000000001
 30
0.0
 11
38.8726415
 21
837.4795999999999
 31
0.0
  0
LINE
  5
D3
330
1E
100
AcDbEntity
  8
0
100
AcDbLine
 10
35.84154149999999
 20
835.7295999999999
 30
0.0
 11
42.24154149999999
 21
824.6446
 31
0.0
  0
LINE
  5
D4
330
1E
100
AcDbEntity
  8
0
100
AcDbLine
 10
29.77944149999999
 20
832.2295999999999
 30
0.0
 11
36.32944149999999
 21
820.8845999999999
 31
0.0
  0
LINE
  5
D5
330
1E
100
AcDbEntity
  8
0
100
AcDbLine
 10
29.3464415
 20
831.9796
 30
0.0
 11
36.09644149999999
 21
820.2885999999999
 31
0.0
  0
LINE
  5
D6
330
1E
100
AcDbEntity
  8
0
100
AcDbLine
 10
26.39894149999999
 20
881.0845999999999
 30
0.0
 11
36.63104149999999
 21
867.3626
 31
0.0
  0
LINE
  5
D7
330
1E
100
AcDbEntity
  8
0
100
AcDbLine
 10
25.2159415
 20
882.1336
 30
0.0
 11
26.39894149999999
 21
881.0845999999999
 31
0.0
  0
LINE
  5
D8
330
1E
100
AcDbEntity
  8
0
100
AcDbLine
 10
23.8499415
 20
882.4996
 30
0.0
 11
25.2159415
 21
882.1336
 31
0.0
  0
LINE
  5
D9
330
1E
100
AcDbEntity
  8
0
100
AcDbLine
 10
22.3008415
 20
882.1825999999999
 30
0.0
 11
23.8499415
 21
882.4996
 31
0.0
  0
LINE
  5
DA
330
1E
100
AcDbEntity
  8
0
100
AcDbLine
 10
19.8858415
 20
881.3655999999999
 30
0.0
 11
22.3008415
 21
882.1825999999999
 31
0.0
  0
LINE
  5
DB
330
1E
100
AcDbEntity
  8
0
100
AcDbLine
 10
19.4822415
 20
841.0645999999999
 30
0.0
 11
25.8822415
 21
829.9796
 31
0.0
  0
LINE
  5
DC
330
1E
100
AcDbEntity
  8
0
100
AcDbLine
 10
32.43224149999999
 20
818.6346
 30
0.0
 11
38.0902414990716
 21
808.834760001608
 31
0.0
  0
LINE
  5
DD
330
1E
100
AcDbEntity
  8
0
100
AcDbLine
 10
32.43224149999999
 20
818.6346
 30
0.0
 11
38.0902414990716
 21
808.834760001608
 31
0.0
  0
LINE
  5
DE
330
1E
100
AcDbEntity
  8
0
100
AcDbLine
 10
32.43224149999999
 20
818.6346
 30
0.0
 11
38.58224149999999
 21
807.9826
 31
0.0
  0
LINE
  5
DF
330
1E
100
AcDbEntity
  8
0
100
AcDbLine
 10
44.81534149999999
 20
798.1866
 30
0.0
 11
49.06534149999999
 21
790.8256
 31
0.0
  0
LINE
  5
E0
330
1E
100
AcDbEntity
  8
0
100
AcDbLine
 10
47.77944149999999
 20
801.0526
 30
0.0
 11
51.87944149999999
 21
793.9516
 31
0.0
  0
LINE
  5
E1
330
1E
100
AcDbEntity
  8
0
100
AcDbLine
 10
47.8464415
 20
799.9366
 30
0.0
 11
52.09644149999999
 21
792.5756
 31
0.0
  0
LINE
  5
E2
330
1E
100
AcDbEntity
  8
0
100
AcDbLine
 10
43.53224149999999
 20
799.4086
 30
0.0
 11
47.5322415
 21
792.4806
 31
0.0
  0
LINE
  5
E3
330
1E
100
AcDbEntity
  8
0
100
AcDbLine
 10
39.36534149999999
 20
807.6266
 30
0.0
 11
44.81534149999999
 21
798.1866
 31
0.0
  0
LINE
  5
E4
330
1E
100
AcDbEntity
  8
0
100
AcDbLine
 10
36.2746415
 20
835.9795999999999
 30
0.0
 11
42.5246415
 21
825.1545999999999
 31
0.0
  0
LINE
  5
E5
330
1E
100
AcDbEntity
  8
0
100
AcDbLine
 10
36.32944149999999
 20
820.8845999999999
 30
0.0
 11
42.4794415
 21
810.2326000000001
 31
0.0
  0
LINE
  5
E6
330
1E
100
AcDbEntity
  8
0
100
AcDbLine
 10
38.0902414990716
 20
808.834760001608
 30
0.0
 11
38.33224149999999
 21
808.4156
 31
0.0
  0
LINE
  5
E7
330
1E
100
AcDbEntity
  8
0
100
AcDbLine
 10
41.03774149999999
 20
838.7296
 30
0.0
 11
47.3377415
 21
827.8176
 31
0.0
  0
LINE
  5
E8
330
1E
100
AcDbEntity
  8
0
100
AcDbLine
 10
38.8726415
 20
837.4795999999999
 30
0.0
 11
45.0226415
 21
826.8276
 31
0.0
  0
LINE
  5
E9
330
1E
100
AcDbEntity
  8
0
100
AcDbLine
 10
42.24154149999999
 20
824.6446
 30
0.0
 11
48.2915415
 21
814.1656000000001
 31
0.0
  0
LINE
  5
EA
330
1E
100
AcDbEntity
  8
0
100
AcDbLine
 10
45.0226415
 20
826.8276
 30
0.0
 11
50.8226415
 21
816.7816
 31
0.0
  0
LINE
  5
EB
330
1E
100
AcDbEntity
  8
0
100
AcDbLine
 10
42.5246415
 20
825.1545999999999
 30
0.0
 11
48.32464149999999
 21
815.1086000000001
 31
0.0
  0
LINE
  5
EC
330
1E
100
AcDbEntity
  8
0
100
AcDbLine
 10
42.4794415
 20
810.2326000000001
 30
0.0
 11
47.77944149999999
 21
801.0526
 31
0.0
  0
LINE
  5
ED
330
1E
100
AcDbEntity
  8
0
100
AcDbLine
 10
42.39644149999999
 20
809.3766
 30
0.0
 11
47.8464415
 21
799.9366
 31
0.0
  0
LINE
  5
EE
330
1E
100
AcDbEntity
  8
0
100
AcDbLine
 10
38.0902414990716
 20
808.834760001608
 30
0.0
 11
38.33224149999999
 21
808.4156
 31
0.0
  0
LINE
  5
EF
330
1E
100
AcDbEntity
  8
0
100
AcDbLine
 10
47.3377415
 20
827.8176
 30
0.0
 11
53.23774150000001
 21
817.5985999999999
 31
0.0
  0
LINE
  5
F0
330
1E
100
AcDbEntity
  8
0
100
AcDbLine
 10
48.32464149999999
 20
815.1086000000001
 30
0.0
 11
53.3746415
 21
806.3615999999999
 31
0.0
  0
LINE
  5
F1
330
1E
100
AcDbEntity
  8
0
100
AcDbLine
 10
48.2915415
 20
814.1656000000001
 30
0.0
 11
53.4915415
 21
805.1586
 31
0.0
  0
LINE
  5
F2
330
1E
100
AcDbEntity
  8
0
100
AcDbLine
 10
48.2781415
 20
856.1885999999999
 30
0.0
 11
52.6752415
 21
857.5725999999999
 31
0.0
  0
LINE
  5
F3
330
1E
100
AcDbEntity
  8
0
100
AcDbLine
 10
45.7960415
 20
856.4875999999999
 30
0.0
 11
48.2781415
 21
856.1885999999999
 31
0.0
  0
LINE
  5
F4
330
1E
100
AcDbEntity
  8
0
100
AcDbLine
 10
43.49704149999999
 20
857.4696000000001
 30
0.0
 11
45.7960415
 21
856.4875999999999
 31
0.0
  0
LINE
  5
F5
330
1E
100
AcDbEntity
  8
0
100
AcDbLine
 10
36.63104149999999
 20
867.3626
 30
0.0
 11
43.49704149999999
 21
857.4696000000001
 31
0.0
  0
LINE
  5
F6
330
1E
100
AcDbEntity
  8
0
100
AcDbLine
 10
38.33224149999999
 20
808.4156
 30
0.0
 11
43.53224149999999
 21
799.4086
 31
0.0
  0
LINE
  5
F7
330
1E
100
AcDbEntity
  8
0
100
AcDbLine
 10
47.5322415
 20
792.4806
 30
0.0
 11
48.7204115986135
 21
790.4229673611618
 31
0.0
  0
LINE
  5
F8
330
1E
100
AcDbEntity
  8
0
100
AcDbLine
 10
47.5322415
 20
792.4806
 30
0.0
 11
48.7204115986135
 21
790.4229673611618
 31
0.0
  0
LINE
  5
F9
330
1E
100
AcDbEntity
  8
0
100
AcDbLine
 10
54.3794415
 20
789.6215999999999
 30
0.0
 11
55.2794415
 21
788.0615999999999
 31
0.0
  0
LINE
  5
FA
330
1E
100
AcDbEntity
  8
0
100
AcDbLine
 10
53.3746415
 20
806.3615999999999
 30
0.0
 11
57.2746415
 21
799.6065999999999
 31
0.0
  0
LINE
  5
FB
330
1E
100
AcDbEntity
  8
0
100
AcDbLine
 10
53.4915415
 20
805.1586
 30
0.0
 11
57.4915415
 21
798.2306
 31
0.0
  0
LINE
  5
FC
330
1E
100
AcDbEntity
  8
0
100
AcDbLine
 10
51.87944149999999
 20
793.9516
 30
0.0
 11
54.3794415
 21
789.6215999999999
 31
0.0
  0
LINE
  5
FD
330
1E
100
AcDbEntity
  8
0
100
AcDbLine
 10
52.09644149999999
 20
792.5756
 30
0.0
 11
54.6464415
 21
788.1585999999999
 31
0.0
  0
LINE
  5
FE
330
1E
100
AcDbEntity
  8
0
100
AcDbLine
 10
54.6464415
 20
788.1585999999999
 30
0.0
 11
55.5964415
 21
786.5126
 31
0.0
  0
LINE
  5
FF
330
1E
100
AcDbEntity
  8
0
100
AcDbLine
 10
54.1912415
 20
856.9466
 30
0.0
 11
54.6912415
 21
856.0805999999999
 31
0.0
  0
LINE
  5
100
330
1E
100
AcDbEntity
  8
0
100
AcDbLine
 10
53.23774150000001
 20
817.5985999999999
 30
0.0
 11
58.3377415
 21
808.7645999999999
 31
0.0
  0
LINE
  5
101
330
1E
100
AcDbEntity
  8
0
100
AcDbLine
 10
50.8226415
 20
816.7816
 30
0.0
 11
55.8226415
 21
808.1215999999999
 31
0.0
  0
LINE
  5
102
330
1E
100
AcDbEntity
  8
0
100
AcDbLine
 10
54.7912415
 20
855.9076000000001
 30
0.0
 11
60.8207415
 21
858.4056
 31
0.0
  0
LINE
  5
103
330
1E
100
AcDbEntity
  8
0
100
AcDbLine
 10
54.7912415
 20
855.9076000000001
 30
0.0
 11
54.94124149991879
 21
855.647600000141
 31
0.0
  0
LINE
  5
104
330
1E
100
AcDbEntity
  8
0
100
AcDbLine
 10
54.9412415000541
 20
855.647599999906
 30
0.0
 11
55.4412415
 21
854.7816
 31
0.0
  0
LINE
  5
105
330
1E
100
AcDbEntity
  8
0
100
AcDbLine
 10
54.9412415000541
 20
855.647599999906
 30
0.0
 11
55.3412415
 21
854.9556
 31
0.0
  0
LINE
  5
106
330
1E
100
AcDbEntity
  8
0
100
AcDbLine
 10
54.6912415
 20
856.0805999999999
 30
0.0
 11
54.94124149991879
 21
855.647600000141
 31
0.0
  0
LINE
  5
107
330
1E
100
AcDbEntity
  8
0
100
AcDbLine
 10
54.6912415
 20
856.0805999999999
 30
0.0
 11
55.4412415
 21
854.7816
 31
0.0
  0
LINE
  5
108
330
1E
100
AcDbEntity
  8
0
100
AcDbLine
 10
52.6752415
 20
857.5725999999999
 30
0.0
 11
54.04124150000001
 21
857.2065999999999
 31
0.0
  0
LINE
  5
109
330
1E
100
AcDbEntity
  8
0
100
AcDbLine
 10
54.04124150000001
 20
857.2065999999999
 30
0.0
 11
54.1912415
 21
856.9466
 31
0.0
  0
LINE
  5
10A
330
1E
100
AcDbEntity
  8
0
100
AcDbLine
 10
101.4007415
 20
786.9776
 30
0.0
 11
102.3537415
 21
787.5276
 31
0.0
  0
LINE
  5
10B
330
1E
100
AcDbEntity
  8
0
100
AcDbLine
 10
101.0547415
 20
786.7776
 30
0.0
 11
101.4007415
 21
786.9776
 31
0.0
  0
LINE
  5
10C
330
1E
100
AcDbEntity
  8
0
100
AcDbLine
 10
102.3537415
 20
787.5276
 30
0.0
 11
103.9987415
 21
788.4776
 31
0.0
  0
LINE
  5
10D
330
1E
100
AcDbEntity
  8
0
100
AcDbLine
 10
106.1347414999999
 20
787.9786
 30
0.0
 11
108.9057415
 21
789.5786000000001
 31
0.0
  0
LINE
  5
10E
330
1E
100
AcDbEntity
  8
0
100
AcDbLine
 10
103.9987415
 20
788.4776
 30
0.0
 11
106.0767414999999
 21
789.6776
 31
0.0
  0
LINE
  5
10F
330
1E
100
AcDbEntity
  8
0
100
AcDbLine
 10
107.5767415
 20
787.0796
 30
0.0
 11
109.9157415
 21
788.4296
 31
0.0
  0
LINE
  5
110
330
1E
100
AcDbEntity
  8
0
100
AcDbLine
 10
109.9157415
 20
788.4296
 30
0.0
 11
112.5137415
 21
789.9296
 31
0.0
  0
LINE
  5
113
330
1E
100
AcDbEntity
  8
0
100
AcDbLine
 10
108.9057415
 20
789.5786000000001
 30
0.0
 11
111.7637415
 21
791.2286
 31
0.0
  0
LINE
  5
115
330
1E
100
AcDbEntity
  8
0
100
AcDbLine
 10
106.0767414999999
 20
789.6776
 30
0.0
 11
108.4157415
 21
791.0276
 31
0.0
  0
LINE
  5
116
330
1E
100
AcDbEntity
  8
0
100
AcDbLine
 10
111.7637415
 20
791.2286
 30
0.0
 11
114.6217414999999
 21
792.8786
 31
0.0
  0
LINE
  5
117
330
1E
100
AcDbEntity
  8
0
100
AcDbLine
 10
108.4157415
 20
791.0276
 30
0.0
 11
111.0137415
 21
792.5276
 31
0.0
  0
LINE
  5
118
330
1E
100
AcDbEntity
  8
0
100
AcDbLine
 10
112.5137415
 20
789.9296
 30
0.0
 11
115.1117415
 21
791.4296000000001
 31
0.0
  0
LINE
  5
119
330
1E
100
AcDbEntity
  8
0
100
AcDbLine
 10
100.0547414999999
 20
788.5095999999999
 30
0.0
 11
101.0547415
 21
786.7776
 31
0.0
  0
LINE
  5
11A
330
1E
100
AcDbEntity
  8
0
100
AcDbLine
 10
99.48744150000001
 20
790.4916
 30
0.0
 11
99.6034415
 21
792.2906
 31
0.0
  0
LINE
  5
11B
330
1E
100
AcDbEntity
  8
0
100
AcDbLine
 10
99.48744150000001
 20
790.4916
 30
0.0
 11
100.0547414999999
 21
788.5095999999999
 31
0.0
  0
LINE
  5
11C
330
1E
100
AcDbEntity
  8
0
100
AcDbLine
 10
57.2746415
 20
799.6065999999999
 30
0.0
 11
59.6246415
 21
795.5366
 31
0.0
  0
LINE
  5
11D
330
1E
100
AcDbEntity
  8
0
100
AcDbLine
 10
59.6246415
 20
795.5366
 30
0.0
 11
60.5246415
 21
793.9776000000001
 31
0.0
  0
LINE
  5
11E
330
1E
100
AcDbEntity
  8
0
100
AcDbLine
 10
57.4915415
 20
798.2306
 30
0.0
 11
59.9415415
 21
793.9876
 31
0.0
  0
LINE
  5
11F
330
1E
100
AcDbEntity
  8
0
100
AcDbLine
 10
58.3377415
 20
808.7645999999999
 30
0.0
 11
62.2377415
 21
802.0096
 31
0.0
  0
LINE
  5
120
330
1E
100
AcDbEntity
  8
0
100
AcDbLine
 10
55.8226415
 20
808.1215999999999
 30
0.0
 11
59.6726415
 21
801.4526
 31
0.0
  0
LINE
  5
121
330
1E
100
AcDbEntity
  8
0
100
AcDbLine
 10
59.9415415
 20
793.9876
 30
0.0
 11
60.8415415
 21
792.4285999999999
 31
0.0
  0
LINE
  5
122
330
1E
100
AcDbEntity
  8
0
100
AcDbLine
 10
59.6726415
 20
801.4526
 30
0.0
 11
62.02264150000001
 21
797.3826
 31
0.0
  0
LINE
  5
123
330
1E
100
AcDbEntity
  8
0
100
AcDbLine
 10
56.7912415
 20
852.4435999999999
 30
0.0
 11
57.7412415
 21
850.7985999999998
 31
0.0
  0
LINE
  5
124
330
1E
100
AcDbEntity
  8
0
100
AcDbLine
 10
57.7412415
 20
850.7985999999998
 30
0.0
 11
58.7912415
 21
848.9796
 31
0.0
  0
LINE
  5
125
330
1E
100
AcDbEntity
  8
0
100
AcDbLine
 10
58.7912415
 20
848.9796
 30
0.0
 11
59.9912415
 21
846.9015999999999
 31
0.0
  0
LINE
  5
126
330
1E
100
AcDbEntity
  8
0
100
AcDbLine
 10
57.5912415
 20
851.0576
 30
0.0
 11
58.7912415
 21
848.9796
 31
0.0
  0
LINE
  5
127
330
1E
100
AcDbEntity
  8
0
100
AcDbLine
 10
55.3412415
 20
854.9556
 30
0.0
 11
55.9912415
 21
853.8296
 31
0.0
  0
LINE
  5
128
330
1E
100
AcDbEntity
  8
0
100
AcDbLine
 10
55.9912415
 20
853.8296
 30
0.0
 11
56.7912415
 21
852.4435999999999
 31
0.0
  0
LINE
  5
129
330
1E
100
AcDbEntity
  8
0
100
AcDbLine
 10
55.4412415
 20
854.7816
 30
0.0
 11
56.4412415
 21
853.0496000000001
 31
0.0
  0
LINE
  5
12A
330
1E
100
AcDbEntity
  8
0
100
AcDbLine
 10
56.4412415
 20
853.0496000000001
 30
0.0
 11
57.5912415
 21
851.0576
 31
0.0
  0
LINE
  5
12B
330
1E
100
AcDbEntity
  8
0
100
AcDbLine
 10
59.9912415
 20
846.9015999999999
 30
0.0
 11
61.14124150000001
 21
844.9095999999999
 31
0.0
  0
LINE
  5
12C
330
1E
100
AcDbEntity
  8
0
100
AcDbLine
 10
59.7781415
 20
836.2705999999999
 30
0.0
 11
63.1752415
 21
839.3866
 31
0.0
  0
LINE
  5
12D
330
1E
100
AcDbEntity
  8
0
100
AcDbLine
 10
58.7960415
 20
833.9715999999999
 30
0.0
 11
59.7781415
 21
836.2705999999999
 31
0.0
  0
LINE
  5
12E
330
1E
100
AcDbEntity
  8
0
100
AcDbLine
 10
58.4970415
 20
831.4896
 30
0.0
 11
63.6310415
 21
820.5966
 31
0.0
  0
LINE
  5
12F
330
1E
100
AcDbEntity
  8
0
100
AcDbLine
 10
58.4970415
 20
831.4896
 30
0.0
 11
58.7960415
 21
833.9715999999999
 31
0.0
  0
LINE
  5
130
330
1E
100
AcDbEntity
  8
0
100
AcDbLine
 10
100.2197414999999
 20
793.2236
 30
0.0
 11
100.4787415
 21
793.3736
 31
0.0
  0
LINE
  5
131
330
1E
100
AcDbEntity
  8
0
100
AcDbLine
 10
99.6034415
 20
792.2906
 30
0.0
 11
100.2197414999999
 21
793.2236
 31
0.0
  0
LINE
  5
133
330
1E
100
AcDbEntity
  8
0
100
AcDbLine
 10
114.6217414999999
 20
792.8786
 30
0.0
 11
117.3927415
 21
794.4786
 31
0.0
  0
LINE
  5
134
330
1E
100
AcDbEntity
  8
0
100
AcDbLine
 10
111.0137415
 20
792.5276
 30
0.0
 11
113.6117415
 21
794.0275999999999
 31
0.0
  0
LINE
  5
135
330
1E
100
AcDbEntity
  8
0
100
AcDbLine
 10
117.4497415
 20
792.7795999999999
 30
0.0
 11
119.5287415
 21
793.9796
 31
0.0
  0
LINE
  5
136
330
1E
100
AcDbEntity
  8
0
100
AcDbLine
 10
115.1117415
 20
791.4296000000001
 30
0.0
 11
117.4497415
 21
792.7795999999999
 31
0.0
  0
LINE
  5
137
330
1E
100
AcDbEntity
  8
0
100
AcDbLine
 10
117.3927415
 20
794.4786
 30
0.0
 11
119.7307415
 21
795.8286000000001
 31
0.0
  0
LINE
  5
138
330
1E
100
AcDbEntity
  8
0
100
AcDbLine
 10
113.6117415
 20
794.0275999999999
 30
0.0
 11
115.9497415
 21
795.3776
 31
0.0
  0
LINE
  5
139
330
1E
100
AcDbEntity
  8
0
100
AcDbLine
 10
119.5287415
 20
793.9796
 30
0.0
 11
121.1737414999999
 21
794.9296
 31
0.0
  0
LINE
  5
13B
330
1E
100
AcDbEntity
  8
0
100
AcDbLine
 10
121.1737414999999
 20
794.9296
 30
0.0
 11
122.1267415
 21
795.4795999999999
 31
0.0
  0
LINE
  5
13F
330
1E
100
AcDbEntity
  8
0
100
AcDbLine
 10
100.4787415
 20
793.3736
 30
0.0
 11
115.5477415
 21
802.0736000000001
 31
0.0
  0
LINE
  5
140
330
1E
100
AcDbEntity
  8
0
100
AcDbLine
 10
62.1412415
 20
843.1775999999999
 30
0.0
 11
62.89124150000001
 21
841.8786
 31
0.0
  0
LINE
  5
141
330
1E
100
AcDbEntity
  8
0
100
AcDbLine
 10
60.8207415
 20
858.4056
 30
0.0
 11
67.2912415
 21
859.2576000000001
 31
0.0
  0
LINE
  5
142
330
1E
100
AcDbEntity
  8
0
100
AcDbLine
 10
61.14124150000001
 20
844.9095999999999
 30
0.0
 11
62.1412415
 21
843.1775999999999
 31
0.0
  0
LINE
  5
143
330
1E
100
AcDbEntity
  8
0
100
AcDbLine
 10
62.7913346892108
 20
842.0516385962869
 30
0.0
 11
64.96184150000001
 21
842.9505999999999
 31
0.0
  0
LINE
  5
144
330
1E
100
AcDbEntity
  8
0
100
AcDbLine
 10
62.2377415
 20
802.0096
 30
0.0
 11
64.6377415
 21
797.8536
 31
0.0
  0
LINE
  5
145
330
1E
100
AcDbEntity
  8
0
100
AcDbLine
 10
62.02264150000001
 20
797.3826
 30
0.0
 11
62.8726415
 21
795.9106
 31
0.0
  0
LINE
  5
146
330
1E
100
AcDbEntity
  8
0
100
AcDbLine
 10
115.9497415
 20
795.3776
 30
0.0
 11
118.0287415
 21
796.5775999999999
 31
0.0
  0
LINE
  5
147
330
1E
100
AcDbEntity
  8
0
100
AcDbLine
 10
119.7307415
 20
795.8286000000001
 30
0.0
 11
121.5497415
 21
796.8786
 31
0.0
  0
LINE
  5
149
330
1E
100
AcDbEntity
  8
0
100
AcDbLine
 10
122.1267415
 20
795.4795999999999
 30
0.0
 11
122.4727415
 21
795.6796
 31
0.0
  0
LINE
  5
14A
330
1E
100
AcDbEntity
  8
0
100
AcDbLine
 10
122.4727415
 20
795.6796
 30
0.0
 11
129.7717414999999
 21
786.0365999999999
 31
0.0
  0
LINE
  5
14B
330
1E
100
AcDbEntity
  8
0
100
AcDbLine
 10
122.4727415
 20
795.6796
 30
0.0
 11
123.0887414999999
 21
796.6126
 31
0.0
  0
LINE
  5
14C
330
1E
100
AcDbEntity
  8
0
100
AcDbLine
 10
64.6377415
 20
797.8536
 30
0.0
 11
65.53774150000001
 21
796.2945999999999
 31
0.0
  0
LINE
  5
14D
330
1E
100
AcDbEntity
  8
0
100
AcDbLine
 10
62.89124150000001
 20
841.8786
 30
0.0
 11
63.3912415
 21
841.0125999999999
 31
0.0
  0
LINE
  5
14E
330
1E
100
AcDbEntity
  8
0
100
AcDbLine
 10
64.96184150000001
 20
842.9505999999999
 30
0.0
 11
67.2912415
 21
843.2576
 31
0.0
  0
LINE
  5
14F
330
1E
100
AcDbEntity
  8
0
100
AcDbLine
 10
63.3912415
 20
841.0125999999999
 30
0.0
 11
63.5412415
 21
840.7526
 31
0.0
  0
LINE
  5
150
330
1E
100
AcDbEntity
  8
0
100
AcDbLine
 10
63.1752415
 20
839.3866
 30
0.0
 11
63.5412415
 21
840.7526
 31
0.0
  0
LINE
  5
151
330
1E
100
AcDbEntity
  8
0
100
AcDbLine
 10
63.6310415
 20
820.5966
 30
0.0
 11
70.39894150000001
 21
804.8745999999999
 31
0.0
  0
LINE
  5
153
330
1E
100
AcDbEntity
  8
0
100
AcDbLine
 10
121.5497415
 20
796.8786
 30
0.0
 11
122.5887415
 21
797.4786
 31
0.0
  0
LINE
  5
154
330
1E
100
AcDbEntity
  8
0
100
AcDbLine
 10
118.0287415
 20
796.5775999999999
 30
0.0
 11
119.6737415
 21
797.5276
 31
0.0
  0
LINE
  5
156
330
1E
100
AcDbEntity
  8
0
100
AcDbLine
 10
67.2912415
 20
859.2576000000001
 30
0.0
 11
73.7617415
 21
858.4056
 31
0.0
  0
LINE
  5
157
330
1E
100
AcDbEntity
  8
0
100
AcDbLine
 10
67.2912415
 20
843.2576
 30
0.0
 11
69.6206415
 21
842.9505999999999
 31
0.0
  0
LINE
  5
15A
330
1E
100
AcDbEntity
  8
0
100
AcDbLine
 10
119.6737415
 20
797.5276
 30
0.0
 11
120.6267415
 21
798.0775999999999
 31
0.0
  0
LINE
  5
15F
330
1E
100
AcDbEntity
  8
0
100
AcDbLine
 10
122.5887415
 20
797.4786
 30
0.0
 11
123.0217415
 21
797.7286
 31
0.0
  0
LINE
  5
161
330
1E
100
AcDbEntity
  8
0
100
AcDbLine
 10
120.6267415
 20
798.0775999999999
 30
0.0
 11
120.9727414999999
 21
798.2776
 31
0.0
  0
LINE
  5
162
330
1E
100
AcDbEntity
  8
0
100
AcDbLine
 10
123.0217415
 20
797.7286
 30
0.0
 11
123.0887414999999
 21
796.6126
 31
0.0
  0
LINE
  5
163
330
1E
100
AcDbEntity
  8
0
100
AcDbLine
 10
122.0887414999999
 20
798.3446
 30
0.0
 11
123.0217415
 21
797.7286
 31
0.0
  0
LINE
  5
164
330
1E
100
AcDbEntity
  8
0
100
AcDbLine
 10
120.9727414999999
 20
798.2776
 30
0.0
 11
122.0887414999999
 21
798.3446
 31
0.0
  0
LINE
  5
165
330
1E
100
AcDbEntity
  8
0
100
AcDbLine
 10
119.9727414999999
 20
800.0095999999999
 30
0.0
 11
120.9727414999999
 21
798.2776
 31
0.0
  0
LINE
  5
166
330
1E
100
AcDbEntity
  8
0
100
AcDbLine
 10
69.6206415
 20
842.9505999999999
 30
0.0
 11
71.79124149999999
 21
842.0516000000001
 31
0.0
  0
LINE
  5
16A
330
1E
100
AcDbEntity
  8
0
100
AcDbLine
 10
114.6817415
 20
801.5736
 30
0.0
 11
114.9417415
 21
801.7236
 31
0.0
  0
LINE
  5
16C
330
1E
100
AcDbEntity
  8
0
100
AcDbLine
 10
118.5397415
 20
801.4915999999999
 30
0.0
 11
119.9727414999999
 21
800.0095999999999
 31
0.0
  0
LINE
  5
16D
330
1E
100
AcDbEntity
  8
0
100
AcDbLine
 10
116.9237415
 20
802.2906
 30
0.0
 11
118.5397415
 21
801.4915999999999
 31
0.0
  0
LINE
  5
16E
330
1E
100
AcDbEntity
  8
0
100
AcDbLine
 10
115.8077415
 20
802.2236000000001
 30
0.0
 11
116.9237415
 21
802.2906
 31
0.0
  0
LINE
  5
16F
330
1E
100
AcDbEntity
  8
0
100
AcDbLine
 10
115.5477415
 20
802.0736000000001
 30
0.0
 11
115.8077415
 21
802.2236000000001
 31
0.0
  0
LINE
  5
170
330
1E
100
AcDbEntity
  8
0
100
AcDbLine
 10
71.79124149999999
 20
842.0516000000001
 30
0.0
 11
73.6552415
 21
840.6205999999999
 31
0.0
  0
LINE
  5
171
330
1E
100
AcDbEntity
  8
0
100
AcDbLine
 10
75.50174150000001
 20
838.4206
 30
0.0
 11
75.7511415
 21
838.5646000000001
 31
0.0
  0
LINE
  5
172
330
1E
100
AcDbEntity
  8
0
100
AcDbLine
 10
75.7134415
 20
838.2455999999999
 30
0.0
 11
76.37854149999999
 21
838.6295999999999
 31
0.0
  0
LINE
  5
173
330
1E
100
AcDbEntity
  8
0
100
AcDbLine
 10
75.4640415
 20
838.1015999999998
 30
0.0
 11
75.50174150000001
 21
838.4206
 31
0.0
  0
LINE
  5
174
330
1E
100
AcDbEntity
  8
0
100
AcDbLine
 10
75.4640415
 20
838.1015999999998
 30
0.0
 11
101.085658212799
 21
793.723744257384
 31
0.0
  0
LINE
  5
175
330
1E
100
AcDbEntity
  8
0
100
AcDbLine
 10
75.4640415
 20
838.1015999999998
 30
0.0
 11
75.7134415
 21
838.2455999999999
 31
0.0
  0
LINE
  5
176
330
1E
100
AcDbEntity
  8
0
100
AcDbLine
 10
75.7511415
 20
838.5646000000001
 30
0.0
 11
76.4162415
 21
838.9486000000001
 31
0.0
  0
LINE
  5
177
330
1E
100
AcDbEntity
  8
0
100
AcDbLine
 10
75.2069415
 20
838.5466
 30
0.0
 11
77.22994150000001
 21
839.7146000000001
 31
0.0
  0
LINE
  5
178
330
1E
100
AcDbEntity
  8
0
100
AcDbLine
 10
76.4162415
 20
838.9486000000001
 30
0.0
 11
77.49704150000001
 21
839.5725999999999
 31
0.0
  0
LINE
  5
179
330
1E
100
AcDbEntity
  8
0
100
AcDbLine
 10
76.37854149999999
 20
838.6295999999999
 30
0.0
 11
77.4870415
 21
839.2695999999999
 31
0.0
  0
LINE
  5
17A
330
1E
100
AcDbEntity
  8
0
100
AcDbLine
 10
77.49704150000001
 20
839.5725999999999
 30
0.0
 11
78.9104415
 21
840.3885999999999
 31
0.0
  0
LINE
  5
17B
330
1E
100
AcDbEntity
  8
0
100
AcDbLine
 10
77.4870415
 20
839.2695999999999
 30
0.0
 11
78.95584150000001
 21
840.1176000000001
 31
0.0
  0
LINE
  5
17C
330
1E
100
AcDbEntity
  8
0
100
AcDbLine
 10
78.9104415
 20
840.3885999999999
 30
0.0
 11
80.51774149999999
 21
841.3166
 31
0.0
  0
LINE
  5
17D
330
1E
100
AcDbEntity
  8
0
100
AcDbLine
 10
78.95584150000001
 20
840.1176000000001
 30
0.0
 11
80.61864150000001
 21
841.0776
 31
0.0
  0
LINE
  5
17E
330
1E
100
AcDbEntity
  8
0
100
AcDbLine
 10
77.22994150000001
 20
839.7146000000001
 30
0.0
 11
78.6987415
 21
840.5625999999999
 31
0.0
  0
LINE
  5
17F
330
1E
100
AcDbEntity
  8
0
100
AcDbLine
 10
78.6987415
 20
840.5625999999999
 30
0.0
 11
80.36154149999999
 21
841.5226
 31
0.0
  0
LINE
  5
180
330
1E
100
AcDbEntity
  8
0
100
AcDbLine
 10
82.13514149999999
 20
842.5466
 30
0.0
 11
83.9087415
 21
843.5705999999999
 31
0.0
  0
LINE
  5
181
330
1E
100
AcDbEntity
  8
0
100
AcDbLine
 10
83.9087415
 20
843.5705999999999
 30
0.0
 11
85.5715415
 21
844.5306
 31
0.0
  0
LINE
  5
182
330
1E
100
AcDbEntity
  8
0
100
AcDbLine
 10
84.0096415
 20
843.3325999999999
 30
0.0
 11
85.61694150000001
 21
844.2605999999999
 31
0.0
  0
LINE
  5
183
330
1E
100
AcDbEntity
  8
0
100
AcDbLine
 10
84.1658415
 20
843.1255999999999
 30
0.0
 11
85.8286415
 21
844.0856
 31
0.0
  0
LINE
  5
184
330
1E
100
AcDbEntity
  8
0
100
AcDbLine
 10
82.2636415
 20
842.3246
 30
0.0
 11
84.0096415
 21
843.3325999999999
 31
0.0
  0
LINE
  5
185
330
1E
100
AcDbEntity
  8
0
100
AcDbLine
 10
82.3922415
 20
842.1015999999999
 30
0.0
 11
84.1658415
 21
843.1255999999999
 31
0.0
  0
LINE
  5
186
330
1E
100
AcDbEntity
  8
0
100
AcDbLine
 10
80.51774149999999
 20
841.3166
 30
0.0
 11
82.2636415
 21
842.3246
 31
0.0
  0
LINE
  5
187
330
1E
100
AcDbEntity
  8
0
100
AcDbLine
 10
80.61864150000001
 20
841.0776
 30
0.0
 11
82.3922415
 21
842.1015999999999
 31
0.0
  0
LINE
  5
188
330
1E
100
AcDbEntity
  8
0
100
AcDbLine
 10
80.36154149999999
 20
841.5226
 30
0.0
 11
82.13514149999999
 21
842.5466
 31
0.0
  0
LINE
  5
189
330
1E
100
AcDbEntity
  8
0
100
AcDbLine
 10
75.2069415
 20
838.5466
 30
0.0
 11
75.50174150000001
 21
838.4206
 31
0.0
  0
LINE
  5
18A
330
1E
100
AcDbEntity
  8
0
100
AcDbLine
 10
85.5715415
 20
844.5306
 30
0.0
 11
87.0402415
 21
845.3786
 31
0.0
  0
LINE
  5
18B
330
1E
100
AcDbEntity
  8
0
100
AcDbLine
 10
85.61694150000001
 20
844.2605999999999
 30
0.0
 11
87.0302415
 21
845.0765999999999
 31
0.0
  0
LINE
  5
18C
330
1E
100
AcDbEntity
  8
0
100
AcDbLine
 10
85.8286415
 20
844.0856
 30
0.0
 11
87.2974415
 21
844.9335999999998
 31
0.0
  0
LINE
  5
18D
330
1E
100
AcDbEntity
  8
0
100
AcDbLine
 10
87.0402415
 20
845.3786
 30
0.0
 11
88.14884150000001
 21
846.0186
 31
0.0
  0
LINE
  5
18E
330
1E
100
AcDbEntity
  8
0
100
AcDbLine
 10
88.14884150000001
 20
846.0186
 30
0.0
 11
88.8139415
 21
846.4026
 31
0.0
  0
LINE
  5
18F
330
1E
100
AcDbEntity
  8
0
100
AcDbLine
 10
88.7762415
 20
846.0846
 30
0.0
 11
89.02564150000001
 21
846.2286
 31
0.0
  0
LINE
  5
190
330
1E
100
AcDbEntity
  8
0
100
AcDbLine
 10
89.0710415
 20
845.9576
 30
0.0
 11
89.32044150000001
 21
846.1015999999998
 31
0.0
  0
LINE
  5
191
330
1E
100
AcDbEntity
  8
0
100
AcDbLine
 10
88.11114149999999
 20
845.7005999999999
 30
0.0
 11
88.7762415
 21
846.0846
 31
0.0
  0
LINE
  5
192
330
1E
100
AcDbEntity
  8
0
100
AcDbLine
 10
88.40594149999999
 20
845.5735999999999
 30
0.0
 11
89.0710415
 21
845.9576
 31
0.0
  0
LINE
  5
193
330
1E
100
AcDbEntity
  8
0
100
AcDbLine
 10
87.0302415
 20
845.0765999999999
 30
0.0
 11
88.11114149999999
 21
845.7005999999999
 31
0.0
  0
LINE
  5
194
330
1E
100
AcDbEntity
  8
0
100
AcDbLine
 10
87.2974415
 20
844.9335999999998
 30
0.0
 11
88.40594149999999
 21
845.5735999999999
 31
0.0
  0
LINE
  5
195
330
1E
100
AcDbEntity
  8
0
100
AcDbLine
 10
89.32044150000001
 20
846.1015999999998
 30
0.0
 11
114.9417415
 21
801.7236
 31
0.0
  0
LINE
  5
196
330
1E
100
AcDbEntity
  8
0
100
AcDbLine
 10
88.8139415
 20
846.4026
 30
0.0
 11
89.06334150000001
 21
846.5466000000001
 31
0.0
  0
LINE
  5
197
330
1E
100
AcDbEntity
  8
0
100
AcDbLine
 10
89.02564150000001
 20
846.2286
 30
0.0
 11
89.06334150000001
 21
846.5466000000001
 31
0.0
  0
LINE
  5
198
330
1E
100
AcDbEntity
  8
0
100
AcDbLine
 10
89.02564150000001
 20
846.2286
 30
0.0
 11
89.32044150000001
 21
846.1015999999998
 31
0.0
  0
LINE
  5
199
330
1E
100
AcDbEntity
  8
0
100
AcDbLine
 10
84.96894150000001
 20
851.9346
 30
0.0
 11
89.06334150000001
 21
846.5466000000001
 31
0.0
  0
LINE
  5
19A
330
1E
100
AcDbEntity
  8
0
100
AcDbLine
 10
73.7617415
 20
858.4056
 30
0.0
 11
79.7912415
 21
855.9076000000001
 31
0.0
  0
LINE
  5
19B
330
1E
100
AcDbEntity
  8
0
100
AcDbLine
 10
79.7912415
 20
855.9076000000001
 30
0.0
 11
84.96894150000001
 21
851.9346
 31
0.0
  0
LINE
  5
19C
330
1E
100
AcDbEntity
  8
0
100
AcDbLine
 10
73.6552415
 20
840.6205999999999
 30
0.0
 11
75.2069415
 21
838.5466
 31
0.0
  0
LINE
  5
19D
330
1E
100
AcDbEntity
  8
0
100
AcDbLine
 10
70.39894150000001
 20
804.8745999999999
 30
0.0
 11
70.7159415
 21
803.3255999999999
 31
0.0
  0
LINE
  5
19E
330
1E
100
AcDbEntity
  8
0
100
AcDbLine
 10
70.3499415
 20
801.9595999999999
 30
0.0
 11
70.7159415
 21
803.3255999999999
 31
0.0
  0
LINE
  5
19F
330
1E
100
AcDbEntity
  8
0
100
AcDbLine
 10
69.3008415
 20
800.7766
 30
0.0
 11
70.3499415
 21
801.9595999999999
 31
0.0
  0
LINE
  5
1A0
330
1E
100
AcDbEntity
  8
0
100
AcDbLine
 10
67.3858415
 20
799.0936
 30
0.0
 11
69.3008415
 21
800.7766
 31
0.0
  0
LINE
  5
1A1
330
1E
100
AcDbEntity
  8
0
100
AcDbLine
 10
66.5867415
 20
797.4776
 30
0.0
 11
67.3858415
 21
799.0936
 31
0.0
  0
LINE
  5
1A2
330
1E
100
AcDbEntity
  8
0
100
AcDbLine
 10
65.53774150000001
 20
796.2945999999999
 30
0.0
 11
66.5867415
 21
797.4776
 31
0.0
  0
LINE
  5
1A3
330
1E
100
AcDbEntity
  8
0
100
AcDbLine
 10
63.98874150000001
 20
795.9776
 30
0.0
 11
65.53774150000001
 21
796.2945999999999
 31
0.0
  0
LINE
  5
1A4
330
1E
100
AcDbEntity
  8
0
100
AcDbLine
 10
62.8726415
 20
795.9106
 30
0.0
 11
63.98874150000001
 21
795.9776
 31
0.0
  0
LINE
  5
1A5
330
1E
100
AcDbEntity
  8
0
100
AcDbLine
 10
62.2566415
 20
794.9776
 30
0.0
 11
62.8726415
 21
795.9106
 31
0.0
  0
LINE
  5
1A6
330
1E
100
AcDbEntity
  8
0
100
AcDbLine
 10
60.5246415
 20
793.9776000000001
 30
0.0
 11
60.8415415
 21
792.4285999999999
 31
0.0
  0
LINE
  5
1A7
330
1E
100
AcDbEntity
  8
0
100
AcDbLine
 10
60.5246415
 20
793.9776000000001
 30
0.0
 11
62.2566415
 21
794.9776
 31
0.0
  0
LINE
  5
1A8
330
1E
100
AcDbEntity
  8
0
100
AcDbLine
 10
59.7925415
 20
791.2455999999999
 30
0.0
 11
60.8415415
 21
792.4285999999999
 31
0.0
  0
LINE
  5
1A9
330
1E
100
AcDbEntity
  8
0
100
AcDbLine
 10
55.2794415
 20
788.0615999999999
 30
0.0
 11
55.5964415
 21
786.5126
 31
0.0
  0
LINE
  5
1AA
330
1E
100
AcDbEntity
  8
0
100
AcDbLine
 10
55.2794415
 20
788.0615999999999
 30
0.0
 11
59.7925415
 21
791.2455999999999
 31
0.0
  0
LINE
  5
1AB
330
1E
100
AcDbEntity
  8
0
100
AcDbLine
 10
50.88233127443439
 20
786.6776518298219
 30
0.0
 11
51.3822415
 21
785.8115999999999
 31
0.0
  0
LINE
  5
1AC
330
1E
100
AcDbEntity
  8
0
100
AcDbLine
 10
50.6956415000315
 20
787.001075941717
 30
0.0
 11
50.8822415
 21
786.6775999999999
 31
0.0
  0
LINE
  5
1AD
330
1E
100
AcDbEntity
  8
0
100
AcDbLine
 10
160.4127415
 20
701.0285999999999
 30
0.0
 11
163.0107414999999
 21
702.5286
 31
0.0
  0
LINE
  5
1AE
330
1E
100
AcDbEntity
  8
0
100
AcDbLine
 10
159.2637415
 20
708.9555999999999
 30
0.0
 11
162.1217415
 21
710.6055999999999
 31
0.0
  0
LINE
  5
1B0
330
1E
100
AcDbEntity
  8
0
100
AcDbLine
 10
160.0137415
 20
707.6566
 30
0.0
 11
162.6117414999999
 21
709.1566
 31
0.0
  0
LINE
  5
1B1
330
1E
100
AcDbEntity
  8
0
100
AcDbLine
 10
162.1217415
 20
710.6055999999999
 30
0.0
 11
164.8927414999999
 21
712.2056
 31
0.0
  0
LINE
  5
1B2
330
1E
100
AcDbEntity
  8
0
100
AcDbLine
 10
163.0107414999999
 20
702.5286
 30
0.0
 11
165.6097415
 21
704.0286
 31
0.0
  0
LINE
  5
1B3
330
1E
100
AcDbEntity
  8
0
100
AcDbLine
 10
162.6117414999999
 20
709.1566
 30
0.0
 11
164.9497415
 21
710.5066
 31
0.0
  0
LINE
  5
1B4
330
1E
100
AcDbEntity
  8
0
100
AcDbLine
 10
163.4497415
 20
713.1046
 30
0.0
 11
165.5287415
 21
714.3046
 31
0.0
  0
LINE
  5
1B5
330
1E
100
AcDbEntity
  8
0
100
AcDbLine
 10
161.1117415
 20
711.7545999999999
 30
0.0
 11
163.4497415
 21
713.1046
 31
0.0
  0
LINE
  5
1B6
330
1E
100
AcDbEntity
  8
0
100
AcDbLine
 10
163.7717415
 20
727.1475999999999
 30
0.0
 11
168.4727415
 21
716.0046
 31
0.0
  0
LINE
  5
1B7
330
1E
100
AcDbEntity
  8
0
100
AcDbLine
 10
165.6097415
 20
704.0286
 30
0.0
 11
167.9477415
 21
705.3786
 31
0.0
  0
LINE
  5
1B8
330
1E
100
AcDbEntity
  8
0
100
AcDbLine
 10
167.9477415
 20
705.3786
 30
0.0
 11
170.0257415
 21
706.5786000000001
 31
0.0
  0
LINE
  5
1B9
330
1E
100
AcDbEntity
  8
0
100
AcDbLine
 10
164.8927414999999
 20
712.2056
 30
0.0
 11
167.2307414999999
 21
713.5556
 31
0.0
  0
LINE
  5
1BA
330
1E
100
AcDbEntity
  8
0
100
AcDbLine
 10
164.9497415
 20
710.5066
 30
0.0
 11
167.0287414999999
 21
711.7066
 31
0.0
  0
LINE
  5
1BB
330
1E
100
AcDbEntity
  8
0
100
AcDbLine
 10
167.0287414999999
 20
711.7066
 30
0.0
 11
168.6737415
 21
712.6566
 31
0.0
  0
LINE
  5
1BC
330
1E
100
AcDbEntity
  8
0
100
AcDbLine
 10
165.5287415
 20
714.3046
 30
0.0
 11
167.1737415
 21
715.2546
 31
0.0
  0
LINE
  5
1BD
330
1E
100
AcDbEntity
  8
0
100
AcDbLine
 10
167.2307414999999
 20
713.5556
 30
0.0
 11
169.0497415
 21
714.6055999999999
 31
0.0
  0
LINE
  5
1BE
330
1E
100
AcDbEntity
  8
0
100
AcDbLine
 10
167.1737415
 20
715.2546
 30
0.0
 11
168.1267415
 21
715.8046
 31
0.0
  0
LINE
  5
1BF
330
1E
100
AcDbEntity
  8
0
100
AcDbLine
 10
168.1267415
 20
715.8046
 30
0.0
 11
168.4727415
 21
716.0046
 31
0.0
  0
LINE
  5
1C0
330
1E
100
AcDbEntity
  8
0
100
AcDbLine
 10
168.6737415
 20
712.6566
 30
0.0
 11
169.6267415
 21
713.2066
 31
0.0
  0
LINE
  5
1C2
330
1E
100
AcDbEntity
  8
0
100
AcDbLine
 10
169.0497415
 20
714.6055999999999
 30
0.0
 11
170.0887414999999
 21
715.2055999999999
 31
0.0
  0
LINE
  5
1C3
330
1E
100
AcDbEntity
  8
0
100
AcDbLine
 10
169.6267415
 20
713.2066
 30
0.0
 11
169.9727415
 21
713.4066
 31
0.0
  0
LINE
  5
1C4
330
1E
100
AcDbEntity
  8
0
100
AcDbLine
 10
168.4727415
 20
716.0046
 30
0.0
 11
169.5887415
 21
716.0715999999999
 31
0.0
  0
LINE
  5
1C5
330
1E
100
AcDbEntity
  8
0
100
AcDbLine
 10
169.5887415
 20
716.0715999999999
 30
0.0
 11
170.5217414999999
 21
715.4556
 31
0.0
  0
LINE
  5
1C6
330
1E
100
AcDbEntity
  8
0
100
AcDbLine
 10
170.0257415
 20
706.5786000000001
 30
0.0
 11
171.6717414999999
 21
707.5286
 31
0.0
  0
LINE
  5
1C7
330
1E
100
AcDbEntity
  8
0
100
AcDbLine
 10
169.9727415
 20
713.4066
 30
0.0
 11
170.9727415
 21
711.6746
 31
0.0
  0
LINE
  5
1C8
330
1E
100
AcDbEntity
  8
0
100
AcDbLine
 10
169.9727415
 20
713.4066
 30
0.0
 11
170.5887415
 21
714.3396
 31
0.0
  0
LINE
  5
1CA
330
1E
100
AcDbEntity
  8
0
100
AcDbLine
 10
170.0887414999999
 20
715.2055999999999
 30
0.0
 11
170.5217414999999
 21
715.4556
 31
0.0
  0
LINE
  5
1CC
330
1E
100
AcDbEntity
  8
0
100
AcDbLine
 10
170.5217414999999
 20
715.4556
 30
0.0
 11
170.5887415
 21
714.3396
 31
0.0
  0
LINE
  5
1CD
330
1E
100
AcDbEntity
  8
0
100
AcDbLine
 10
170.9727415
 20
711.6746
 30
0.0
 11
171.5397414999999
 21
709.6925999999999
 31
0.0
  0
LINE
  5
1CE
330
1E
100
AcDbEntity
  8
0
100
AcDbLine
 10
171.6717414999999
 20
707.5286
 30
0.0
 11
172.6237414999999
 21
708.0786
 31
0.0
  0
LINE
  5
1CF
330
1E
100
AcDbEntity
  8
0
100
AcDbLine
 10
171.4237415
 20
707.8935999999999
 30
0.0
 11
171.5397414999999
 21
709.6925999999999
 31
0.0
  0
LINE
  5
1D0
330
1E
100
AcDbEntity
  8
0
100
AcDbLine
 10
170.8817041687759
 20
707.0726246265719
 30
0.0
 11
171.4237415
 21
707.8935999999999
 31
0.0
  0
LINE
  5
1D1
330
1E
100
AcDbEntity
  8
0
100
AcDbLine
 10
170.8817041687759
 20
707.0726246265719
 30
0.0
 11
171.6717414999999
 21
707.5286
 31
0.0
  0
LINE
  5
1D8
330
1E
100
AcDbEntity
  8
0
100
AcDbLine
 10
172.4647414999999
 20
638.8476
 30
0.0
 11
173.9977415
 21
635.0055999999999
 31
0.0
  0
LINE
  5
1D9
330
1E
100
AcDbEntity
  8
0
100
AcDbLine
 10
172.4157415
 20
647.1146
 30
0.0
 11
173.9757414999999
 21
651.0076
 31
0.0
  0
LINE
  5
1DA
330
1E
100
AcDbEntity
  8
0
100
AcDbLine
 10
172.6237414999999
 20
708.0786
 30
0.0
 11
172.9707415
 21
708.2785999999999
 31
0.0
  0
LINE
  5
1E3
330
1E
100
AcDbEntity
  8
0
100
AcDbLine
 10
172.9347415
 20
133.4856
 30
0.0
 11
173.4347415
 21
134.4856
 31
0.0
  0
LINE
  5
1E4
330
1E
100
AcDbEntity
  8
0
100
AcDbLine
 10
172.9347415
 20
133.4856
 30
0.0
 11
172.9347415
 21
132.9856
 31
0.0
  0
LINE
  5
1E5
330
1E
100
AcDbEntity
  8
0
100
AcDbLine
 10
172.9347415
 20
932.9855999999999
 30
0.0
 11
173.4347415
 21
931.9855999999999
 31
0.0
  0
LINE
  5
1E6
330
1E
100
AcDbEntity
  8
0
100
AcDbLine
 10
172.9347415
 20
932.9855999999999
 30
0.0
 11
172.9347415
 21
933.4856
 31
0.0
  0
LINE
  5
1E7
330
1E
100
AcDbEntity
  8
0
100
AcDbLine
 10
172.9347415
 20
933.4856
 30
0.0
 11
173.4347415
 21
934.4856
 31
0.0
  0
LINE
  5
1E8
330
1E
100
AcDbEntity
  8
0
100
AcDbLine
 10
172.9347415
 20
933.4856
 30
0.0
 11
172.9347415
 21
932.9855999999999
 31
0.0
  0
LINE
  5
1E9
330
1E
100
AcDbEntity
  8
0
100
AcDbLine
 10
172.9347415
 20
903.9856
 30
0.0
 11
172.9347415
 21
903.4855999999999
 31
0.0
  0
LINE
  5
1EA
330
1E
100
AcDbEntity
  8
0
100
AcDbLine
 10
172.9347415
 20
903.9856
 30
0.0
 11
173.4347415
 21
904.9856
 31
0.0
  0
LINE
  5
1EB
330
1E
100
AcDbEntity
  8
0
100
AcDbLine
 10
172.9707415
 20
708.2785999999999
 30
0.0
 11
176.549077360278
 21
701.2971755871039
 31
0.0
  0
LINE
  5
1EE
330
1E
100
AcDbEntity
  8
0
100
AcDbLine
 10
172.9347415
 20
903.4855999999999
 30
0.0
 11
173.4347415
 21
902.4855999999999
 31
0.0
  0
LINE
  5
1EF
330
1E
100
AcDbEntity
  8
0
100
AcDbLine
 10
172.9347415
 20
903.4855999999999
 30
0.0
 11
172.9347415
 21
903.9856
 31
0.0
  0
LINE
  5
1F0
330
1E
100
AcDbEntity
  8
0
100
AcDbLine
 10
173.4347415
 20
131.9856
 30
0.0
 11
173.9347415
 21
131.9856
 31
0.0
  0
LINE
  5
1F1
330
1E
100
AcDbEntity
  8
0
100
AcDbLine
 10
173.4347415
 20
131.9856
 30
0.0
 11
174.4347415
 21
131.4856
 31
0.0
  0
LINE
  5
1F2
330
1E
100
AcDbEntity
  8
0
100
AcDbLine
 10
173.4347415
 20
134.4856
 30
0.0
 11
173.9347415
 21
134.4856
 31
0.0
  0
LINE
  5
1F3
330
1E
100
AcDbEntity
  8
0
100
AcDbLine
 10
173.4347415
 20
134.4856
 30
0.0
 11
174.4347415
 21
134.9856
 31
0.0
  0
LINE
  5
1F4
330
1E
100
AcDbEntity
  8
0
100
AcDbLine
 10
173.4347415
 20
104.9856
 30
0.0
 11
174.4347415
 21
105.4856
 31
0.0
  0
LINE
  5
1F5
330
1E
100
AcDbEntity
  8
0
100
AcDbLine
 10
173.4347415
 20
104.9856
 30
0.0
 11
173.9347415
 21
104.9856
 31
0.0
  0
LINE
  5
1F6
330
1E
100
AcDbEntity
  8
0
100
AcDbLine
 10
172.9347415
 20
103.9856
 30
0.0
 11
172.9347415
 21
103.4855999999999
 31
0.0
  0
LINE
  5
1F7
330
1E
100
AcDbEntity
  8
0
100
AcDbLine
 10
172.9347415
 20
103.9856
 30
0.0
 11
173.4347415
 21
104.9856
 31
0.0
  0
LINE
  5
1F8
330
1E
100
AcDbEntity
  8
0
100
AcDbLine
 10
172.9347415
 20
103.4855999999999
 30
0.0
 11
173.4347415
 21
102.4855999999999
 31
0.0
  0
LINE
  5
1F9
330
1E
100
AcDbEntity
  8
0
100
AcDbLine
 10
172.9347415
 20
103.4855999999999
 30
0.0
 11
172.9347415
 21
103.9856
 31
0.0
  0
LINE
  5
1FA
330
1E
100
AcDbEntity
  8
0
100
AcDbLine
 10
173.9347415
 20
104.9856
 30
0.0
 11
175.3347415
 21
104.9856
 31
0.0
  0
LINE
  5
1FB
330
1E
100
AcDbEntity
  8
0
100
AcDbLine
 10
174.9347415
 20
105.4856
 30
0.0
 11
176.2347415
 21
105.4856
 31
0.0
  0
LINE
  5
1FC
330
1E
100
AcDbEntity
  8
0
100
AcDbLine
 10
175.3347415
 20
104.9856
 30
0.0
 11
177.7347415
 21
104.9856
 31
0.0
  0
LINE
  5
1FD
330
1E
100
AcDbEntity
  8
0
100
AcDbLine
 10
175.3347415
 20
102.4855999999999
 30
0.0
 11
177.7347415
 21
102.4855999999999
 31
0.0
  0
LINE
  5
1FE
330
1E
100
AcDbEntity
  8
0
100
AcDbLine
 10
173.9347415
 20
102.4855999999999
 30
0.0
 11
175.3347415
 21
102.4855999999999
 31
0.0
  0
LINE
  5
1FF
330
1E
100
AcDbEntity
  8
0
100
AcDbLine
 10
173.4347415
 20
904.9856
 30
0.0
 11
174.4347415
 21
905.4855999999999
 31
0.0
  0
LINE
  5
200
330
1E
100
AcDbEntity
  8
0
100
AcDbLine
 10
173.4347415
 20
904.9856
 30
0.0
 11
173.9347415
 21
904.9856
 31
0.0
  0
LINE
  5
203
330
1E
100
AcDbEntity
  8
0
100
AcDbLine
 10
173.4347415
 20
931.9855999999999
 30
0.0
 11
174.4347415
 21
931.4856
 31
0.0
  0
LINE
  5
204
330
1E
100
AcDbEntity
  8
0
100
AcDbLine
 10
173.4347415
 20
931.9855999999999
 30
0.0
 11
173.9347415
 21
931.9855999999999
 31
0.0
  0
LINE
  5
205
330
1E
100
AcDbEntity
  8
0
100
AcDbLine
 10
173.4347415
 20
934.4856
 30
0.0
 11
174.4347415
 21
934.9856
 31
0.0
  0
LINE
  5
206
330
1E
100
AcDbEntity
  8
0
100
AcDbLine
 10
173.4347415
 20
934.4856
 30
0.0
 11
173.9347415
 21
934.4856
 31
0.0
  0
LINE
  5
207
330
1E
100
AcDbEntity
  8
0
100
AcDbLine
 10
173.4347415
 20
902.4855999999999
 30
0.0
 11
174.4347415
 21
901.9856
 31
0.0
  0
LINE
  5
208
330
1E
100
AcDbEntity
  8
0
100
AcDbLine
 10
173.4347415
 20
902.4855999999999
 30
0.0
 11
173.9347415
 21
902.4855999999999
 31
0.0
  0
LINE
  5
209
330
1E
100
AcDbEntity
  8
0
100
AcDbLine
 10
173.9347415
 20
131.9856
 30
0.0
 11
175.3347415
 21
131.9856
 31
0.0
  0
LINE
  5
20A
330
1E
100
AcDbEntity
  8
0
100
AcDbLine
 10
174.9347415
 20
130.4856
 30
0.0
 11
174.9347415
 21
118.4856
 31
0.0
  0
LINE
  5
20B
330
1E
100
AcDbEntity
  8
0
100
AcDbLine
 10
174.9347415
 20
131.4856
 30
0.0
 11
176.2347415
 21
131.4856
 31
0.0
  0
LINE
  5
20C
330
1E
100
AcDbEntity
  8
0
100
AcDbLine
 10
173.9347415
 20
904.9856
 30
0.0
 11
175.3347415
 21
904.9856
 31
0.0
  0
LINE
  5
20E
330
1E
100
AcDbEntity
  8
0
100
AcDbLine
 10
173.9757414999999
 20
651.0076
 30
0.0
 11
176.6067415
 21
654.2495999999999
 31
0.0
  0
LINE
  5
212
330
1E
100
AcDbEntity
  8
0
100
AcDbLine
 10
173.9977415
 20
635.0055999999999
 30
0.0
 11
176.6207415
 21
631.6716
 31
0.0
  0
LINE
  5
213
330
1E
100
AcDbEntity
  8
0
100
AcDbLine
 10
173.9347415
 20
902.4855999999999
 30
0.0
 11
175.3347415
 21
902.4855999999999
 31
0.0
  0
LINE
  5
214
330
1E
100
AcDbEntity
  8
0
100
AcDbLine
 10
173.9347415
 20
931.9855999999999
 30
0.0
 11
175.3347415
 21
931.9855999999999
 31
0.0
  0
LINE
  5
215
330
1E
100
AcDbEntity
  8
0
100
AcDbLine
 10
173.9347415
 20
934.4856
 30
0.0
 11
175.3347415
 21
934.4856
 31
0.0
  0
LINE
  5
216
330
1E
100
AcDbEntity
  8
0
100
AcDbLine
 10
174.4347415
 20
931.4856
 30
0.0
 11
174.9347415
 21
930.4855999999999
 31
0.0
  0
LINE
  5
217
330
1E
100
AcDbEntity
  8
0
100
AcDbLine
 10
174.4347415
 20
931.4856
 30
0.0
 11
174.9347415
 21
931.4856
 31
0.0
  0
LINE
  5
218
330
1E
100
AcDbEntity
  8
0
100
AcDbLine
 10
174.4347415
 20
905.4855999999999
 30
0.0
 11
174.9347415
 21
906.4856
 31
0.0
  0
LINE
  5
219
330
1E
100
AcDbEntity
  8
0
100
AcDbLine
 10
174.4347415
 20
905.4855999999999
 30
0.0
 11
174.9347415
 21
905.4855999999999
 31
0.0
  0
LINE
  5
21A
330
1E
100
AcDbEntity
  8
0
100
AcDbLine
 10
174.4347415
 20
901.9856
 30
0.0
 11
174.9347415
 21
901.9856
 31
0.0
  0
LINE
  5
21B
330
1E
100
AcDbEntity
  8
0
100
AcDbLine
 10
174.4347415
 20
131.4856
 30
0.0
 11
174.9347415
 21
131.4856
 31
0.0
  0
LINE
  5
21C
330
1E
100
AcDbEntity
  8
0
100
AcDbLine
 10
174.4347415
 20
131.4856
 30
0.0
 11
174.9347415
 21
130.4856
 31
0.0
  0
LINE
  5
21D
330
1E
100
AcDbEntity
  8
0
100
AcDbLine
 10
173.9347415
 20
134.4856
 30
0.0
 11
175.3347415
 21
134.4856
 31
0.0
  0
LINE
  5
21E
330
1E
100
AcDbEntity
  8
0
100
AcDbLine
 10
174.9347415
 20
106.4856
 30
0.0
 11
174.9347415
 21
118.4856
 31
0.0
  0
LINE
  5
21F
330
1E
100
AcDbEntity
  8
0
100
AcDbLine
 10
175.3347415
 20
131.9856
 30
0.0
 11
177.7347415
 21
131.9856
 31
0.0
  0
LINE
  5
220
330
1E
100
AcDbEntity
  8
0
100
AcDbLine
 10
175.3347415
 20
134.4856
 30
0.0
 11
177.7347415
 21
134.4856
 31
0.0
  0
LINE
  5
221
330
1E
100
AcDbEntity
  8
0
100
AcDbLine
 10
174.9347415
 20
906.4856
 30
0.0
 11
174.9347415
 21
918.4855999999999
 31
0.0
  0
LINE
  5
222
330
1E
100
AcDbEntity
  8
0
100
AcDbLine
 10
174.9347415
 20
905.4855999999999
 30
0.0
 11
176.2347415
 21
905.4855999999999
 31
0.0
  0
LINE
  5
223
330
1E
100
AcDbEntity
  8
0
100
AcDbLine
 10
174.9347415
 20
931.4856
 30
0.0
 11
176.2347415
 21
931.4856
 31
0.0
  0
LINE
  5
224
330
1E
100
AcDbEntity
  8
0
100
AcDbLine
 10
174.9347415
 20
930.4855999999999
 30
0.0
 11
174.9347415
 21
918.4855999999999
 31
0.0
  0
LINE
  5
225
330
1E
100
AcDbEntity
  8
0
100
AcDbLine
 10
174.9347415
 20
918.4855999999999
 30
0.0
 11
174.9347415
 21
906.4856
 31
0.0
  0
LINE
  5
226
330
1E
100
AcDbEntity
  8
0
100
AcDbLine
 10
174.9347415
 20
918.4855999999999
 30
0.0
 11
174.9347415
 21
930.4855999999999
 31
0.0
  0
LINE
  5
227
330
1E
100
AcDbEntity
  8
0
100
AcDbLine
 10
174.9347415
 20
901.9856
 30
0.0
 11
175.4347414999999
 21
901.9856
 31
0.0
  0
LINE
  5
22A
330
1E
100
AcDbEntity
  8
0
100
AcDbLine
 10
175.3347415
 20
931.9855999999999
 30
0.0
 11
177.7347415
 21
931.9855999999999
 31
0.0
  0
LINE
  5
22B
330
1E
100
AcDbEntity
  8
0
100
AcDbLine
 10
175.3347415
 20
934.4856
 30
0.0
 11
177.7347415
 21
934.4856
 31
0.0
  0
LINE
  5
22C
330
1E
100
AcDbEntity
  8
0
100
AcDbLine
 10
175.3347415
 20
904.9856
 30
0.0
 11
177.7347415
 21
904.9856
 31
0.0
  0
LINE
  5
22D
330
1E
100
AcDbEntity
  8
0
100
AcDbLine
 10
175.3347415
 20
902.4855999999999
 30
0.0
 11
177.7347415
 21
902.4855999999999
 31
0.0
  0
LINE
  5
22E
330
1E
100
AcDbEntity
  8
0
100
AcDbLine
 10
175.3677415
 20
1005.485599999999
 30
0.0
 11
176.2347415
 21
1004.9856
 31
0.0
  0
LINE
  5
22F
330
1E
100
AcDbEntity
  8
0
100
AcDbLine
 10
175.3677415
 20
1005.485599999999
 30
0.0
 11
175.8017414999999
 21
1005.485599999999
 31
0.0
  0
LINE
  5
230
330
1E
100
AcDbEntity
  8
0
100
AcDbLine
 10
174.9347415
 20
1006.4856
 30
0.0
 11
175.3677415
 21
1005.485599999999
 31
0.0
  0
LINE
  5
231
330
1E
100
AcDbEntity
  8
0
100
AcDbLine
 10
174.9347415
 20
1006.4856
 30
0.0
 11
174.9347415
 21
1006.985599999999
 31
0.0
  0
LINE
  5
232
330
1E
100
AcDbEntity
  8
0
100
AcDbLine
 10
174.9347415
 20
1006.985599999999
 30
0.0
 11
175.3677415
 21
1007.9856
 31
0.0
  0
LINE
  5
233
330
1E
100
AcDbEntity
  8
0
100
AcDbLine
 10
174.9347415
 20
1006.985599999999
 30
0.0
 11
174.9347415
 21
1006.4856
 31
0.0
  0
LINE
  5
234
330
1E
100
AcDbEntity
  8
0
100
AcDbLine
 10
175.3677415
 20
1007.9856
 30
0.0
 11
176.2347415
 21
1008.485599999999
 31
0.0
  0
LINE
  5
235
330
1E
100
AcDbEntity
  8
0
100
AcDbLine
 10
175.3677415
 20
1007.9856
 30
0.0
 11
175.8017414999999
 21
1007.9856
 31
0.0
  0
LINE
  5
236
330
1E
100
AcDbEntity
  8
0
100
AcDbLine
 10
175.4347414999999
 20
134.9856
 30
0.0
 11
175.9347415
 21
135.9856
 31
0.0
  0
LINE
  5
237
330
1E
100
AcDbEntity
  8
0
100
AcDbLine
 10
174.9347415
 20
118.4856
 30
0.0
 11
174.9347415
 21
106.4856
 31
0.0
  0
LINE
  5
238
330
1E
100
AcDbEntity
  8
0
100
AcDbLine
 10
174.9347415
 20
118.4856
 30
0.0
 11
174.9347415
 21
130.4856
 31
0.0
  0
LINE
  5
239
330
1E
100
AcDbEntity
  8
0
100
AcDbLine
 10
174.4347415
 20
105.4856
 30
0.0
 11
174.9347415
 21
106.4856
 31
0.0
  0
LINE
  5
23A
330
1E
100
AcDbEntity
  8
0
100
AcDbLine
 10
174.4347415
 20
105.4856
 30
0.0
 11
174.9347415
 21
105.4856
 31
0.0
  0
LINE
  5
23B
330
1E
100
AcDbEntity
  8
0
100
AcDbLine
 10
173.4347415
 20
102.4855999999999
 30
0.0
 11
174.4347415
 21
101.9856
 31
0.0
  0
LINE
  5
23C
330
1E
100
AcDbEntity
  8
0
100
AcDbLine
 10
173.4347415
 20
102.4855999999999
 30
0.0
 11
173.9347415
 21
102.4855999999999
 31
0.0
  0
LINE
  5
23D
330
1E
100
AcDbEntity
  8
0
100
AcDbLine
 10
174.4347415
 20
101.9856
 30
0.0
 11
174.9347415
 21
101.9856
 31
0.0
  0
LINE
  5
23E
330
1E
100
AcDbEntity
  8
0
100
AcDbLine
 10
176.2347415
 20
131.4856
 30
0.0
 11
178.4347415
 21
131.4856
 31
0.0
  0
LINE
  5
23F
330
1E
100
AcDbEntity
  8
0
100
AcDbLine
 10
175.4347414999999
 20
934.9856
 30
0.0
 11
175.9347415
 21
935.9856
 31
0.0
  0
LINE
  5
240
330
1E
100
AcDbEntity
  8
0
100
AcDbLine
 10
175.4347414999999
 20
901.9856
 30
0.0
 11
175.9347415
 21
900.9855999999999
 31
0.0
  0
LINE
  5
241
330
1E
100
AcDbEntity
  8
0
100
AcDbLine
 10
175.4347414999999
 20
901.9856
 30
0.0
 11
175.9347415
 21
901.9856
 31
0.0
  0
LINE
  5
242
330
1E
100
AcDbEntity
  8
0
100
AcDbLine
 10
175.8017414999999
 20
1005.485599999999
 30
0.0
 11
177.0147415
 21
1005.485599999999
 31
0.0
  0
LINE
  5
243
330
1E
100
AcDbEntity
  8
0
100
AcDbLine
 10
175.854564854406
 20
702.462795989403
 30
0.0
 11
200.7127414999999
 21
660.7426
 31
0.0
  0
LINE
  5
244
330
1E
100
AcDbEntity
  8
0
100
AcDbLine
 10
175.9347415
 20
901.9856
 30
0.0
 11
177.1347414999999
 21
901.9856
 31
0.0
  0
LINE
  5
245
330
1E
100
AcDbEntity
  8
0
100
AcDbLine
 10
175.9347415
 20
935.9856
 30
0.0
 11
176.9347415
 21
936.4855999999999
 31
0.0
  0
LINE
  5
246
330
1E
100
AcDbEntity
  8
0
100
AcDbLine
 10
175.9347415
 20
935.9856
 30
0.0
 11
176.3347415
 21
935.9856
 31
0.0
  0
LINE
  5
247
330
1E
100
AcDbEntity
  8
0
100
AcDbLine
 10
175.9347415
 20
900.9855999999999
 30
0.0
 11
176.9347415
 21
900.4856
 31
0.0
  0
LINE
  5
248
330
1E
100
AcDbEntity
  8
0
100
AcDbLine
 10
175.9347415
 20
900.9855999999999
 30
0.0
 11
176.3347415
 21
900.9855999999999
 31
0.0
  0
LINE
  5
249
330
1E
100
AcDbEntity
  8
0
100
AcDbLine
 10
175.8017414999999
 20
1007.9856
 30
0.0
 11
177.0147415
 21
1007.9856
 31
0.0
  0
LINE
  5
24A
330
1E
100
AcDbEntity
  8
0
100
AcDbLine
 10
175.9347415
 20
135.9856
 30
0.0
 11
176.3347415
 21
135.9856
 31
0.0
  0
LINE
  5
24B
330
1E
100
AcDbEntity
  8
0
100
AcDbLine
 10
175.9347415
 20
135.9856
 30
0.0
 11
176.9347415
 21
136.4856
 31
0.0
  0
LINE
  5
24C
330
1E
100
AcDbEntity
  8
0
100
AcDbLine
 10
176.6067415
 20
654.2495999999999
 30
0.0
 11
177.824627545037
 21
655.2082738124781
 31
0.0
  0
LINE
  5
250
330
1E
100
AcDbEntity
  8
0
100
AcDbLine
 10
176.6207415
 20
631.6716
 30
0.0
 11
179.9917415
 21
629.0995999999999
 31
0.0
  0
LINE
  5
251
330
1E
100
AcDbEntity
  8
0
100
AcDbLine
 10
176.2347415
 20
931.4856
 30
0.0
 11
178.4347415
 21
931.4856
 31
0.0
  0
LINE
  5
252
330
1E
100
AcDbEntity
  8
0
100
AcDbLine
 10
176.3347415
 20
935.9856
 30
0.0
 11
177.5347414999999
 21
935.9856
 31
0.0
  0
LINE
  5
253
330
1E
100
AcDbEntity
  8
0
100
AcDbLine
 10
176.2347415
 20
905.4855999999999
 30
0.0
 11
178.4347415
 21
905.4855999999999
 31
0.0
  0
LINE
  5
254
330
1E
100
AcDbEntity
  8
0
100
AcDbLine
 10
176.3347415
 20
900.9855999999999
 30
0.0
 11
177.5347414999999
 21
900.9855999999999
 31
0.0
  0
LINE
  5
255
330
1E
100
AcDbEntity
  8
0
100
AcDbLine
 10
176.6677415
 20
1004.9856
 30
0.0
 11
177.7947415
 21
1004.9856
 31
0.0
  0
LINE
  5
256
330
1E
100
AcDbEntity
  8
0
100
AcDbLine
 10
176.2347415
 20
1004.9856
 30
0.0
 11
176.6677415
 21
1003.9856
 31
0.0
  0
LINE
  5
257
330
1E
100
AcDbEntity
  8
0
100
AcDbLine
 10
176.2347415
 20
1004.9856
 30
0.0
 11
176.6677415
 21
1004.9856
 31
0.0
  0
LINE
  5
258
330
1E
100
AcDbEntity
  8
0
100
AcDbLine
 10
176.9347415
 20
136.342742857143
 30
0.0
 11
176.9347415
 21
631.4320247997626
 31
0.0
  0
LINE
  5
25B
330
1E
100
AcDbEntity
  8
0
100
AcDbLine
 10
176.9347415
 20
136.342742857143
 30
0.0
 11
176.9347415
 21
631.4320247997626
 31
0.0
  0
LINE
  5
25C
330
1E
100
AcDbEntity
  8
0
100
AcDbLine
 10
176.6677415
 20
1003.9856
 30
0.0
 11
176.9347415
 21
1003.9856
 31
0.0
  0
LINE
  5
25D
330
1E
100
AcDbEntity
  8
0
100
AcDbLine
 10
176.6677415
 20
1003.9856
 30
0.0
 11
177.1017415
 21
1003.9856
 31
0.0
  0
LINE
  5
25E
330
1E
100
AcDbEntity
  8
0
100
AcDbLine
 10
176.3347415
 20
135.9856
 30
0.0
 11
177.5347414999999
 21
135.9856
 31
0.0
  0
LINE
  5
25F
330
1E
100
AcDbEntity
  8
0
100
AcDbLine
 10
176.2347415
 20
105.4856
 30
0.0
 11
178.4347415
 21
105.4856
 31
0.0
  0
LINE
  5
260
330
1E
100
AcDbEntity
  8
0
100
AcDbLine
 10
175.9347415
 20
101.9856
 30
0.0
 11
177.1347414999999
 21
101.9856
 31
0.0
  0
LINE
  5
261
330
1E
100
AcDbEntity
  8
0
100
AcDbLine
 10
175.4347414999999
 20
101.9856
 30
0.0
 11
175.9347415
 21
100.9856
 31
0.0
  0
LINE
  5
262
330
1E
100
AcDbEntity
  8
0
100
AcDbLine
 10
175.4347414999999
 20
101.9856
 30
0.0
 11
175.9347415
 21
101.9856
 31
0.0
  0
LINE
  5
263
330
1E
100
AcDbEntity
  8
0
100
AcDbLine
 10
175.9347415
 20
100.9856
 30
0.0
 11
176.9347415
 21
100.4855999999999
 31
0.0
  0
LINE
  5
264
330
1E
100
AcDbEntity
  8
0
100
AcDbLine
 10
175.9347415
 20
100.9856
 30
0.0
 11
176.3347415
 21
100.9856
 31
0.0
  0
LINE
  5
265
330
1E
100
AcDbEntity
  8
0
100
AcDbLine
 10
177.8817414999999
 20
27.4856
 30
0.0
 11
178.9217414999999
 21
27.4856
 31
0.0
  0
LINE
  5
266
330
1E
100
AcDbEntity
  8
0
100
AcDbLine
 10
178.9217414999999
 20
27.4856
 30
0.0
 11
180.5677415
 21
27.4856
 31
0.0
  0
LINE
  5
267
330
1E
100
AcDbEntity
  8
0
100
AcDbLine
 10
178.7477415
 20
26.9856
 30
0.0
 11
179.7017415
 21
26.9856
 31
0.0
  0
LINE
  5
268
330
1E
100
AcDbEntity
  8
0
100
AcDbLine
 10
178.4017415
 20
26.9856
 30
0.0
 11
178.7477415
 21
26.9856
 31
0.0
  0
LINE
  5
269
330
1E
100
AcDbEntity
  8
0
100
AcDbLine
 10
177.1017415
 20
32.9856
 30
0.0
 11
178.1417414999999
 21
32.9856
 31
0.0
  0
LINE
  5
26A
330
1E
100
AcDbEntity
  8
0
100
AcDbLine
 10
177.0147415
 20
31.4856
 30
0.0
 11
179.0947414999999
 21
31.4856
 31
0.0
  0
LINE
  5
26B
330
1E
100
AcDbEntity
  8
0
100
AcDbLine
 10
177.0147415
 20
28.9856
 30
0.0
 11
179.0947414999999
 21
28.9856
 31
0.0
  0
LINE
  5
26C
330
1E
100
AcDbEntity
  8
0
100
AcDbLine
 10
177.7947415
 20
28.4856
 30
0.0
 11
179.7017415
 21
28.4856
 31
0.0
  0
LINE
  5
26D
330
1E
100
AcDbEntity
  8
0
100
AcDbLine
 10
177.5347414999999
 20
28.4856
 30
0.0
 11
177.7947415
 21
28.4856
 31
0.0
  0
LINE
  5
26E
330
1E
100
AcDbEntity
  8
0
100
AcDbLine
 10
178.1417414999999
 20
32.9856
 30
0.0
 11
179.9617415
 21
32.9856
 31
0.0
  0
LINE
  5
26F
330
1E
100
AcDbEntity
  8
0
100
AcDbLine
 10
177.7947415
 20
31.9856
 30
0.0
 11
179.7017415
 21
31.9856
 31
0.0
  0
LINE
  5
270
330
1E
100
AcDbEntity
  8
0
100
AcDbLine
 10
179.0947414999999
 20
31.4856
 30
0.0
 11
181.6947414999999
 21
31.4856
 31
0.0
  0
LINE
  5
271
330
1E
100
AcDbEntity
  8
0
100
AcDbLine
 10
179.0947414999999
 20
28.9856
 30
0.0
 11
181.6947414999999
 21
28.9856
 31
0.0
  0
LINE
  5
272
330
1E
100
AcDbEntity
  8
0
100
AcDbLine
 10
177.1017415
 20
28.4856
 30
0.0
 11
177.5347414999999
 21
27.4856
 31
0.0
  0
LINE
  5
273
330
1E
100
AcDbEntity
  8
0
100
AcDbLine
 10
177.1017415
 20
28.4856
 30
0.0
 11
177.5347414999999
 21
28.4856
 31
0.0
  0
LINE
  5
274
330
1E
100
AcDbEntity
  8
0
100
AcDbLine
 10
177.5347414999999
 20
27.4856
 30
0.0
 11
178.4017415
 21
26.9856
 31
0.0
  0
LINE
  5
275
330
1E
100
AcDbEntity
  8
0
100
AcDbLine
 10
177.5347414999999
 20
27.4856
 30
0.0
 11
177.8817414999999
 21
27.4856
 31
0.0
  0
LINE
  5
276
330
1E
100
AcDbEntity
  8
0
100
AcDbLine
 10
179.7017415
 20
26.9856
 30
0.0
 11
181.1747415
 21
26.9856
 31
0.0
  0
LINE
  5
277
330
1E
100
AcDbEntity
  8
0
100
AcDbLine
 10
181.1747415
 20
26.9856
 30
0.0
 11
183.1677415
 21
26.9856
 31
0.0
  0
LINE
  5
278
330
1E
100
AcDbEntity
  8
0
100
AcDbLine
 10
179.7017415
 20
28.4856
 30
0.0
 11
182.1277415
 21
28.4856
 31
0.0
  0
LINE
  5
279
330
1E
100
AcDbEntity
  8
0
100
AcDbLine
 10
179.7017415
 20
28.4856
 30
0.0
 11
180.3077414999999
 21
28.4856
 31
0.0
  0
LINE
  5
27A
330
1E
100
AcDbEntity
  8
0
100
AcDbLine
 10
182.1277415
 20
28.4856
 30
0.0
 11
184.9017415
 21
28.4856
 31
0.0
  0
LINE
  5
27B
330
1E
100
AcDbEntity
  8
0
100
AcDbLine
 10
179.9617415
 20
32.9856
 30
0.0
 11
182.3017414999999
 21
32.9856
 31
0.0
  0
LINE
  5
27C
330
1E
100
AcDbEntity
  8
0
100
AcDbLine
 10
179.7017415
 20
31.9856
 30
0.0
 11
182.1277415
 21
31.9856
 31
0.0
  0
LINE
  5
27D
330
1E
100
AcDbEntity
  8
0
100
AcDbLine
 10
181.6947414999999
 20
31.4856
 30
0.0
 11
184.7277415
 21
31.4856
 31
0.0
  0
LINE
  5
27E
330
1E
100
AcDbEntity
  8
0
100
AcDbLine
 10
182.3017414999999
 20
32.9856
 30
0.0
 11
185.0747415
 21
32.9856
 31
0.0
  0
LINE
  5
27F
330
1E
100
AcDbEntity
  8
0
100
AcDbLine
 10
182.1277415
 20
31.9856
 30
0.0
 11
184.9017415
 21
31.9856
 31
0.0
  0
LINE
  5
280
330
1E
100
AcDbEntity
  8
0
100
AcDbLine
 10
181.6947414999999
 20
28.9856
 30
0.0
 11
184.7277415
 21
28.9856
 31
0.0
  0
LINE
  5
281
330
1E
100
AcDbEntity
  8
0
100
AcDbLine
 10
180.3077414999999
 20
28.4856
 30
0.0
 11
182.5617415
 21
28.4856
 31
0.0
  0
LINE
  5
282
330
1E
100
AcDbEntity
  8
0
100
AcDbLine
 10
182.5617415
 20
28.4856
 30
0.0
 11
185.1617414999999
 21
28.4856
 31
0.0
  0
LINE
  5
283
330
1E
100
AcDbEntity
  8
0
100
AcDbLine
 10
180.5677415
 20
27.4856
 30
0.0
 11
182.7347415
 21
27.4856
 31
0.0
  0
LINE
  5
284
330
1E
100
AcDbEntity
  8
0
100
AcDbLine
 10
184.7277415
 20
31.4856
 30
0.0
 11
187.9347414999999
 21
31.4856
 31
0.0
  0
LINE
  5
285
330
1E
100
AcDbEntity
  8
0
100
AcDbLine
 10
184.7277415
 20
28.9856
 30
0.0
 11
187.9347414999999
 21
28.9856
 31
0.0
  0
LINE
  5
286
330
1E
100
AcDbEntity
  8
0
100
AcDbLine
 10
182.7347415
 20
27.4856
 30
0.0
 11
185.2477415
 21
27.4856
 31
0.0
  0
LINE
  5
287
330
1E
100
AcDbEntity
  8
0
100
AcDbLine
 10
183.1677415
 20
26.9856
 30
0.0
 11
185.5077415
 21
26.9856
 31
0.0
  0
LINE
  5
288
330
1E
100
AcDbEntity
  8
0
100
AcDbLine
 10
179.4347415
 20
100.9856
 30
0.0
 11
181.9347415
 21
100.9856
 31
0.0
  0
LINE
  5
289
330
1E
100
AcDbEntity
  8
0
100
AcDbLine
 10
181.9347415
 20
100.9856
 30
0.0
 11
184.8347415
 21
100.9856
 31
0.0
  0
LINE
  5
28A
330
1E
100
AcDbEntity
  8
0
100
AcDbLine
 10
190.3617415
 20
26.9856
 30
0.0
 11
192.7017415
 21
26.9856
 31
0.0
  0
LINE
  5
28B
330
1E
100
AcDbEntity
  8
0
100
AcDbLine
 10
187.9347414999999
 20
26.9856
 30
0.0
 11
190.3617415
 21
26.9856
 31
0.0
  0
LINE
  5
28C
330
1E
100
AcDbEntity
  8
0
100
AcDbLine
 10
184.9017415
 20
28.4856
 30
0.0
 11
187.9347414999999
 21
28.4856
 31
0.0
  0
LINE
  5
28D
330
1E
100
AcDbEntity
  8
0
100
AcDbLine
 10
185.0747415
 20
32.9856
 30
0.0
 11
187.9347414999999
 21
32.9856
 31
0.0
  0
LINE
  5
28E
330
1E
100
AcDbEntity
  8
0
100
AcDbLine
 10
184.9017415
 20
31.9856
 30
0.0
 11
187.9347414999999
 21
31.9856
 31
0.0
  0
LINE
  5
28F
330
1E
100
AcDbEntity
  8
0
100
AcDbLine
 10
185.1617414999999
 20
28.4856
 30
0.0
 11
187.9347414999999
 21
28.4856
 31
0.0
  0
LINE
  5
290
330
1E
100
AcDbEntity
  8
0
100
AcDbLine
 10
190.6217415
 20
27.4856
 30
0.0
 11
193.1347414999999
 21
27.4856
 31
0.0
  0
LINE
  5
291
330
1E
100
AcDbEntity
  8
0
100
AcDbLine
 10
187.9347414999999
 20
32.9856
 30
0.0
 11
190.7947415
 21
32.9856
 31
0.0
  0
LINE
  5
292
330
1E
100
AcDbEntity
  8
0
100
AcDbLine
 10
187.9347414999999
 20
31.9856
 30
0.0
 11
190.9677415
 21
31.9856
 31
0.0
  0
LINE
  5
293
330
1E
100
AcDbEntity
  8
0
100
AcDbLine
 10
187.9347414999999
 20
31.4856
 30
0.0
 11
191.1417415
 21
31.4856
 31
0.0
  0
LINE
  5
294
330
1E
100
AcDbEntity
  8
0
100
AcDbLine
 10
187.9347414999999
 20
28.9856
 30
0.0
 11
191.1417415
 21
28.9856
 31
0.0
  0
LINE
  5
295
330
1E
100
AcDbEntity
  8
0
100
AcDbLine
 10
190.9677415
 20
28.4856
 30
0.0
 11
193.7417415
 21
28.4856
 31
0.0
  0
LINE
  5
296
330
1E
100
AcDbEntity
  8
0
100
AcDbLine
 10
190.7947415
 20
32.9856
 30
0.0
 11
193.5677415
 21
32.9856
 31
0.0
  0
LINE
  5
297
330
1E
100
AcDbEntity
  8
0
100
AcDbLine
 10
190.9677415
 20
31.9856
 30
0.0
 11
193.7417415
 21
31.9856
 31
0.0
  0
LINE
  5
298
330
1E
100
AcDbEntity
  8
0
100
AcDbLine
 10
190.7077415
 20
28.4856
 30
0.0
 11
193.3077414999999
 21
28.4856
 31
0.0
  0
LINE
  5
299
330
1E
100
AcDbEntity
  8
0
100
AcDbLine
 10
187.9347414999999
 20
28.4856
 30
0.0
 11
190.7077415
 21
28.4856
 31
0.0
  0
LINE
  5
29A
330
1E
100
AcDbEntity
  8
0
100
AcDbLine
 10
187.9347414999999
 20
28.4856
 30
0.0
 11
190.9677415
 21
28.4856
 31
0.0
  0
LINE
  5
29B
330
1E
100
AcDbEntity
  8
0
100
AcDbLine
 10
187.9347414999999
 20
27.4856
 30
0.0
 11
190.6217415
 21
27.4856
 31
0.0
  0
LINE
  5
29C
330
1E
100
AcDbEntity
  8
0
100
AcDbLine
 10
185.2477415
 20
27.4856
 30
0.0
 11
187.9347414999999
 21
27.4856
 31
0.0
  0
LINE
  5
29D
330
1E
100
AcDbEntity
  8
0
100
AcDbLine
 10
185.5077415
 20
26.9856
 30
0.0
 11
187.9347414999999
 21
26.9856
 31
0.0
  0
LINE
  5
29E
330
1E
100
AcDbEntity
  8
0
100
AcDbLine
 10
194.6947414999999
 20
26.9856
 30
0.0
 11
196.1677415
 21
26.9856
 31
0.0
  0
LINE
  5
29F
330
1E
100
AcDbEntity
  8
0
100
AcDbLine
 10
196.1677415
 20
26.9856
 30
0.0
 11
197.1217415
 21
26.9856
 31
0.0
  0
LINE
  5
2A0
330
1E
100
AcDbEntity
  8
0
100
AcDbLine
 10
197.1217415
 20
26.9856
 30
0.0
 11
197.4677415
 21
26.9856
 31
0.0
  0
LINE
  5
2A1
330
1E
100
AcDbEntity
  8
0
100
AcDbLine
 10
191.1417415
 20
31.4856
 30
0.0
 11
194.1747415
 21
31.4856
 31
0.0
  0
LINE
  5
2A2
330
1E
100
AcDbEntity
  8
0
100
AcDbLine
 10
191.1417415
 20
28.9856
 30
0.0
 11
194.1747415
 21
28.9856
 31
0.0
  0
LINE
  5
2A3
330
1E
100
AcDbEntity
  8
0
100
AcDbLine
 10
195.3017414999999
 20
27.4856
 30
0.0
 11
196.9477415
 21
27.4856
 31
0.0
  0
LINE
  5
2A4
330
1E
100
AcDbEntity
  8
0
100
AcDbLine
 10
196.1677415
 20
28.4856
 30
0.0
 11
198.0747415
 21
28.4856
 31
0.0
  0
LINE
  5
2A5
330
1E
100
AcDbEntity
  8
0
100
AcDbLine
 10
195.5617415
 20
28.4856
 30
0.0
 11
197.2947415
 21
28.4856
 31
0.0
  0
LINE
  5
2A6
330
1E
100
AcDbEntity
  8
0
100
AcDbLine
 10
197.2947415
 20
28.4856
 30
0.0
 11
198.3347415
 21
28.4856
 31
0.0
  0
LINE
  5
2A7
330
1E
100
AcDbEntity
  8
0
100
AcDbLine
 10
196.9477415
 20
27.4856
 30
0.0
 11
197.9877414999999
 21
27.4856
 31
0.0
  0
LINE
  5
2A8
330
1E
100
AcDbEntity
  8
0
100
AcDbLine
 10
193.7417415
 20
28.4856
 30
0.0
 11
196.1677415
 21
28.4856
 31
0.0
  0
LINE
  5
2A9
330
1E
100
AcDbEntity
  8
0
100
AcDbLine
 10
193.5677415
 20
32.9856
 30
0.0
 11
195.9077415
 21
32.9856
 31
0.0
  0
LINE
  5
2AA
330
1E
100
AcDbEntity
  8
0
100
AcDbLine
 10
193.7417415
 20
31.9856
 30
0.0
 11
196.1677415
 21
31.9856
 31
0.0
  0
LINE
  5
2AB
330
1E
100
AcDbEntity
  8
0
100
AcDbLine
 10
194.1747415
 20
31.4856
 30
0.0
 11
196.7747415
 21
31.4856
 31
0.0
  0
LINE
  5
2AC
330
1E
100
AcDbEntity
  8
0
100
AcDbLine
 10
195.9077415
 20
32.9856
 30
0.0
 11
197.7277415
 21
32.9856
 31
0.0
  0
LINE
  5
2AD
330
1E
100
AcDbEntity
  8
0
100
AcDbLine
 10
196.1677415
 20
31.9856
 30
0.0
 11
198.0747415
 21
31.9856
 31
0.0
  0
LINE
  5
2AE
330
1E
100
AcDbEntity
  8
0
100
AcDbLine
 10
196.7747415
 20
31.4856
 30
0.0
 11
198.8547415
 21
31.4856
 31
0.0
  0
LINE
  5
2AF
330
1E
100
AcDbEntity
  8
0
100
AcDbLine
 10
196.7747415
 20
28.9856
 30
0.0
 11
198.8547415
 21
28.9856
 31
0.0
  0
LINE
  5
2B0
330
1E
100
AcDbEntity
  8
0
100
AcDbLine
 10
194.1747415
 20
28.9856
 30
0.0
 11
196.7747415
 21
28.9856
 31
0.0
  0
LINE
  5
2B1
330
1E
100
AcDbEntity
  8
0
100
AcDbLine
 10
193.3077414999999
 20
28.4856
 30
0.0
 11
195.5617415
 21
28.4856
 31
0.0
  0
LINE
  5
2B2
330
1E
100
AcDbEntity
  8
0
100
AcDbLine
 10
193.1347414999999
 20
27.4856
 30
0.0
 11
195.3017414999999
 21
27.4856
 31
0.0
  0
LINE
  5
2B3
330
1E
100
AcDbEntity
  8
0
100
AcDbLine
 10
192.7017415
 20
26.9856
 30
0.0
 11
194.6947414999999
 21
26.9856
 31
0.0
  0
LINE
  5
2B4
330
1E
100
AcDbEntity
  8
0
100
AcDbLine
 10
197.9877414999999
 20
27.4856
 30
0.0
 11
198.3347415
 21
27.4856
 31
0.0
  0
LINE
  5
2B5
330
1E
100
AcDbEntity
  8
0
100
AcDbLine
 10
198.0747415
 20
28.4856
 30
0.0
 11
199.2017415
 21
28.4856
 31
0.0
  0
LINE
  5
2B6
330
1E
100
AcDbEntity
  8
0
100
AcDbLine
 10
199.2017415
 20
28.4856
 30
0.0
 11
199.6347414999999
 21
28.4856
 31
0.0
  0
LINE
  5
2B7
330
1E
100
AcDbEntity
  8
0
100
AcDbLine
 10
197.7277415
 20
32.9856
 30
0.0
 11
198.7677415
 21
32.9856
 31
0.0
  0
LINE
  5
2B8
330
1E
100
AcDbEntity
  8
0
100
AcDbLine
 10
198.7677415
 20
32.9856
 30
0.0
 11
199.2017415
 21
32.9856
 31
0.0
  0
LINE
  5
2B9
330
1E
100
AcDbEntity
  8
0
100
AcDbLine
 10
198.0747415
 20
31.9856
 30
0.0
 11
199.2017415
 21
31.9856
 31
0.0
  0
LINE
  5
2BA
330
1E
100
AcDbEntity
  8
0
100
AcDbLine
 10
198.8547415
 20
31.4856
 30
0.0
 11
200.0677415
 21
31.4856
 31
0.0
  0
LINE
  5
2BB
330
1E
100
AcDbEntity
  8
0
100
AcDbLine
 10
198.9347415
 20
32.9856
 30
0.0
 11
198.9347415
 21
100.6284571428569
 31
0.0
  0
LINE
  5
2BC
330
1E
100
AcDbEntity
  8
0
100
AcDbLine
 10
198.9347415
 20
32.9856
 30
0.0
 11
198.9347415
 21
100.6284571428569
 31
0.0
  0
LINE
  5
2BD
330
1E
100
AcDbEntity
  8
0
100
AcDbLine
 10
199.2017415
 20
31.9856
 30
0.0
 11
199.6347414999999
 21
31.9856
 31
0.0
  0
LINE
  5
2BE
330
1E
100
AcDbEntity
  8
0
100
AcDbLine
 10
198.8547415
 20
28.9856
 30
0.0
 11
200.0677415
 21
28.9856
 31
0.0
  0
LINE
  5
2BF
330
1E
100
AcDbEntity
  8
0
100
AcDbLine
 10
198.3347415
 20
28.4856
 30
0.0
 11
198.7677415
 21
28.4856
 31
0.0
  0
LINE
  5
2C0
330
1E
100
AcDbEntity
  8
0
100
AcDbLine
 10
199.2017415
 20
32.9856
 30
0.0
 11
199.6347414999999
 21
31.9856
 31
0.0
  0
LINE
  5
2C1
330
1E
100
AcDbEntity
  8
0
100
AcDbLine
 10
198.3347415
 20
27.4856
 30
0.0
 11
198.7677415
 21
28.4856
 31
0.0
  0
LINE
  5
2C2
330
1E
100
AcDbEntity
  8
0
100
AcDbLine
 10
197.4677415
 20
26.9856
 30
0.0
 11
198.3347415
 21
27.4856
 31
0.0
  0
LINE
  5
2C3
330
1E
100
AcDbEntity
  8
0
100
AcDbLine
 10
196.4347414999999
 20
100.9856
 30
0.0
 11
198.3347415
 21
100.9856
 31
0.0
  0
LINE
  5
2C4
330
1E
100
AcDbEntity
  8
0
100
AcDbLine
 10
198.3347415
 20
100.9856
 30
0.0
 11
199.5347414999999
 21
100.9856
 31
0.0
  0
LINE
  5
2C5
330
1E
100
AcDbEntity
  8
0
100
AcDbLine
 10
198.9347415
 20
100.4855999999999
 30
0.0
 11
199.9347415
 21
100.9856
 31
0.0
  0
LINE
  5
2C6
330
1E
100
AcDbEntity
  8
0
100
AcDbLine
 10
199.6347414999999
 20
31.9856
 30
0.0
 11
200.5017415
 21
31.4856
 31
0.0
  0
LINE
  5
2C7
330
1E
100
AcDbEntity
  8
0
100
AcDbLine
 10
215.6587415
 20
0.5227000000000171
 30
0.0
 11
218.0507415
 21
1.47370000000001
 31
0.0
  0
LINE
  5
2C8
330
1E
100
AcDbEntity
  8
0
100
AcDbLine
 10
212.7527415
 20
0.0144000000000155
 30
0.0
 11
215.6587415
 21
0.5227000000000171
 31
0.0
  0
LINE
  5
2C9
330
1E
100
AcDbEntity
  8
0
100
AcDbLine
 10
209.6097415
 20
0.143300000000017
 30
0.0
 11
212.7527415
 21
0.0144000000000155
 31
0.0
  0
LINE
  5
2CA
330
1E
100
AcDbEntity
  8
0
100
AcDbLine
 10
219.4797415
 20
2.847500000000009
 30
0.0
 11
219.7427414999999
 21
4.389300000000019
 31
0.0
  0
LINE
  5
2CB
330
1E
100
AcDbEntity
  8
0
100
AcDbLine
 10
218.0507415
 20
1.47370000000001
 30
0.0
 11
219.4797415
 21
2.847500000000009
 31
0.0
  0
LINE
  5
2CC
330
1E
100
AcDbEntity
  8
0
100
AcDbLine
 10
206.8107415
 20
0.8460000000000139
 30
0.0
 11
209.6097415
 21
0.143300000000017
 31
0.0
  0
LINE
  5
2CD
330
1E
100
AcDbEntity
  8
0
100
AcDbLine
 10
204.8707414999999
 20
2.022200000000019
 30
0.0
 11
206.8107415
 21
0.8460000000000139
 31
0.0
  0
LINE
  5
2CE
330
1E
100
AcDbEntity
  8
0
100
AcDbLine
 10
218.7127414999999
 20
5.816900000000019
 30
0.0
 11
219.7427414999999
 21
4.389300000000019
 31
0.0
  0
LINE
  5
2CF
330
1E
100
AcDbEntity
  8
0
100
AcDbLine
 10
216.7767415
 20
6.993000000000018
 30
0.0
 11
218.7127414999999
 21
5.816900000000019
 31
0.0
  0
LINE
  5
2D0
330
1E
100
AcDbEntity
  8
0
100
AcDbLine
 10
213.9827415
 20
7.696800000000019
 30
0.0
 11
216.7767415
 21
6.993000000000018
 31
0.0
  0
LINE
  5
2D1
330
1E
100
AcDbEntity
  8
0
100
AcDbLine
 10
210.8397415
 20
7.827900000000009
 30
0.0
 11
213.9827415
 21
7.696800000000019
 31
0.0
  0
LINE
  5
2D2
330
1E
100
AcDbEntity
  8
0
100
AcDbLine
 10
207.9297415
 20
7.322700000000018
 30
0.0
 11
210.8397415
 21
7.827900000000009
 31
0.0
  0
LINE
  5
2D3
330
1E
100
AcDbEntity
  8
0
100
AcDbLine
 10
205.5347414999999
 20
6.370600000000009
 30
0.0
 11
207.9297415
 21
7.322700000000018
 31
0.0
  0
LINE
  5
2D4
330
1E
100
AcDbEntity
  8
0
100
AcDbLine
 10
204.1017415
 20
4.996900000000019
 30
0.0
 11
205.5347414999999
 21
6.370600000000009
 31
0.0
  0
LINE
  5
2D5
330
1E
100
AcDbEntity
  8
0
100
AcDbLine
 10
203.8367415
 20
3.45190000000002
 30
0.0
 11
204.8707414999999
 21
2.022200000000019
 31
0.0
  0
LINE
  5
2D6
330
1E
100
AcDbEntity
  8
0
100
AcDbLine
 10
203.8367415
 20
3.45190000000002
 30
0.0
 11
204.1017415
 21
4.996900000000019
 31
0.0
  0
LINE
  5
2D7
330
1E
100
AcDbEntity
  8
0
100
AcDbLine
 10
200.0677415
 20
28.9856
 30
0.0
 11
200.5017415
 21
28.9856
 31
0.0
  0
LINE
  5
2D8
330
1E
100
AcDbEntity
  8
0
100
AcDbLine
 10
200.0677415
 20
31.4856
 30
0.0
 11
200.5017415
 21
31.4856
 31
0.0
  0
LINE
  5
2D9
330
1E
100
AcDbEntity
  8
0
100
AcDbLine
 10
200.9347415
 20
29.9856
 30
0.0
 11
200.9347415
 21
30.4856
 31
0.0
  0
LINE
  5
2DA
330
1E
100
AcDbEntity
  8
0
100
AcDbLine
 10
200.5017415
 20
31.4856
 30
0.0
 11
200.9347415
 21
30.4856
 31
0.0
  0
LINE
  5
2DB
330
1E
100
AcDbEntity
  8
0
100
AcDbLine
 10
200.9347415
 20
30.4856
 30
0.0
 11
200.9347415
 21
29.9856
 31
0.0
  0
LINE
  5
2DC
330
1E
100
AcDbEntity
  8
0
100
AcDbLine
 10
200.5017415
 20
28.9856
 30
0.0
 11
200.9347415
 21
29.9856
 31
0.0
  0
LINE
  5
2DD
330
1E
100
AcDbEntity
  8
0
100
AcDbLine
 10
199.6347414999999
 20
28.4856
 30
0.0
 11
200.5017415
 21
28.9856
 31
0.0
  0
LINE
  5
2DE
330
1E
100
AcDbEntity
  8
0
100
AcDbLine
 10
240.5887415
 20
93.4856
 30
0.0
 11
241.1467415
 21
91.9856
 31
0.0
  0
LINE
  5
2DF
330
1E
100
AcDbEntity
  8
0
100
AcDbLine
 10
241.1467415
 20
92.9856
 30
0.0
 11
241.1467415
 21
91.9856
 31
0.0
  0
LINE
  5
2E0
330
1E
100
AcDbEntity
  8
0
100
AcDbLine
 10
241.1467415
 20
92.9856
 30
0.0
 11
241.1467415
 21
95.4856
 31
0.0
  0
LINE
  5
2E1
330
1E
100
AcDbEntity
  8
0
100
AcDbLine
 10
241.1467415
 20
91.9856
 30
0.0
 11
242.8197415
 21
91.48560000000001
 31
0.0
  0
LINE
  5
2E2
330
1E
100
AcDbEntity
  8
0
100
AcDbLine
 10
241.1467415
 20
91.9856
 30
0.0
 11
241.1467415
 21
92.9856
 31
0.0
  0
LINE
  5
2E3
330
1E
100
AcDbEntity
  8
0
100
AcDbLine
 10
242.8197415
 20
91.48560000000001
 30
0.0
 11
243.9347414999999
 21
91.48560000000001
 31
0.0
  0
LINE
  5
2E4
330
1E
100
AcDbEntity
  8
0
100
AcDbLine
 10
243.9347414999999
 20
91.48560000000001
 30
0.0
 11
243.9347414999999
 21
92.48560000000001
 31
0.0
  0
LINE
  5
2E5
330
1E
100
AcDbEntity
  8
0
100
AcDbLine
 10
229.4347415
 20
100.4855999999999
 30
0.0
 11
230.5497415
 21
100.4855999999999
 31
0.0
  0
LINE
  5
2E6
330
1E
100
AcDbEntity
  8
0
100
AcDbLine
 10
227.7617414999999
 20
100.9856
 30
0.0
 11
229.4347415
 21
100.4855999999999
 31
0.0
  0
LINE
  5
2E7
330
1E
100
AcDbEntity
  8
0
100
AcDbLine
 10
227.7617414999999
 20
100.9856
 30
0.0
 11
227.7617414999999
 21
101.5856
 31
0.0
  0
LINE
  5
2E8
330
1E
100
AcDbEntity
  8
0
100
AcDbLine
 10
230.5497415
 20
100.4855999999999
 30
0.0
 11
235.0117415
 21
98.98560000000001
 31
0.0
  0
LINE
  5
2E9
330
1E
100
AcDbEntity
  8
0
100
AcDbLine
 10
235.0117415
 20
98.98560000000001
 30
0.0
 11
238.9157415
 21
95.9856
 31
0.0
  0
LINE
  5
2EA
330
1E
100
AcDbEntity
  8
0
100
AcDbLine
 10
238.9157415
 20
95.9856
 30
0.0
 11
240.5887415
 21
93.4856
 31
0.0
  0
LINE
  5
2EB
330
1E
100
AcDbEntity
  8
0
100
AcDbLine
 10
241.1467415
 20
99.78560000000001
 30
0.0
 11
241.1467415
 21
95.4856
 31
0.0
  0
LINE
  5
2EC
330
1E
100
AcDbEntity
  8
0
100
AcDbLine
 10
241.1467415
 20
99.78560000000001
 30
0.0
 11
241.1467415
 21
105.2856
 31
0.0
  0
LINE
  5
2ED
330
1E
100
AcDbEntity
  8
0
100
AcDbLine
 10
241.1467415
 20
95.4856
 30
0.0
 11
241.1467415
 21
92.9856
 31
0.0
  0
LINE
  5
2EE
330
1E
100
AcDbEntity
  8
0
100
AcDbLine
 10
241.1467415
 20
95.4856
 30
0.0
 11
241.1467415
 21
99.78560000000001
 31
0.0
  0
LINE
  5
2EF
330
1E
100
AcDbEntity
  8
0
100
AcDbLine
 10
243.9347414999999
 20
99.3856
 30
0.0
 11
243.9347414999999
 21
95.08560000000001
 31
0.0
  0
LINE
  5
2F0
330
1E
100
AcDbEntity
  8
0
100
AcDbLine
 10
243.9347414999999
 20
99.3856
 30
0.0
 11
243.9347414999999
 21
105.0856
 31
0.0
  0
LINE
  5
2F1
330
1E
100
AcDbEntity
  8
0
100
AcDbLine
 10
243.9347414999999
 20
95.08560000000001
 30
0.0
 11
243.9347414999999
 21
92.48560000000001
 31
0.0
  0
LINE
  5
2F2
330
1E
100
AcDbEntity
  8
0
100
AcDbLine
 10
243.9347414999999
 20
95.08560000000001
 30
0.0
 11
243.9347414999999
 21
99.3856
 31
0.0
  0
LINE
  5
2F3
330
1E
100
AcDbEntity
  8
0
100
AcDbLine
 10
243.9347414999999
 20
92.48560000000001
 30
0.0
 11
243.9347414999999
 21
91.48560000000001
 31
0.0
  0
LINE
  5
2F4
330
1E
100
AcDbEntity
  8
0
100
AcDbLine
 10
243.9347414999999
 20
92.48560000000001
 30
0.0
 11
243.9347414999999
 21
95.08560000000001
 31
0.0
  0
LINE
  5
2F5
330
1E
100
AcDbEntity
  8
0
100
AcDbLine
 10
199.9347415
 20
100.9856
 30
0.0
 11
200.4347415
 21
101.9856
 31
0.0
  0
LINE
  5
2F6
330
1E
100
AcDbEntity
  8
0
100
AcDbLine
 10
199.5347414999999
 20
100.9856
 30
0.0
 11
199.9347415
 21
100.9856
 31
0.0
  0
LINE
  5
2F7
330
1E
100
AcDbEntity
  8
0
100
AcDbLine
 10
193.9347415
 20
100.9856
 30
0.0
 11
196.4347414999999
 21
100.9856
 31
0.0
  0
LINE
  5
2F8
330
1E
100
AcDbEntity
  8
0
100
AcDbLine
 10
191.0347415
 20
100.9856
 30
0.0
 11
193.9347415
 21
100.9856
 31
0.0
  0
LINE
  5
2F9
330
1E
100
AcDbEntity
  8
0
100
AcDbLine
 10
187.9347414999999
 20
100.9856
 30
0.0
 11
191.0347415
 21
100.9856
 31
0.0
  0
LINE
  5
2FA
330
1E
100
AcDbEntity
  8
0
100
AcDbLine
 10
184.8347415
 20
100.9856
 30
0.0
 11
187.9347414999999
 21
100.9856
 31
0.0
  0
LINE
  5
2FB
330
1E
100
AcDbEntity
  8
0
100
AcDbLine
 10
176.9347415
 20
1003.9856
 30
0.0
 11
177.3747415
 21
1003.9856
 31
0.0
  0
LINE
  5
2FC
330
1E
100
AcDbEntity
  8
0
100
AcDbLine
 10
176.9347415
 20
700.64990432
 30
0.0
 11
176.9347415
 21
900.6284571428571
 31
0.0
  0
LINE
  5
2FD
330
1E
100
AcDbEntity
  8
0
100
AcDbLine
 10
176.9686566510419
 20
657.204277127473
 30
0.0
 11
180.0347415
 21
650.0546
 31
0.0
  0
LINE
  5
2FE
330
1E
100
AcDbEntity
  8
0
100
AcDbLine
 10
176.9347415
 20
936.342742857143
 30
0.0
 11
176.9347415
 21
1003.9856
 31
0.0
  0
LINE
  5
2FF
330
1E
100
AcDbEntity
  8
0
100
AcDbLine
 10
177.0147415
 20
1005.485599999999
 30
0.0
 11
179.0947414999999
 21
1005.485599999999
 31
0.0
  0
LINE
  5
300
330
1E
100
AcDbEntity
  8
0
100
AcDbLine
 10
177.1017415
 20
1003.9856
 30
0.0
 11
178.1417414999999
 21
1003.9856
 31
0.0
  0
LINE
  5
301
330
1E
100
AcDbEntity
  8
0
100
AcDbLine
 10
177.0147415
 20
1007.9856
 30
0.0
 11
179.0947414999999
 21
1007.9856
 31
0.0
  0
LINE
  5
302
330
1E
100
AcDbEntity
  8
0
100
AcDbLine
 10
177.1017415
 20
1008.485599999999
 30
0.0
 11
177.5347414999999
 21
1009.4856
 31
0.0
  0
LINE
  5
303
330
1E
100
AcDbEntity
  8
0
100
AcDbLine
 10
179.1347414999999
 20
101.9856
 30
0.0
 11
181.7347415
 21
101.9856
 31
0.0
  0
LINE
  5
304
330
1E
100
AcDbEntity
  8
0
100
AcDbLine
 10
196.7347415
 20
101.9856
 30
0.0
 11
198.7347415
 21
101.9856
 31
0.0
  0
LINE
  5
305
330
1E
100
AcDbEntity
  8
0
100
AcDbLine
 10
198.7347415
 20
101.9856
 30
0.0
 11
199.9347415
 21
101.9856
 31
0.0
  0
LINE
  5
306
330
1E
100
AcDbEntity
  8
0
100
AcDbLine
 10
200.4347415
 20
101.9856
 30
0.0
 11
200.9347415
 21
101.9856
 31
0.0
  0
LINE
  5
307
330
1E
100
AcDbEntity
  8
0
100
AcDbLine
 10
227.7617414999999
 20
101.5856
 30
0.0
 11
227.7617414999999
 21
100.9856
 31
0.0
  0
LINE
  5
308
330
1E
100
AcDbEntity
  8
0
100
AcDbLine
 10
227.7617414999999
 20
101.5856
 30
0.0
 11
227.7617414999999
 21
103.2855999999999
 31
0.0
  0
LINE
  5
309
330
1E
100
AcDbEntity
  8
0
100
AcDbLine
 10
200.9347415
 20
101.9856
 30
0.0
 11
201.4347415
 21
101.9856
 31
0.0
  0
LINE
  5
30A
330
1E
100
AcDbEntity
  8
0
100
AcDbLine
 10
201.4347415
 20
101.9856
 30
0.0
 11
202.4347415
 21
102.4855999999999
 31
0.0
  0
LINE
  5
30B
330
1E
100
AcDbEntity
  8
0
100
AcDbLine
 10
199.9347415
 20
101.9856
 30
0.0
 11
200.4347415
 21
101.9856
 31
0.0
  0
LINE
  5
30C
330
1E
100
AcDbEntity
  8
0
100
AcDbLine
 10
194.1347414999999
 20
101.9856
 30
0.0
 11
196.7347415
 21
101.9856
 31
0.0
  0
LINE
  5
30D
330
1E
100
AcDbEntity
  8
0
100
AcDbLine
 10
191.1347414999999
 20
101.9856
 30
0.0
 11
194.1347414999999
 21
101.9856
 31
0.0
  0
LINE
  5
30E
330
1E
100
AcDbEntity
  8
0
100
AcDbLine
 10
187.9347414999999
 20
101.9856
 30
0.0
 11
191.1347414999999
 21
101.9856
 31
0.0
  0
LINE
  5
30F
330
1E
100
AcDbEntity
  8
0
100
AcDbLine
 10
181.7347415
 20
101.9856
 30
0.0
 11
184.4347415
 21
101.9856
 31
0.0
  0
LINE
  5
311
330
1E
100
AcDbEntity
  8
0
100
AcDbLine
 10
177.3747415
 20
1003.9856
 30
0.0
 11
178.3647415
 21
1003.9856
 31
0.0
  0
LINE
  5
312
330
1E
100
AcDbEntity
  8
0
100
AcDbLine
 10
177.1347414999999
 20
901.9856
 30
0.0
 11
179.1347414999999
 21
901.9856
 31
0.0
  0
LINE
  5
313
330
1E
100
AcDbEntity
  8
0
100
AcDbLine
 10
177.5347414999999
 20
935.9856
 30
0.0
 11
179.4347415
 21
935.9856
 31
0.0
  0
LINE
  5
314
330
1E
100
AcDbEntity
  8
0
100
AcDbLine
 10
177.5347414999999
 20
900.9855999999999
 30
0.0
 11
179.4347415
 21
900.9855999999999
 31
0.0
  0
LINE
  5
315
330
1E
100
AcDbEntity
  8
0
100
AcDbLine
 10
177.5347414999999
 20
1009.4856
 30
0.0
 11
178.4017415
 21
1009.9856
 31
0.0
  0
LINE
  5
316
330
1E
100
AcDbEntity
  8
0
100
AcDbLine
 10
177.5347414999999
 20
1009.4856
 30
0.0
 11
177.8817414999999
 21
1009.4856
 31
0.0
  0
LINE
  5
317
330
1E
100
AcDbEntity
  8
0
100
AcDbLine
 10
177.5347414999999
 20
135.9856
 30
0.0
 11
179.4347415
 21
135.9856
 31
0.0
  0
LINE
  5
318
330
1E
100
AcDbEntity
  8
0
100
AcDbLine
 10
177.7347415
 20
131.9856
 30
0.0
 11
180.7347415
 21
131.9856
 31
0.0
  0
LINE
  5
319
330
1E
100
AcDbEntity
  8
0
100
AcDbLine
 10
177.7347415
 20
134.4856
 30
0.0
 11
180.7347415
 21
134.4856
 31
0.0
  0
LINE
  5
31A
330
1E
100
AcDbEntity
  8
0
100
AcDbLine
 10
177.7347415
 20
104.9856
 30
0.0
 11
180.7347415
 21
104.9856
 31
0.0
  0
LINE
  5
31B
330
1E
100
AcDbEntity
  8
0
100
AcDbLine
 10
180.7347415
 20
104.9856
 30
0.0
 11
184.2347415
 21
104.9856
 31
0.0
  0
LINE
  5
31C
330
1E
100
AcDbEntity
  8
0
100
AcDbLine
 10
177.7347415
 20
931.9855999999999
 30
0.0
 11
180.7347415
 21
931.9855999999999
 31
0.0
  0
LINE
  5
31D
330
1E
100
AcDbEntity
  8
0
100
AcDbLine
 10
177.7347415
 20
934.4856
 30
0.0
 11
180.7347415
 21
934.4856
 31
0.0
  0
LINE
  5
31E
330
1E
100
AcDbEntity
  8
0
100
AcDbLine
 10
177.7347415
 20
904.9856
 30
0.0
 11
180.7347415
 21
904.9856
 31
0.0
  0
LINE
  5
31F
330
1E
100
AcDbEntity
  8
0
100
AcDbLine
 10
177.7347415
 20
902.4855999999999
 30
0.0
 11
180.7347415
 21
902.4855999999999
 31
0.0
  0
LINE
  5
320
330
1E
100
AcDbEntity
  8
0
100
AcDbLine
 10
178.3647415
 20
1003.9856
 30
0.0
 11
180.1247414999999
 21
1003.9856
 31
0.0
  0
LINE
  5
321
330
1E
100
AcDbEntity
  8
0
100
AcDbLine
 10
178.4347415
 20
931.4856
 30
0.0
 11
181.2347414999999
 21
931.4856
 31
0.0
  0
LINE
  5
323
330
1E
100
AcDbEntity
  8
0
100
AcDbLine
 10
178.4347415
 20
905.4855999999999
 30
0.0
 11
181.2347414999999
 21
905.4855999999999
 31
0.0
  0
LINE
  5
324
330
1E
100
AcDbEntity
  8
0
100
AcDbLine
 10
178.1417414999999
 20
1003.9856
 30
0.0
 11
179.9617415
 21
1003.9856
 31
0.0
  0
LINE
  5
325
330
1E
100
AcDbEntity
  8
0
100
AcDbLine
 10
177.7947415
 20
1004.9856
 30
0.0
 11
179.7017415
 21
1004.9856
 31
0.0
  0
LINE
  5
326
330
1E
100
AcDbEntity
  8
0
100
AcDbLine
 10
178.9217414999999
 20
1009.4856
 30
0.0
 11
180.5677415
 21
1009.4856
 31
0.0
  0
LINE
  5
327
330
1E
100
AcDbEntity
  8
0
100
AcDbLine
 10
177.8817414999999
 20
1009.4856
 30
0.0
 11
178.9217414999999
 21
1009.4856
 31
0.0
  0
LINE
  5
328
330
1E
100
AcDbEntity
  8
0
100
AcDbLine
 10
179.0947414999999
 20
1005.485599999999
 30
0.0
 11
181.6947414999999
 21
1005.485599999999
 31
0.0
  0
LINE
  5
329
330
1E
100
AcDbEntity
  8
0
100
AcDbLine
 10
179.1347414999999
 20
901.9856
 30
0.0
 11
181.7347415
 21
901.9856
 31
0.0
  0
LINE
  5
32A
330
1E
100
AcDbEntity
  8
0
100
AcDbLine
 10
179.0947414999999
 20
1007.9856
 30
0.0
 11
181.6947414999999
 21
1007.9856
 31
0.0
  0
LINE
  5
32B
330
1E
100
AcDbEntity
  8
0
100
AcDbLine
 10
178.4347415
 20
131.4856
 30
0.0
 11
181.2347414999999
 21
131.4856
 31
0.0
  0
LINE
  5
32C
330
1E
100
AcDbEntity
  8
0
100
AcDbLine
 10
181.2347414999999
 20
131.4856
 30
0.0
 11
184.4347415
 21
131.4856
 31
0.0
  0
LINE
  5
32D
330
1E
100
AcDbEntity
  8
0
100
AcDbLine
 10
180.7347415
 20
131.9856
 30
0.0
 11
184.2347415
 21
131.9856
 31
0.0
  0
LINE
  5
32F
330
1E
100
AcDbEntity
  8
0
100
AcDbLine
 10
179.4347415
 20
935.9856
 30
0.0
 11
181.9347415
 21
935.9856
 31
0.0
  0
LINE
  5
330
330
1E
100
AcDbEntity
  8
0
100
AcDbLine
 10
179.4347415
 20
900.9855999999999
 30
0.0
 11
181.9347415
 21
900.9855999999999
 31
0.0
  0
LINE
  5
331
330
1E
100
AcDbEntity
  8
0
100
AcDbLine
 10
180.0347415
 20
650.0546
 30
0.0
 11
187.9357415
 21
627.2586
 31
0.0
  0
LINE
  5
332
330
1E
100
AcDbEntity
  8
0
100
AcDbLine
 10
179.9917415
 20
629.0995999999999
 30
0.0
 11
183.8207415
 21
627.5566
 31
0.0
  0
LINE
  5
333
330
1E
100
AcDbEntity
  8
0
100
AcDbLine
 10
180.1247414999999
 20
1003.9856
 30
0.0
 11
182.4347415
 21
1003.9856
 31
0.0
  0
LINE
  5
334
330
1E
100
AcDbEntity
  8
0
100
AcDbLine
 10
179.9617415
 20
1003.9856
 30
0.0
 11
182.3017414999999
 21
1003.9856
 31
0.0
  0
LINE
  5
335
330
1E
100
AcDbEntity
  8
0
100
AcDbLine
 10
179.7017415
 20
1004.9856
 30
0.0
 11
182.1277415
 21
1004.9856
 31
0.0
  0
LINE
  5
336
330
1E
100
AcDbEntity
  8
0
100
AcDbLine
 10
180.7347415
 20
931.9855999999999
 30
0.0
 11
184.2347415
 21
931.9855999999999
 31
0.0
  0
LINE
  5
337
330
1E
100
AcDbEntity
  8
0
100
AcDbLine
 10
180.7347415
 20
934.4856
 30
0.0
 11
184.2347415
 21
934.4856
 31
0.0
  0
LINE
  5
338
330
1E
100
AcDbEntity
  8
0
100
AcDbLine
 10
180.7347415
 20
904.9856
 30
0.0
 11
184.2347415
 21
904.9856
 31
0.0
  0
LINE
  5
339
330
1E
100
AcDbEntity
  8
0
100
AcDbLine
 10
180.7347415
 20
902.4855999999999
 30
0.0
 11
184.2347415
 21
902.4855999999999
 31
0.0
  0
LINE
  5
33A
330
1E
100
AcDbEntity
  8
0
100
AcDbLine
 10
180.5677415
 20
1009.4856
 30
0.0
 11
182.7347415
 21
1009.4856
 31
0.0
  0
LINE
  5
33B
330
1E
100
AcDbEntity
  8
0
100
AcDbLine
 10
180.7347415
 20
134.4856
 30
0.0
 11
184.2347415
 21
134.4856
 31
0.0
  0
LINE
  5
33C
330
1E
100
AcDbEntity
  8
0
100
AcDbLine
 10
179.4347415
 20
135.9856
 30
0.0
 11
181.9347415
 21
135.9856
 31
0.0
  0
LINE
  5
33D
330
1E
100
AcDbEntity
  8
0
100
AcDbLine
 10
178.4347415
 20
105.4856
 30
0.0
 11
181.2347414999999
 21
105.4856
 31
0.0
  0
LINE
  5
33E
330
1E
100
AcDbEntity
  8
0
100
AcDbLine
 10
184.2347415
 20
131.9856
 30
0.0
 11
187.9347414999999
 21
131.9856
 31
0.0
  0
LINE
  5
33F
330
1E
100
AcDbEntity
  8
0
100
AcDbLine
 10
184.2347415
 20
134.4856
 30
0.0
 11
187.9347414999999
 21
134.4856
 31
0.0
  0
LINE
  5
341
330
1E
100
AcDbEntity
  8
0
100
AcDbLine
 10
181.2347414999999
 20
931.4856
 30
0.0
 11
184.4347415
 21
931.4856
 31
0.0
  0
LINE
  5
342
330
1E
100
AcDbEntity
  8
0
100
AcDbLine
 10
181.2347414999999
 20
905.4855999999999
 30
0.0
 11
184.4347415
 21
905.4855999999999
 31
0.0
  0
LINE
  5
343
330
1E
100
AcDbEntity
  8
0
100
AcDbLine
 10
181.9347415
 20
935.9856
 30
0.0
 11
184.8347415
 21
935.9856
 31
0.0
  0
LINE
  5
344
330
1E
100
AcDbEntity
  8
0
100
AcDbLine
 10
181.7347415
 20
901.9856
 30
0.0
 11
184.7347415
 21
901.9856
 31
0.0
  0
LINE
  5
345
330
1E
100
AcDbEntity
  8
0
100
AcDbLine
 10
181.9347415
 20
900.9855999999999
 30
0.0
 11
184.8347415
 21
900.9855999999999
 31
0.0
  0
LINE
  5
346
330
1E
100
AcDbEntity
  8
0
100
AcDbLine
 10
182.4347415
 20
1003.9856
 30
0.0
 11
185.0747415
 21
1003.9856
 31
0.0
  0
LINE
  5
347
330
1E
100
AcDbEntity
  8
0
100
AcDbLine
 10
182.3017414999999
 20
1003.9856
 30
0.0
 11
185.0747415
 21
1003.9856
 31
0.0
  0
LINE
  5
348
330
1E
100
AcDbEntity
  8
0
100
AcDbLine
 10
182.1277415
 20
1004.9856
 30
0.0
 11
184.9017415
 21
1004.9856
 31
0.0
  0
LINE
  5
349
330
1E
100
AcDbEntity
  8
0
100
AcDbLine
 10
181.6947414999999
 20
1005.485599999999
 30
0.0
 11
184.7277415
 21
1005.485599999999
 31
0.0
  0
LINE
  5
34A
330
1E
100
AcDbEntity
  8
0
100
AcDbLine
 10
181.6947414999999
 20
1007.9856
 30
0.0
 11
184.7277415
 21
1007.9856
 31
0.0
  0
LINE
  5
34E
330
1E
100
AcDbEntity
  8
0
100
AcDbLine
 10
183.8207415
 20
627.5566
 30
0.0
 11
187.9347414999999
 21
626.9855999999999
 31
0.0
  0
LINE
  5
34F
330
1E
100
AcDbEntity
  8
0
100
AcDbLine
 10
182.7347415
 20
1009.4856
 30
0.0
 11
185.2477415
 21
1009.4856
 31
0.0
  0
LINE
  5
350
330
1E
100
AcDbEntity
  8
0
100
AcDbLine
 10
181.9347415
 20
135.9856
 30
0.0
 11
184.8347415
 21
135.9856
 31
0.0
  0
LINE
  5
351
330
1E
100
AcDbEntity
  8
0
100
AcDbLine
 10
181.2347414999999
 20
105.4856
 30
0.0
 11
184.4347415
 21
105.4856
 31
0.0
  0
LINE
  5
352
330
1E
100
AcDbEntity
  8
0
100
AcDbLine
 10
184.2347415
 20
104.9856
 30
0.0
 11
187.9347414999999
 21
104.9856
 31
0.0
  0
LINE
  5
353
330
1E
100
AcDbEntity
  8
0
100
AcDbLine
 10
177.7347415
 20
102.4855999999999
 30
0.0
 11
180.7347415
 21
102.4855999999999
 31
0.0
  0
LINE
  5
354
330
1E
100
AcDbEntity
  8
0
100
AcDbLine
 10
180.7347415
 20
102.4855999999999
 30
0.0
 11
184.2347415
 21
102.4855999999999
 31
0.0
  0
LINE
  5
355
330
1E
100
AcDbEntity
  8
0
100
AcDbLine
 10
187.9347414999999
 20
105.4856
 30
0.0
 11
191.4347414999999
 21
105.4856
 31
0.0
  0
LINE
  5
356
330
1E
100
AcDbEntity
  8
0
100
AcDbLine
 10
187.9347414999999
 20
104.9856
 30
0.0
 11
191.6347414999999
 21
104.9856
 31
0.0
  0
LINE
  5
357
330
1E
100
AcDbEntity
  8
0
100
AcDbLine
 10
198.1347414999999
 20
102.4855999999999
 30
0.0
 11
200.5347415
 21
102.4855999999999
 31
0.0
  0
LINE
  5
358
330
1E
100
AcDbEntity
  8
0
100
AcDbLine
 10
227.2037415
 20
102.4855999999999
 30
0.0
 11
227.7617414999999
 21
100.9856
 31
0.0
  0
LINE
  5
359
330
1E
100
AcDbEntity
  8
0
100
AcDbLine
 10
202.4347415
 20
102.4855999999999
 30
0.0
 11
202.9347415
 21
103.4855999999999
 31
0.0
  0
LINE
  5
35A
330
1E
100
AcDbEntity
  8
0
100
AcDbLine
 10
200.5347415
 20
102.4855999999999
 30
0.0
 11
201.9347414999999
 21
102.4855999999999
 31
0.0
  0
LINE
  5
35B
330
1E
100
AcDbEntity
  8
0
100
AcDbLine
 10
201.9347414999999
 20
102.4855999999999
 30
0.0
 11
202.4347415
 21
102.4855999999999
 31
0.0
  0
LINE
  5
35C
330
1E
100
AcDbEntity
  8
0
100
AcDbLine
 10
195.1347414999999
 20
102.4855999999999
 30
0.0
 11
198.1347414999999
 21
102.4855999999999
 31
0.0
  0
LINE
  5
35D
330
1E
100
AcDbEntity
  8
0
100
AcDbLine
 10
191.4347414999999
 20
105.4856
 30
0.0
 11
194.6347414999999
 21
105.4856
 31
0.0
  0
LINE
  5
35E
330
1E
100
AcDbEntity
  8
0
100
AcDbLine
 10
198.1347414999999
 20
104.9856
 30
0.0
 11
200.5347415
 21
104.9856
 31
0.0
  0
LINE
  5
35F
330
1E
100
AcDbEntity
  8
0
100
AcDbLine
 10
200.5347415
 20
104.9856
 30
0.0
 11
201.9347414999999
 21
104.9856
 31
0.0
  0
LINE
  5
360
330
1E
100
AcDbEntity
  8
0
100
AcDbLine
 10
202.9347415
 20
103.4855999999999
 30
0.0
 11
202.9347415
 21
103.9856
 31
0.0
  0
LINE
  5
361
330
1E
100
AcDbEntity
  8
0
100
AcDbLine
 10
201.9347414999999
 20
104.9856
 30
0.0
 11
202.4347415
 21
104.9856
 31
0.0
  0
LINE
  5
362
330
1E
100
AcDbEntity
  8
0
100
AcDbLine
 10
202.4347415
 20
104.9856
 30
0.0
 11
202.9347415
 21
103.9856
 31
0.0
  0
LINE
  5
363
330
1E
100
AcDbEntity
  8
0
100
AcDbLine
 10
219.6841554312469
 20
103.4855999999999
 30
0.0
 11
226.0887415
 21
103.4855999999999
 31
0.0
  0
LINE
  5
364
330
1E
100
AcDbEntity
  8
0
100
AcDbLine
 10
226.0887415
 20
103.9856
 30
0.0
 11
226.0887415
 21
103.4855999999999
 31
0.0
  0
LINE
  5
365
330
1E
100
AcDbEntity
  8
0
100
AcDbLine
 10
226.0887415
 20
103.9856
 30
0.0
 11
226.0887415
 21
105.4856
 31
0.0
  0
LINE
  5
366
330
1E
100
AcDbEntity
  8
0
100
AcDbLine
 10
226.0887415
 20
103.4855999999999
 30
0.0
 11
227.2037415
 21
102.4855999999999
 31
0.0
  0
LINE
  5
367
330
1E
100
AcDbEntity
  8
0
100
AcDbLine
 10
226.0887415
 20
103.4855999999999
 30
0.0
 11
226.0887415
 21
103.9856
 31
0.0
  0
LINE
  5
368
330
1E
100
AcDbEntity
  8
0
100
AcDbLine
 10
227.7617414999999
 20
103.2855999999999
 30
0.0
 11
227.7617414999999
 21
101.5856
 31
0.0
  0
LINE
  5
369
330
1E
100
AcDbEntity
  8
0
100
AcDbLine
 10
227.7617414999999
 20
103.2855999999999
 30
0.0
 11
227.7617414999999
 21
106.0856
 31
0.0
  0
LINE
  5
36A
330
1E
100
AcDbEntity
  8
0
100
AcDbLine
 10
202.9347415
 20
103.9856
 30
0.0
 11
202.9347415
 21
103.4855999999999
 31
0.0
  0
LINE
  5
36B
330
1E
100
AcDbEntity
  8
0
100
AcDbLine
 10
197.4347415
 20
105.4856
 30
0.0
 11
199.6347414999999
 21
105.4856
 31
0.0
  0
LINE
  5
36C
330
1E
100
AcDbEntity
  8
0
100
AcDbLine
 10
199.6347414999999
 20
105.4856
 30
0.0
 11
200.9347415
 21
105.4856
 31
0.0
  0
LINE
  5
36D
330
1E
100
AcDbEntity
  8
0
100
AcDbLine
 10
241.1467415
 20
105.2856
 30
0.0
 11
241.1467415
 21
99.78560000000001
 31
0.0
  0
LINE
  5
36E
330
1E
100
AcDbEntity
  8
0
100
AcDbLine
 10
241.1467415
 20
105.2856
 30
0.0
 11
241.1467415
 21
111.6856
 31
0.0
  0
LINE
  5
36F
330
1E
100
AcDbEntity
  8
0
100
AcDbLine
 10
243.9347414999999
 20
105.0856
 30
0.0
 11
243.9347414999999
 21
99.3856
 31
0.0
  0
LINE
  5
370
330
1E
100
AcDbEntity
  8
0
100
AcDbLine
 10
243.9347414999999
 20
105.0856
 30
0.0
 11
243.9347414999999
 21
111.5855999999999
 31
0.0
  0
LINE
  5
371
330
1E
100
AcDbEntity
  8
0
100
AcDbLine
 10
226.0887415
 20
105.4856
 30
0.0
 11
226.0887415
 21
103.9856
 31
0.0
  0
LINE
  5
372
330
1E
100
AcDbEntity
  8
0
100
AcDbLine
 10
226.0887415
 20
105.4856
 30
0.0
 11
226.0887415
 21
107.8856
 31
0.0
  0
LINE
  5
373
330
1E
100
AcDbEntity
  8
0
100
AcDbLine
 10
200.9347415
 20
105.4856
 30
0.0
 11
201.4347415
 21
105.4856
 31
0.0
  0
LINE
  5
374
330
1E
100
AcDbEntity
  8
0
100
AcDbLine
 10
201.4347415
 20
105.4856
 30
0.0
 11
202.4347415
 21
104.9856
 31
0.0
  0
LINE
  5
375
330
1E
100
AcDbEntity
  8
0
100
AcDbLine
 10
194.6347414999999
 20
105.4856
 30
0.0
 11
197.4347415
 21
105.4856
 31
0.0
  0
LINE
  5
376
330
1E
100
AcDbEntity
  8
0
100
AcDbLine
 10
195.1347414999999
 20
104.9856
 30
0.0
 11
198.1347414999999
 21
104.9856
 31
0.0
  0
LINE
  5
377
330
1E
100
AcDbEntity
  8
0
100
AcDbLine
 10
191.6347414999999
 20
104.9856
 30
0.0
 11
195.1347414999999
 21
104.9856
 31
0.0
  0
LINE
  5
378
330
1E
100
AcDbEntity
  8
0
100
AcDbLine
 10
191.6347414999999
 20
102.4855999999999
 30
0.0
 11
195.1347414999999
 21
102.4855999999999
 31
0.0
  0
LINE
  5
379
330
1E
100
AcDbEntity
  8
0
100
AcDbLine
 10
187.9347414999999
 20
102.4855999999999
 30
0.0
 11
191.6347414999999
 21
102.4855999999999
 31
0.0
  0
LINE
  5
37A
330
1E
100
AcDbEntity
  8
0
100
AcDbLine
 10
200.9347415
 20
113.4856
 30
0.0
 11
203.751987430148
 21
113.4856
 31
0.0
  0
LINE
  5
37B
330
1E
100
AcDbEntity
  8
0
100
AcDbLine
 10
184.2347415
 20
931.9855999999999
 30
0.0
 11
187.9347414999999
 21
931.9855999999999
 31
0.0
  0
LINE
  5
37C
330
1E
100
AcDbEntity
  8
0
100
AcDbLine
 10
184.2347415
 20
934.4856
 30
0.0
 11
187.9347414999999
 21
934.4856
 31
0.0
  0
LINE
  5
37D
330
1E
100
AcDbEntity
  8
0
100
AcDbLine
 10
184.2347415
 20
904.9856
 30
0.0
 11
187.9347414999999
 21
904.9856
 31
0.0
  0
LINE
  5
37F
330
1E
100
AcDbEntity
  8
0
100
AcDbLine
 10
184.4347415
 20
931.4856
 30
0.0
 11
187.9347414999999
 21
931.4856
 31
0.0
  0
LINE
  5
380
330
1E
100
AcDbEntity
  8
0
100
AcDbLine
 10
184.4347415
 20
905.4855999999999
 30
0.0
 11
187.9347414999999
 21
905.4855999999999
 31
0.0
  0
LINE
  5
381
330
1E
100
AcDbEntity
  8
0
100
AcDbLine
 10
184.2347415
 20
902.4855999999999
 30
0.0
 11
187.9347414999999
 21
902.4855999999999
 31
0.0
  0
LINE
  5
382
330
1E
100
AcDbEntity
  8
0
100
AcDbLine
 10
184.7277415
 20
1005.485599999999
 30
0.0
 11
187.9347414999999
 21
1005.485599999999
 31
0.0
  0
LINE
  5
383
330
1E
100
AcDbEntity
  8
0
100
AcDbLine
 10
184.7347415
 20
901.9856
 30
0.0
 11
187.9347414999999
 21
901.9856
 31
0.0
  0
LINE
  5
384
330
1E
100
AcDbEntity
  8
0
100
AcDbLine
 10
184.7277415
 20
1007.9856
 30
0.0
 11
187.9347414999999
 21
1007.9856
 31
0.0
  0
LINE
  5
385
330
1E
100
AcDbEntity
  8
0
100
AcDbLine
 10
184.4347415
 20
131.4856
 30
0.0
 11
187.9347414999999
 21
131.4856
 31
0.0
  0
LINE
  5
386
330
1E
100
AcDbEntity
  8
0
100
AcDbLine
 10
191.4347414999999
 20
131.4856
 30
0.0
 11
194.6347414999999
 21
131.4856
 31
0.0
  0
LINE
  5
387
330
1E
100
AcDbEntity
  8
0
100
AcDbLine
 10
187.9347414999999
 20
131.4856
 30
0.0
 11
191.4347414999999
 21
131.4856
 31
0.0
  0
LINE
  5
388
330
1E
100
AcDbEntity
  8
0
100
AcDbLine
 10
194.6347414999999
 20
131.4856
 30
0.0
 11
197.4347415
 21
131.4856
 31
0.0
  0
LINE
  5
389
330
1E
100
AcDbEntity
  8
0
100
AcDbLine
 10
195.1347414999999
 20
131.9856
 30
0.0
 11
198.1347414999999
 21
131.9856
 31
0.0
  0
LINE
  5
38A
330
1E
100
AcDbEntity
  8
0
100
AcDbLine
 10
191.6347414999999
 20
131.9856
 30
0.0
 11
195.1347414999999
 21
131.9856
 31
0.0
  0
LINE
  5
38B
330
1E
100
AcDbEntity
  8
0
100
AcDbLine
 10
187.9347414999999
 20
131.9856
 30
0.0
 11
191.6347414999999
 21
131.9856
 31
0.0
  0
LINE
  5
38C
330
1E
100
AcDbEntity
  8
0
100
AcDbLine
 10
197.4347415
 20
131.4856
 30
0.0
 11
199.6347414999999
 21
131.4856
 31
0.0
  0
LINE
  5
38D
330
1E
100
AcDbEntity
  8
0
100
AcDbLine
 10
187.9347414999999
 20
134.4856
 30
0.0
 11
191.6347414999999
 21
134.4856
 31
0.0
  0
LINE
  5
38E
330
1E
100
AcDbEntity
  8
0
100
AcDbLine
 10
191.6347414999999
 20
134.4856
 30
0.0
 11
195.1347414999999
 21
134.4856
 31
0.0
  0
LINE
  5
38F
330
1E
100
AcDbEntity
  8
0
100
AcDbLine
 10
195.1347414999999
 20
134.4856
 30
0.0
 11
198.1347414999999
 21
134.4856
 31
0.0
  0
LINE
  5
390
330
1E
100
AcDbEntity
  8
0
100
AcDbLine
 10
193.9347415
 20
135.9856
 30
0.0
 11
196.4347414999999
 21
135.9856
 31
0.0
  0
LINE
  5
391
330
1E
100
AcDbEntity
  8
0
100
AcDbLine
 10
191.0347415
 20
135.9856
 30
0.0
 11
193.9347415
 21
135.9856
 31
0.0
  0
LINE
  5
392
330
1E
100
AcDbEntity
  8
0
100
AcDbLine
 10
187.9347414999999
 20
135.9856
 30
0.0
 11
191.0347415
 21
135.9856
 31
0.0
  0
LINE
  5
393
330
1E
100
AcDbEntity
  8
0
100
AcDbLine
 10
198.1347414999999
 20
131.9856
 30
0.0
 11
200.5347415
 21
131.9856
 31
0.0
  0
LINE
  5
394
330
1E
100
AcDbEntity
  8
0
100
AcDbLine
 10
198.1347414999999
 20
134.4856
 30
0.0
 11
200.5347415
 21
134.4856
 31
0.0
  0
LINE
  5
395
330
1E
100
AcDbEntity
  8
0
100
AcDbLine
 10
196.4347414999999
 20
135.9856
 30
0.0
 11
198.3347415
 21
135.9856
 31
0.0
  0
LINE
  5
396
330
1E
100
AcDbEntity
  8
0
100
AcDbLine
 10
199.6347414999999
 20
131.4856
 30
0.0
 11
200.9347415
 21
131.4856
 31
0.0
  0
LINE
  5
397
330
1E
100
AcDbEntity
  8
0
100
AcDbLine
 10
198.3347415
 20
135.9856
 30
0.0
 11
199.5347414999999
 21
135.9856
 31
0.0
  0
LINE
  5
398
330
1E
100
AcDbEntity
  8
0
100
AcDbLine
 10
198.9347415
 20
136.342742857143
 30
0.0
 11
198.9347415
 21
577.157739013453
 31
0.0
  0
LINE
  5
399
330
1E
100
AcDbEntity
  8
0
100
AcDbLine
 10
198.9347415
 20
136.342742857143
 30
0.0
 11
198.9347415
 21
577.157739013453
 31
0.0
  0
LINE
  5
39A
330
1E
100
AcDbEntity
  8
0
100
AcDbLine
 10
199.5347414999999
 20
135.9856
 30
0.0
 11
199.9347415
 21
135.9856
 31
0.0
  0
LINE
  5
39B
330
1E
100
AcDbEntity
  8
0
100
AcDbLine
 10
200.9347415
 20
123.4856
 30
0.0
 11
203.7442848744899
 21
123.4856
 31
0.0
  0
LINE
  5
39C
330
1E
100
AcDbEntity
  8
0
100
AcDbLine
 10
200.9347415
 20
123.3756
 30
0.0
 11
200.9347415
 21
130.4856
 31
0.0
  0
LINE
  5
39D
330
1E
100
AcDbEntity
  8
0
100
AcDbLine
 10
200.5347415
 20
131.9856
 30
0.0
 11
201.9347414999999
 21
131.9856
 31
0.0
  0
LINE
  5
39E
330
1E
100
AcDbEntity
  8
0
100
AcDbLine
 10
200.9347415
 20
131.4856
 30
0.0
 11
201.4347415
 21
131.4856
 31
0.0
  0
LINE
  5
39F
330
1E
100
AcDbEntity
  8
0
100
AcDbLine
 10
200.5347415
 20
134.4856
 30
0.0
 11
201.9347414999999
 21
134.4856
 31
0.0
  0
LINE
  5
3A0
330
1E
100
AcDbEntity
  8
0
100
AcDbLine
 10
200.9347415
 20
130.4856
 30
0.0
 11
201.4347415
 21
131.4856
 31
0.0
  0
LINE
  5
3A1
330
1E
100
AcDbEntity
  8
0
100
AcDbLine
 10
200.9347415
 20
130.4856
 30
0.0
 11
200.9347415
 21
123.3756
 31
0.0
  0
LINE
  5
3A2
330
1E
100
AcDbEntity
  8
0
100
AcDbLine
 10
199.9347415
 20
135.9856
 30
0.0
 11
200.4347415
 21
134.9856
 31
0.0
  0
LINE
  5
3A6
330
1E
100
AcDbEntity
  8
0
100
AcDbLine
 10
187.9347414999999
 20
626.9855999999999
 30
0.0
 11
188.002721121817
 21
626.995035188152
 31
0.0
  0
LINE
  5
3A7
330
1E
100
AcDbEntity
  8
0
100
AcDbLine
 10
184.8347415
 20
900.9855999999999
 30
0.0
 11
187.9347414999999
 21
900.9855999999999
 31
0.0
  0
LINE
  5
3A8
330
1E
100
AcDbEntity
  8
0
100
AcDbLine
 10
187.9357415
 20
627.2586
 30
0.0
 11
194.1357414999999
 21
602.8615999999999
 31
0.0
  0
LINE
  5
3A9
330
1E
100
AcDbEntity
  8
0
100
AcDbLine
 10
181.4597415
 20
649.6666
 30
0.0
 11
195.0747415
 21
657.4995999999999
 31
0.0
  0
LINE
  5
3AB
330
1E
100
AcDbEntity
  8
0
100
AcDbLine
 10
194.1357414999999
 20
602.8615999999999
 30
0.0
 11
198.7347415
 21
578.6545999999999
 31
0.0
  0
LINE
  5
3AC
330
1E
100
AcDbEntity
  8
0
100
AcDbLine
 10
194.086516418956
 20
656.930847678699
 30
0.0
 11
201.8347415
 21
635.2646
 31
0.0
  0
LINE
  5
3AE
330
1E
100
AcDbEntity
  8
0
100
AcDbLine
 10
194.2077414999999
 20
657.0005999999999
 30
0.0
 11
196.2027415
 21
658.1476
 31
0.0
  0
LINE
  5
3AF
330
1E
100
AcDbEntity
  8
0
100
AcDbLine
 10
194.021290172742
 20
656.8933168142609
 30
0.0
 11
194.2077414999999
 21
657.0005999999999
 31
0.0
  0
LINE
  5
3B1
330
1E
100
AcDbEntity
  8
0
100
AcDbLine
 10
195.8777415
 20
656.8715999999999
 30
0.0
 11
199.2487415
 21
654.2996
 31
0.0
  0
LINE
  5
3B2
330
1E
100
AcDbEntity
  8
0
100
AcDbLine
 10
195.0747415
 20
657.4995999999999
 30
0.0
 11
197.4177414999999
 21
658.8465999999999
 31
0.0
  0
LINE
  5
3B3
330
1E
100
AcDbEntity
  8
0
100
AcDbLine
 10
197.4177414999999
 20
658.8465999999999
 30
0.0
 11
199.2387414999999
 21
659.8945999999999
 31
0.0
  0
LINE
  5
3B4
330
1E
100
AcDbEntity
  8
0
100
AcDbLine
 10
196.2027415
 20
658.1476
 30
0.0
 11
197.6777414999999
 21
658.9955999999999
 31
0.0
  0
LINE
  5
3B5
330
1E
100
AcDbEntity
  8
0
100
AcDbLine
 10
197.6777414999999
 20
658.9955999999999
 30
0.0
 11
198.9787415
 21
659.7445999999999
 31
0.0
  0
LINE
  5
3B6
330
1E
100
AcDbEntity
  8
0
100
AcDbLine
 10
194.7639987060149
 20
657.32041304025
 30
0.0
 11
195.8777415
 21
656.8715999999999
 31
0.0
  0
LINE
  5
3B7
330
1E
100
AcDbEntity
  8
0
100
AcDbLine
 10
193.9347415
 20
900.9855999999999
 30
0.0
 11
196.4347414999999
 21
900.9855999999999
 31
0.0
  0
LINE
  5
3B8
330
1E
100
AcDbEntity
  8
0
100
AcDbLine
 10
191.0347415
 20
900.9855999999999
 30
0.0
 11
193.9347415
 21
900.9855999999999
 31
0.0
  0
LINE
  5
3B9
330
1E
100
AcDbEntity
  8
0
100
AcDbLine
 10
187.9347414999999
 20
900.9855999999999
 30
0.0
 11
191.0347415
 21
900.9855999999999
 31
0.0
  0
LINE
  5
3BA
330
1E
100
AcDbEntity
  8
0
100
AcDbLine
 10
187.9347414999999
 20
931.4856
 30
0.0
 11
191.4347414999999
 21
931.4856
 31
0.0
  0
LINE
  5
3BB
330
1E
100
AcDbEntity
  8
0
100
AcDbLine
 10
187.9347414999999
 20
931.9855999999999
 30
0.0
 11
191.6347414999999
 21
931.9855999999999
 31
0.0
  0
LINE
  5
3BC
330
1E
100
AcDbEntity
  8
0
100
AcDbLine
 10
184.8347415
 20
935.9856
 30
0.0
 11
187.9347414999999
 21
935.9856
 31
0.0
  0
LINE
  5
3BD
330
1E
100
AcDbEntity
  8
0
100
AcDbLine
 10
187.9347414999999
 20
934.4856
 30
0.0
 11
191.6347414999999
 21
934.4856
 31
0.0
  0
LINE
  5
3BE
330
1E
100
AcDbEntity
  8
0
100
AcDbLine
 10
187.9347414999999
 20
935.9856
 30
0.0
 11
191.0347415
 21
935.9856
 31
0.0
  0
LINE
  5
3BF
330
1E
100
AcDbEntity
  8
0
100
AcDbLine
 10
187.9347414999999
 20
905.4855999999999
 30
0.0
 11
191.4347414999999
 21
905.4855999999999
 31
0.0
  0
LINE
  5
3C0
330
1E
100
AcDbEntity
  8
0
100
AcDbLine
 10
187.9347414999999
 20
904.9856
 30
0.0
 11
191.6347414999999
 21
904.9856
 31
0.0
  0
LINE
  5
3C1
330
1E
100
AcDbEntity
  8
0
100
AcDbLine
 10
187.9347414999999
 20
902.4855999999999
 30
0.0
 11
191.6347414999999
 21
902.4855999999999
 31
0.0
  0
LINE
  5
3C2
330
1E
100
AcDbEntity
  8
0
100
AcDbLine
 10
194.1347414999999
 20
901.9856
 30
0.0
 11
196.7347415
 21
901.9856
 31
0.0
  0
LINE
  5
3C3
330
1E
100
AcDbEntity
  8
0
100
AcDbLine
 10
191.4347414999999
 20
931.4856
 30
0.0
 11
194.6347414999999
 21
931.4856
 31
0.0
  0
LINE
  5
3C4
330
1E
100
AcDbEntity
  8
0
100
AcDbLine
 10
191.0347415
 20
935.9856
 30
0.0
 11
193.9347415
 21
935.9856
 31
0.0
  0
LINE
  5
3C5
330
1E
100
AcDbEntity
  8
0
100
AcDbLine
 10
191.6347414999999
 20
931.9855999999999
 30
0.0
 11
195.1347414999999
 21
931.9855999999999
 31
0.0
  0
LINE
  5
3C6
330
1E
100
AcDbEntity
  8
0
100
AcDbLine
 10
191.6347414999999
 20
934.4856
 30
0.0
 11
195.1347414999999
 21
934.4856
 31
0.0
  0
LINE
  5
3C7
330
1E
100
AcDbEntity
  8
0
100
AcDbLine
 10
191.4347414999999
 20
905.4855999999999
 30
0.0
 11
194.6347414999999
 21
905.4855999999999
 31
0.0
  0
LINE
  5
3C8
330
1E
100
AcDbEntity
  8
0
100
AcDbLine
 10
191.6347414999999
 20
904.9856
 30
0.0
 11
195.1347414999999
 21
904.9856
 31
0.0
  0
LINE
  5
3C9
330
1E
100
AcDbEntity
  8
0
100
AcDbLine
 10
194.6347414999999
 20
931.4856
 30
0.0
 11
197.4347415
 21
931.4856
 31
0.0
  0
LINE
  5
3CA
330
1E
100
AcDbEntity
  8
0
100
AcDbLine
 10
195.1347414999999
 20
931.9855999999999
 30
0.0
 11
198.1347414999999
 21
931.9855999999999
 31
0.0
  0
LINE
  5
3CB
330
1E
100
AcDbEntity
  8
0
100
AcDbLine
 10
195.1347414999999
 20
934.4856
 30
0.0
 11
198.1347414999999
 21
934.4856
 31
0.0
  0
LINE
  5
3CC
330
1E
100
AcDbEntity
  8
0
100
AcDbLine
 10
193.9347415
 20
935.9856
 30
0.0
 11
196.4347414999999
 21
935.9856
 31
0.0
  0
LINE
  5
3CD
330
1E
100
AcDbEntity
  8
0
100
AcDbLine
 10
194.6347414999999
 20
905.4855999999999
 30
0.0
 11
197.4347415
 21
905.4855999999999
 31
0.0
  0
LINE
  5
3CE
330
1E
100
AcDbEntity
  8
0
100
AcDbLine
 10
195.1347414999999
 20
904.9856
 30
0.0
 11
198.1347414999999
 21
904.9856
 31
0.0
  0
LINE
  5
3CF
330
1E
100
AcDbEntity
  8
0
100
AcDbLine
 10
195.1347414999999
 20
902.4855999999999
 30
0.0
 11
198.1347414999999
 21
902.4855999999999
 31
0.0
  0
LINE
  5
3D0
330
1E
100
AcDbEntity
  8
0
100
AcDbLine
 10
191.6347414999999
 20
902.4855999999999
 30
0.0
 11
195.1347414999999
 21
902.4855999999999
 31
0.0
  0
LINE
  5
3D1
330
1E
100
AcDbEntity
  8
0
100
AcDbLine
 10
191.1347414999999
 20
901.9856
 30
0.0
 11
194.1347414999999
 21
901.9856
 31
0.0
  0
LINE
  5
3D2
330
1E
100
AcDbEntity
  8
0
100
AcDbLine
 10
187.9347414999999
 20
901.9856
 30
0.0
 11
191.1347414999999
 21
901.9856
 31
0.0
  0
LINE
  5
3D3
330
1E
100
AcDbEntity
  8
0
100
AcDbLine
 10
196.4347414999999
 20
935.9856
 30
0.0
 11
198.3347415
 21
935.9856
 31
0.0
  0
LINE
  5
3D4
330
1E
100
AcDbEntity
  8
0
100
AcDbLine
 10
197.4347415
 20
931.4856
 30
0.0
 11
199.6347414999999
 21
931.4856
 31
0.0
  0
LINE
  5
3D5
330
1E
100
AcDbEntity
  8
0
100
AcDbLine
 10
198.1347414999999
 20
931.9855999999999
 30
0.0
 11
200.5347415
 21
931.9855999999999
 31
0.0
  0
LINE
  5
3D6
330
1E
100
AcDbEntity
  8
0
100
AcDbLine
 10
198.1347414999999
 20
934.4856
 30
0.0
 11
200.5347415
 21
934.4856
 31
0.0
  0
LINE
  5
3D7
330
1E
100
AcDbEntity
  8
0
100
AcDbLine
 10
197.4347415
 20
905.4855999999999
 30
0.0
 11
199.6347414999999
 21
905.4855999999999
 31
0.0
  0
LINE
  5
3D8
330
1E
100
AcDbEntity
  8
0
100
AcDbLine
 10
198.3347415
 20
935.9856
 30
0.0
 11
199.5347414999999
 21
935.9856
 31
0.0
  0
LINE
  5
3D9
330
1E
100
AcDbEntity
  8
0
100
AcDbLine
 10
198.1347414999999
 20
904.9856
 30
0.0
 11
200.5347415
 21
904.9856
 31
0.0
  0
LINE
  5
3DA
330
1E
100
AcDbEntity
  8
0
100
AcDbLine
 10
198.1347414999999
 20
902.4855999999999
 30
0.0
 11
200.5347415
 21
902.4855999999999
 31
0.0
  0
LINE
  5
3DB
330
1E
100
AcDbEntity
  8
0
100
AcDbLine
 10
196.7347415
 20
901.9856
 30
0.0
 11
198.7347415
 21
901.9856
 31
0.0
  0
LINE
  5
3DC
330
1E
100
AcDbEntity
  8
0
100
AcDbLine
 10
196.4347414999999
 20
900.9855999999999
 30
0.0
 11
198.3347415
 21
900.9855999999999
 31
0.0
  0
LINE
  5
3DD
330
1E
100
AcDbEntity
  8
0
100
AcDbLine
 10
198.7347415
 20
578.6545999999999
 30
0.0
 11
201.6337415
 21
556.9575999999999
 31
0.0
  0
LINE
  5
3E0
330
1E
100
AcDbEntity
  8
0
100
AcDbLine
 10
198.9347415
 20
654.5391752002373
 30
0.0
 11
198.9347415
 21
659.7192687163719
 31
0.0
  0
LINE
  5
3E2
330
1E
100
AcDbEntity
  8
0
100
AcDbLine
 10
198.9347415
 20
663.7266687644439
 30
0.0
 11
198.9347415
 21
900.6284571428571
 31
0.0
  0
LINE
  5
3E3
330
1E
100
AcDbEntity
  8
0
100
AcDbLine
 10
198.9347415
 20
936.342742857143
 30
0.0
 11
198.9347415
 21
1003.9856
 31
0.0
  0
LINE
  5
3E4
330
1E
100
AcDbEntity
  8
0
100
AcDbLine
 10
198.7347415
 20
901.9856
 30
0.0
 11
199.9347415
 21
901.9856
 31
0.0
  0
LINE
  5
3E5
330
1E
100
AcDbEntity
  8
0
100
AcDbLine
 10
198.3347415
 20
900.9855999999999
 30
0.0
 11
199.5347414999999
 21
900.9855999999999
 31
0.0
  0
LINE
  5
3E6
330
1E
100
AcDbEntity
  8
0
100
AcDbLine
 10
185.0747415
 20
1003.9856
 30
0.0
 11
187.9347414999999
 21
1003.9856
 31
0.0
  0
LINE
  5
3E7
330
1E
100
AcDbEntity
  8
0
100
AcDbLine
 10
184.9017415
 20
1004.9856
 30
0.0
 11
187.9347414999999
 21
1004.9856
 31
0.0
  0
LINE
  5
3E8
330
1E
100
AcDbEntity
  8
0
100
AcDbLine
 10
187.9347414999999
 20
1003.9856
 30
0.0
 11
190.7947415
 21
1003.9856
 31
0.0
  0
LINE
  5
3E9
330
1E
100
AcDbEntity
  8
0
100
AcDbLine
 10
187.9347414999999
 20
1004.9856
 30
0.0
 11
190.9677415
 21
1004.9856
 31
0.0
  0
LINE
  5
3EA
330
1E
100
AcDbEntity
  8
0
100
AcDbLine
 10
187.9347414999999
 20
1005.485599999999
 30
0.0
 11
191.1417415
 21
1005.485599999999
 31
0.0
  0
LINE
  5
3EB
330
1E
100
AcDbEntity
  8
0
100
AcDbLine
 10
187.9347414999999
 20
1007.9856
 30
0.0
 11
191.1417415
 21
1007.9856
 31
0.0
  0
LINE
  5
3EC
330
1E
100
AcDbEntity
  8
0
100
AcDbLine
 10
190.7947415
 20
1003.9856
 30
0.0
 11
193.5677415
 21
1003.9856
 31
0.0
  0
LINE
  5
3ED
330
1E
100
AcDbEntity
  8
0
100
AcDbLine
 10
190.7947415
 20
1003.9856
 30
0.0
 11
193.4347414999999
 21
1003.9856
 31
0.0
  0
LINE
  5
3EE
330
1E
100
AcDbEntity
  8
0
100
AcDbLine
 10
190.9677415
 20
1004.9856
 30
0.0
 11
193.7417415
 21
1004.9856
 31
0.0
  0
LINE
  5
3EF
330
1E
100
AcDbEntity
  8
0
100
AcDbLine
 10
191.1417415
 20
1005.485599999999
 30
0.0
 11
194.1747415
 21
1005.485599999999
 31
0.0
  0
LINE
  5
3F0
330
1E
100
AcDbEntity
  8
0
100
AcDbLine
 10
193.4347414999999
 20
1003.9856
 30
0.0
 11
195.7447415
 21
1003.9856
 31
0.0
  0
LINE
  5
3F1
330
1E
100
AcDbEntity
  8
0
100
AcDbLine
 10
193.5677415
 20
1003.9856
 30
0.0
 11
195.9077415
 21
1003.9856
 31
0.0
  0
LINE
  5
3F2
330
1E
100
AcDbEntity
  8
0
100
AcDbLine
 10
193.7417415
 20
1004.9856
 30
0.0
 11
196.1677415
 21
1004.9856
 31
0.0
  0
LINE
  5
3F3
330
1E
100
AcDbEntity
  8
0
100
AcDbLine
 10
195.7447415
 20
1003.9856
 30
0.0
 11
197.5047414999999
 21
1003.9856
 31
0.0
  0
LINE
  5
3F4
330
1E
100
AcDbEntity
  8
0
100
AcDbLine
 10
195.9077415
 20
1003.9856
 30
0.0
 11
197.7277415
 21
1003.9856
 31
0.0
  0
LINE
  5
3F5
330
1E
100
AcDbEntity
  8
0
100
AcDbLine
 10
196.1677415
 20
1004.9856
 30
0.0
 11
198.0747415
 21
1004.9856
 31
0.0
  0
LINE
  5
3F6
330
1E
100
AcDbEntity
  8
0
100
AcDbLine
 10
197.5047414999999
 20
1003.9856
 30
0.0
 11
198.4947415
 21
1003.9856
 31
0.0
  0
LINE
  5
3F7
330
1E
100
AcDbEntity
  8
0
100
AcDbLine
 10
197.7277415
 20
1003.9856
 30
0.0
 11
198.7677415
 21
1003.9856
 31
0.0
  0
LINE
  5
3F8
330
1E
100
AcDbEntity
  8
0
100
AcDbLine
 10
198.0747415
 20
1004.9856
 30
0.0
 11
199.2017415
 21
1004.9856
 31
0.0
  0
LINE
  5
3F9
330
1E
100
AcDbEntity
  8
0
100
AcDbLine
 10
196.7747415
 20
1005.485599999999
 30
0.0
 11
198.8547415
 21
1005.485599999999
 31
0.0
  0
LINE
  5
3FA
330
1E
100
AcDbEntity
  8
0
100
AcDbLine
 10
196.7747415
 20
1007.9856
 30
0.0
 11
198.8547415
 21
1007.9856
 31
0.0
  0
LINE
  5
3FB
330
1E
100
AcDbEntity
  8
0
100
AcDbLine
 10
194.1747415
 20
1005.485599999999
 30
0.0
 11
196.7747415
 21
1005.485599999999
 31
0.0
  0
LINE
  5
3FC
330
1E
100
AcDbEntity
  8
0
100
AcDbLine
 10
195.3017414999999
 20
1009.4856
 30
0.0
 11
196.9477415
 21
1009.4856
 31
0.0
  0
LINE
  5
3FD
330
1E
100
AcDbEntity
  8
0
100
AcDbLine
 10
196.9477415
 20
1009.4856
 30
0.0
 11
197.9877414999999
 21
1009.4856
 31
0.0
  0
LINE
  5
3FE
330
1E
100
AcDbEntity
  8
0
100
AcDbLine
 10
197.9877414999999
 20
1009.4856
 30
0.0
 11
198.3347415
 21
1009.4856
 31
0.0
  0
LINE
  5
3FF
330
1E
100
AcDbEntity
  8
0
100
AcDbLine
 10
194.1747415
 20
1007.9856
 30
0.0
 11
196.7747415
 21
1007.9856
 31
0.0
  0
LINE
  5
400
330
1E
100
AcDbEntity
  8
0
100
AcDbLine
 10
191.1417415
 20
1007.9856
 30
0.0
 11
194.1747415
 21
1007.9856
 31
0.0
  0
LINE
  5
401
330
1E
100
AcDbEntity
  8
0
100
AcDbLine
 10
193.1347414999999
 20
1009.4856
 30
0.0
 11
195.3017414999999
 21
1009.4856
 31
0.0
  0
LINE
  5
402
330
1E
100
AcDbEntity
  8
0
100
AcDbLine
 10
190.6217415
 20
1009.4856
 30
0.0
 11
193.1347414999999
 21
1009.4856
 31
0.0
  0
LINE
  5
403
330
1E
100
AcDbEntity
  8
0
100
AcDbLine
 10
187.9347414999999
 20
1009.4856
 30
0.0
 11
190.6217415
 21
1009.4856
 31
0.0
  0
LINE
  5
404
330
1E
100
AcDbEntity
  8
0
100
AcDbLine
 10
198.4947415
 20
1003.9856
 30
0.0
 11
198.9347415
 21
1003.9856
 31
0.0
  0
LINE
  5
405
330
1E
100
AcDbEntity
  8
0
100
AcDbLine
 10
198.7677415
 20
1003.9856
 30
0.0
 11
199.2017415
 21
1003.9856
 31
0.0
  0
LINE
  5
406
330
1E
100
AcDbEntity
  8
0
100
AcDbLine
 10
198.8547415
 20
1005.485599999999
 30
0.0
 11
200.0677415
 21
1005.485599999999
 31
0.0
  0
LINE
  5
407
330
1E
100
AcDbEntity
  8
0
100
AcDbLine
 10
198.8547415
 20
1007.9856
 30
0.0
 11
200.0677415
 21
1007.9856
 31
0.0
  0
LINE
  5
408
330
1E
100
AcDbEntity
  8
0
100
AcDbLine
 10
198.9347415
 20
1003.9856
 30
0.0
 11
199.2017415
 21
1003.9856
 31
0.0
  0
LINE
  5
409
330
1E
100
AcDbEntity
  8
0
100
AcDbLine
 10
198.3347415
 20
1009.4856
 30
0.0
 11
198.7677415
 21
1008.485599999999
 31
0.0
  0
LINE
  5
40A
330
1E
100
AcDbEntity
  8
0
100
AcDbLine
 10
197.4677415
 20
1009.9856
 30
0.0
 11
198.3347415
 21
1009.4856
 31
0.0
  0
LINE
  5
40B
330
1E
100
AcDbEntity
  8
0
100
AcDbLine
 10
185.2477415
 20
1009.4856
 30
0.0
 11
187.9347414999999
 21
1009.4856
 31
0.0
  0
LINE
  5
40C
330
1E
100
AcDbEntity
  8
0
100
AcDbLine
 10
198.9347415
 20
936.4855999999999
 30
0.0
 11
199.9347415
 21
935.9856
 31
0.0
  0
LINE
  5
40F
330
1E
100
AcDbEntity
  8
0
100
AcDbLine
 10
199.2387414999999
 20
659.8945999999999
 30
0.0
 11
200.2797414999999
 21
660.4926
 31
0.0
  0
LINE
  5
410
330
1E
100
AcDbEntity
  8
0
100
AcDbLine
 10
199.2487415
 20
654.2996
 30
0.0
 11
201.8207415
 21
650.9285999999999
 31
0.0
  0
LINE
  5
411
330
1E
100
AcDbEntity
  8
0
100
AcDbLine
 10
200.2797414999999
 20
660.4926
 30
0.0
 11
200.7127414999999
 21
660.7426
 31
0.0
  0
LINE
  5
413
330
1E
100
AcDbEntity
  8
0
100
AcDbLine
 10
199.5347414999999
 20
900.9855999999999
 30
0.0
 11
199.9347415
 21
900.9855999999999
 31
0.0
  0
LINE
  5
414
330
1E
100
AcDbEntity
  8
0
100
AcDbLine
 10
199.6347414999999
 20
931.4856
 30
0.0
 11
200.9347415
 21
931.4856
 31
0.0
  0
LINE
  5
415
330
1E
100
AcDbEntity
  8
0
100
AcDbLine
 10
199.5347414999999
 20
935.9856
 30
0.0
 11
199.9347415
 21
935.9856
 31
0.0
  0
LINE
  5
416
330
1E
100
AcDbEntity
  8
0
100
AcDbLine
 10
199.6347414999999
 20
905.4855999999999
 30
0.0
 11
200.9347415
 21
905.4855999999999
 31
0.0
  0
LINE
  5
417
330
1E
100
AcDbEntity
  8
0
100
AcDbLine
 10
199.9347415
 20
901.9856
 30
0.0
 11
200.4347415
 21
901.9856
 31
0.0
  0
LINE
  5
418
330
1E
100
AcDbEntity
  8
0
100
AcDbLine
 10
199.2017415
 20
1004.9856
 30
0.0
 11
199.6347414999999
 21
1004.9856
 31
0.0
  0
LINE
  5
419
330
1E
100
AcDbEntity
  8
0
100
AcDbLine
 10
199.2017415
 20
1003.9856
 30
0.0
 11
199.6347414999999
 21
1004.9856
 31
0.0
  0
LINE
  5
41A
330
1E
100
AcDbEntity
  8
0
100
AcDbLine
 10
199.6347414999999
 20
1004.9856
 30
0.0
 11
200.5017415
 21
1005.485599999999
 31
0.0
  0
LINE
  5
41B
330
1E
100
AcDbEntity
  8
0
100
AcDbLine
 10
200.0677415
 20
1005.485599999999
 30
0.0
 11
200.5017415
 21
1005.485599999999
 31
0.0
  0
LINE
  5
41C
330
1E
100
AcDbEntity
  8
0
100
AcDbLine
 10
200.0677415
 20
1007.9856
 30
0.0
 11
200.5017415
 21
1007.9856
 31
0.0
  0
LINE
  5
41D
330
1E
100
AcDbEntity
  8
0
100
AcDbLine
 10
199.6347414999999
 20
1008.485599999999
 30
0.0
 11
200.5017415
 21
1007.9856
 31
0.0
  0
LINE
  5
41E
330
1E
100
AcDbEntity
  8
0
100
AcDbLine
 10
199.9347415
 20
935.9856
 30
0.0
 11
200.4347415
 21
934.9856
 31
0.0
  0
LINE
  5
41F
330
1E
100
AcDbEntity
  8
0
100
AcDbLine
 10
200.5347415
 20
931.9855999999999
 30
0.0
 11
201.9347414999999
 21
931.9855999999999
 31
0.0
  0
LINE
  5
420
330
1E
100
AcDbEntity
  8
0
100
AcDbLine
 10
200.5017415
 20
1005.485599999999
 30
0.0
 11
200.9347415
 21
1006.4856
 31
0.0
  0
LINE
  5
421
330
1E
100
AcDbEntity
  8
0
100
AcDbLine
 10
200.5017415
 20
1007.9856
 30
0.0
 11
200.9347415
 21
1006.985599999999
 31
0.0
  0
LINE
  5
422
330
1E
100
AcDbEntity
  8
0
100
AcDbLine
 10
200.5347415
 20
934.4856
 30
0.0
 11
201.9347414999999
 21
934.4856
 31
0.0
  0
LINE
  5
423
330
1E
100
AcDbEntity
  8
0
100
AcDbLine
 10
200.5347415
 20
904.9856
 30
0.0
 11
201.9347414999999
 21
904.9856
 31
0.0
  0
LINE
  5
424
330
1E
100
AcDbEntity
  8
0
100
AcDbLine
 10
200.5347415
 20
902.4855999999999
 30
0.0
 11
201.9347414999999
 21
902.4855999999999
 31
0.0
  0
LINE
  5
425
330
1E
100
AcDbEntity
  8
0
100
AcDbLine
 10
200.4347415
 20
901.9856
 30
0.0
 11
200.9347415
 21
901.9856
 31
0.0
  0
LINE
  5
426
330
1E
100
AcDbEntity
  8
0
100
AcDbLine
 10
199.9347415
 20
900.9855999999999
 30
0.0
 11
200.4347415
 21
901.9856
 31
0.0
  0
LINE
  5
427
330
1E
100
AcDbEntity
  8
0
100
AcDbLine
 10
198.9347415
 20
900.4856
 30
0.0
 11
199.9347415
 21
900.9855999999999
 31
0.0
  0
LINE
  5
428
330
1E
100
AcDbEntity
  8
0
100
AcDbLine
 10
198.9347415
 20
136.4856
 30
0.0
 11
199.9347415
 21
135.9856
 31
0.0
  0
LINE
  5
429
330
1E
100
AcDbEntity
  8
0
100
AcDbLine
 10
184.8347415
 20
135.9856
 30
0.0
 11
187.9347414999999
 21
135.9856
 31
0.0
  0
LINE
  5
42A
330
1E
100
AcDbEntity
  8
0
100
AcDbLine
 10
200.9347415
 20
113.5755999999999
 30
0.0
 11
200.9347415
 21
106.4856
 31
0.0
  0
LINE
  5
42B
330
1E
100
AcDbEntity
  8
0
100
AcDbLine
 10
201.9347414999999
 20
131.9856
 30
0.0
 11
202.4347415
 21
131.9856
 31
0.0
  0
LINE
  5
42C
330
1E
100
AcDbEntity
  8
0
100
AcDbLine
 10
201.4347415
 20
131.4856
 30
0.0
 11
202.4347415
 21
131.9856
 31
0.0
  0
LINE
  5
42D
330
1E
100
AcDbEntity
  8
0
100
AcDbLine
 10
201.9347414999999
 20
134.4856
 30
0.0
 11
202.4347415
 21
134.4856
 31
0.0
  0
LINE
  5
42E
330
1E
100
AcDbEntity
  8
0
100
AcDbLine
 10
202.4347415
 20
131.9856
 30
0.0
 11
202.9347415
 21
132.9856
 31
0.0
  0
LINE
  5
42F
330
1E
100
AcDbEntity
  8
0
100
AcDbLine
 10
226.0887415
 20
110.9856
 30
0.0
 11
226.0887415
 21
107.8856
 31
0.0
  0
LINE
  5
430
330
1E
100
AcDbEntity
  8
0
100
AcDbLine
 10
226.0887415
 20
110.9856
 30
0.0
 11
226.0887415
 21
114.5855999999999
 31
0.0
  0
LINE
  5
431
330
1E
100
AcDbEntity
  8
0
100
AcDbLine
 10
227.7617414999999
 20
109.7855999999999
 30
0.0
 11
227.7617414999999
 21
106.0856
 31
0.0
  0
LINE
  5
432
330
1E
100
AcDbEntity
  8
0
100
AcDbLine
 10
227.7617414999999
 20
109.7855999999999
 30
0.0
 11
227.7617414999999
 21
113.9855999999999
 31
0.0
  0
LINE
  5
433
330
1E
100
AcDbEntity
  8
0
100
AcDbLine
 10
226.0887415
 20
125.9856
 30
0.0
 11
226.0887415
 21
122.3856
 31
0.0
  0
LINE
  5
434
330
1E
100
AcDbEntity
  8
0
100
AcDbLine
 10
226.0887415
 20
125.9856
 30
0.0
 11
226.0887415
 21
129.0855999999999
 31
0.0
  0
LINE
  5
435
330
1E
100
AcDbEntity
  8
0
100
AcDbLine
 10
226.0887415
 20
122.3856
 30
0.0
 11
226.0887415
 21
118.4856
 31
0.0
  0
LINE
  5
436
330
1E
100
AcDbEntity
  8
0
100
AcDbLine
 10
226.0887415
 20
122.3856
 30
0.0
 11
226.0887415
 21
125.9856
 31
0.0
  0
LINE
  5
437
330
1E
100
AcDbEntity
  8
0
100
AcDbLine
 10
226.0887415
 20
129.0855999999999
 30
0.0
 11
226.0887415
 21
131.4856
 31
0.0
  0
LINE
  5
438
330
1E
100
AcDbEntity
  8
0
100
AcDbLine
 10
226.0887415
 20
129.0855999999999
 30
0.0
 11
226.0887415
 21
125.9856
 31
0.0
  0
LINE
  5
439
330
1E
100
AcDbEntity
  8
0
100
AcDbLine
 10
226.0887415
 20
131.4856
 30
0.0
 11
226.0887415
 21
129.0855999999999
 31
0.0
  0
LINE
  5
43A
330
1E
100
AcDbEntity
  8
0
100
AcDbLine
 10
226.0887415
 20
131.4856
 30
0.0
 11
226.0887415
 21
132.9856
 31
0.0
  0
LINE
  5
43B
330
1E
100
AcDbEntity
  8
0
100
AcDbLine
 10
226.0887415
 20
132.9856
 30
0.0
 11
226.0887415
 21
131.4856
 31
0.0
  0
LINE
  5
43C
330
1E
100
AcDbEntity
  8
0
100
AcDbLine
 10
226.0887415
 20
132.9856
 30
0.0
 11
226.0887415
 21
133.4856
 31
0.0
  0
LINE
  5
43D
330
1E
100
AcDbEntity
  8
0
100
AcDbLine
 10
226.0887415
 20
114.5855999999999
 30
0.0
 11
226.0887415
 21
110.9856
 31
0.0
  0
LINE
  5
43E
330
1E
100
AcDbEntity
  8
0
100
AcDbLine
 10
226.0887415
 20
114.5855999999999
 30
0.0
 11
226.0887415
 21
118.4856
 31
0.0
  0
LINE
  5
43F
330
1E
100
AcDbEntity
  8
0
100
AcDbLine
 10
227.7617414999999
 20
127.1855999999999
 30
0.0
 11
227.7617414999999
 21
122.9856
 31
0.0
  0
LINE
  5
440
330
1E
100
AcDbEntity
  8
0
100
AcDbLine
 10
227.7617414999999
 20
127.1855999999999
 30
0.0
 11
227.7617414999999
 21
130.8856
 31
0.0
  0
LINE
  5
441
330
1E
100
AcDbEntity
  8
0
100
AcDbLine
 10
227.7617414999999
 20
122.9856
 30
0.0
 11
227.7617414999999
 21
118.4856
 31
0.0
  0
LINE
  5
442
330
1E
100
AcDbEntity
  8
0
100
AcDbLine
 10
227.7617414999999
 20
122.9856
 30
0.0
 11
227.7617414999999
 21
127.1855999999999
 31
0.0
  0
LINE
  5
443
330
1E
100
AcDbEntity
  8
0
100
AcDbLine
 10
227.7617414999999
 20
130.8856
 30
0.0
 11
227.7617414999999
 21
133.6856
 31
0.0
  0
LINE
  5
444
330
1E
100
AcDbEntity
  8
0
100
AcDbLine
 10
227.7617414999999
 20
130.8856
 30
0.0
 11
227.7617414999999
 21
127.1855999999999
 31
0.0
  0
LINE
  5
445
330
1E
100
AcDbEntity
  8
0
100
AcDbLine
 10
226.0887415
 20
118.4856
 30
0.0
 11
226.0887415
 21
114.5855999999999
 31
0.0
  0
LINE
  5
446
330
1E
100
AcDbEntity
  8
0
100
AcDbLine
 10
226.0887415
 20
118.4856
 30
0.0
 11
226.0887415
 21
122.3856
 31
0.0
  0
LINE
  5
447
330
1E
100
AcDbEntity
  8
0
100
AcDbLine
 10
227.7617414999999
 20
113.9855999999999
 30
0.0
 11
227.7617414999999
 21
109.7855999999999
 31
0.0
  0
LINE
  5
448
330
1E
100
AcDbEntity
  8
0
100
AcDbLine
 10
227.7617414999999
 20
113.9855999999999
 30
0.0
 11
227.7617414999999
 21
118.4856
 31
0.0
  0
LINE
  5
449
330
1E
100
AcDbEntity
  8
0
100
AcDbLine
 10
227.7617414999999
 20
118.4856
 30
0.0
 11
227.7617414999999
 21
113.9855999999999
 31
0.0
  0
LINE
  5
44A
330
1E
100
AcDbEntity
  8
0
100
AcDbLine
 10
227.7617414999999
 20
118.4856
 30
0.0
 11
227.7617414999999
 21
122.9856
 31
0.0
  0
LINE
  5
44B
330
1E
100
AcDbEntity
  8
0
100
AcDbLine
 10
226.0887415
 20
107.8856
 30
0.0
 11
226.0887415
 21
105.4856
 31
0.0
  0
LINE
  5
44C
330
1E
100
AcDbEntity
  8
0
100
AcDbLine
 10
226.0887415
 20
107.8856
 30
0.0
 11
226.0887415
 21
110.9856
 31
0.0
  0
LINE
  5
44D
330
1E
100
AcDbEntity
  8
0
100
AcDbLine
 10
241.1467415
 20
111.6856
 30
0.0
 11
241.1467415
 21
105.2856
 31
0.0
  0
LINE
  5
44E
330
1E
100
AcDbEntity
  8
0
100
AcDbLine
 10
241.1467415
 20
111.6856
 30
0.0
 11
241.1467415
 21
118.4856
 31
0.0
  0
LINE
  5
44F
330
1E
100
AcDbEntity
  8
0
100
AcDbLine
 10
241.1467415
 20
118.4856
 30
0.0
 11
241.1467415
 21
111.6856
 31
0.0
  0
LINE
  5
450
330
1E
100
AcDbEntity
  8
0
100
AcDbLine
 10
241.1467415
 20
118.4856
 30
0.0
 11
241.1467415
 21
125.2855999999999
 31
0.0
  0
LINE
  5
451
330
1E
100
AcDbEntity
  8
0
100
AcDbLine
 10
243.9347414999999
 20
111.5855999999999
 30
0.0
 11
243.9347414999999
 21
105.0856
 31
0.0
  0
LINE
  5
452
330
1E
100
AcDbEntity
  8
0
100
AcDbLine
 10
243.9347414999999
 20
111.5855999999999
 30
0.0
 11
243.9347414999999
 21
118.4856
 31
0.0
  0
LINE
  5
453
330
1E
100
AcDbEntity
  8
0
100
AcDbLine
 10
241.1467415
 20
131.6856
 30
0.0
 11
241.1467415
 21
125.2855999999999
 31
0.0
  0
LINE
  5
454
330
1E
100
AcDbEntity
  8
0
100
AcDbLine
 10
241.1467415
 20
131.6856
 30
0.0
 11
241.1467415
 21
137.1855999999999
 31
0.0
  0
LINE
  5
455
330
1E
100
AcDbEntity
  8
0
100
AcDbLine
 10
241.1467415
 20
125.2855999999999
 30
0.0
 11
241.1467415
 21
118.4856
 31
0.0
  0
LINE
  5
456
330
1E
100
AcDbEntity
  8
0
100
AcDbLine
 10
241.1467415
 20
125.2855999999999
 30
0.0
 11
241.1467415
 21
131.6856
 31
0.0
  0
LINE
  5
457
330
1E
100
AcDbEntity
  8
0
100
AcDbLine
 10
243.9347414999999
 20
131.8856
 30
0.0
 11
243.9347414999999
 21
125.3856
 31
0.0
  0
LINE
  5
458
330
1E
100
AcDbEntity
  8
0
100
AcDbLine
 10
243.9347414999999
 20
131.8856
 30
0.0
 11
243.9347414999999
 21
137.5855999999999
 31
0.0
  0
LINE
  5
459
330
1E
100
AcDbEntity
  8
0
100
AcDbLine
 10
243.9347414999999
 20
125.3856
 30
0.0
 11
243.9347414999999
 21
118.4856
 31
0.0
  0
LINE
  5
45A
330
1E
100
AcDbEntity
  8
0
100
AcDbLine
 10
243.9347414999999
 20
125.3856
 30
0.0
 11
243.9347414999999
 21
131.8856
 31
0.0
  0
LINE
  5
45B
330
1E
100
AcDbEntity
  8
0
100
AcDbLine
 10
243.9347414999999
 20
118.4856
 30
0.0
 11
243.9347414999999
 21
111.5855999999999
 31
0.0
  0
LINE
  5
45C
330
1E
100
AcDbEntity
  8
0
100
AcDbLine
 10
243.9347414999999
 20
118.4856
 30
0.0
 11
243.9347414999999
 21
125.3856
 31
0.0
  0
LINE
  5
45D
330
1E
100
AcDbEntity
  8
0
100
AcDbLine
 10
227.7617414999999
 20
106.0856
 30
0.0
 11
227.7617414999999
 21
103.2855999999999
 31
0.0
  0
LINE
  5
45E
330
1E
100
AcDbEntity
  8
0
100
AcDbLine
 10
227.7617414999999
 20
106.0856
 30
0.0
 11
227.7617414999999
 21
109.7855999999999
 31
0.0
  0
LINE
  5
45F
330
1E
100
AcDbEntity
  8
0
100
AcDbLine
 10
219.6664193294699
 20
133.4856
 30
0.0
 11
226.0887415
 21
133.4856
 31
0.0
  0
LINE
  5
460
330
1E
100
AcDbEntity
  8
0
100
AcDbLine
 10
226.0887415
 20
133.4856
 30
0.0
 11
226.0887415
 21
132.9856
 31
0.0
  0
LINE
  5
461
330
1E
100
AcDbEntity
  8
0
100
AcDbLine
 10
226.0887415
 20
133.4856
 30
0.0
 11
227.2037415
 21
134.4856
 31
0.0
  0
LINE
  5
462
330
1E
100
AcDbEntity
  8
0
100
AcDbLine
 10
227.2037415
 20
134.4856
 30
0.0
 11
227.7617414999999
 21
135.9856
 31
0.0
  0
LINE
  5
463
330
1E
100
AcDbEntity
  8
0
100
AcDbLine
 10
227.7617414999999
 20
133.6856
 30
0.0
 11
227.7617414999999
 21
130.8856
 31
0.0
  0
LINE
  5
464
330
1E
100
AcDbEntity
  8
0
100
AcDbLine
 10
227.7617414999999
 20
133.6856
 30
0.0
 11
227.7617414999999
 21
135.3856
 31
0.0
  0
LINE
  5
465
330
1E
100
AcDbEntity
  8
0
100
AcDbLine
 10
202.9347415
 20
133.4856
 30
0.0
 11
202.9347415
 21
132.9856
 31
0.0
  0
LINE
  5
466
330
1E
100
AcDbEntity
  8
0
100
AcDbLine
 10
202.9347415
 20
132.9856
 30
0.0
 11
202.9347415
 21
133.4856
 31
0.0
  0
LINE
  5
467
330
1E
100
AcDbEntity
  8
0
100
AcDbLine
 10
202.4347415
 20
134.4856
 30
0.0
 11
202.9347415
 21
133.4856
 31
0.0
  0
LINE
  5
468
330
1E
100
AcDbEntity
  8
0
100
AcDbLine
 10
227.7617414999999
 20
135.3856
 30
0.0
 11
227.7617414999999
 21
133.6856
 31
0.0
  0
LINE
  5
469
330
1E
100
AcDbEntity
  8
0
100
AcDbLine
 10
227.7617414999999
 20
135.3856
 30
0.0
 11
227.7617414999999
 21
135.9856
 31
0.0
  0
LINE
  5
46A
330
1E
100
AcDbEntity
  8
0
100
AcDbLine
 10
227.7617414999999
 20
135.9856
 30
0.0
 11
227.7617414999999
 21
135.3856
 31
0.0
  0
LINE
  5
46B
330
1E
100
AcDbEntity
  8
0
100
AcDbLine
 10
227.7617414999999
 20
135.9856
 30
0.0
 11
229.4347415
 21
136.4856
 31
0.0
  0
LINE
  5
46C
330
1E
100
AcDbEntity
  8
0
100
AcDbLine
 10
229.4347415
 20
136.4856
 30
0.0
 11
230.5497415
 21
136.4856
 31
0.0
  0
LINE
  5
46D
330
1E
100
AcDbEntity
  8
0
100
AcDbLine
 10
230.5497415
 20
136.4856
 30
0.0
 11
235.0117415
 21
137.9855999999999
 31
0.0
  0
LINE
  5
46E
330
1E
100
AcDbEntity
  8
0
100
AcDbLine
 10
241.1467415
 20
137.1855999999999
 30
0.0
 11
241.1467415
 21
141.4856
 31
0.0
  0
LINE
  5
46F
330
1E
100
AcDbEntity
  8
0
100
AcDbLine
 10
241.1467415
 20
137.1855999999999
 30
0.0
 11
241.1467415
 21
131.6856
 31
0.0
  0
LINE
  5
470
330
1E
100
AcDbEntity
  8
0
100
AcDbLine
 10
235.0117415
 20
137.9855999999999
 30
0.0
 11
238.9157415
 21
140.9855999999999
 31
0.0
  0
LINE
  5
471
330
1E
100
AcDbEntity
  8
0
100
AcDbLine
 10
238.9157415
 20
140.9855999999999
 30
0.0
 11
240.5887415
 21
143.4856
 31
0.0
  0
LINE
  5
472
330
1E
100
AcDbEntity
  8
0
100
AcDbLine
 10
240.5887415
 20
143.4856
 30
0.0
 11
241.1467415
 21
144.9856
 31
0.0
  0
LINE
  5
473
330
1E
100
AcDbEntity
  8
0
100
AcDbLine
 10
241.1467415
 20
141.4856
 30
0.0
 11
241.1467415
 21
137.1855999999999
 31
0.0
  0
LINE
  5
474
330
1E
100
AcDbEntity
  8
0
100
AcDbLine
 10
241.1467415
 20
141.4856
 30
0.0
 11
241.1467415
 21
143.9855999999999
 31
0.0
  0
LINE
  5
475
330
1E
100
AcDbEntity
  8
0
100
AcDbLine
 10
241.1467415
 20
143.9855999999999
 30
0.0
 11
241.1467415
 21
141.4856
 31
0.0
  0
LINE
  5
476
330
1E
100
AcDbEntity
  8
0
100
AcDbLine
 10
241.1467415
 20
143.9855999999999
 30
0.0
 11
241.1467415
 21
144.9856
 31
0.0
  0
LINE
  5
477
330
1E
100
AcDbEntity
  8
0
100
AcDbLine
 10
243.9347414999999
 20
137.5855999999999
 30
0.0
 11
243.9347414999999
 21
141.8856
 31
0.0
  0
LINE
  5
478
330
1E
100
AcDbEntity
  8
0
100
AcDbLine
 10
243.9347414999999
 20
137.5855999999999
 30
0.0
 11
243.9347414999999
 21
131.8856
 31
0.0
  0
LINE
  5
479
330
1E
100
AcDbEntity
  8
0
100
AcDbLine
 10
243.9347414999999
 20
141.8856
 30
0.0
 11
243.9347414999999
 21
137.5855999999999
 31
0.0
  0
LINE
  5
47A
330
1E
100
AcDbEntity
  8
0
100
AcDbLine
 10
243.9347414999999
 20
141.8856
 30
0.0
 11
243.9347414999999
 21
144.4856
 31
0.0
  0
LINE
  5
47B
330
1E
100
AcDbEntity
  8
0
100
AcDbLine
 10
200.9347415
 20
905.4855999999999
 30
0.0
 11
201.4347415
 21
905.4855999999999
 31
0.0
  0
LINE
  5
47C
330
1E
100
AcDbEntity
  8
0
100
AcDbLine
 10
200.9347415
 20
906.4856
 30
0.0
 11
201.4347415
 21
905.4855999999999
 31
0.0
  0
LINE
  5
47D
330
1E
100
AcDbEntity
  8
0
100
AcDbLine
 10
200.9347415
 20
906.4856
 30
0.0
 11
200.9347415
 21
913.5756
 31
0.0
  0
LINE
  5
47E
330
1E
100
AcDbEntity
  8
0
100
AcDbLine
 10
200.9347415
 20
901.9856
 30
0.0
 11
201.4347415
 21
901.9856
 31
0.0
  0
LINE
  5
47F
330
1E
100
AcDbEntity
  8
0
100
AcDbLine
 10
200.9347415
 20
913.5756
 30
0.0
 11
200.9347415
 21
906.4856
 31
0.0
  0
LINE
  5
480
330
1E
100
AcDbEntity
  8
0
100
AcDbLine
 10
200.9347415
 20
1006.985599999999
 30
0.0
 11
200.9347415
 21
1006.4856
 31
0.0
  0
LINE
  5
481
330
1E
100
AcDbEntity
  8
0
100
AcDbLine
 10
200.9347415
 20
1006.4856
 30
0.0
 11
200.9347415
 21
1006.985599999999
 31
0.0
  0
LINE
  5
482
330
1E
100
AcDbEntity
  8
0
100
AcDbLine
 10
200.9347415
 20
931.4856
 30
0.0
 11
201.4347415
 21
931.4856
 31
0.0
  0
LINE
  5
483
330
1E
100
AcDbEntity
  8
0
100
AcDbLine
 10
200.9347415
 20
923.3755999999999
 30
0.0
 11
200.9347415
 21
930.4855999999999
 31
0.0
  0
LINE
  5
484
330
1E
100
AcDbEntity
  8
0
100
AcDbLine
 10
200.9347415
 20
930.4855999999999
 30
0.0
 11
201.4347415
 21
931.4856
 31
0.0
  0
LINE
  5
485
330
1E
100
AcDbEntity
  8
0
100
AcDbLine
 10
200.9347415
 20
930.4855999999999
 30
0.0
 11
200.9347415
 21
923.3755999999999
 31
0.0
  0
LINE
  5
486
330
1E
100
AcDbEntity
  8
0
100
AcDbLine
 10
200.9347415
 20
913.4855999999999
 30
0.0
 11
211.9347415
 21
913.4855999999999
 31
0.0
  0
LINE
  5
488
330
1E
100
AcDbEntity
  8
0
100
AcDbLine
 10
201.4347415
 20
905.4855999999999
 30
0.0
 11
202.4347415
 21
904.9856
 31
0.0
  0
LINE
  5
489
330
1E
100
AcDbEntity
  8
0
100
AcDbLine
 10
201.6337415
 20
556.9575999999999
 30
0.0
 11
203.4347415
 21
525.3565999999999
 31
0.0
  0
LINE
  5
48B
330
1E
100
AcDbEntity
  8
0
100
AcDbLine
 10
201.8347415
 20
635.2646
 30
0.0
 11
208.6347415
 21
609.5565999999999
 31
0.0
  0
LINE
  5
48C
330
1E
100
AcDbEntity
  8
0
100
AcDbLine
 10
201.8570137182239
 20
635.1803979138099
 30
0.0
 11
203.3317414999999
 21
638.8606
 31
0.0
  0
LINE
  5
48E
330
1E
100
AcDbEntity
  8
0
100
AcDbLine
 10
201.8207415
 20
650.9285999999999
 30
0.0
 11
203.3637415
 21
647.0996
 31
0.0
  0
LINE
  5
492
330
1E
100
AcDbEntity
  8
0
100
AcDbLine
 10
203.4347415
 20
525.3565999999999
 30
0.0
 11
203.8367415
 21
3.45190000000002
 31
0.0
  0
LINE
  5
493
330
1E
100
AcDbEntity
  8
0
100
AcDbLine
 10
203.4347415
 20
525.3565999999999
 30
0.0
 11
203.8367415
 21
3.451900000000029
 31
0.0
  0
LINE
  5
494
330
1E
100
AcDbEntity
  8
0
100
AcDbLine
 10
219.4347415
 20
525.3605999999999
 30
0.0
 11
219.7427414999999
 21
4.38929999999999
 31
0.0
  0
LINE
  5
495
330
1E
100
AcDbEntity
  8
0
100
AcDbLine
 10
219.4347415
 20
525.3605999999999
 30
0.0
 11
219.7427414999999
 21
4.389300000000019
 31
0.0
  0
LINE
  5
496
330
1E
100
AcDbEntity
  8
0
100
AcDbLine
 10
217.4347415
 20
559.7616
 30
0.0
 11
219.4347415
 21
525.3605999999999
 31
0.0
  0
LINE
  5
497
330
1E
100
AcDbEntity
  8
0
100
AcDbLine
 10
213.7347415
 20
584.1596
 30
0.0
 11
217.4347415
 21
559.7616
 31
0.0
  0
LINE
  5
498
330
1E
100
AcDbEntity
  8
0
100
AcDbLine
 10
208.6347415
 20
609.5565999999999
 30
0.0
 11
213.7347415
 21
584.1596
 31
0.0
  0
LINE
  5
499
330
1E
100
AcDbEntity
  8
0
100
AcDbLine
 10
203.3317414999999
 20
638.8606
 30
0.0
 11
203.9347414999999
 21
643.0095999999999
 31
0.0
  0
LINE
  5
49C
330
1E
100
AcDbEntity
  8
0
100
AcDbLine
 10
203.3637415
 20
647.0996
 30
0.0
 11
203.9347414999999
 21
642.9856
 31
0.0
  0
LINE
  5
4A0
330
1E
100
AcDbEntity
  8
0
100
AcDbLine
 10
240.5887415
 20
893.4855999999999
 30
0.0
 11
241.1467415
 21
891.9855999999999
 31
0.0
  0
LINE
  5
4A1
330
1E
100
AcDbEntity
  8
0
100
AcDbLine
 10
229.4347415
 20
900.4856
 30
0.0
 11
230.5497415
 21
900.4856
 31
0.0
  0
LINE
  5
4A2
330
1E
100
AcDbEntity
  8
0
100
AcDbLine
 10
227.2037415
 20
902.4855999999999
 30
0.0
 11
227.7617414999999
 21
900.9855999999999
 31
0.0
  0
LINE
  5
4A3
330
1E
100
AcDbEntity
  8
0
100
AcDbLine
 10
227.7617414999999
 20
901.5855999999999
 30
0.0
 11
227.7617414999999
 21
903.2856
 31
0.0
  0
LINE
  5
4A4
330
1E
100
AcDbEntity
  8
0
100
AcDbLine
 10
227.7617414999999
 20
901.5855999999999
 30
0.0
 11
227.7617414999999
 21
900.9855999999999
 31
0.0
  0
LINE
  5
4A5
330
1E
100
AcDbEntity
  8
0
100
AcDbLine
 10
227.7617414999999
 20
900.9855999999999
 30
0.0
 11
227.7617414999999
 21
901.5855999999999
 31
0.0
  0
LINE
  5
4A6
330
1E
100
AcDbEntity
  8
0
100
AcDbLine
 10
227.7617414999999
 20
900.9855999999999
 30
0.0
 11
229.4347415
 21
900.4856
 31
0.0
  0
LINE
  5
4A7
330
1E
100
AcDbEntity
  8
0
100
AcDbLine
 10
230.5497415
 20
900.4856
 30
0.0
 11
235.0117415
 21
898.9855999999999
 31
0.0
  0
LINE
  5
4A8
330
1E
100
AcDbEntity
  8
0
100
AcDbLine
 10
235.0117415
 20
898.9855999999999
 30
0.0
 11
238.9157415
 21
895.9856
 31
0.0
  0
LINE
  5
4A9
330
1E
100
AcDbEntity
  8
0
100
AcDbLine
 10
238.9157415
 20
895.9856
 30
0.0
 11
240.5887415
 21
893.4855999999999
 31
0.0
  0
LINE
  5
4AA
330
1E
100
AcDbEntity
  8
0
100
AcDbLine
 10
241.1467415
 20
899.7856
 30
0.0
 11
241.1467415
 21
895.4855999999999
 31
0.0
  0
LINE
  5
4AB
330
1E
100
AcDbEntity
  8
0
100
AcDbLine
 10
241.1467415
 20
899.7856
 30
0.0
 11
241.1467415
 21
905.2856
 31
0.0
  0
LINE
  5
4AC
330
1E
100
AcDbEntity
  8
0
100
AcDbLine
 10
241.1467415
 20
895.4855999999999
 30
0.0
 11
241.1467415
 21
899.7856
 31
0.0
  0
LINE
  5
4AD
330
1E
100
AcDbEntity
  8
0
100
AcDbLine
 10
241.1467415
 20
895.4855999999999
 30
0.0
 11
241.1467415
 21
892.9855999999999
 31
0.0
  0
LINE
  5
4AE
330
1E
100
AcDbEntity
  8
0
100
AcDbLine
 10
241.1467415
 20
892.9855999999999
 30
0.0
 11
241.1467415
 21
895.4855999999999
 31
0.0
  0
LINE
  5
4AF
330
1E
100
AcDbEntity
  8
0
100
AcDbLine
 10
241.1467415
 20
892.9855999999999
 30
0.0
 11
241.1467415
 21
891.9855999999999
 31
0.0
  0
LINE
  5
4B0
330
1E
100
AcDbEntity
  8
0
100
AcDbLine
 10
241.1467415
 20
891.9855999999999
 30
0.0
 11
241.1467415
 21
892.9855999999999
 31
0.0
  0
LINE
  5
4B1
330
1E
100
AcDbEntity
  8
0
100
AcDbLine
 10
241.1467415
 20
891.9855999999999
 30
0.0
 11
242.8197415
 21
891.4856
 31
0.0
  0
LINE
  5
4B2
330
1E
100
AcDbEntity
  8
0
100
AcDbLine
 10
201.9347414999999
 20
902.4855999999999
 30
0.0
 11
202.4347415
 21
902.4855999999999
 31
0.0
  0
LINE
  5
4B3
330
1E
100
AcDbEntity
  8
0
100
AcDbLine
 10
201.9347414999999
 20
904.9856
 30
0.0
 11
202.4347415
 21
904.9856
 31
0.0
  0
LINE
  5
4B4
330
1E
100
AcDbEntity
  8
0
100
AcDbLine
 10
202.9347415
 20
903.9856
 30
0.0
 11
202.9347415
 21
903.4855999999999
 31
0.0
  0
LINE
  5
4B5
330
1E
100
AcDbEntity
  8
0
100
AcDbLine
 10
202.4347415
 20
904.9856
 30
0.0
 11
202.9347415
 21
903.9856
 31
0.0
  0
LINE
  5
4B6
330
1E
100
AcDbEntity
  8
0
100
AcDbLine
 10
215.4927414999999
 20
903.9856
 30
0.0
 11
215.4927414999999
 21
904.4855999999999
 31
0.0
  0
LINE
  5
4B7
330
1E
100
AcDbEntity
  8
0
100
AcDbLine
 10
215.4927414999999
 20
903.9856
 30
0.0
 11
217.1657414999999
 21
903.4855999999999
 31
0.0
  0
LINE
  5
4B8
330
1E
100
AcDbEntity
  8
0
100
AcDbLine
 10
217.1657414999999
 20
903.4855999999999
 30
0.0
 11
226.0887415
 21
903.4855999999999
 31
0.0
  0
LINE
  5
4B9
330
1E
100
AcDbEntity
  8
0
100
AcDbLine
 10
214.9347415
 20
905.9855999999999
 30
0.0
 11
214.9347415
 21
905.4855999999999
 31
0.0
  0
LINE
  5
4BA
330
1E
100
AcDbEntity
  8
0
100
AcDbLine
 10
214.9347415
 20
905.9855999999999
 30
0.0
 11
214.9347415
 21
907.1856
 31
0.0
  0
LINE
  5
4BB
330
1E
100
AcDbEntity
  8
0
100
AcDbLine
 10
214.9347415
 20
905.4855999999999
 30
0.0
 11
215.4927414999999
 21
903.9856
 31
0.0
  0
LINE
  5
4BC
330
1E
100
AcDbEntity
  8
0
100
AcDbLine
 10
214.9347415
 20
905.4855999999999
 30
0.0
 11
214.9347415
 21
905.9855999999999
 31
0.0
  0
LINE
  5
4BD
330
1E
100
AcDbEntity
  8
0
100
AcDbLine
 10
215.4927414999999
 20
905.8856
 30
0.0
 11
215.4927414999999
 21
908.2856000000001
 31
0.0
  0
LINE
  5
4BE
330
1E
100
AcDbEntity
  8
0
100
AcDbLine
 10
215.4927414999999
 20
905.8856
 30
0.0
 11
215.4927414999999
 21
904.4855999999999
 31
0.0
  0
LINE
  5
4BF
330
1E
100
AcDbEntity
  8
0
100
AcDbLine
 10
215.4927414999999
 20
904.4855999999999
 30
0.0
 11
215.4927414999999
 21
905.8856
 31
0.0
  0
LINE
  5
4C0
330
1E
100
AcDbEntity
  8
0
100
AcDbLine
 10
215.4927414999999
 20
904.4855999999999
 30
0.0
 11
215.4927414999999
 21
903.9856
 31
0.0
  0
LINE
  5
4C1
330
1E
100
AcDbEntity
  8
0
100
AcDbLine
 10
226.0887415
 20
905.4855999999999
 30
0.0
 11
226.0887415
 21
907.8856
 31
0.0
  0
LINE
  5
4C2
330
1E
100
AcDbEntity
  8
0
100
AcDbLine
 10
226.0887415
 20
905.4855999999999
 30
0.0
 11
226.0887415
 21
903.9856
 31
0.0
  0
LINE
  5
4C3
330
1E
100
AcDbEntity
  8
0
100
AcDbLine
 10
226.0887415
 20
903.9856
 30
0.0
 11
226.0887415
 21
905.4855999999999
 31
0.0
  0
LINE
  5
4C4
330
1E
100
AcDbEntity
  8
0
100
AcDbLine
 10
226.0887415
 20
903.9856
 30
0.0
 11
226.0887415
 21
903.4855999999999
 31
0.0
  0
LINE
  5
4C5
330
1E
100
AcDbEntity
  8
0
100
AcDbLine
 10
226.0887415
 20
903.4855999999999
 30
0.0
 11
226.0887415
 21
903.9856
 31
0.0
  0
LINE
  5
4C6
330
1E
100
AcDbEntity
  8
0
100
AcDbLine
 10
226.0887415
 20
903.4855999999999
 30
0.0
 11
227.2037415
 21
902.4855999999999
 31
0.0
  0
LINE
  5
4C7
330
1E
100
AcDbEntity
  8
0
100
AcDbLine
 10
214.9347415
 20
907.1856
 30
0.0
 11
214.9347415
 21
905.9855999999999
 31
0.0
  0
LINE
  5
4C8
330
1E
100
AcDbEntity
  8
0
100
AcDbLine
 10
214.9347415
 20
907.1856
 30
0.0
 11
214.9347415
 21
908.4856
 31
0.0
  0
LINE
  5
4C9
330
1E
100
AcDbEntity
  8
0
100
AcDbLine
 10
214.9347415
 20
908.8855999999999
 30
0.0
 11
214.9347415
 21
908.4856
 31
0.0
  0
LINE
  5
4CA
330
1E
100
AcDbEntity
  8
0
100
AcDbLine
 10
214.9347415
 20
908.4856
 30
0.0
 11
214.9347415
 21
907.1856
 31
0.0
  0
LINE
  5
4CB
330
1E
100
AcDbEntity
  8
0
100
AcDbLine
 10
215.4927414999999
 20
908.2856000000001
 30
0.0
 11
215.4927414999999
 21
905.8856
 31
0.0
  0
LINE
  5
4CC
330
1E
100
AcDbEntity
  8
0
100
AcDbLine
 10
215.4927414999999
 20
908.2856000000001
 30
0.0
 11
215.4927414999999
 21
911.2856
 31
0.0
  0
LINE
  5
4CD
330
1E
100
AcDbEntity
  8
0
100
AcDbLine
 10
226.0887415
 20
907.8856
 30
0.0
 11
226.0887415
 21
905.4855999999999
 31
0.0
  0
LINE
  5
4CE
330
1E
100
AcDbEntity
  8
0
100
AcDbLine
 10
226.0887415
 20
907.8856
 30
0.0
 11
226.0887415
 21
910.9856
 31
0.0
  0
LINE
  5
4CF
330
1E
100
AcDbEntity
  8
0
100
AcDbLine
 10
227.7617414999999
 20
906.0855999999999
 30
0.0
 11
227.7617414999999
 21
903.2856
 31
0.0
  0
LINE
  5
4D0
330
1E
100
AcDbEntity
  8
0
100
AcDbLine
 10
227.7617414999999
 20
906.0855999999999
 30
0.0
 11
227.7617414999999
 21
909.7856
 31
0.0
  0
LINE
  5
4D1
330
1E
100
AcDbEntity
  8
0
100
AcDbLine
 10
241.1467415
 20
905.2856
 30
0.0
 11
241.1467415
 21
911.6856
 31
0.0
  0
LINE
  5
4D2
330
1E
100
AcDbEntity
  8
0
100
AcDbLine
 10
227.7617414999999
 20
903.2856
 30
0.0
 11
227.7617414999999
 21
906.0855999999999
 31
0.0
  0
LINE
  5
4D3
330
1E
100
AcDbEntity
  8
0
100
AcDbLine
 10
227.7617414999999
 20
903.2856
 30
0.0
 11
227.7617414999999
 21
901.5855999999999
 31
0.0
  0
LINE
  5
4D4
330
1E
100
AcDbEntity
  8
0
100
AcDbLine
 10
211.9347415
 20
912.3855999999999
 30
0.0
 11
211.9347415
 21
911.7856000000001
 31
0.0
  0
LINE
  5
4D5
330
1E
100
AcDbEntity
  8
0
100
AcDbLine
 10
211.9347415
 20
912.3855999999999
 30
0.0
 11
211.9347415
 21
913.4855999999999
 31
0.0
  0
LINE
  5
4D6
330
1E
100
AcDbEntity
  8
0
100
AcDbLine
 10
211.9347415
 20
911.7856000000001
 30
0.0
 11
211.9347415
 21
911.4855999999999
 31
0.0
  0
LINE
  5
4D7
330
1E
100
AcDbEntity
  8
0
100
AcDbLine
 10
211.9347415
 20
911.7856000000001
 30
0.0
 11
211.9347415
 21
912.3855999999999
 31
0.0
  0
LINE
  5
4D8
330
1E
100
AcDbEntity
  8
0
100
AcDbLine
 10
211.9347415
 20
911.4855999999999
 30
0.0
 11
212.4347414999999
 21
909.9856
 31
0.0
  0
LINE
  5
4D9
330
1E
100
AcDbEntity
  8
0
100
AcDbLine
 10
211.9347415
 20
911.4855999999999
 30
0.0
 11
211.9347415
 21
911.7856000000001
 31
0.0
  0
LINE
  5
4DA
330
1E
100
AcDbEntity
  8
0
100
AcDbLine
 10
214.9347415
 20
909.7856
 30
0.0
 11
214.9347415
 21
908.8855999999999
 31
0.0
  0
LINE
  5
4DB
330
1E
100
AcDbEntity
  8
0
100
AcDbLine
 10
214.9347415
 20
911.3856
 30
0.0
 11
214.9347415
 21
909.7856
 31
0.0
  0
LINE
  5
4DC
330
1E
100
AcDbEntity
  8
0
100
AcDbLine
 10
215.4927414999999
 20
911.2856
 30
0.0
 11
215.4927414999999
 21
914.7856
 31
0.0
  0
LINE
  5
4DD
330
1E
100
AcDbEntity
  8
0
100
AcDbLine
 10
215.4927414999999
 20
911.2856
 30
0.0
 11
215.4927414999999
 21
908.2856000000001
 31
0.0
  0
LINE
  5
4DE
330
1E
100
AcDbEntity
  8
0
100
AcDbLine
 10
226.0887415
 20
910.9856
 30
0.0
 11
226.0887415
 21
914.5856
 31
0.0
  0
LINE
  5
4DF
330
1E
100
AcDbEntity
  8
0
100
AcDbLine
 10
226.0887415
 20
910.9856
 30
0.0
 11
226.0887415
 21
907.8856
 31
0.0
  0
LINE
  5
4E0
330
1E
100
AcDbEntity
  8
0
100
AcDbLine
 10
227.7617414999999
 20
909.7856
 30
0.0
 11
227.7617414999999
 21
913.9855999999999
 31
0.0
  0
LINE
  5
4E1
330
1E
100
AcDbEntity
  8
0
100
AcDbLine
 10
227.7617414999999
 20
909.7856
 30
0.0
 11
227.7617414999999
 21
906.0855999999999
 31
0.0
  0
LINE
  5
4E2
330
1E
100
AcDbEntity
  8
0
100
AcDbLine
 10
214.9347415
 20
913.4855999999999
 30
0.0
 11
214.9347415
 21
911.3856
 31
0.0
  0
LINE
  5
4E3
330
1E
100
AcDbEntity
  8
0
100
AcDbLine
 10
241.1467415
 20
911.6856
 30
0.0
 11
241.1467415
 21
918.4855999999999
 31
0.0
  0
LINE
  5
4E4
330
1E
100
AcDbEntity
  8
0
100
AcDbLine
 10
241.1467415
 20
911.6856
 30
0.0
 11
241.1467415
 21
905.2856
 31
0.0
  0
LINE
  5
4E5
330
1E
100
AcDbEntity
  8
0
100
AcDbLine
 10
212.4347414999999
 20
909.9856
 30
0.0
 11
213.4347415
 21
908.9855999999999
 31
0.0
  0
LINE
  5
4E6
330
1E
100
AcDbEntity
  8
0
100
AcDbLine
 10
213.4347415
 20
908.9855999999999
 30
0.0
 11
214.9347415
 21
908.4856
 31
0.0
  0
LINE
  5
4E7
330
1E
100
AcDbEntity
  8
0
100
AcDbLine
 10
202.9347415
 20
903.4855999999999
 30
0.0
 11
202.9347415
 21
903.9856
 31
0.0
  0
LINE
  5
4E8
330
1E
100
AcDbEntity
  8
0
100
AcDbLine
 10
202.4347415
 20
902.4855999999999
 30
0.0
 11
202.9347415
 21
903.4855999999999
 31
0.0
  0
LINE
  5
4E9
330
1E
100
AcDbEntity
  8
0
100
AcDbLine
 10
201.4347415
 20
901.9856
 30
0.0
 11
202.4347415
 21
902.4855999999999
 31
0.0
  0
LINE
  5
4EA
330
1E
100
AcDbEntity
  8
0
100
AcDbLine
 10
211.9347415
 20
918.4855999999999
 30
0.0
 11
211.9347415
 21
919.7855999999999
 31
0.0
  0
LINE
  5
4EB
330
1E
100
AcDbEntity
  8
0
100
AcDbLine
 10
211.9347415
 20
919.7855999999999
 30
0.0
 11
211.9347415
 21
920.9856
 31
0.0
  0
LINE
  5
4EC
330
1E
100
AcDbEntity
  8
0
100
AcDbLine
 10
211.9347415
 20
920.9856
 30
0.0
 11
211.9347415
 21
921.9856
 31
0.0
  0
LINE
  5
4ED
330
1E
100
AcDbEntity
  8
0
100
AcDbLine
 10
211.9347415
 20
921.9856
 30
0.0
 11
211.9347415
 21
922.7856
 31
0.0
  0
LINE
  5
4EE
330
1E
100
AcDbEntity
  8
0
100
AcDbLine
 10
211.9347415
 20
922.7856
 30
0.0
 11
211.9347415
 21
923.2855999999999
 31
0.0
  0
LINE
  5
4EF
330
1E
100
AcDbEntity
  8
0
100
AcDbLine
 10
201.4347415
 20
931.4856
 30
0.0
 11
202.4347415
 21
931.9855999999999
 31
0.0
  0
LINE
  5
4F0
330
1E
100
AcDbEntity
  8
0
100
AcDbLine
 10
201.9347414999999
 20
931.9855999999999
 30
0.0
 11
202.4347415
 21
931.9855999999999
 31
0.0
  0
LINE
  5
4F1
330
1E
100
AcDbEntity
  8
0
100
AcDbLine
 10
202.9347415
 20
933.4856
 30
0.0
 11
202.9347415
 21
932.9855999999999
 31
0.0
  0
LINE
  5
4F2
330
1E
100
AcDbEntity
  8
0
100
AcDbLine
 10
201.9347414999999
 20
934.4856
 30
0.0
 11
202.4347415
 21
934.4856
 31
0.0
  0
LINE
  5
4F3
330
1E
100
AcDbEntity
  8
0
100
AcDbLine
 10
202.4347415
 20
931.9855999999999
 30
0.0
 11
202.9347415
 21
932.9855999999999
 31
0.0
  0
LINE
  5
4F4
330
1E
100
AcDbEntity
  8
0
100
AcDbLine
 10
211.9347415
 20
923.4856
 30
0.0
 11
211.9347415
 21
924.5855999999999
 31
0.0
  0
LINE
  5
4F5
330
1E
100
AcDbEntity
  8
0
100
AcDbLine
 10
211.9347415
 20
924.5855999999999
 30
0.0
 11
211.9347415
 21
923.4856
 31
0.0
  0
LINE
  5
4F6
330
1E
100
AcDbEntity
  8
0
100
AcDbLine
 10
211.9347415
 20
924.5855999999999
 30
0.0
 11
211.9347415
 21
925.1856
 31
0.0
  0
LINE
  5
4F7
330
1E
100
AcDbEntity
  8
0
100
AcDbLine
 10
211.9347415
 20
925.1856
 30
0.0
 11
211.9347415
 21
924.5855999999999
 31
0.0
  0
LINE
  5
4F8
330
1E
100
AcDbEntity
  8
0
100
AcDbLine
 10
211.9347415
 20
925.1856
 30
0.0
 11
211.9347415
 21
925.4856
 31
0.0
  0
LINE
  5
4F9
330
1E
100
AcDbEntity
  8
0
100
AcDbLine
 10
211.9347415
 20
925.4856
 30
0.0
 11
211.9347415
 21
925.1856
 31
0.0
  0
LINE
  5
4FA
330
1E
100
AcDbEntity
  8
0
100
AcDbLine
 10
211.9347415
 20
925.4856
 30
0.0
 11
212.4347414999999
 21
926.9856
 31
0.0
  0
LINE
  5
4FB
330
1E
100
AcDbEntity
  8
0
100
AcDbLine
 10
202.9347415
 20
932.9855999999999
 30
0.0
 11
202.9347415
 21
933.4856
 31
0.0
  0
LINE
  5
4FC
330
1E
100
AcDbEntity
  8
0
100
AcDbLine
 10
202.4347415
 20
934.4856
 30
0.0
 11
202.9347415
 21
933.4856
 31
0.0
  0
LINE
  5
4FD
330
1E
100
AcDbEntity
  8
0
100
AcDbLine
 10
201.4347415
 20
934.9856
 30
0.0
 11
202.4347415
 21
934.4856
 31
0.0
  0
LINE
  5
4FE
330
1E
100
AcDbEntity
  8
0
100
AcDbLine
 10
211.9347415
 20
923.2855999999999
 30
0.0
 11
211.9347415
 21
923.4856
 31
0.0
  0
LINE
  5
4FF
330
1E
100
AcDbEntity
  8
0
100
AcDbLine
 10
211.9347415
 20
917.1856
 30
0.0
 11
211.9347415
 21
918.4855999999999
 31
0.0
  0
LINE
  5
500
330
1E
100
AcDbEntity
  8
0
100
AcDbLine
 10
211.9347415
 20
915.9855999999999
 30
0.0
 11
211.9347415
 21
917.1856
 31
0.0
  0
LINE
  5
501
330
1E
100
AcDbEntity
  8
0
100
AcDbLine
 10
211.9347415
 20
914.9855999999999
 30
0.0
 11
211.9347415
 21
915.9855999999999
 31
0.0
  0
LINE
  5
502
330
1E
100
AcDbEntity
  8
0
100
AcDbLine
 10
211.9347415
 20
914.1856
 30
0.0
 11
211.9347415
 21
914.9855999999999
 31
0.0
  0
LINE
  5
503
330
1E
100
AcDbEntity
  8
0
100
AcDbLine
 10
214.9347415
 20
915.8856
 30
0.0
 11
214.9347415
 21
913.4855999999999
 31
0.0
  0
LINE
  5
504
330
1E
100
AcDbEntity
  8
0
100
AcDbLine
 10
214.9347415
 20
918.4855999999999
 30
0.0
 11
214.9347415
 21
915.8856
 31
0.0
  0
LINE
  5
505
330
1E
100
AcDbEntity
  8
0
100
AcDbLine
 10
215.4927414999999
 20
914.7856
 30
0.0
 11
215.4927414999999
 21
918.4855999999999
 31
0.0
  0
LINE
  5
506
330
1E
100
AcDbEntity
  8
0
100
AcDbLine
 10
215.4927414999999
 20
914.7856
 30
0.0
 11
215.4927414999999
 21
911.2856
 31
0.0
  0
LINE
  5
507
330
1E
100
AcDbEntity
  8
0
100
AcDbLine
 10
226.0887415
 20
914.5856
 30
0.0
 11
226.0887415
 21
918.4855999999999
 31
0.0
  0
LINE
  5
508
330
1E
100
AcDbEntity
  8
0
100
AcDbLine
 10
226.0887415
 20
914.5856
 30
0.0
 11
226.0887415
 21
910.9856
 31
0.0
  0
LINE
  5
509
330
1E
100
AcDbEntity
  8
0
100
AcDbLine
 10
227.7617414999999
 20
913.9855999999999
 30
0.0
 11
227.7617414999999
 21
918.4855999999999
 31
0.0
  0
LINE
  5
50A
330
1E
100
AcDbEntity
  8
0
100
AcDbLine
 10
227.7617414999999
 20
913.9855999999999
 30
0.0
 11
227.7617414999999
 21
909.7856
 31
0.0
  0
LINE
  5
50B
330
1E
100
AcDbEntity
  8
0
100
AcDbLine
 10
215.4927414999999
 20
918.4855999999999
 30
0.0
 11
215.4927414999999
 21
922.1856
 31
0.0
  0
LINE
  5
50C
330
1E
100
AcDbEntity
  8
0
100
AcDbLine
 10
215.4927414999999
 20
918.4855999999999
 30
0.0
 11
215.4927414999999
 21
914.7856
 31
0.0
  0
LINE
  5
50D
330
1E
100
AcDbEntity
  8
0
100
AcDbLine
 10
226.0887415
 20
918.4855999999999
 30
0.0
 11
226.0887415
 21
922.3855999999999
 31
0.0
  0
LINE
  5
50E
330
1E
100
AcDbEntity
  8
0
100
AcDbLine
 10
226.0887415
 20
918.4855999999999
 30
0.0
 11
226.0887415
 21
914.5856
 31
0.0
  0
LINE
  5
50F
330
1E
100
AcDbEntity
  8
0
100
AcDbLine
 10
227.7617414999999
 20
918.4855999999999
 30
0.0
 11
227.7617414999999
 21
922.9855999999999
 31
0.0
  0
LINE
  5
510
330
1E
100
AcDbEntity
  8
0
100
AcDbLine
 10
227.7617414999999
 20
918.4855999999999
 30
0.0
 11
227.7617414999999
 21
913.9855999999999
 31
0.0
  0
LINE
  5
511
330
1E
100
AcDbEntity
  8
0
100
AcDbLine
 10
214.9347415
 20
921.0855999999999
 30
0.0
 11
214.9347415
 21
918.4855999999999
 31
0.0
  0
LINE
  5
512
330
1E
100
AcDbEntity
  8
0
100
AcDbLine
 10
215.4927414999999
 20
922.1856
 30
0.0
 11
215.4927414999999
 21
925.6856
 31
0.0
  0
LINE
  5
513
330
1E
100
AcDbEntity
  8
0
100
AcDbLine
 10
215.4927414999999
 20
922.1856
 30
0.0
 11
215.4927414999999
 21
918.4855999999999
 31
0.0
  0
LINE
  5
514
330
1E
100
AcDbEntity
  8
0
100
AcDbLine
 10
226.0887415
 20
922.3855999999999
 30
0.0
 11
226.0887415
 21
925.9855999999999
 31
0.0
  0
LINE
  5
515
330
1E
100
AcDbEntity
  8
0
100
AcDbLine
 10
226.0887415
 20
922.3855999999999
 30
0.0
 11
226.0887415
 21
918.4855999999999
 31
0.0
  0
LINE
  5
516
330
1E
100
AcDbEntity
  8
0
100
AcDbLine
 10
214.9347415
 20
925.5855999999999
 30
0.0
 11
214.9347415
 21
923.4856
 31
0.0
  0
LINE
  5
517
330
1E
100
AcDbEntity
  8
0
100
AcDbLine
 10
214.9347415
 20
923.4856
 30
0.0
 11
214.9347415
 21
921.0855999999999
 31
0.0
  0
LINE
  5
518
330
1E
100
AcDbEntity
  8
0
100
AcDbLine
 10
215.4927414999999
 20
925.6856
 30
0.0
 11
215.4927414999999
 21
928.6856
 31
0.0
  0
LINE
  5
519
330
1E
100
AcDbEntity
  8
0
100
AcDbLine
 10
215.4927414999999
 20
925.6856
 30
0.0
 11
215.4927414999999
 21
922.1856
 31
0.0
  0
LINE
  5
51A
330
1E
100
AcDbEntity
  8
0
100
AcDbLine
 10
214.9347415
 20
927.1855999999999
 30
0.0
 11
214.9347415
 21
925.5855999999999
 31
0.0
  0
LINE
  5
51B
330
1E
100
AcDbEntity
  8
0
100
AcDbLine
 10
226.0887415
 20
925.9855999999999
 30
0.0
 11
226.0887415
 21
929.0855999999999
 31
0.0
  0
LINE
  5
51C
330
1E
100
AcDbEntity
  8
0
100
AcDbLine
 10
226.0887415
 20
925.9855999999999
 30
0.0
 11
226.0887415
 21
922.3855999999999
 31
0.0
  0
LINE
  5
51D
330
1E
100
AcDbEntity
  8
0
100
AcDbLine
 10
227.7617414999999
 20
927.1855999999999
 30
0.0
 11
227.7617414999999
 21
930.8856
 31
0.0
  0
LINE
  5
51E
330
1E
100
AcDbEntity
  8
0
100
AcDbLine
 10
227.7617414999999
 20
927.1855999999999
 30
0.0
 11
227.7617414999999
 21
922.9855999999999
 31
0.0
  0
LINE
  5
51F
330
1E
100
AcDbEntity
  8
0
100
AcDbLine
 10
227.7617414999999
 20
922.9855999999999
 30
0.0
 11
227.7617414999999
 21
927.1855999999999
 31
0.0
  0
LINE
  5
520
330
1E
100
AcDbEntity
  8
0
100
AcDbLine
 10
227.7617414999999
 20
922.9855999999999
 30
0.0
 11
227.7617414999999
 21
918.4855999999999
 31
0.0
  0
LINE
  5
521
330
1E
100
AcDbEntity
  8
0
100
AcDbLine
 10
241.1467415
 20
925.2856000000001
 30
0.0
 11
241.1467415
 21
931.6855999999999
 31
0.0
  0
LINE
  5
522
330
1E
100
AcDbEntity
  8
0
100
AcDbLine
 10
241.1467415
 20
925.2856000000001
 30
0.0
 11
241.1467415
 21
918.4855999999999
 31
0.0
  0
LINE
  5
523
330
1E
100
AcDbEntity
  8
0
100
AcDbLine
 10
241.1467415
 20
918.4855999999999
 30
0.0
 11
241.1467415
 21
925.2856000000001
 31
0.0
  0
LINE
  5
524
330
1E
100
AcDbEntity
  8
0
100
AcDbLine
 10
241.1467415
 20
918.4855999999999
 30
0.0
 11
241.1467415
 21
911.6856
 31
0.0
  0
LINE
  5
525
330
1E
100
AcDbEntity
  8
0
100
AcDbLine
 10
212.4347414999999
 20
926.9856
 30
0.0
 11
213.4347415
 21
927.9856
 31
0.0
  0
LINE
  5
526
330
1E
100
AcDbEntity
  8
0
100
AcDbLine
 10
214.9347415
 20
928.0855999999999
 30
0.0
 11
214.9347415
 21
927.1855999999999
 31
0.0
  0
LINE
  5
527
330
1E
100
AcDbEntity
  8
0
100
AcDbLine
 10
214.9347415
 20
928.4855999999999
 30
0.0
 11
214.9347415
 21
929.7856000000001
 31
0.0
  0
LINE
  5
528
330
1E
100
AcDbEntity
  8
0
100
AcDbLine
 10
214.9347415
 20
928.4855999999999
 30
0.0
 11
214.9347415
 21
928.0855999999999
 31
0.0
  0
LINE
  5
529
330
1E
100
AcDbEntity
  8
0
100
AcDbLine
 10
214.9347415
 20
929.7856000000001
 30
0.0
 11
214.9347415
 21
930.9855999999999
 31
0.0
  0
LINE
  5
52A
330
1E
100
AcDbEntity
  8
0
100
AcDbLine
 10
214.9347415
 20
929.7856000000001
 30
0.0
 11
214.9347415
 21
928.4855999999999
 31
0.0
  0
LINE
  5
52B
330
1E
100
AcDbEntity
  8
0
100
AcDbLine
 10
215.4927414999999
 20
928.6856
 30
0.0
 11
215.4927414999999
 21
931.0855999999999
 31
0.0
  0
LINE
  5
52C
330
1E
100
AcDbEntity
  8
0
100
AcDbLine
 10
215.4927414999999
 20
928.6856
 30
0.0
 11
215.4927414999999
 21
925.6856
 31
0.0
  0
LINE
  5
52D
330
1E
100
AcDbEntity
  8
0
100
AcDbLine
 10
226.0887415
 20
929.0855999999999
 30
0.0
 11
226.0887415
 21
931.4856
 31
0.0
  0
LINE
  5
52E
330
1E
100
AcDbEntity
  8
0
100
AcDbLine
 10
226.0887415
 20
929.0855999999999
 30
0.0
 11
226.0887415
 21
925.9855999999999
 31
0.0
  0
LINE
  5
52F
330
1E
100
AcDbEntity
  8
0
100
AcDbLine
 10
214.9347415
 20
930.9855999999999
 30
0.0
 11
214.9347415
 21
929.7856000000001
 31
0.0
  0
LINE
  5
530
330
1E
100
AcDbEntity
  8
0
100
AcDbLine
 10
214.9347415
 20
930.9855999999999
 30
0.0
 11
214.9347415
 21
931.4856
 31
0.0
  0
LINE
  5
531
330
1E
100
AcDbEntity
  8
0
100
AcDbLine
 10
214.9347415
 20
931.4856
 30
0.0
 11
215.4927414999999
 21
932.9855999999999
 31
0.0
  0
LINE
  5
532
330
1E
100
AcDbEntity
  8
0
100
AcDbLine
 10
214.9347415
 20
931.4856
 30
0.0
 11
214.9347415
 21
930.9855999999999
 31
0.0
  0
LINE
  5
533
330
1E
100
AcDbEntity
  8
0
100
AcDbLine
 10
215.4927414999999
 20
931.0855999999999
 30
0.0
 11
215.4927414999999
 21
932.4856
 31
0.0
  0
LINE
  5
534
330
1E
100
AcDbEntity
  8
0
100
AcDbLine
 10
215.4927414999999
 20
931.0855999999999
 30
0.0
 11
215.4927414999999
 21
928.6856
 31
0.0
  0
LINE
  5
535
330
1E
100
AcDbEntity
  8
0
100
AcDbLine
 10
215.4927414999999
 20
932.4856
 30
0.0
 11
215.4927414999999
 21
932.9855999999999
 31
0.0
  0
LINE
  5
536
330
1E
100
AcDbEntity
  8
0
100
AcDbLine
 10
215.4927414999999
 20
932.4856
 30
0.0
 11
215.4927414999999
 21
931.0855999999999
 31
0.0
  0
LINE
  5
537
330
1E
100
AcDbEntity
  8
0
100
AcDbLine
 10
215.4927414999999
 20
932.9855999999999
 30
0.0
 11
217.1657414999999
 21
933.4856
 31
0.0
  0
LINE
  5
538
330
1E
100
AcDbEntity
  8
0
100
AcDbLine
 10
215.4927414999999
 20
932.9855999999999
 30
0.0
 11
215.4927414999999
 21
932.4856
 31
0.0
  0
LINE
  5
539
330
1E
100
AcDbEntity
  8
0
100
AcDbLine
 10
217.1657414999999
 20
933.4856
 30
0.0
 11
226.0887415
 21
933.4856
 31
0.0
  0
LINE
  5
53A
330
1E
100
AcDbEntity
  8
0
100
AcDbLine
 10
226.0887415
 20
931.4856
 30
0.0
 11
226.0887415
 21
932.9855999999999
 31
0.0
  0
LINE
  5
53B
330
1E
100
AcDbEntity
  8
0
100
AcDbLine
 10
226.0887415
 20
931.4856
 30
0.0
 11
226.0887415
 21
929.0855999999999
 31
0.0
  0
LINE
  5
53C
330
1E
100
AcDbEntity
  8
0
100
AcDbLine
 10
226.0887415
 20
932.9855999999999
 30
0.0
 11
226.0887415
 21
933.4856
 31
0.0
  0
LINE
  5
53D
330
1E
100
AcDbEntity
  8
0
100
AcDbLine
 10
226.0887415
 20
932.9855999999999
 30
0.0
 11
226.0887415
 21
931.4856
 31
0.0
  0
LINE
  5
53E
330
1E
100
AcDbEntity
  8
0
100
AcDbLine
 10
226.0887415
 20
933.4856
 30
0.0
 11
227.2037415
 21
934.4856
 31
0.0
  0
LINE
  5
53F
330
1E
100
AcDbEntity
  8
0
100
AcDbLine
 10
226.0887415
 20
933.4856
 30
0.0
 11
226.0887415
 21
932.9855999999999
 31
0.0
  0
LINE
  5
540
330
1E
100
AcDbEntity
  8
0
100
AcDbLine
 10
227.2037415
 20
934.4856
 30
0.0
 11
227.7617414999999
 21
935.9856
 31
0.0
  0
LINE
  5
541
330
1E
100
AcDbEntity
  8
0
100
AcDbLine
 10
227.7617414999999
 20
930.8856
 30
0.0
 11
227.7617414999999
 21
933.6856
 31
0.0
  0
LINE
  5
542
330
1E
100
AcDbEntity
  8
0
100
AcDbLine
 10
227.7617414999999
 20
930.8856
 30
0.0
 11
227.7617414999999
 21
927.1855999999999
 31
0.0
  0
LINE
  5
543
330
1E
100
AcDbEntity
  8
0
100
AcDbLine
 10
227.7617414999999
 20
933.6856
 30
0.0
 11
227.7617414999999
 21
935.3856
 31
0.0
  0
LINE
  5
544
330
1E
100
AcDbEntity
  8
0
100
AcDbLine
 10
227.7617414999999
 20
933.6856
 30
0.0
 11
227.7617414999999
 21
930.8856
 31
0.0
  0
LINE
  5
545
330
1E
100
AcDbEntity
  8
0
100
AcDbLine
 10
227.7617414999999
 20
935.3856
 30
0.0
 11
227.7617414999999
 21
935.9856
 31
0.0
  0
LINE
  5
546
330
1E
100
AcDbEntity
  8
0
100
AcDbLine
 10
227.7617414999999
 20
935.3856
 30
0.0
 11
227.7617414999999
 21
933.6856
 31
0.0
  0
LINE
  5
547
330
1E
100
AcDbEntity
  8
0
100
AcDbLine
 10
227.7617414999999
 20
935.9856
 30
0.0
 11
229.4347415
 21
936.4855999999999
 31
0.0
  0
LINE
  5
548
330
1E
100
AcDbEntity
  8
0
100
AcDbLine
 10
227.7617414999999
 20
935.9856
 30
0.0
 11
227.7617414999999
 21
935.3856
 31
0.0
  0
LINE
  5
549
330
1E
100
AcDbEntity
  8
0
100
AcDbLine
 10
229.4347415
 20
936.4855999999999
 30
0.0
 11
230.5497415
 21
936.4855999999999
 31
0.0
  0
LINE
  5
54A
330
1E
100
AcDbEntity
  8
0
100
AcDbLine
 10
241.1467415
 20
931.6855999999999
 30
0.0
 11
241.1467415
 21
937.1856000000001
 31
0.0
  0
LINE
  5
54B
330
1E
100
AcDbEntity
  8
0
100
AcDbLine
 10
241.1467415
 20
931.6855999999999
 30
0.0
 11
241.1467415
 21
925.2856000000001
 31
0.0
  0
LINE
  5
54C
330
1E
100
AcDbEntity
  8
0
100
AcDbLine
 10
230.5497415
 20
936.4855999999999
 30
0.0
 11
235.0117415
 21
937.9856
 31
0.0
  0
LINE
  5
54D
330
1E
100
AcDbEntity
  8
0
100
AcDbLine
 10
235.0117415
 20
937.9856
 30
0.0
 11
238.9157415
 21
940.9855999999999
 31
0.0
  0
LINE
  5
54E
330
1E
100
AcDbEntity
  8
0
100
AcDbLine
 10
238.9157415
 20
940.9855999999999
 30
0.0
 11
240.5887415
 21
943.4855999999999
 31
0.0
  0
LINE
  5
54F
330
1E
100
AcDbEntity
  8
0
100
AcDbLine
 10
240.5887415
 20
943.4855999999999
 30
0.0
 11
241.1467415
 21
944.9856
 31
0.0
  0
LINE
  5
550
330
1E
100
AcDbEntity
  8
0
100
AcDbLine
 10
241.1467415
 20
937.1856000000001
 30
0.0
 11
241.1467415
 21
941.4856
 31
0.0
  0
LINE
  5
551
330
1E
100
AcDbEntity
  8
0
100
AcDbLine
 10
241.1467415
 20
937.1856000000001
 30
0.0
 11
241.1467415
 21
931.6855999999999
 31
0.0
  0
LINE
  5
552
330
1E
100
AcDbEntity
  8
0
100
AcDbLine
 10
241.1467415
 20
941.4856
 30
0.0
 11
241.1467415
 21
943.9856
 31
0.0
  0
LINE
  5
553
330
1E
100
AcDbEntity
  8
0
100
AcDbLine
 10
241.1467415
 20
941.4856
 30
0.0
 11
241.1467415
 21
937.1856000000001
 31
0.0
  0
LINE
  5
554
330
1E
100
AcDbEntity
  8
0
100
AcDbLine
 10
241.1467415
 20
943.9856
 30
0.0
 11
241.1467415
 21
944.9856
 31
0.0
  0
LINE
  5
555
330
1E
100
AcDbEntity
  8
0
100
AcDbLine
 10
241.1467415
 20
943.9856
 30
0.0
 11
241.1467415
 21
941.4856
 31
0.0
  0
LINE
  5
556
330
1E
100
AcDbEntity
  8
0
100
AcDbLine
 10
241.1467415
 20
944.9856
 30
0.0
 11
242.8197415
 21
945.4855999999999
 31
0.0
  0
LINE
  5
557
330
1E
100
AcDbEntity
  8
0
100
AcDbLine
 10
241.1467415
 20
944.9856
 30
0.0
 11
241.1467415
 21
943.9856
 31
0.0
  0
LINE
  5
558
330
1E
100
AcDbEntity
  8
0
100
AcDbLine
 10
213.4347415
 20
927.9856
 30
0.0
 11
214.9347415
 21
928.4855999999999
 31
0.0
  0
LINE
  5
559
330
1E
100
AcDbEntity
  8
0
100
AcDbLine
 10
211.9347415
 20
913.6855999999999
 30
0.0
 11
211.9347415
 21
914.1856
 31
0.0
  0
LINE
  5
55A
330
1E
100
AcDbEntity
  8
0
100
AcDbLine
 10
211.9347415
 20
913.4855999999999
 30
0.0
 11
211.9347415
 21
913.6855999999999
 31
0.0
  0
LINE
  5
55B
330
1E
100
AcDbEntity
  8
0
100
AcDbLine
 10
211.9347415
 20
913.4855999999999
 30
0.0
 11
211.9347415
 21
912.3855999999999
 31
0.0
  0
LINE
  5
55C
330
1E
100
AcDbEntity
  8
0
100
AcDbLine
 10
200.9347415
 20
923.4856
 30
0.0
 11
211.9347415
 21
923.4856
 31
0.0
  0
LINE
  5
55D
330
1E
100
AcDbEntity
  8
0
100
AcDbLine
 10
241.1467415
 20
144.9856
 30
0.0
 11
241.1467415
 21
143.9855999999999
 31
0.0
  0
LINE
  5
55E
330
1E
100
AcDbEntity
  8
0
100
AcDbLine
 10
241.1467415
 20
144.9856
 30
0.0
 11
242.8197415
 21
145.4856
 31
0.0
  0
LINE
  5
55F
330
1E
100
AcDbEntity
  8
0
100
AcDbLine
 10
242.8197415
 20
891.4856
 30
0.0
 11
243.9347414999999
 21
891.4856
 31
0.0
  0
LINE
  5
560
330
1E
100
AcDbEntity
  8
0
100
AcDbLine
 10
242.8197415
 20
945.4855999999999
 30
0.0
 11
243.9347414999999
 21
945.4855999999999
 31
0.0
  0
LINE
  5
561
330
1E
100
AcDbEntity
  8
0
100
AcDbLine
 10
242.8197415
 20
145.4856
 30
0.0
 11
243.9347414999999
 21
145.4856
 31
0.0
  0
LINE
  5
562
330
1E
100
AcDbEntity
  8
0
100
AcDbLine
 10
243.9347414999999
 20
144.4856
 30
0.0
 11
243.9347414999999
 21
141.8856
 31
0.0
  0
LINE
  5
563
330
1E
100
AcDbEntity
  8
0
100
AcDbLine
 10
243.9347414999999
 20
144.4856
 30
0.0
 11
243.9347414999999
 21
145.4856
 31
0.0
  0
LINE
  5
564
330
1E
100
AcDbEntity
  8
0
100
AcDbLine
 10
243.9347414999999
 20
905.0855999999999
 30
0.0
 11
243.9347414999999
 21
911.5856
 31
0.0
  0
LINE
  5
565
330
1E
100
AcDbEntity
  8
0
100
AcDbLine
 10
243.9347414999999
 20
905.0855999999999
 30
0.0
 11
243.9347414999999
 21
899.3855999999999
 31
0.0
  0
LINE
  5
566
330
1E
100
AcDbEntity
  8
0
100
AcDbLine
 10
243.9347414999999
 20
911.5856
 30
0.0
 11
243.9347414999999
 21
918.4855999999999
 31
0.0
  0
LINE
  5
567
330
1E
100
AcDbEntity
  8
0
100
AcDbLine
 10
243.9347414999999
 20
911.5856
 30
0.0
 11
243.9347414999999
 21
905.0855999999999
 31
0.0
  0
LINE
  5
568
330
1E
100
AcDbEntity
  8
0
100
AcDbLine
 10
243.9347414999999
 20
899.3855999999999
 30
0.0
 11
243.9347414999999
 21
895.0855999999999
 31
0.0
  0
LINE
  5
569
330
1E
100
AcDbEntity
  8
0
100
AcDbLine
 10
243.9347414999999
 20
899.3855999999999
 30
0.0
 11
243.9347414999999
 21
905.0855999999999
 31
0.0
  0
LINE
  5
56A
330
1E
100
AcDbEntity
  8
0
100
AcDbLine
 10
243.9347414999999
 20
895.0855999999999
 30
0.0
 11
243.9347414999999
 21
899.3855999999999
 31
0.0
  0
LINE
  5
56B
330
1E
100
AcDbEntity
  8
0
100
AcDbLine
 10
243.9347414999999
 20
895.0855999999999
 30
0.0
 11
243.9347414999999
 21
892.4856
 31
0.0
  0
LINE
  5
56C
330
1E
100
AcDbEntity
  8
0
100
AcDbLine
 10
243.9347414999999
 20
892.4856
 30
0.0
 11
243.9347414999999
 21
895.0855999999999
 31
0.0
  0
LINE
  5
56D
330
1E
100
AcDbEntity
  8
0
100
AcDbLine
 10
243.9347414999999
 20
892.4856
 30
0.0
 11
243.9347414999999
 21
891.4856
 31
0.0
  0
LINE
  5
56E
330
1E
100
AcDbEntity
  8
0
100
AcDbLine
 10
243.9347414999999
 20
891.4856
 30
0.0
 11
243.9347414999999
 21
892.4856
 31
0.0
  0
LINE
  5
56F
330
1E
100
AcDbEntity
  8
0
100
AcDbLine
 10
243.9347414999999
 20
931.8856
 30
0.0
 11
243.9347414999999
 21
937.5856
 31
0.0
  0
LINE
  5
570
330
1E
100
AcDbEntity
  8
0
100
AcDbLine
 10
243.9347414999999
 20
931.8856
 30
0.0
 11
243.9347414999999
 21
925.3855999999998
 31
0.0
  0
LINE
  5
571
330
1E
100
AcDbEntity
  8
0
100
AcDbLine
 10
243.9347414999999
 20
925.3855999999998
 30
0.0
 11
243.9347414999999
 21
931.8856
 31
0.0
  0
LINE
  5
572
330
1E
100
AcDbEntity
  8
0
100
AcDbLine
 10
243.9347414999999
 20
925.3855999999998
 30
0.0
 11
243.9347414999999
 21
918.4855999999999
 31
0.0
  0
LINE
  5
573
330
1E
100
AcDbEntity
  8
0
100
AcDbLine
 10
243.9347414999999
 20
918.4855999999999
 30
0.0
 11
243.9347414999999
 21
925.3855999999998
 31
0.0
  0
LINE
  5
574
330
1E
100
AcDbEntity
  8
0
100
AcDbLine
 10
243.9347414999999
 20
918.4855999999999
 30
0.0
 11
243.9347414999999
 21
911.5856
 31
0.0
  0
LINE
  5
575
330
1E
100
AcDbEntity
  8
0
100
AcDbLine
 10
243.9347414999999
 20
937.5856
 30
0.0
 11
243.9347414999999
 21
941.8855999999999
 31
0.0
  0
LINE
  5
576
330
1E
100
AcDbEntity
  8
0
100
AcDbLine
 10
243.9347414999999
 20
937.5856
 30
0.0
 11
243.9347414999999
 21
931.8856
 31
0.0
  0
LINE
  5
577
330
1E
100
AcDbEntity
  8
0
100
AcDbLine
 10
243.9347414999999
 20
941.8855999999999
 30
0.0
 11
243.9347414999999
 21
944.4855999999999
 31
0.0
  0
LINE
  5
578
330
1E
100
AcDbEntity
  8
0
100
AcDbLine
 10
243.9347414999999
 20
941.8855999999999
 30
0.0
 11
243.9347414999999
 21
937.5856
 31
0.0
  0
LINE
  5
579
330
1E
100
AcDbEntity
  8
0
100
AcDbLine
 10
243.9347414999999
 20
945.4855999999999
 30
0.0
 11
243.9347414999999
 21
944.4855999999999
 31
0.0
  0
LINE
  5
57A
330
1E
100
AcDbEntity
  8
0
100
AcDbLine
 10
243.9347414999999
 20
944.4855999999999
 30
0.0
 11
243.9347414999999
 21
945.4855999999999
 31
0.0
  0
LINE
  5
57B
330
1E
100
AcDbEntity
  8
0
100
AcDbLine
 10
243.9347414999999
 20
944.4855999999999
 30
0.0
 11
243.9347414999999
 21
941.8855999999999
 31
0.0
  0
LINE
  5
57C
330
1E
100
AcDbEntity
  8
0
100
AcDbLine
 10
243.9347414999999
 20
145.4856
 30
0.0
 11
243.9347414999999
 21
144.4856
 31
0.0
  0
LINE
  5
57D
330
1E
100
AcDbEntity
  8
0
100
AcDbLine
 10
201.4347415
 20
134.9856
 30
0.0
 11
202.4347415
 21
134.4856
 31
0.0
  0
LINE
  5
57E
330
1E
100
AcDbEntity
  8
0
100
AcDbLine
 10
200.9347415
 20
106.4856
 30
0.0
 11
201.4347415
 21
105.4856
 31
0.0
  0
LINE
  5
57F
330
1E
100
AcDbEntity
  8
0
100
AcDbLine
 10
200.9347415
 20
106.4856
 30
0.0
 11
200.9347415
 21
113.5755999999999
 31
0.0
  0
LINE
  5
580
330
1E
100
AcDbEntity
  8
0
100
AcDbLine
 10
184.4347415
 20
105.4856
 30
0.0
 11
187.9347414999999
 21
105.4856
 31
0.0
  0
LINE
  5
581
330
1E
100
AcDbEntity
  8
0
100
AcDbLine
 10
184.2347415
 20
102.4855999999999
 30
0.0
 11
187.9347414999999
 21
102.4855999999999
 31
0.0
  0
LINE
  5
582
330
1E
100
AcDbEntity
  8
0
100
AcDbLine
 10
184.4347415
 20
101.9856
 30
0.0
 11
187.9347414999999
 21
101.9856
 31
0.0
  0
LINE
  5
583
330
1E
100
AcDbEntity
  8
0
100
AcDbLine
 10
177.1347414999999
 20
101.9856
 30
0.0
 11
179.1347414999999
 21
101.9856
 31
0.0
  0
LINE
  5
584
330
1E
100
AcDbEntity
  8
0
100
AcDbLine
 10
177.5347414999999
 20
100.9856
 30
0.0
 11
179.4347415
 21
100.9856
 31
0.0
  0
LINE
  5
589
330
1E
100
AcDbEntity
  8
0
100
AcDbLine
 10
176.2347415
 20
1008.485599999999
 30
0.0
 11
199.6347414999999
 21
1008.485599999999
 31
0.0
  0
LINE
  5
58A
330
1E
100
AcDbEntity
  8
0
100
AcDbLine
 10
197.4677415
 20
1009.9856
 30
0.0
 11
178.4017415
 21
1009.9856
 31
0.0
  0
LINE
  5
58B
330
1E
100
AcDbEntity
  8
0
100
AcDbLine
 10
201.4347415
 20
134.9856
 30
0.0
 11
174.4347415
 21
134.9856
 31
0.0
  0
LINE
  5
58F
330
1E
100
AcDbEntity
  8
0
100
AcDbLine
 10
174.4347415
 20
934.9856
 30
0.0
 11
201.4347415
 21
934.9856
 31
0.0
  0
ENDSEC
  0
SECTION
  2
OBJECTS
  0
DICTIONARY
  5
C
330
0
100
AcDbDictionary
281
     1
  3
ACAD_GROUP
350
D
  3
ACAD_LAYOUT
350
19
  3
ACAD_MLINESTYLE
350
16
  3
ACAD_PLOTSETTINGS
350
18
  3
ACAD_PLOTSTYLENAME
350
E
  3
AcDbVariableDictionary
350
58C
  0
DICTIONARY
  5
D
102
{ACAD_REACTORS
330
C
102
}
330
C
100
AcDbDictionary
281
     1
  0
DICTIONARY
  5
19
102
{ACAD_REACTORS
330
C
102
}
330
C
100
AcDbDictionary
281
     1
  3
Layout1
350
1D
  3
Model
350
21
  0
DICTIONARY
  5
16
102
{ACAD_REACTORS
330
C
102
}
330
C
100
AcDbDictionary
281
     1
  3
Standard
350
17
  0
DICTIONARY
  5
18
102
{ACAD_REACTORS
330
C
102
}
330
C
100
AcDbDictionary
281
     1
  0
ACDBDICTIONARYWDFLT
  5
E
102
{ACAD_REACTORS
330
C
102
}
330
C
100
AcDbDictionary
281
     1
  3
Normal
350
F
100
AcDbDictionaryWithDefault
340
F
  0
DICTIONARY
  5
58C
102
{ACAD_REACTORS
330
C
102
}
330
C
100
AcDbDictionary
281
     1
  3
DIMASSOC
350
58D
  0
LAYOUT
  5
1D
102
{ACAD_REACTORS
330
19
102
}
330
19
100
AcDbPlotSettings
  1

  2
hp deskjet 980c series
  4

  6

 40
0.0
 41
0.0
 42
0.0
 43
0.0
 44
0.0
 45
0.0
 46
0.0
 47
0.0
 48
0.0
 49
0.0
140
0.0
141
0.0
142
1.0
143
1.0
 70
   688
 72
     0
 73
     0
 74
     5
  7

 75
    16
147
1.0
148
0.0
149
0.0
100
AcDbLayout
  1
Layout1
 70
     1
 71
     1
 10
0.0
 20
0.0
 11
12.0
 21
9.0
 12
0.0
 22
0.0
 32
0.0
 14
1.000000000000000E+20
 24
1.000000000000000E+20
 34
1.000000000000000E+20
 15
-1.000000000000000E+20
 25
-1.000000000000000E+20
 35
-1.000000000000000E+20
146
0.0
 13
0.0
 23
0.0
 33
0.0
 16
1.0
 26
0.0
 36
0.0
 17
0.0
 27
1.0
 37
0.0
 76
     0
330
1A
  0
LAYOUT
  5
21
102
{ACAD_REACTORS
330
19
102
}
330
19
100
AcDbPlotSettings
  1

  2
hp deskjet 980c series
  4

  6

 40
0.0
 41
0.0
 42
0.0
 43
0.0
 44
0.0
 45
0.0
 46
0.0
 47
0.0
 48
0.0
 49
0.0
140
0.0
141
0.0
142
1.0
143
1.0
 70
  1712
 72
     0
 73
     0
 74
     0
  7

 75
     0
147
1.0
148
0.0
149
0.0
100
AcDbLayout
  1
Model
 70
     1
 71
     0
 10
0.0
 20
0.0
 11
12.0
 21
9.0
 12
0.0
 22
0.0
 32
0.0
 14
0.0
 24
0.0
 34
0.0
 15
0.0
 25
0.0
 35
0.0
146
0.0
 13
0.0
 23
0.0
 33
0.0
 16
1.0
 26
0.0
 36
0.0
 17
0.0
 27
1.0
 37
0.0
 76
     0
330
1E
  0
MLINESTYLE
  5
17
102
{ACAD_REACTORS
330
16
102
}
330
16
100
AcDbMlineStyle
  2
STANDARD
 70
     0
  3

 62
   256
 51
90.0
 52
90.0
 71
     2
 49
0.5
 62
   256
  6
BYLAYER
 49
-0.5
 62
   256
  6
BYLAYER
  0
ACDBPLACEHOLDER
  5
F
102
{ACAD_REACTORS
330
E
102
}
330
E
  0
DICTIONARYVAR
  5
58D
102
{ACAD_REACTORS
330
58C
102
}
330
58C
100
DictionaryVariables
280
     0
  1
1
  0
ENDSEC
  0
EOF
