  0
SECTION
  2
HEADER
  9
$ACADVER
  1
AC1015
  9
$ACADMAINTVER
 70
    13
  9
$DWGCODEPAGE
  3
ANSI_1252
  9
$INSBASE
 10
0.0
 20
0.0
 30
0.0
  9
$EXTMIN
 10
0.0000000000000004
 20
-0.0000000000000036
 30
0.0
  9
$EXTMAX
 10
60.0
 20
114.0
 30
0.0
  9
$LIMMIN
 10
0.0
 20
0.0
  9
$LIMMAX
 10
12.0
 20
9.0
  9
$ORTHOMODE
 70
     0
  9
$REGENMODE
 70
     1
  9
$FILLMODE
 70
     1
  9
$QTEXTMODE
 70
     0
  9
$MIRRTEXT
 70
     1
  9
$LTSCALE
 40
1.0
  9
$ATTMODE
 70
     1
  9
$TEXTSIZE
 40
0.2
  9
$TRACEWID
 40
0.05
  9
$TEXTSTYLE
  7
Standard
  9
$CLAYER
  8
0
  9
$CELTYPE
  6
Continuous
  9
$CECOLOR
 62
   256
  9
$CELTSCALE
 40
1.0
  9
$DISPSILH
 70
     0
  9
$DIMSCALE
 40
1.0
  9
$DIMASZ
 40
0.18
  9
$DIMEXO
 40
0.0625
  9
$DIMDLI
 40
0.38
  9
$DIMRND
 40
0.0
  9
$DIMDLE
 40
0.0
  9
$DIMEXE
 40
0.18
  9
$DIMTP
 40
0.0
  9
$DIMTM
 40
0.0
  9
$DIMTXT
 40
0.18
  9
$DIMCEN
 40
0.09
  9
$DIMTSZ
 40
0.0
  9
$DIMTOL
 70
     0
  9
$DIMLIM
 70
     0
  9
$DIMTIH
 70
     1
  9
$DIMTOH
 70
     1
  9
$DIMSE1
 70
     0
  9
$DIMSE2
 70
     0
  9
$DIMTAD
 70
     0
  9
$DIMZIN
 70
     0
  9
$DIMBLK
  1

  9
$DIMASO
 70
     1
  9
$DIMSHO
 70
     1
  9
$DIMPOST
  1

  9
$DIMAPOST
  1

  9
$DIMALT
 70
     0
  9
$DIMALTD
 70
     2
  9
$DIMALTF
 40
25.4
  9
$DIMLFAC
 40
1.0
  9
$DIMTOFL
 70
     0
  9
$DIMTVP
 40
0.0
  9
$DIMTIX
 70
     0
  9
$DIMSOXD
 70
     0
  9
$DIMSAH
 70
     0
  9
$DIMBLK1
  1

  9
$DIMBLK2
  1

  9
$DIMSTYLE
  2
Standard
  9
$DIMCLRD
 70
     0
  9
$DIMCLRE
 70
     0
  9
$DIMCLRT
 70
     0
  9
$DIMTFAC
 40
1.0
  9
$DIMGAP
 40
0.09
  9
$DIMJUST
 70
     0
  9
$DIMSD1
 70
     0
  9
$DIMSD2
 70
     0
  9
$DIMTOLJ
 70
     1
  9
$DIMTZIN
 70
     0
  9
$DIMALTZ
 70
     0
  9
$DIMALTTZ
 70
     0
  9
$DIMUPT
 70
     0
  9
$DIMDEC
 70
     4
  9
$DIMTDEC
 70
     4
  9
$DIMALTU
 70
     2
  9
$DIMALTTD
 70
     2
  9
$DIMTXSTY
  7
Standard
  9
$DIMAUNIT
 70
     0
  9
$DIMADEC
 70
     0
  9
$DIMALTRND
 40
0.0
  9
$DIMAZIN
 70
     0
  9
$DIMDSEP
 70
    46
  9
$DIMATFIT
 70
     3
  9
$DIMFRAC
 70
     0
  9
$DIMLDRBLK
  1

  9
$DIMLUNIT
 70
     2
  9
$DIMLWD
 70
    -2
  9
$DIMLWE
 70
    -2
  9
$DIMTMOVE
 70
     0
  9
$LUNITS
 70
     2
  9
$LUPREC
 70
     4
  9
$SKETCHINC
 40
0.1
  9
$FILLETRAD
 40
0.0
  9
$AUNITS
 70
     0
  9
$AUPREC
 70
     0
  9
$MENU
  1
.
  9
$ELEVATION
 40
0.0
  9
$PELEVATION
 40
0.0
  9
$THICKNESS
 40
0.0
  9
$LIMCHECK
 70
     0
  9
$CHAMFERA
 40
0.0
  9
$CHAMFERB
 40
0.0
  9
$CHAMFERC
 40
0.0
  9
$CHAMFERD
 40
0.0
  9
$SKPOLY
 70
     0
  9
$TDCREATE
 40
2454749.828280335
  9
$TDUCREATE
 40
2454749.744947002
  9
$TDUPDATE
 40
2454749.832636712
  9
$TDUUPDATE
 40
2454749.749303379
  9
$TDINDWG
 40
0.0043565625
  9
$TDUSRTIMER
 40
0.0043565625
  9
$USRTIMER
 70
     1
  9
$ANGBASE
 50
0.0
  9
$ANGDIR
 70
     0
  9
$PDMODE
 70
     0
  9
$PDSIZE
 40
0.0
  9
$PLINEWID
 40
0.0
  9
$SPLFRAME
 70
     0
  9
$SPLINETYPE
 70
     6
  9
$SPLINESEGS
 70
     8
  9
$HANDSEED
  5
1FF
  9
$SURFTAB1
 70
     6
  9
$SURFTAB2
 70
     6
  9
$SURFTYPE
 70
     6
  9
$SURFU
 70
     6
  9
$SURFV
 70
     6
  9
$UCSBASE
  2

  9
$UCSNAME
  2

  9
$UCSORG
 10
0.0
 20
0.0
 30
0.0
  9
$UCSXDIR
 10
1.0
 20
0.0
 30
0.0
  9
$UCSYDIR
 10
0.0
 20
1.0
 30
0.0
  9
$UCSORTHOREF
  2

  9
$UCSORTHOVIEW
 70
     1
  9
$UCSORGTOP
 10
0.0
 20
0.0
 30
0.0
  9
$UCSORGBOTTOM
 10
0.0
 20
0.0
 30
0.0
  9
$UCSORGLEFT
 10
0.0
 20
0.0
 30
0.0
  9
$UCSORGRIGHT
 10
0.0
 20
0.0
 30
0.0
  9
$UCSORGFRONT
 10
0.0
 20
0.0
 30
0.0
  9
$UCSORGBACK
 10
0.0
 20
0.0
 30
0.0
  9
$PUCSBASE
  2

  9
$PUCSNAME
  2

  9
$PUCSORG
 10
0.0
 20
0.0
 30
0.0
  9
$PUCSXDIR
 10
1.0
 20
0.0
 30
0.0
  9
$PUCSYDIR
 10
0.0
 20
1.0
 30
0.0
  9
$PUCSORTHOREF
  2

  9
$PUCSORTHOVIEW
 70
     0
  9
$PUCSORGTOP
 10
0.0
 20
0.0
 30
0.0
  9
$PUCSORGBOTTOM
 10
0.0
 20
0.0
 30
0.0
  9
$PUCSORGLEFT
 10
0.0
 20
0.0
 30
0.0
  9
$PUCSORGRIGHT
 10
0.0
 20
0.0
 30
0.0
  9
$PUCSORGFRONT
 10
0.0
 20
0.0
 30
0.0
  9
$PUCSORGBACK
 10
0.0
 20
0.0
 30
0.0
  9
$USERI1
 70
     0
  9
$USERI2
 70
     0
  9
$USERI3
 70
     0
  9
$USERI4
 70
     0
  9
$USERI5
 70
     0
  9
$USERR1
 40
0.0
  9
$USERR2
 40
0.0
  9
$USERR3
 40
0.0
  9
$USERR4
 40
0.0
  9
$USERR5
 40
0.0
  9
$WORLDVIEW
 70
     1
  9
$SHADEDGE
 70
     3
  9
$SHADEDIF
 70
    70
  9
$TILEMODE
 70
     1
  9
$MAXACTVP
 70
    64
  9
$PINSBASE
 10
0.0
 20
0.0
 30
0.0
  9
$PLIMCHECK
 70
     0
  9
$PEXTMIN
 10
1.000000000000000E+20
 20
1.000000000000000E+20
 30
1.000000000000000E+20
  9
$PEXTMAX
 10
-1.000000000000000E+20
 20
-1.000000000000000E+20
 30
-1.000000000000000E+20
  9
$PLIMMIN
 10
0.0
 20
0.0
  9
$PLIMMAX
 10
12.0
 20
9.0
  9
$UNITMODE
 70
     0
  9
$VISRETAIN
 70
     1
  9
$PLINEGEN
 70
     0
  9
$PSLTSCALE
 70
     1
  9
$TREEDEPTH
 70
  3020
  9
$CMLSTYLE
  2
Standard
  9
$CMLJUST
 70
     0
  9
$CMLSCALE
 40
1.0
  9
$PROXYGRAPHICS
 70
     1
  9
$MEASUREMENT
 70
     0
  9
$CELWEIGHT
370
    -1
  9
$ENDCAPS
280
     0
  9
$JOINSTYLE
280
     0
  9
$LWDISPLAY
290
     0
  9
$INSUNITS
 70
     0
  9
$HYPERLINKBASE
  1

  9
$STYLESHEET
  1

  9
$XEDIT
290
     1
  9
$CEPSNTYPE
380
     0
  9
$PSTYLEMODE
290
     1
  9
$FINGERPRINTGUID
  2
{716F5C0C-0D3D-45C1-86DE-B076C36F9133}
  9
$VERSIONGUID
  2
{01F83EC6-79CD-4745-8C5A-F7ACA1F0C638}
  9
$EXTNAMES
290
     1
  9
$PSVPSCALE
 40
0.0
  9
$OLESTARTUP
290
     0
  0
ENDSEC
  0
SECTION
  2
CLASSES
  0
CLASS
  1
ACDBDICTIONARYWDFLT
  2
AcDbDictionaryWithDefault
  3
AutoCAD 2000
 90
        0
280
     0
281
     0
  0
CLASS
  1
ACDBPLACEHOLDER
  2
AcDbPlaceHolder
  3
AutoCAD 2000
 90
        0
280
     0
281
     0
  0
CLASS
  1
LAYOUT
  2
AcDbLayout
  3
AutoCAD 2000
 90
        0
280
     0
281
     0
  0
CLASS
  1
DICTIONARYVAR
  2
AcDbDictionaryVar
  3
AutoCAD 2000
 90
        0
280
     0
281
     0
  0
ENDSEC
  0
SECTION
  2
TABLES
  0
TABLE
  2
VPORT
  5
8
330
0
100
AcDbSymbolTable
 70
     2
  0
VPORT
  5
1FE
330
8
100
AcDbSymbolTableRecord
100
AcDbViewportTableRecord
  2
*Active
 70
     0
 10
0.0
 20
0.0
 11
1.0
 21
1.0
 12
30.0
 22
56.99999999999999
 13
0.0
 23
0.0
 14
1.0
 24
1.0
 15
0.0
 25
0.0
 16
0.0
 26
0.0
 36
1.0
 17
0.0
 27
0.0
 37
0.0
 40
114.8746803069053
 41
2.078104993597951
 42
50.0
 43
0.0
 44
0.0
 50
0.0
 51
0.0
 71
     0
 72
   100
 73
     1
 74
     3
 75
     0
 76
     0
 77
     0
 78
     0
281
     0
 65
     1
110
0.0
120
0.0
130
0.0
111
1.0
121
0.0
131
0.0
112
0.0
122
1.0
132
0.0
 79
     1
146
0.0
  0
ENDTAB
  0
TABLE
  2
LTYPE
  5
5
330
0
100
AcDbSymbolTable
 70
     1
  0
LTYPE
  5
13
330
5
100
AcDbSymbolTableRecord
100
AcDbLinetypeTableRecord
  2
ByBlock
 70
     0
  3

 72
    65
 73
     0
 40
0.0
  0
LTYPE
  5
14
330
5
100
AcDbSymbolTableRecord
100
AcDbLinetypeTableRecord
  2
ByLayer
 70
     0
  3

 72
    65
 73
     0
 40
0.0
  0
LTYPE
  5
15
330
5
100
AcDbSymbolTableRecord
100
AcDbLinetypeTableRecord
  2
Continuous
 70
     0
  3
Solid line
 72
    65
 73
     0
 40
0.0
  0
ENDTAB
  0
TABLE
  2
LAYER
  5
2
330
0
100
AcDbSymbolTable
 70
     1
  0
LAYER
  5
10
330
2
100
AcDbSymbolTableRecord
100
AcDbLayerTableRecord
  2
0
 70
     0
 62
     7
  6
Continuous
370
    -3
390
F
  0
ENDTAB
  0
TABLE
  2
STYLE
  5
3
330
0
100
AcDbSymbolTable
 70
     1
  0
STYLE
  5
11
330
3
100
AcDbSymbolTableRecord
100
AcDbTextStyleTableRecord
  2
Standard
 70
     0
 40
0.0
 41
1.0
 50
0.0
 71
     0
 42
0.2
  3
txt
  4

  0
ENDTAB
  0
TABLE
  2
VIEW
  5
6
330
0
100
AcDbSymbolTable
 70
     0
  0
ENDTAB
  0
TABLE
  2
UCS
  5
7
330
0
100
AcDbSymbolTable
 70
     0
  0
ENDTAB
  0
TABLE
  2
APPID
  5
9
330
0
100
AcDbSymbolTable
 70
     1
  0
APPID
  5
12
330
9
100
AcDbSymbolTableRecord
100
AcDbRegAppTableRecord
  2
ACAD
 70
     0
  0
ENDTAB
  0
TABLE
  2
DIMSTYLE
  5
A
330
0
100
AcDbSymbolTable
 70
     1
100
AcDbDimStyleTable
 71
     0
  0
DIMSTYLE
105
1F8
330
A
100
AcDbSymbolTableRecord
100
AcDbDimStyleTableRecord
  2
Standard
 70
     0
340
11
  0
ENDTAB
  0
TABLE
  2
BLOCK_RECORD
  5
1
330
0
100
AcDbSymbolTable
 70
     0
  0
BLOCK_RECORD
  5
1E
330
1
100
AcDbSymbolTableRecord
100
AcDbBlockTableRecord
  2
*Model_Space
340
21
  0
BLOCK_RECORD
  5
1A
330
1
100
AcDbSymbolTableRecord
100
AcDbBlockTableRecord
  2
*Paper_Space
340
1D
  0
ENDTAB
  0
ENDSEC
  0
SECTION
  2
BLOCKS
  0
BLOCK
  5
1F
330
1E
100
AcDbEntity
  8
0
100
AcDbBlockBegin
  2
*Model_Space
 70
     0
 10
0.0
 20
0.0
 30
0.0
  3
*Model_Space
  1

  0
ENDBLK
  5
20
330
1E
100
AcDbEntity
  8
0
100
AcDbBlockEnd
  0
BLOCK
  5
1B
330
1A
100
AcDbEntity
 67
     1
  8
0
100
AcDbBlockBegin
  2
*Paper_Space
 70
     0
 10
0.0
 20
0.0
 30
0.0
  3
*Paper_Space
  1

  0
ENDBLK
  5
1C
330
1A
100
AcDbEntity
 67
     1
  8
0
100
AcDbBlockEnd
  0
ENDSEC
  0
SECTION
  2
ENTITIES
  0
LINE
  5
22
330
1E
100
AcDbEntity
  8
0
100
AcDbLine
 10
1.87537
 20
1.955999999999999
 30
0.0
 11
2.529179999999999
 21
1.187
 31
0.0
  0
LINE
  5
23
330
1E
100
AcDbEntity
  8
0
100
AcDbLine
 10
0.0000000000000004
 20
62.5
 30
0.0
 11
0.0000000000000004
 21
63.0
 31
0.0
  0
LINE
  5
24
330
1E
100
AcDbEntity
  8
0
100
AcDbLine
 10
0.0000000000000004
 20
62.5
 30
0.0
 11
0.500000000000001
 21
61.0
 31
0.0
  0
LINE
  5
25
330
1E
100
AcDbEntity
  8
0
100
AcDbLine
 10
0.500000000000001
 20
61.0
 30
0.0
 11
1.5
 21
60.5
 31
0.0
  0
LINE
  5
26
330
1E
100
AcDbEntity
  8
0
100
AcDbLine
 10
0.500000000000001
 20
61.0
 30
0.0
 11
1.6
 21
61.0
 31
0.0
  0
LINE
  5
27
330
1E
100
AcDbEntity
  8
0
100
AcDbLine
 10
0.0000000000000004
 20
63.0
 30
0.0
 11
0.500000000000001
 21
64.5
 31
0.0
  0
LINE
  5
28
330
1E
100
AcDbEntity
  8
0
100
AcDbLine
 10
0.0000000000000004
 20
63.0
 30
0.0
 11
0.0000000000000004
 21
62.5
 31
0.0
  0
LINE
  5
29
330
1E
100
AcDbEntity
  8
0
100
AcDbLine
 10
0.500000000000001
 20
64.5
 30
0.0
 11
1.5
 21
65.5
 31
0.0
  0
LINE
  5
2A
330
1E
100
AcDbEntity
  8
0
100
AcDbLine
 10
0.500000000000001
 20
71.5
 30
0.0
 11
1.5
 21
70.5
 31
0.0
  0
LINE
  5
2B
330
1E
100
AcDbEntity
  8
0
100
AcDbLine
 10
0.0000000000000004
 20
114.0
 30
0.0
 11
1.1
 21
114.0
 31
0.0
  0
LINE
  5
2C
330
1E
100
AcDbEntity
  8
0
100
AcDbLine
 10
0.0000000000000004
 20
114.0
 30
0.0
 11
0.0000000000000004
 21
73.0
 31
0.0
  0
LINE
  5
2D
330
1E
100
AcDbEntity
  8
0
100
AcDbLine
 10
0.0000000000000004
 20
73.0
 30
0.0
 11
0.0000000000000004
 21
114.0
 31
0.0
  0
LINE
  5
2E
330
1E
100
AcDbEntity
  8
0
100
AcDbLine
 10
0.0000000000000004
 20
73.0
 30
0.0
 11
0.500000000000001
 21
71.5
 31
0.0
  0
LINE
  5
30
330
1E
100
AcDbEntity
  8
0
100
AcDbLine
 10
1.35617
 20
3.071
 30
0.0
 11
1.87537
 21
1.955999999999999
 31
0.0
  0
LINE
  5
31
330
1E
100
AcDbEntity
  8
0
100
AcDbLine
 10
1.5
 20
60.5
 30
0.0
 11
2.0
 21
59.0
 31
0.0
  0
LINE
  5
32
330
1E
100
AcDbEntity
  8
0
100
AcDbLine
 10
1.5
 20
60.5
 30
0.0
 11
2.5
 21
60.5
 31
0.0
  0
LINE
  5
33
330
1E
100
AcDbEntity
  8
0
100
AcDbLine
 10
1.6
 20
61.0
 30
0.0
 11
4.5
 21
61.0
 31
0.0
  0
LINE
  5
34
330
1E
100
AcDbEntity
  8
0
100
AcDbLine
 10
1.5
 20
65.5
 30
0.0
 11
3.0
 21
66.0
 31
0.0
  0
LINE
  5
35
330
1E
100
AcDbEntity
  8
0
100
AcDbLine
 10
1.1
 20
114.0
 30
0.0
 11
4.0
 21
114.0
 31
0.0
  0
LINE
  5
36
330
1E
100
AcDbEntity
  8
0
100
AcDbLine
 10
1.1
 20
114.0
 30
0.0
 11
4.0
 21
114.0
 31
0.0
  0
LINE
  5
37
330
1E
100
AcDbEntity
  8
0
100
AcDbLine
 10
1.5
 20
70.5
 30
0.0
 11
3.0
 21
70.0
 31
0.0
  0
LINE
  5
38
330
1E
100
AcDbEntity
  8
0
100
AcDbLine
 10
2.0
 20
59.0
 30
0.0
 11
2.0
 21
37.0
 31
0.0
  0
LINE
  5
39
330
1E
100
AcDbEntity
  8
0
100
AcDbLine
 10
2.0
 20
37.0
 30
0.0
 11
2.0
 21
59.0
 31
0.0
  0
LINE
  5
3A
330
1E
100
AcDbEntity
  8
0
100
AcDbLine
 10
2.0
 20
37.0
 30
0.0
 11
2.5
 21
35.5
 31
0.0
  0
LINE
  5
3C
330
1E
100
AcDbEntity
  8
0
100
AcDbLine
 10
1.87537
 20
10.044
 30
0.0
 11
2.529179999999999
 21
10.81299999999999
 31
0.0
  0
LINE
  5
3D
330
1E
100
AcDbEntity
  8
0
100
AcDbLine
 10
1.35617
 20
8.929
 30
0.0
 11
1.87537
 21
10.044
 31
0.0
  0
LINE
  5
3E
330
1E
100
AcDbEntity
  8
0
100
AcDbLine
 10
1.0
 20
6.0
 30
0.0
 11
1.35617
 21
8.929
 31
0.0
  0
LINE
  5
3F
330
1E
100
AcDbEntity
  8
0
100
AcDbLine
 10
1.0
 20
6.0
 30
0.0
 11
1.35617
 21
3.071
 31
0.0
  0
LINE
  5
41
330
1E
100
AcDbEntity
  8
0
100
AcDbLine
 10
4.73734029355505
 20
0.191297380710208
 30
0.0
 11
5.00983
 21
0.110999999999997
 31
0.0
  0
LINE
  5
43
330
1E
100
AcDbEntity
  8
0
100
AcDbLine
 10
3.62528
 20
0.4759999999999971
 30
0.0
 11
5.1252
 21
0.091999999999997
 31
0.0
  0
LINE
  5
44
330
1E
100
AcDbEntity
  8
0
100
AcDbLine
 10
3.62528
 20
0.4759999999999971
 30
0.0
 11
5.1252
 21
0.091999999999997
 31
0.0
  0
LINE
  5
45
330
1E
100
AcDbEntity
  8
0
100
AcDbLine
 10
2.529179999999999
 20
1.187
 30
0.0
 11
3.62528
 21
0.4759999999999971
 31
0.0
  0
LINE
  5
46
330
1E
100
AcDbEntity
  8
0
100
AcDbLine
 10
5.1252
 20
0.091999999999997
 30
0.0
 11
7.02291
 21
0.211999999999997
 31
0.0
  0
LINE
  5
47
330
1E
100
AcDbEntity
  8
0
100
AcDbLine
 10
23.6
 20
-0.0000000000000035
 30
0.0
 11
25.5
 21
-0.0000000000000036
 31
0.0
  0
LINE
  5
48
330
1E
100
AcDbEntity
  8
0
100
AcDbLine
 10
25.5
 20
-0.0000000000000036
 30
0.0
 11
27.7
 21
-0.0000000000000036
 31
0.0
  0
LINE
  5
49
330
1E
100
AcDbEntity
  8
0
100
AcDbLine
 10
36.4
 20
-0.0000000000000035
 30
0.0
 11
37.79999999999999
 21
-0.0000000000000034
 31
0.0
  0
LINE
  5
4A
330
1E
100
AcDbEntity
  8
0
100
AcDbLine
 10
37.79999999999999
 20
-0.0000000000000034
 30
0.0
 11
38.7
 21
-0.0000000000000032
 31
0.0
  0
LINE
  5
4B
330
1E
100
AcDbEntity
  8
0
100
AcDbLine
 10
34.5
 20
-0.0000000000000036
 30
0.0
 11
36.4
 21
-0.0000000000000035
 31
0.0
  0
LINE
  5
4C
330
1E
100
AcDbEntity
  8
0
100
AcDbLine
 10
32.29999999999999
 20
-0.0000000000000036
 30
0.0
 11
34.5
 21
-0.0000000000000036
 31
0.0
  0
LINE
  5
4D
330
1E
100
AcDbEntity
  8
0
100
AcDbLine
 10
30.0
 20
-0.0000000000000036
 30
0.0
 11
32.29999999999999
 21
-0.0000000000000036
 31
0.0
  0
LINE
  5
4E
330
1E
100
AcDbEntity
  8
0
100
AcDbLine
 10
27.7
 20
-0.0000000000000036
 30
0.0
 11
30.0
 21
-0.0000000000000036
 31
0.0
  0
LINE
  5
4F
330
1E
100
AcDbEntity
  8
0
100
AcDbLine
 10
39.0
 20
-0.0000000000000031
 30
0.0
 11
40.49999999999999
 21
0.499999999999997
 31
0.0
  0
LINE
  5
50
330
1E
100
AcDbEntity
  8
0
100
AcDbLine
 10
38.7
 20
-0.0000000000000032
 30
0.0
 11
39.0
 21
-0.0000000000000031
 31
0.0
  0
LINE
  5
51
330
1E
100
AcDbEntity
  8
0
100
AcDbLine
 10
22.2
 20
-0.0000000000000034
 30
0.0
 11
23.6
 21
-0.0000000000000035
 31
0.0
  0
LINE
  5
52
330
1E
100
AcDbEntity
  8
0
100
AcDbLine
 10
21.3
 20
-0.0000000000000032
 30
0.0
 11
22.2
 21
-0.0000000000000034
 31
0.0
  0
LINE
  5
53
330
1E
100
AcDbEntity
  8
0
100
AcDbLine
 10
29.19999999999999
 20
0.0919999999999985
 30
0.0
 11
29.19999999999999
 21
0.475999999999999
 31
0.0
  0
LINE
  5
54
330
1E
100
AcDbEntity
  8
0
100
AcDbLine
 10
29.19999999999999
 20
0.0919999999999985
 30
0.0
 11
30.0
 21
0.110999999999998
 31
0.0
  0
LINE
  5
55
330
1E
100
AcDbEntity
  8
0
100
AcDbLine
 10
30.8
 20
0.0919999999999984
 30
0.0
 11
31.3
 21
0.5909999999999979
 31
0.0
  0
LINE
  5
56
330
1E
100
AcDbEntity
  8
0
100
AcDbLine
 10
54.8748
 20
0.091999999999997
 30
0.0
 11
56.3747
 21
0.4759999999999971
 31
0.0
  0
LINE
  5
57
330
1E
100
AcDbEntity
  8
0
100
AcDbLine
 10
54.8748
 20
0.091999999999997
 30
0.0
 11
56.3747
 21
0.4759999999999971
 31
0.0
  0
LINE
  5
58
330
1E
100
AcDbEntity
  8
0
100
AcDbLine
 10
30.8
 20
0.0919999999999985
 30
0.0
 11
30.8
 21
0.475999999999999
 31
0.0
  0
LINE
  5
59
330
1E
100
AcDbEntity
  8
0
100
AcDbLine
 10
30.8
 20
0.0919999999999985
 30
0.0
 11
31.3
 21
0.5909999999999979
 31
0.0
  0
LINE
  5
5A
330
1E
100
AcDbEntity
  8
0
100
AcDbLine
 10
39.0
 20
-0.0000000000000031
 30
0.0
 11
40.49999999999999
 21
0.499999999999997
 31
0.0
  0
LINE
  5
5B
330
1E
100
AcDbEntity
  8
0
100
AcDbLine
 10
54.9902
 20
0.110999999999997
 30
0.0
 11
55.2628810344828
 21
0.191355368518834
 31
0.0
  0
LINE
  5
5C
330
1E
100
AcDbEntity
  8
0
100
AcDbLine
 10
21.0
 20
-0.0000000000000031
 30
0.0
 11
21.3
 21
-0.0000000000000032
 31
0.0
  0
LINE
  5
5D
330
1E
100
AcDbEntity
  8
0
100
AcDbLine
 10
4.737340293555059
 20
0.191297380710207
 30
0.0
 11
5.044241473557629
 21
0.112726488181947
 31
0.0
  0
LINE
  5
5E
330
1E
100
AcDbEntity
  8
0
100
AcDbLine
 10
6.896419999999999
 20
0.192999999999997
 30
0.0
 11
7.536352851240939
 21
0.273740912254353
 31
0.0
  0
LINE
  5
5F
330
1E
100
AcDbEntity
  8
0
100
AcDbLine
 10
6.896419999999999
 20
0.192999999999997
 30
0.0
 11
7.536352851240929
 21
0.273740912254353
 31
0.0
  0
LINE
  5
60
330
1E
100
AcDbEntity
  8
0
100
AcDbLine
 10
54.9902
 20
0.110999999999997
 30
0.0
 11
55.2628810344828
 21
0.191355368518834
 31
0.0
  0
LINE
  5
61
330
1E
100
AcDbEntity
  8
0
100
AcDbLine
 10
30.0
 20
0.110999999999998
 30
0.0
 11
30.8
 21
0.0919999999999985
 31
0.0
  0
LINE
  5
62
330
1E
100
AcDbEntity
  8
0
100
AcDbLine
 10
53.1036
 20
0.192999999999997
 30
0.0
 11
53.6600409962617
 21
0.168814607392419
 31
0.0
  0
LINE
  5
63
330
1E
100
AcDbEntity
  8
0
100
AcDbLine
 10
7.02291
 20
0.211999999999997
 30
0.0
 11
10.99799999999999
 21
0.6899999999999971
 31
0.0
  0
LINE
  5
64
330
1E
100
AcDbEntity
  8
0
100
AcDbLine
 10
7.02291
 20
0.211999999999997
 30
0.0
 11
10.99799999999999
 21
0.6899999999999971
 31
0.0
  0
LINE
  5
65
330
1E
100
AcDbEntity
  8
0
100
AcDbLine
 10
10.99799999999999
 20
0.6899999999999971
 30
0.0
 11
14.54209999999999
 21
1.217
 31
0.0
  0
LINE
  5
66
330
1E
100
AcDbEntity
  8
0
100
AcDbLine
 10
7.02291
 20
0.211999999999997
 30
0.0
 11
10.99799999999999
 21
0.6899999999999971
 31
0.0
  0
LINE
  5
67
330
1E
100
AcDbEntity
  8
0
100
AcDbLine
 10
19.9
 20
0.499999999999997
 30
0.0
 11
20.89999999999999
 21
0.499999999999997
 31
0.0
  0
LINE
  5
68
330
1E
100
AcDbEntity
  8
0
100
AcDbLine
 10
14.54209999999999
 20
1.217
 30
0.0
 11
17.296
 21
1.551999999999999
 31
0.0
  0
LINE
  5
69
330
1E
100
AcDbEntity
  8
0
100
AcDbLine
 10
14.54209999999999
 20
1.217
 30
0.0
 11
14.8618
 21
1.242999999999999
 31
0.0
  0
LINE
  5
6A
330
1E
100
AcDbEntity
  8
0
100
AcDbLine
 10
19.5
 20
0.499999999999997
 30
0.0
 11
21.0
 21
-0.0000000000000031
 31
0.0
  0
LINE
  5
6B
330
1E
100
AcDbEntity
  8
0
100
AcDbLine
 10
19.5
 20
0.499999999999997
 30
0.0
 11
19.9
 21
0.499999999999997
 31
0.0
  0
LINE
  5
6C
330
1E
100
AcDbEntity
  8
0
100
AcDbLine
 10
19.5
 20
0.499999999999997
 30
0.0
 11
21.0
 21
-0.0000000000000031
 31
0.0
  0
LINE
  5
6D
330
1E
100
AcDbEntity
  8
0
100
AcDbLine
 10
29.19999999999999
 20
0.475999999999999
 30
0.0
 11
29.19999999999999
 21
1.187
 31
0.0
  0
LINE
  5
6E
330
1E
100
AcDbEntity
  8
0
100
AcDbLine
 10
29.19999999999999
 20
0.475999999999999
 30
0.0
 11
29.19999999999999
 21
0.0919999999999984
 31
0.0
  0
LINE
  5
6F
330
1E
100
AcDbEntity
  8
0
100
AcDbLine
 10
52.9771
 20
0.211999999999997
 30
0.0
 11
54.8748
 21
0.091999999999997
 31
0.0
  0
LINE
  5
70
330
1E
100
AcDbEntity
  8
0
100
AcDbLine
 10
56.3747
 20
0.4759999999999971
 30
0.0
 11
57.4708
 21
1.187
 31
0.0
  0
LINE
  5
71
330
1E
100
AcDbEntity
  8
0
100
AcDbLine
 10
52.4638321295075
 20
0.273719715754423
 30
0.0
 11
53.1036
 21
0.192999999999997
 31
0.0
  0
LINE
  5
72
330
1E
100
AcDbEntity
  8
0
100
AcDbLine
 10
52.4638321295075
 20
0.273719715754422
 30
0.0
 11
53.1036
 21
0.192999999999997
 31
0.0
  0
LINE
  5
73
330
1E
100
AcDbEntity
  8
0
100
AcDbLine
 10
30.8
 20
0.475999999999999
 30
0.0
 11
30.8
 21
0.0919999999999984
 31
0.0
  0
LINE
  5
74
330
1E
100
AcDbEntity
  8
0
100
AcDbLine
 10
30.8
 20
0.475999999999999
 30
0.0
 11
30.8
 21
1.187
 31
0.0
  0
LINE
  5
75
330
1E
100
AcDbEntity
  8
0
100
AcDbLine
 10
56.3747
 20
0.4759999999999971
 30
0.0
 11
57.4708
 21
1.187
 31
0.0
  0
LINE
  5
76
330
1E
100
AcDbEntity
  8
0
100
AcDbLine
 10
20.89999999999999
 20
0.499999999999997
 30
0.0
 11
22.6
 21
0.499999999999997
 31
0.0
  0
LINE
  5
77
330
1E
100
AcDbEntity
  8
0
100
AcDbLine
 10
22.6
 20
0.499999999999997
 30
0.0
 11
24.8
 21
0.499999999999997
 31
0.0
  0
LINE
  5
78
330
1E
100
AcDbEntity
  8
0
100
AcDbLine
 10
24.8
 20
0.499999999999997
 30
0.0
 11
27.3
 21
0.4999999999999981
 31
0.0
  0
LINE
  5
79
330
1E
100
AcDbEntity
  8
0
100
AcDbLine
 10
27.3
 20
0.4999999999999981
 30
0.0
 11
28.7911823647295
 21
0.4999999999999981
 31
0.0
  0
LINE
  5
7A
330
1E
100
AcDbEntity
  8
0
100
AcDbLine
 10
31.2088176352705
 20
0.4999999999999981
 30
0.0
 11
32.7
 21
0.4999999999999981
 31
0.0
  0
LINE
  5
7C
330
1E
100
AcDbEntity
  8
0
100
AcDbLine
 10
28.7
 20
0.5909999999999979
 30
0.0
 11
29.19999999999999
 21
0.0919999999999985
 31
0.0
  0
LINE
  5
7D
330
1E
100
AcDbEntity
  8
0
100
AcDbLine
 10
28.7
 20
0.5909999999999979
 30
0.0
 11
29.19999999999999
 21
0.0919999999999984
 31
0.0
  0
LINE
  5
7E
330
1E
100
AcDbEntity
  8
0
100
AcDbLine
 10
31.3
 20
0.5909999999999979
 30
0.0
 11
31.8
 21
3.051
 31
0.0
  0
LINE
  5
7F
330
1E
100
AcDbEntity
  8
0
100
AcDbLine
 10
35.2
 20
0.499999999999997
 30
0.0
 11
37.4
 21
0.499999999999997
 31
0.0
  0
LINE
  5
80
330
1E
100
AcDbEntity
  8
0
100
AcDbLine
 10
32.7
 20
0.4999999999999981
 30
0.0
 11
35.2
 21
0.499999999999997
 31
0.0
  0
LINE
  5
81
330
1E
100
AcDbEntity
  8
0
100
AcDbLine
 10
37.4
 20
0.499999999999997
 30
0.0
 11
39.1
 21
0.499999999999997
 31
0.0
  0
LINE
  5
82
330
1E
100
AcDbEntity
  8
0
100
AcDbLine
 10
39.1
 20
0.499999999999997
 30
0.0
 11
40.1
 21
0.499999999999997
 31
0.0
  0
LINE
  5
83
330
1E
100
AcDbEntity
  8
0
100
AcDbLine
 10
40.1
 20
0.499999999999997
 30
0.0
 11
40.49999999999999
 21
0.499999999999997
 31
0.0
  0
LINE
  5
84
330
1E
100
AcDbEntity
  8
0
100
AcDbLine
 10
40.49999999999999
 20
0.499999999999997
 30
0.0
 11
40.9223699672633
 21
1.767109901789889
 31
0.0
  0
LINE
  5
85
330
1E
100
AcDbEntity
  8
0
100
AcDbLine
 10
49.00199999999999
 20
0.6899999999999971
 30
0.0
 11
52.9771
 21
0.211999999999997
 31
0.0
  0
LINE
  5
86
330
1E
100
AcDbEntity
  8
0
100
AcDbLine
 10
49.00199999999999
 20
0.6899999999999971
 30
0.0
 11
52.9771
 21
0.211999999999997
 31
0.0
  0
LINE
  5
88
330
1E
100
AcDbEntity
  8
0
100
AcDbLine
 10
31.3
 20
0.5909999999999979
 30
0.0
 11
31.8
 21
3.051
 31
0.0
  0
LINE
  5
89
330
1E
100
AcDbEntity
  8
0
100
AcDbLine
 10
40.49999999999999
 20
0.499999999999997
 30
0.0
 11
40.9223699672633
 21
1.767109901789889
 31
0.0
  0
LINE
  5
8C
330
1E
100
AcDbEntity
  8
0
100
AcDbLine
 10
29.19999999999999
 20
1.187
 30
0.0
 11
29.19999999999999
 21
1.955999999999999
 31
0.0
  0
LINE
  5
8D
330
1E
100
AcDbEntity
  8
0
100
AcDbLine
 10
29.19999999999999
 20
1.187
 30
0.0
 11
29.19999999999999
 21
0.475999999999999
 31
0.0
  0
LINE
  5
90
330
1E
100
AcDbEntity
  8
0
100
AcDbLine
 10
30.8
 20
1.187
 30
0.0
 11
30.8
 21
0.475999999999999
 31
0.0
  0
LINE
  5
91
330
1E
100
AcDbEntity
  8
0
100
AcDbLine
 10
30.8
 20
1.187
 30
0.0
 11
30.8
 21
1.955999999999999
 31
0.0
  0
LINE
  5
92
330
1E
100
AcDbEntity
  8
0
100
AcDbLine
 10
27.8536
 20
1.217
 30
0.0
 11
28.6248143899836
 21
0.8285921411301879
 31
0.0
  0
LINE
  5
93
330
1E
100
AcDbEntity
  8
0
100
AcDbLine
 10
31.37518561001639
 20
0.828592141130192
 30
0.0
 11
32.1464
 21
1.217
 31
0.0
  0
LINE
  5
94
330
1E
100
AcDbEntity
  8
0
100
AcDbLine
 10
45.4579
 20
1.217
 30
0.0
 11
49.00199999999999
 21
0.6899999999999971
 31
0.0
  0
LINE
  5
95
330
1E
100
AcDbEntity
  8
0
100
AcDbLine
 10
32.1464
 20
1.217
 30
0.0
 11
33.9902
 21
1.551999999999999
 31
0.0
  0
LINE
  5
96
330
1E
100
AcDbEntity
  8
0
100
AcDbLine
 10
31.37518561001639
 20
0.828592141130192
 30
0.0
 11
32.1464
 21
1.217
 31
0.0
  0
LINE
  5
9A
330
1E
100
AcDbEntity
  8
0
100
AcDbLine
 10
57.4708
 20
1.187
 30
0.0
 11
58.1246
 21
1.955999999999999
 31
0.0
  0
LINE
  5
9B
330
1E
100
AcDbEntity
  8
0
100
AcDbLine
 10
49.00199999999999
 20
0.6899999999999971
 30
0.0
 11
52.9771
 21
0.211999999999997
 31
0.0
  0
LINE
  5
9C
330
1E
100
AcDbEntity
  8
0
100
AcDbLine
 10
49.00199999999999
 20
0.6899999999999971
 30
0.0
 11
52.9771
 21
0.211999999999997
 31
0.0
  0
LINE
  5
9D
330
1E
100
AcDbEntity
  8
0
100
AcDbLine
 10
45.13819999999999
 20
1.242999999999999
 30
0.0
 11
45.4579
 21
1.217
 31
0.0
  0
LINE
  5
9F
330
1E
100
AcDbEntity
  8
0
100
AcDbLine
 10
14.8618
 20
1.242999999999999
 30
0.0
 11
15.61380501845369
 21
1.347368270882009
 31
0.0
  0
LINE
  5
A0
330
1E
100
AcDbEntity
  8
0
100
AcDbLine
 10
57.567
 20
1.283
 30
0.0
 11
57.7176394741647
 21
1.477332755632639
 31
0.0
  0
LINE
  5
A1
330
1E
100
AcDbEntity
  8
0
100
AcDbLine
 10
7.02291
 20
0.211999999999997
 30
0.0
 11
10.99799999999999
 21
0.6899999999999971
 31
0.0
  0
LINE
  5
A2
330
1E
100
AcDbEntity
  8
0
100
AcDbLine
 10
6.339929022403379
 20
0.168812306774165
 30
0.0
 11
6.896419999999999
 21
0.192999999999997
 31
0.0
  0
LINE
  5
A3
330
1E
100
AcDbEntity
  8
0
100
AcDbLine
 10
4.737340293555059
 20
0.191297380710208
 30
0.0
 11
5.00983
 21
0.110999999999997
 31
0.0
  0
LINE
  5
A7
330
1E
100
AcDbEntity
  8
0
100
AcDbLine
 10
3.62528
 20
11.524
 30
0.0
 11
5.1252
 21
11.908
 31
0.0
  0
LINE
  5
A8
330
1E
100
AcDbEntity
  8
0
100
AcDbLine
 10
2.529179999999999
 20
10.81299999999999
 30
0.0
 11
3.62528
 21
11.524
 31
0.0
  0
LINE
  5
A9
330
1E
100
AcDbEntity
  8
0
100
AcDbLine
 10
14.54209999999999
 20
10.783
 30
0.0
 11
17.296
 21
10.448
 31
0.0
  0
LINE
  5
AA
330
1E
100
AcDbEntity
  8
0
100
AcDbLine
 10
14.54209999999999
 20
10.783
 30
0.0
 11
14.8618
 21
10.757
 31
0.0
  0
LINE
  5
AB
330
1E
100
AcDbEntity
  8
0
100
AcDbLine
 10
10.99799999999999
 20
11.31
 30
0.0
 11
14.54209999999999
 21
10.783
 31
0.0
  0
LINE
  5
AC
330
1E
100
AcDbEntity
  8
0
100
AcDbLine
 10
7.02291
 20
11.788
 30
0.0
 11
10.99799999999999
 21
11.31
 31
0.0
  0
LINE
  5
AD
330
1E
100
AcDbEntity
  8
0
100
AcDbLine
 10
2.28288891655799
 20
10.52331669266769
 30
0.0
 11
2.43303
 21
10.717
 31
0.0
  0
LINE
  5
AE
330
1E
100
AcDbEntity
  8
0
100
AcDbLine
 10
3.5
 20
35.5
 30
0.0
 11
6.2
 21
35.5
 31
0.0
  0
LINE
  5
AF
330
1E
100
AcDbEntity
  8
0
100
AcDbLine
 10
4.0
 20
35.0
 30
0.0
 11
4.9
 21
35.0
 31
0.0
  0
LINE
  5
B0
330
1E
100
AcDbEntity
  8
0
100
AcDbLine
 10
2.5
 20
60.5
 30
0.0
 11
5.299999999999999
 21
60.5
 31
0.0
  0
LINE
  5
B1
330
1E
100
AcDbEntity
  8
0
100
AcDbLine
 10
4.0
 20
66.0
 30
0.0
 11
6.599999999999999
 21
66.0
 31
0.0
  0
LINE
  5
B2
330
1E
100
AcDbEntity
  8
0
100
AcDbLine
 10
3.0
 20
66.0
 30
0.0
 11
4.0
 21
66.0
 31
0.0
  0
LINE
  5
B3
330
1E
100
AcDbEntity
  8
0
100
AcDbLine
 10
2.5
 20
35.5
 30
0.0
 11
4.0
 21
35.0
 31
0.0
  0
LINE
  5
B4
330
1E
100
AcDbEntity
  8
0
100
AcDbLine
 10
2.5
 20
35.5
 30
0.0
 11
3.5
 21
35.5
 31
0.0
  0
LINE
  5
B5
330
1E
100
AcDbEntity
  8
0
100
AcDbLine
 10
4.5
 20
61.0
 30
0.0
 11
9.199999999999999
 21
61.0
 31
0.0
  0
LINE
  5
B6
330
1E
100
AcDbEntity
  8
0
100
AcDbLine
 10
4.0
 20
70.0
 30
0.0
 11
6.599999999999999
 21
70.0
 31
0.0
  0
LINE
  5
B7
330
1E
100
AcDbEntity
  8
0
100
AcDbLine
 10
4.0
 20
114.0
 30
0.0
 11
8.8
 21
114.0
 31
0.0
  0
LINE
  5
B8
330
1E
100
AcDbEntity
  8
0
100
AcDbLine
 10
3.0
 20
70.0
 30
0.0
 11
4.0
 21
70.0
 31
0.0
  0
LINE
  5
B9
330
1E
100
AcDbEntity
  8
0
100
AcDbLine
 10
4.9
 20
35.0
 30
0.0
 11
7.5
 21
35.0
 31
0.0
  0
LINE
  5
BA
330
1E
100
AcDbEntity
  8
0
100
AcDbLine
 10
6.2
 20
35.5
 30
0.0
 11
10.6
 21
35.5
 31
0.0
  0
LINE
  5
BB
330
1E
100
AcDbEntity
  8
0
100
AcDbLine
 10
5.299999999999999
 20
60.5
 30
0.0
 11
9.9
 21
60.5
 31
0.0
  0
LINE
  5
BC
330
1E
100
AcDbEntity
  8
0
100
AcDbLine
 10
6.599999999999999
 20
66.0
 30
0.0
 11
11.0
 21
66.0
 31
0.0
  0
LINE
  5
BD
330
1E
100
AcDbEntity
  8
0
100
AcDbLine
 10
9.199999999999999
 20
61.0
 30
0.0
 11
15.3
 21
61.0
 31
0.0
  0
LINE
  5
BE
330
1E
100
AcDbEntity
  8
0
100
AcDbLine
 10
10.7
 20
33.5
 30
0.0
 11
12.7
 21
33.5
 31
0.0
  0
LINE
  5
BF
330
1E
100
AcDbEntity
  8
0
100
AcDbLine
 10
14.0
 20
33.0
 30
0.0
 11
16.89999999999999
 21
33.0
 31
0.0
  0
LINE
  5
C0
330
1E
100
AcDbEntity
  8
0
100
AcDbLine
 10
12.7
 20
33.5
 30
0.0
 11
15.9
 21
33.5
 31
0.0
  0
LINE
  5
C1
330
1E
100
AcDbEntity
  8
0
100
AcDbLine
 10
12.19999999999999
 20
33.0
 30
0.0
 11
14.0
 21
33.0
 31
0.0
  0
LINE
  5
C2
330
1E
100
AcDbEntity
  8
0
100
AcDbLine
 10
11.5
 20
33.0
 30
0.0
 11
12.19999999999999
 21
33.0
 31
0.0
  0
LINE
  5
C3
330
1E
100
AcDbEntity
  8
0
100
AcDbLine
 10
10.2
 20
35.0
 30
0.0
 11
12.19999999999999
 21
35.0
 31
0.0
  0
LINE
  5
C4
330
1E
100
AcDbEntity
  8
0
100
AcDbLine
 10
10.6
 20
35.5
 30
0.0
 11
16.3
 21
35.5
 31
0.0
  0
LINE
  5
C5
330
1E
100
AcDbEntity
  8
0
100
AcDbLine
 10
9.9
 20
60.5
 30
0.0
 11
15.8
 21
60.5
 31
0.0
  0
LINE
  5
C6
330
1E
100
AcDbEntity
  8
0
100
AcDbLine
 10
15.5
 20
35.0
 30
0.0
 11
19.8
 21
35.0
 31
0.0
  0
LINE
  5
C7
330
1E
100
AcDbEntity
  8
0
100
AcDbLine
 10
12.19999999999999
 20
35.0
 30
0.0
 11
15.5
 21
35.0
 31
0.0
  0
LINE
  5
C8
330
1E
100
AcDbEntity
  8
0
100
AcDbLine
 10
15.3
 20
61.0
 30
0.0
 11
22.39999999999999
 21
61.0
 31
0.0
  0
LINE
  5
C9
330
1E
100
AcDbEntity
  8
0
100
AcDbLine
 10
11.0
 20
66.0
 30
0.0
 11
16.6
 21
66.0
 31
0.0
  0
LINE
  5
CA
330
1E
100
AcDbEntity
  8
0
100
AcDbLine
 10
10.0
 20
33.5
 30
0.0
 11
11.5
 21
33.0
 31
0.0
  0
LINE
  5
CB
330
1E
100
AcDbEntity
  8
0
100
AcDbLine
 10
10.0
 20
33.5
 30
0.0
 11
10.7
 21
33.5
 31
0.0
  0
LINE
  5
CC
330
1E
100
AcDbEntity
  8
0
100
AcDbLine
 10
9.5
 20
35.0
 30
0.0
 11
10.0
 21
33.5
 31
0.0
  0
LINE
  5
CD
330
1E
100
AcDbEntity
  8
0
100
AcDbLine
 10
9.5
 20
35.0
 30
0.0
 11
10.2
 21
35.0
 31
0.0
  0
LINE
  5
CE
330
1E
100
AcDbEntity
  8
0
100
AcDbLine
 10
15.2
 20
70.0
 30
0.0
 11
19.6
 21
70.0
 31
0.0
  0
LINE
  5
CF
330
1E
100
AcDbEntity
  8
0
100
AcDbLine
 10
11.8
 20
70.0
 30
0.0
 11
15.2
 21
70.0
 31
0.0
  0
LINE
  5
D0
330
1E
100
AcDbEntity
  8
0
100
AcDbLine
 10
9.8
 20
70.0
 30
0.0
 11
11.8
 21
70.0
 31
0.0
  0
LINE
  5
D1
330
1E
100
AcDbEntity
  8
0
100
AcDbLine
 10
9.0
 20
70.0
 30
0.0
 11
9.0
 21
66.0
 31
0.0
  0
LINE
  5
D2
330
1E
100
AcDbEntity
  8
0
100
AcDbLine
 10
9.0
 20
70.0
 30
0.0
 11
9.8
 21
70.0
 31
0.0
  0
LINE
  5
D3
330
1E
100
AcDbEntity
  8
0
100
AcDbLine
 10
9.0
 20
66.0
 30
0.0
 11
9.0
 21
70.0
 31
0.0
  0
LINE
  5
D4
330
1E
100
AcDbEntity
  8
0
100
AcDbLine
 10
7.5
 20
35.0
 30
0.0
 11
9.5
 21
35.0
 31
0.0
  0
LINE
  5
D5
330
1E
100
AcDbEntity
  8
0
100
AcDbLine
 10
8.8
 20
114.0
 30
0.0
 11
15.09999999999999
 21
114.0
 31
0.0
  0
LINE
  5
D6
330
1E
100
AcDbEntity
  8
0
100
AcDbLine
 10
15.09999999999999
 20
114.0
 30
0.0
 11
22.29999999999999
 21
114.0
 31
0.0
  0
LINE
  5
D7
330
1E
100
AcDbEntity
  8
0
100
AcDbLine
 10
6.599999999999999
 20
70.0
 30
0.0
 11
9.0
 21
70.0
 31
0.0
  0
LINE
  5
D8
330
1E
100
AcDbEntity
  8
0
100
AcDbLine
 10
5.1252
 20
11.908
 30
0.0
 11
7.02291
 21
11.788
 31
0.0
  0
LINE
  5
D9
330
1E
100
AcDbEntity
  8
0
100
AcDbLine
 10
6.339929022403259
 20
11.83118769322579
 30
0.0
 11
6.896419999999999
 21
11.807
 31
0.0
  0
LINE
  5
DA
330
1E
100
AcDbEntity
  8
0
100
AcDbLine
 10
4.73734029355501
 20
11.8087026192898
 30
0.0
 11
5.00983
 21
11.889
 31
0.0
  0
LINE
  5
DB
330
1E
100
AcDbEntity
  8
0
100
AcDbLine
 10
6.896419999999999
 20
11.807
 30
0.0
 11
7.536352851241309
 21
11.7262590877456
 31
0.0
  0
LINE
  5
DC
330
1E
100
AcDbEntity
  8
0
100
AcDbLine
 10
17.296
 20
1.551999999999999
 30
0.0
 11
19.5777
 21
1.857
 31
0.0
  0
LINE
  5
DF
330
1E
100
AcDbEntity
  8
0
100
AcDbLine
 10
33.9902
 20
1.551999999999999
 30
0.0
 11
36.0
 21
1.857
 31
0.0
  0
LINE
  5
E0
330
1E
100
AcDbEntity
  8
0
100
AcDbLine
 10
42.70399999999999
 20
1.551999999999999
 30
0.0
 11
45.4579
 21
1.217
 31
0.0
  0
LINE
  5
E3
330
1E
100
AcDbEntity
  8
0
100
AcDbLine
 10
19.0776300327367
 20
1.767109901789889
 30
0.0
 11
19.5
 21
0.499999999999997
 31
0.0
  0
LINE
  5
E4
330
1E
100
AcDbEntity
  8
0
100
AcDbLine
 10
26.00979999999999
 20
1.551999999999999
 30
0.0
 11
27.8536
 21
1.217
 31
0.0
  0
LINE
  5
E6
330
1E
100
AcDbEntity
  8
0
100
AcDbLine
 10
42.70399999999999
 20
1.551999999999999
 30
0.0
 11
44.3861949815465
 21
1.347368270882
 31
0.0
  0
LINE
  5
E7
330
1E
100
AcDbEntity
  8
0
100
AcDbLine
 10
19.5777
 20
1.857
 30
0.0
 11
21.49999999999999
 21
2.0
 31
0.0
  0
LINE
  5
E8
330
1E
100
AcDbEntity
  8
0
100
AcDbLine
 10
21.49999999999999
 20
2.0
 30
0.0
 11
24.0
 21
1.857
 31
0.0
  0
LINE
  5
E9
330
1E
100
AcDbEntity
  8
0
100
AcDbLine
 10
19.53353540469469
 20
10.1778451348982
 30
0.0
 11
22.0
 21
11.0
 31
0.0
  0
LINE
  5
EA
330
1E
100
AcDbEntity
  8
0
100
AcDbLine
 10
19.5777
 20
10.14299999999999
 30
0.0
 11
21.49999999999999
 21
10.0
 31
0.0
  0
LINE
  5
EB
330
1E
100
AcDbEntity
  8
0
100
AcDbLine
 10
21.49999999999999
 20
10.0
 30
0.0
 11
24.0
 21
10.14299999999999
 31
0.0
  0
LINE
  5
EC
330
1E
100
AcDbEntity
  8
0
100
AcDbLine
 10
17.296
 20
10.448
 30
0.0
 11
19.5777
 21
10.14299999999999
 31
0.0
  0
LINE
  5
ED
330
1E
100
AcDbEntity
  8
0
100
AcDbLine
 10
24.0
 20
10.14299999999999
 30
0.0
 11
26.00979999999999
 21
10.448
 31
0.0
  0
LINE
  5
EE
330
1E
100
AcDbEntity
  8
0
100
AcDbLine
 10
24.0
 20
1.857
 30
0.0
 11
26.00979999999999
 21
1.551999999999999
 31
0.0
  0
LINE
  5
EF
330
1E
100
AcDbEntity
  8
0
100
AcDbLine
 10
28.0
 20
6.0
 30
0.0
 11
28.2
 21
3.051
 31
0.0
  0
LINE
  5
F0
330
1E
100
AcDbEntity
  8
0
100
AcDbLine
 10
28.0
 20
6.0
 30
0.0
 11
28.2
 21
8.948999999999999
 31
0.0
  0
LINE
  5
F1
330
1E
100
AcDbEntity
  8
0
100
AcDbLine
 10
26.00979999999999
 20
10.448
 30
0.0
 11
27.8536
 21
10.783
 31
0.0
  0
LINE
  5
F2
330
1E
100
AcDbEntity
  8
0
100
AcDbLine
 10
23.1
 20
11.0
 30
0.0
 11
24.39999999999999
 21
11.0
 31
0.0
  0
LINE
  5
F3
330
1E
100
AcDbEntity
  8
0
100
AcDbLine
 10
22.29999999999999
 20
11.0
 30
0.0
 11
23.1
 21
11.0
 31
0.0
  0
LINE
  5
F4
330
1E
100
AcDbEntity
  8
0
100
AcDbLine
 10
22.19199999999999
 20
18.0
 30
0.0
 11
22.48
 21
18.0
 31
0.0
  0
LINE
  5
F5
330
1E
100
AcDbEntity
  8
0
100
AcDbLine
 10
16.89999999999999
 20
33.0
 30
0.0
 11
20.8
 21
33.0
 31
0.0
  0
LINE
  5
F6
330
1E
100
AcDbEntity
  8
0
100
AcDbLine
 10
20.8
 20
33.0
 30
0.0
 11
22.0
 21
33.0
 31
0.0
  0
LINE
  5
F7
330
1E
100
AcDbEntity
  8
0
100
AcDbLine
 10
22.0
 20
33.0
 30
0.0
 11
22.288
 21
33.0
 31
0.0
  0
LINE
  5
F8
330
1E
100
AcDbEntity
  8
0
100
AcDbLine
 10
22.0
 20
33.0
 30
0.0
 11
22.0
 21
18.3333
 31
0.0
  0
LINE
  5
F9
330
1E
100
AcDbEntity
  8
0
100
AcDbLine
 10
22.0
 20
18.3333
 30
0.0
 11
22.0
 21
33.0
 31
0.0
  0
LINE
  5
FA
330
1E
100
AcDbEntity
  8
0
100
AcDbLine
 10
22.0
 20
18.3333
 30
0.0
 11
22.19199999999999
 21
18.0
 31
0.0
  0
LINE
  5
FB
330
1E
100
AcDbEntity
  8
0
100
AcDbLine
 10
22.48
 20
18.0
 30
0.0
 11
23.248
 21
18.0
 31
0.0
  0
LINE
  5
FC
330
1E
100
AcDbEntity
  8
0
100
AcDbLine
 10
23.248
 20
18.0
 30
0.0
 11
24.496
 21
18.0
 31
0.0
  0
LINE
  5
FD
330
1E
100
AcDbEntity
  8
0
100
AcDbLine
 10
23.248
 20
18.0
 30
0.0
 11
23.5
 21
18.0
 31
0.0
  0
LINE
  5
FE
330
1E
100
AcDbEntity
  8
0
100
AcDbLine
 10
22.288
 20
33.0
 30
0.0
 11
23.05599999999999
 21
33.0
 31
0.0
  0
LINE
  5
FF
330
1E
100
AcDbEntity
  8
0
100
AcDbLine
 10
15.9
 20
33.5
 30
0.0
 11
20.1
 21
33.5
 31
0.0
  0
LINE
  5
100
330
1E
100
AcDbEntity
  8
0
100
AcDbLine
 10
20.1
 20
33.5
 30
0.0
 11
24.9
 21
33.5
 31
0.0
  0
LINE
  5
101
330
1E
100
AcDbEntity
  8
0
100
AcDbLine
 10
19.8
 20
35.0
 30
0.0
 11
24.7
 21
35.0
 31
0.0
  0
LINE
  5
102
330
1E
100
AcDbEntity
  8
0
100
AcDbLine
 10
16.3
 20
35.5
 30
0.0
 11
22.9
 21
35.5
 31
0.0
  0
LINE
  5
103
330
1E
100
AcDbEntity
  8
0
100
AcDbLine
 10
15.8
 20
60.5
 30
0.0
 11
22.7
 21
60.5
 31
0.0
  0
LINE
  5
104
330
1E
100
AcDbEntity
  8
0
100
AcDbLine
 10
19.6
 20
70.0
 30
0.0
 11
24.6
 21
70.0
 31
0.0
  0
LINE
  5
105
330
1E
100
AcDbEntity
  8
0
100
AcDbLine
 10
16.6
 20
66.0
 30
0.0
 11
23.1
 21
66.0
 31
0.0
  0
LINE
  5
106
330
1E
100
AcDbEntity
  8
0
100
AcDbLine
 10
22.9
 20
35.5
 30
0.0
 11
30.0
 21
35.5
 31
0.0
  0
LINE
  5
107
330
1E
100
AcDbEntity
  8
0
100
AcDbLine
 10
22.7
 20
60.5
 30
0.0
 11
30.0
 21
60.5
 31
0.0
  0
LINE
  5
108
330
1E
100
AcDbEntity
  8
0
100
AcDbLine
 10
22.39999999999999
 20
61.0
 30
0.0
 11
30.0
 21
61.0
 31
0.0
  0
LINE
  5
109
330
1E
100
AcDbEntity
  8
0
100
AcDbLine
 10
23.1
 20
66.0
 30
0.0
 11
30.0
 21
66.0
 31
0.0
  0
LINE
  5
10A
330
1E
100
AcDbEntity
  8
0
100
AcDbLine
 10
22.29999999999999
 20
114.0
 30
0.0
 11
30.0
 21
114.0
 31
0.0
  0
LINE
  5
10B
330
1E
100
AcDbEntity
  8
0
100
AcDbLine
 10
23.05599999999999
 20
33.0
 30
0.0
 11
24.336
 21
33.0
 31
0.0
  0
LINE
  5
10C
330
1E
100
AcDbEntity
  8
0
100
AcDbLine
 10
23.5
 20
18.0
 30
0.0
 11
23.5
 21
13.0
 31
0.0
  0
LINE
  5
10D
330
1E
100
AcDbEntity
  8
0
100
AcDbLine
 10
23.5
 20
18.0
 30
0.0
 11
23.7
 21
18.0
 31
0.0
  0
LINE
  5
10E
330
1E
100
AcDbEntity
  8
0
100
AcDbLine
 10
22.0
 20
11.0
 30
0.0
 11
23.5
 21
13.0
 31
0.0
  0
LINE
  5
10F
330
1E
100
AcDbEntity
  8
0
100
AcDbLine
 10
22.0
 20
11.0
 30
0.0
 11
22.29999999999999
 21
11.0
 31
0.0
  0
LINE
  5
110
330
1E
100
AcDbEntity
  8
0
100
AcDbLine
 10
24.39999999999999
 20
13.0
 30
0.0
 11
25.4
 21
13.0
 31
0.0
  0
LINE
  5
111
330
1E
100
AcDbEntity
  8
0
100
AcDbLine
 10
23.7
 20
13.0
 30
0.0
 11
24.39999999999999
 21
13.0
 31
0.0
  0
LINE
  5
112
330
1E
100
AcDbEntity
  8
0
100
AcDbLine
 10
24.39999999999999
 20
11.0
 30
0.0
 11
26.0
 21
11.0
 31
0.0
  0
LINE
  5
113
330
1E
100
AcDbEntity
  8
0
100
AcDbLine
 10
26.0
 20
11.0
 30
0.0
 11
27.9
 21
11.0
 31
0.0
  0
LINE
  5
114
330
1E
100
AcDbEntity
  8
0
100
AcDbLine
 10
27.9
 20
11.0
 30
0.0
 11
28.2844705882353
 21
11.0
 31
0.0
  0
LINE
  5
115
330
1E
100
AcDbEntity
  8
0
100
AcDbLine
 10
25.4
 20
13.0
 30
0.0
 11
26.8
 21
13.0
 31
0.0
  0
LINE
  5
116
330
1E
100
AcDbEntity
  8
0
100
AcDbLine
 10
24.496
 20
18.0
 30
0.0
 11
26.128
 21
18.0
 31
0.0
  0
LINE
  5
117
330
1E
100
AcDbEntity
  8
0
100
AcDbLine
 10
26.128
 20
18.0
 30
0.0
 11
27.984
 21
18.0
 31
0.0
  0
LINE
  5
118
330
1E
100
AcDbEntity
  8
0
100
AcDbLine
 10
24.39999999999999
 20
18.0
 30
0.0
 11
25.4
 21
18.0
 31
0.0
  0
LINE
  5
119
330
1E
100
AcDbEntity
  8
0
100
AcDbLine
 10
23.7
 20
18.0
 30
0.0
 11
24.39999999999999
 21
18.0
 31
0.0
  0
LINE
  5
11A
330
1E
100
AcDbEntity
  8
0
100
AcDbLine
 10
24.9
 20
33.5
 30
0.0
 11
30.0
 21
33.5
 31
0.0
  0
LINE
  5
11B
330
1E
100
AcDbEntity
  8
0
100
AcDbLine
 10
24.7
 20
35.0
 30
0.0
 11
30.0
 21
35.0
 31
0.0
  0
LINE
  5
11C
330
1E
100
AcDbEntity
  8
0
100
AcDbLine
 10
24.6
 20
70.0
 30
0.0
 11
30.0
 21
70.0
 31
0.0
  0
LINE
  5
11D
330
1E
100
AcDbEntity
  8
0
100
AcDbLine
 10
24.336
 20
33.0
 30
0.0
 11
26.03199999999999
 21
33.0
 31
0.0
  0
LINE
  5
11E
330
1E
100
AcDbEntity
  8
0
100
AcDbLine
 10
26.03199999999999
 20
33.0
 30
0.0
 11
27.95199999999999
 21
33.0
 31
0.0
  0
LINE
  5
11F
330
1E
100
AcDbEntity
  8
0
100
AcDbLine
 10
25.4
 20
18.0
 30
0.0
 11
26.8
 21
18.0
 31
0.0
  0
LINE
  5
120
330
1E
100
AcDbEntity
  8
0
100
AcDbLine
 10
27.984
 20
18.0
 30
0.0
 11
30.0
 21
18.0
 31
0.0
  0
LINE
  5
121
330
1E
100
AcDbEntity
  8
0
100
AcDbLine
 10
27.95199999999999
 20
33.0
 30
0.0
 11
30.0
 21
33.0
 31
0.0
  0
LINE
  5
122
330
1E
100
AcDbEntity
  8
0
100
AcDbLine
 10
26.8
 20
18.0
 30
0.0
 11
28.3
 21
18.0
 31
0.0
  0
LINE
  5
123
330
1E
100
AcDbEntity
  8
0
100
AcDbLine
 10
26.8
 20
13.0
 30
0.0
 11
28.3
 21
13.0
 31
0.0
  0
LINE
  5
124
330
1E
100
AcDbEntity
  8
0
100
AcDbLine
 10
23.5
 20
13.0
 30
0.0
 11
23.5
 21
18.0
 31
0.0
  0
LINE
  5
125
330
1E
100
AcDbEntity
  8
0
100
AcDbLine
 10
23.5
 20
13.0
 30
0.0
 11
23.7
 21
13.0
 31
0.0
  0
LINE
  5
126
330
1E
100
AcDbEntity
  8
0
100
AcDbLine
 10
27.8536
 20
10.783
 30
0.0
 11
28.6248143899836
 21
11.1714078588698
 31
0.0
  0
LINE
  5
127
330
1E
100
AcDbEntity
  8
0
100
AcDbLine
 10
28.2
 20
3.051
 30
0.0
 11
28.7
 21
0.5909999999999979
 31
0.0
  0
LINE
  5
128
330
1E
100
AcDbEntity
  8
0
100
AcDbLine
 10
28.2
 20
3.051
 30
0.0
 11
28.7
 21
0.5909999999999979
 31
0.0
  0
LINE
  5
12A
330
1E
100
AcDbEntity
  8
0
100
AcDbLine
 10
29.19999999999999
 20
1.955999999999999
 30
0.0
 11
29.19999999999999
 21
3.071
 31
0.0
  0
LINE
  5
12B
330
1E
100
AcDbEntity
  8
0
100
AcDbLine
 10
29.19999999999999
 20
1.955999999999999
 30
0.0
 11
29.19999999999999
 21
1.187
 31
0.0
  0
LINE
  5
12C
330
1E
100
AcDbEntity
  8
0
100
AcDbLine
 10
29.19999999999999
 20
3.071
 30
0.0
 11
29.19999999999999
 21
6.0
 31
0.0
  0
LINE
  5
12D
330
1E
100
AcDbEntity
  8
0
100
AcDbLine
 10
29.19999999999999
 20
3.071
 30
0.0
 11
29.19999999999999
 21
1.955999999999999
 31
0.0
  0
LINE
  5
12E
330
1E
100
AcDbEntity
  8
0
100
AcDbLine
 10
30.8
 20
1.955999999999999
 30
0.0
 11
30.8
 21
1.187
 31
0.0
  0
LINE
  5
12F
330
1E
100
AcDbEntity
  8
0
100
AcDbLine
 10
30.8
 20
1.955999999999999
 30
0.0
 11
30.8
 21
3.071
 31
0.0
  0
LINE
  5
130
330
1E
100
AcDbEntity
  8
0
100
AcDbLine
 10
29.19999999999999
 20
6.0
 30
0.0
 11
29.19999999999999
 21
3.071
 31
0.0
  0
LINE
  5
131
330
1E
100
AcDbEntity
  8
0
100
AcDbLine
 10
29.19999999999999
 20
6.0
 30
0.0
 11
29.19999999999999
 21
8.929
 31
0.0
  0
LINE
  5
132
330
1E
100
AcDbEntity
  8
0
100
AcDbLine
 10
30.8
 20
3.071
 30
0.0
 11
30.8
 21
1.955999999999999
 31
0.0
  0
LINE
  5
133
330
1E
100
AcDbEntity
  8
0
100
AcDbLine
 10
30.8
 20
3.071
 30
0.0
 11
30.8
 21
6.0
 31
0.0
  0
LINE
  5
134
330
1E
100
AcDbEntity
  8
0
100
AcDbLine
 10
38.5
 20
2.0
 30
0.0
 11
40.42229999999999
 21
1.857
 31
0.0
  0
LINE
  5
135
330
1E
100
AcDbEntity
  8
0
100
AcDbLine
 10
36.0
 20
1.857
 30
0.0
 11
38.5
 21
2.0
 31
0.0
  0
LINE
  5
136
330
1E
100
AcDbEntity
  8
0
100
AcDbLine
 10
40.42229999999999
 20
1.857
 30
0.0
 11
42.70399999999999
 21
1.551999999999999
 31
0.0
  0
LINE
  5
137
330
1E
100
AcDbEntity
  8
0
100
AcDbLine
 10
31.8
 20
3.051
 30
0.0
 11
32.0
 21
6.0
 31
0.0
  0
LINE
  5
139
330
1E
100
AcDbEntity
  8
0
100
AcDbLine
 10
30.8
 20
6.0
 30
0.0
 11
30.8
 21
8.929
 31
0.0
  0
LINE
  5
13A
330
1E
100
AcDbEntity
  8
0
100
AcDbLine
 10
30.8
 20
6.0
 30
0.0
 11
30.8
 21
3.071
 31
0.0
  0
LINE
  5
13B
330
1E
100
AcDbEntity
  8
0
100
AcDbLine
 10
28.2
 20
8.948999999999999
 30
0.0
 11
28.7
 21
11.409
 31
0.0
  0
LINE
  5
13D
330
1E
100
AcDbEntity
  8
0
100
AcDbLine
 10
29.19999999999999
 20
10.044
 30
0.0
 11
29.19999999999999
 21
10.81299999999999
 31
0.0
  0
LINE
  5
13E
330
1E
100
AcDbEntity
  8
0
100
AcDbLine
 10
29.19999999999999
 20
10.044
 30
0.0
 11
29.19999999999999
 21
8.929
 31
0.0
  0
LINE
  5
13F
330
1E
100
AcDbEntity
  8
0
100
AcDbLine
 10
29.19999999999999
 20
8.929
 30
0.0
 11
29.19999999999999
 21
10.044
 31
0.0
  0
LINE
  5
140
330
1E
100
AcDbEntity
  8
0
100
AcDbLine
 10
29.19999999999999
 20
8.929
 30
0.0
 11
29.19999999999999
 21
6.0
 31
0.0
  0
LINE
  5
143
330
1E
100
AcDbEntity
  8
0
100
AcDbLine
 10
30.8
 20
10.044
 30
0.0
 11
30.8
 21
8.929
 31
0.0
  0
LINE
  5
144
330
1E
100
AcDbEntity
  8
0
100
AcDbLine
 10
30.8
 20
10.044
 30
0.0
 11
30.8
 21
10.81299999999999
 31
0.0
  0
LINE
  5
148
330
1E
100
AcDbEntity
  8
0
100
AcDbLine
 10
30.8
 20
8.929
 30
0.0
 11
30.8
 21
6.0
 31
0.0
  0
LINE
  5
149
330
1E
100
AcDbEntity
  8
0
100
AcDbLine
 10
30.8
 20
8.929
 30
0.0
 11
30.8
 21
10.044
 31
0.0
  0
LINE
  5
14C
330
1E
100
AcDbEntity
  8
0
100
AcDbLine
 10
28.7
 20
11.409
 30
0.0
 11
29.19999999999999
 21
11.908
 31
0.0
  0
LINE
  5
14E
330
1E
100
AcDbEntity
  8
0
100
AcDbLine
 10
29.19999999999999
 20
11.524
 30
0.0
 11
29.19999999999999
 21
11.908
 31
0.0
  0
LINE
  5
14F
330
1E
100
AcDbEntity
  8
0
100
AcDbLine
 10
29.19999999999999
 20
11.524
 30
0.0
 11
29.19999999999999
 21
10.81299999999999
 31
0.0
  0
LINE
  5
150
330
1E
100
AcDbEntity
  8
0
100
AcDbLine
 10
29.19999999999999
 20
10.81299999999999
 30
0.0
 11
29.19999999999999
 21
11.524
 31
0.0
  0
LINE
  5
151
330
1E
100
AcDbEntity
  8
0
100
AcDbLine
 10
29.19999999999999
 20
10.81299999999999
 30
0.0
 11
29.19999999999999
 21
10.044
 31
0.0
  0
LINE
  5
152
330
1E
100
AcDbEntity
  8
0
100
AcDbLine
 10
30.8
 20
11.524
 30
0.0
 11
30.8
 21
10.81299999999999
 31
0.0
  0
LINE
  5
153
330
1E
100
AcDbEntity
  8
0
100
AcDbLine
 10
30.8
 20
11.524
 30
0.0
 11
30.8
 21
11.908
 31
0.0
  0
LINE
  5
155
330
1E
100
AcDbEntity
  8
0
100
AcDbLine
 10
31.3
 20
11.409
 30
0.0
 11
31.8
 21
8.948999999999999
 31
0.0
  0
LINE
  5
158
330
1E
100
AcDbEntity
  8
0
100
AcDbLine
 10
30.8
 20
10.81299999999999
 30
0.0
 11
30.8
 21
10.044
 31
0.0
  0
LINE
  5
159
330
1E
100
AcDbEntity
  8
0
100
AcDbLine
 10
30.8
 20
10.81299999999999
 30
0.0
 11
30.8
 21
11.524
 31
0.0
  0
LINE
  5
15C
330
1E
100
AcDbEntity
  8
0
100
AcDbLine
 10
32.1
 20
11.0
 30
0.0
 11
34.0
 21
11.0
 31
0.0
  0
LINE
  5
15D
330
1E
100
AcDbEntity
  8
0
100
AcDbLine
 10
31.7155294117647
 20
11.0
 30
0.0
 11
32.1
 21
11.0
 31
0.0
  0
LINE
  5
15E
330
1E
100
AcDbEntity
  8
0
100
AcDbLine
 10
31.8
 20
8.948999999999999
 30
0.0
 11
32.0
 21
6.0
 31
0.0
  0
LINE
  5
15F
330
1E
100
AcDbEntity
  8
0
100
AcDbLine
 10
36.0
 20
10.14299999999999
 30
0.0
 11
38.5
 21
10.0
 31
0.0
  0
LINE
  5
160
330
1E
100
AcDbEntity
  8
0
100
AcDbLine
 10
38.5
 20
10.0
 30
0.0
 11
40.42229999999999
 21
10.14299999999999
 31
0.0
  0
LINE
  5
161
330
1E
100
AcDbEntity
  8
0
100
AcDbLine
 10
40.42229999999999
 20
10.14299999999999
 30
0.0
 11
42.70399999999999
 21
10.448
 31
0.0
  0
LINE
  5
162
330
1E
100
AcDbEntity
  8
0
100
AcDbLine
 10
33.9902
 20
10.448
 30
0.0
 11
36.0
 21
10.14299999999999
 31
0.0
  0
LINE
  5
163
330
1E
100
AcDbEntity
  8
0
100
AcDbLine
 10
44.3861949815465
 20
10.652631729118
 30
0.0
 11
45.13819999999999
 21
10.757
 31
0.0
  0
LINE
  5
164
330
1E
100
AcDbEntity
  8
0
100
AcDbLine
 10
45.13819999999999
 20
10.757
 30
0.0
 11
45.4579
 21
10.783
 31
0.0
  0
LINE
  5
165
330
1E
100
AcDbEntity
  8
0
100
AcDbLine
 10
42.70399999999999
 20
10.448
 30
0.0
 11
45.4579
 21
10.783
 31
0.0
  0
LINE
  5
166
330
1E
100
AcDbEntity
  8
0
100
AcDbLine
 10
35.6
 20
11.0
 30
0.0
 11
36.89999999999999
 21
11.0
 31
0.0
  0
LINE
  5
167
330
1E
100
AcDbEntity
  8
0
100
AcDbLine
 10
36.89999999999999
 20
11.0
 30
0.0
 11
37.7
 21
11.0
 31
0.0
  0
LINE
  5
168
330
1E
100
AcDbEntity
  8
0
100
AcDbLine
 10
37.7
 20
11.0
 30
0.0
 11
38.0
 21
11.0
 31
0.0
  0
LINE
  5
169
330
1E
100
AcDbEntity
  8
0
100
AcDbLine
 10
34.0
 20
11.0
 30
0.0
 11
35.6
 21
11.0
 31
0.0
  0
LINE
  5
16A
330
1E
100
AcDbEntity
  8
0
100
AcDbLine
 10
38.0
 20
11.0
 30
0.0
 11
40.4664645953054
 21
10.1778451348982
 31
0.0
  0
LINE
  5
16B
330
1E
100
AcDbEntity
  8
0
100
AcDbLine
 10
45.4579
 20
10.783
 30
0.0
 11
49.00199999999999
 21
11.31
 31
0.0
  0
LINE
  5
16C
330
1E
100
AcDbEntity
  8
0
100
AcDbLine
 10
32.1464
 20
10.783
 30
0.0
 11
33.9902
 21
10.448
 31
0.0
  0
LINE
  5
16D
330
1E
100
AcDbEntity
  8
0
100
AcDbLine
 10
31.37518561001639
 20
11.1714078588698
 30
0.0
 11
32.1464
 21
10.783
 31
0.0
  0
LINE
  5
16F
330
1E
100
AcDbEntity
  8
0
100
AcDbLine
 10
58.1246
 20
1.955999999999999
 30
0.0
 11
58.6438
 21
3.071
 31
0.0
  0
LINE
  5
170
330
1E
100
AcDbEntity
  8
0
100
AcDbLine
 10
58.6438
 20
3.071
 30
0.0
 11
59.0
 21
6.0
 31
0.0
  0
LINE
  5
172
330
1E
100
AcDbEntity
  8
0
100
AcDbLine
 10
58.1246
 20
10.044
 30
0.0
 11
58.6438
 21
8.929
 31
0.0
  0
LINE
  5
173
330
1E
100
AcDbEntity
  8
0
100
AcDbLine
 10
58.6438
 20
8.929
 30
0.0
 11
59.0
 21
6.0
 31
0.0
  0
LINE
  5
176
330
1E
100
AcDbEntity
  8
0
100
AcDbLine
 10
56.3747
 20
11.524
 30
0.0
 11
57.4708
 21
10.81299999999999
 31
0.0
  0
LINE
  5
177
330
1E
100
AcDbEntity
  8
0
100
AcDbLine
 10
57.4708
 20
10.81299999999999
 30
0.0
 11
58.1246
 21
10.044
 31
0.0
  0
LINE
  5
178
330
1E
100
AcDbEntity
  8
0
100
AcDbLine
 10
57.567
 20
10.717
 30
0.0
 11
57.71763947416459
 21
10.5226672443674
 31
0.0
  0
LINE
  5
179
330
1E
100
AcDbEntity
  8
0
100
AcDbLine
 10
49.00199999999999
 20
11.31
 30
0.0
 11
52.9771
 21
11.788
 31
0.0
  0
LINE
  5
17A
330
1E
100
AcDbEntity
  8
0
100
AcDbLine
 10
52.9771
 20
11.788
 30
0.0
 11
54.8748
 21
11.908
 31
0.0
  0
LINE
  5
17B
330
1E
100
AcDbEntity
  8
0
100
AcDbLine
 10
53.1036
 20
11.807
 30
0.0
 11
53.6600409962618
 21
11.8311853926076
 31
0.0
  0
LINE
  5
17C
330
1E
100
AcDbEntity
  8
0
100
AcDbLine
 10
28.3
 20
18.0
 30
0.0
 11
30.0
 21
18.0
 31
0.0
  0
LINE
  5
17D
330
1E
100
AcDbEntity
  8
0
100
AcDbLine
 10
28.3
 20
13.0
 30
0.0
 11
30.0
 21
13.0
 31
0.0
  0
LINE
  5
17E
330
1E
100
AcDbEntity
  8
0
100
AcDbLine
 10
30.0
 20
35.0
 30
0.0
 11
35.29999999999999
 21
35.0
 31
0.0
  0
LINE
  5
17F
330
1E
100
AcDbEntity
  8
0
100
AcDbLine
 10
30.0
 20
33.5
 30
0.0
 11
35.1
 21
33.5
 31
0.0
  0
LINE
  5
180
330
1E
100
AcDbEntity
  8
0
100
AcDbLine
 10
30.0
 20
35.5
 30
0.0
 11
37.1
 21
35.5
 31
0.0
  0
LINE
  5
181
330
1E
100
AcDbEntity
  8
0
100
AcDbLine
 10
30.0
 20
60.5
 30
0.0
 11
37.29999999999999
 21
60.5
 31
0.0
  0
LINE
  5
182
330
1E
100
AcDbEntity
  8
0
100
AcDbLine
 10
30.0
 20
61.0
 30
0.0
 11
37.6
 21
61.0
 31
0.0
  0
LINE
  5
183
330
1E
100
AcDbEntity
  8
0
100
AcDbLine
 10
30.0
 20
114.0
 30
0.0
 11
37.7
 21
114.0
 31
0.0
  0
LINE
  5
184
330
1E
100
AcDbEntity
  8
0
100
AcDbLine
 10
30.0
 20
66.0
 30
0.0
 11
36.89999999999999
 21
66.0
 31
0.0
  0
LINE
  5
185
330
1E
100
AcDbEntity
  8
0
100
AcDbLine
 10
30.0
 20
70.0
 30
0.0
 11
35.4
 21
70.0
 31
0.0
  0
LINE
  5
186
330
1E
100
AcDbEntity
  8
0
100
AcDbLine
 10
30.0
 20
33.0
 30
0.0
 11
32.048
 21
33.0
 31
0.0
  0
LINE
  5
187
330
1E
100
AcDbEntity
  8
0
100
AcDbLine
 10
30.0
 20
18.0
 30
0.0
 11
31.69999999999999
 21
18.0
 31
0.0
  0
LINE
  5
188
330
1E
100
AcDbEntity
  8
0
100
AcDbLine
 10
30.0
 20
18.0
 30
0.0
 11
32.016
 21
18.0
 31
0.0
  0
LINE
  5
189
330
1E
100
AcDbEntity
  8
0
100
AcDbLine
 10
30.0
 20
13.0
 30
0.0
 11
31.69999999999999
 21
13.0
 31
0.0
  0
LINE
  5
18A
330
1E
100
AcDbEntity
  8
0
100
AcDbLine
 10
29.19999999999999
 20
11.908
 30
0.0
 11
30.0
 21
11.889
 31
0.0
  0
LINE
  5
18B
330
1E
100
AcDbEntity
  8
0
100
AcDbLine
 10
29.19999999999999
 20
11.908
 30
0.0
 11
29.19999999999999
 21
11.524
 31
0.0
  0
LINE
  5
18C
330
1E
100
AcDbEntity
  8
0
100
AcDbLine
 10
30.0
 20
11.889
 30
0.0
 11
30.8
 21
11.908
 31
0.0
  0
LINE
  5
18D
330
1E
100
AcDbEntity
  8
0
100
AcDbLine
 10
34.6
 20
13.0
 30
0.0
 11
35.6
 21
13.0
 31
0.0
  0
LINE
  5
18E
330
1E
100
AcDbEntity
  8
0
100
AcDbLine
 10
35.6
 20
13.0
 30
0.0
 11
36.29999999999999
 21
13.0
 31
0.0
  0
LINE
  5
18F
330
1E
100
AcDbEntity
  8
0
100
AcDbLine
 10
36.29999999999999
 20
13.0
 30
0.0
 11
36.5
 21
13.0
 31
0.0
  0
LINE
  5
190
330
1E
100
AcDbEntity
  8
0
100
AcDbLine
 10
33.2
 20
13.0
 30
0.0
 11
34.6
 21
13.0
 31
0.0
  0
LINE
  5
191
330
1E
100
AcDbEntity
  8
0
100
AcDbLine
 10
31.69999999999999
 20
13.0
 30
0.0
 11
33.2
 21
13.0
 31
0.0
  0
LINE
  5
192
330
1E
100
AcDbEntity
  8
0
100
AcDbLine
 10
33.87199999999999
 20
18.0
 30
0.0
 11
35.50399999999999
 21
18.0
 31
0.0
  0
LINE
  5
193
330
1E
100
AcDbEntity
  8
0
100
AcDbLine
 10
32.016
 20
18.0
 30
0.0
 11
33.87199999999999
 21
18.0
 31
0.0
  0
LINE
  5
194
330
1E
100
AcDbEntity
  8
0
100
AcDbLine
 10
35.50399999999999
 20
18.0
 30
0.0
 11
36.75199999999999
 21
18.0
 31
0.0
  0
LINE
  5
195
330
1E
100
AcDbEntity
  8
0
100
AcDbLine
 10
34.6
 20
18.0
 30
0.0
 11
35.6
 21
18.0
 31
0.0
  0
LINE
  5
196
330
1E
100
AcDbEntity
  8
0
100
AcDbLine
 10
35.6
 20
18.0
 30
0.0
 11
36.29999999999999
 21
18.0
 31
0.0
  0
LINE
  5
197
330
1E
100
AcDbEntity
  8
0
100
AcDbLine
 10
36.29999999999999
 20
18.0
 30
0.0
 11
36.5
 21
18.0
 31
0.0
  0
LINE
  5
198
330
1E
100
AcDbEntity
  8
0
100
AcDbLine
 10
35.664
 20
33.0
 30
0.0
 11
36.944
 21
33.0
 31
0.0
  0
LINE
  5
199
330
1E
100
AcDbEntity
  8
0
100
AcDbLine
 10
35.29999999999999
 20
35.0
 30
0.0
 11
40.2
 21
35.0
 31
0.0
  0
LINE
  5
19A
330
1E
100
AcDbEntity
  8
0
100
AcDbLine
 10
35.1
 20
33.5
 30
0.0
 11
39.9
 21
33.5
 31
0.0
  0
LINE
  5
19B
330
1E
100
AcDbEntity
  8
0
100
AcDbLine
 10
35.4
 20
70.0
 30
0.0
 11
40.4
 21
70.0
 31
0.0
  0
LINE
  5
19C
330
1E
100
AcDbEntity
  8
0
100
AcDbLine
 10
33.968
 20
33.0
 30
0.0
 11
35.664
 21
33.0
 31
0.0
  0
LINE
  5
19D
330
1E
100
AcDbEntity
  8
0
100
AcDbLine
 10
32.048
 20
33.0
 30
0.0
 11
33.968
 21
33.0
 31
0.0
  0
LINE
  5
19E
330
1E
100
AcDbEntity
  8
0
100
AcDbLine
 10
33.2
 20
18.0
 30
0.0
 11
34.6
 21
18.0
 31
0.0
  0
LINE
  5
19F
330
1E
100
AcDbEntity
  8
0
100
AcDbLine
 10
31.69999999999999
 20
18.0
 30
0.0
 11
33.2
 21
18.0
 31
0.0
  0
LINE
  5
1A0
330
1E
100
AcDbEntity
  8
0
100
AcDbLine
 10
36.5
 20
13.0
 30
0.0
 11
38.0
 21
11.0
 31
0.0
  0
LINE
  5
1A1
330
1E
100
AcDbEntity
  8
0
100
AcDbLine
 10
36.5
 20
13.0
 30
0.0
 11
36.5
 21
18.0
 31
0.0
  0
LINE
  5
1A2
330
1E
100
AcDbEntity
  8
0
100
AcDbLine
 10
37.52
 20
18.0
 30
0.0
 11
37.808
 21
18.0
 31
0.0
  0
LINE
  5
1A3
330
1E
100
AcDbEntity
  8
0
100
AcDbLine
 10
37.808
 20
18.0
 30
0.0
 11
38.0
 21
18.3333
 31
0.0
  0
LINE
  5
1A4
330
1E
100
AcDbEntity
  8
0
100
AcDbLine
 10
36.75199999999999
 20
18.0
 30
0.0
 11
37.52
 21
18.0
 31
0.0
  0
LINE
  5
1A5
330
1E
100
AcDbEntity
  8
0
100
AcDbLine
 10
36.89999999999999
 20
66.0
 30
0.0
 11
43.39999999999999
 21
66.0
 31
0.0
  0
LINE
  5
1A6
330
1E
100
AcDbEntity
  8
0
100
AcDbLine
 10
39.2
 20
33.0
 30
0.0
 11
43.1
 21
33.0
 31
0.0
  0
LINE
  5
1A7
330
1E
100
AcDbEntity
  8
0
100
AcDbLine
 10
43.1
 20
33.0
 30
0.0
 11
46.0
 21
33.0
 31
0.0
  0
LINE
  5
1A8
330
1E
100
AcDbEntity
  8
0
100
AcDbLine
 10
46.0
 20
33.0
 30
0.0
 11
47.8
 21
33.0
 31
0.0
  0
LINE
  5
1A9
330
1E
100
AcDbEntity
  8
0
100
AcDbLine
 10
48.5
 20
33.0
 30
0.0
 11
50.0
 21
33.5
 31
0.0
  0
LINE
  5
1AA
330
1E
100
AcDbEntity
  8
0
100
AcDbLine
 10
47.8
 20
33.0
 30
0.0
 11
48.5
 21
33.0
 31
0.0
  0
LINE
  5
1AB
330
1E
100
AcDbEntity
  8
0
100
AcDbLine
 10
37.71199999999999
 20
33.0
 30
0.0
 11
38.0
 21
33.0
 31
0.0
  0
LINE
  5
1AC
330
1E
100
AcDbEntity
  8
0
100
AcDbLine
 10
37.1
 20
35.5
 30
0.0
 11
43.7
 21
35.5
 31
0.0
  0
LINE
  5
1AD
330
1E
100
AcDbEntity
  8
0
100
AcDbLine
 10
37.29999999999999
 20
60.5
 30
0.0
 11
44.2
 21
60.5
 31
0.0
  0
LINE
  5
1AE
330
1E
100
AcDbEntity
  8
0
100
AcDbLine
 10
44.1
 20
33.5
 30
0.0
 11
47.29999999999999
 21
33.5
 31
0.0
  0
LINE
  5
1AF
330
1E
100
AcDbEntity
  8
0
100
AcDbLine
 10
40.2
 20
35.0
 30
0.0
 11
44.5
 21
35.0
 31
0.0
  0
LINE
  5
1B0
330
1E
100
AcDbEntity
  8
0
100
AcDbLine
 10
39.9
 20
33.5
 30
0.0
 11
44.1
 21
33.5
 31
0.0
  0
LINE
  5
1B1
330
1E
100
AcDbEntity
  8
0
100
AcDbLine
 10
43.7
 20
35.5
 30
0.0
 11
49.4
 21
35.5
 31
0.0
  0
LINE
  5
1B2
330
1E
100
AcDbEntity
  8
0
100
AcDbLine
 10
44.5
 20
35.0
 30
0.0
 11
47.8
 21
35.0
 31
0.0
  0
LINE
  5
1B3
330
1E
100
AcDbEntity
  8
0
100
AcDbLine
 10
47.8
 20
35.0
 30
0.0
 11
49.8
 21
35.0
 31
0.0
  0
LINE
  5
1B4
330
1E
100
AcDbEntity
  8
0
100
AcDbLine
 10
47.29999999999999
 20
33.5
 30
0.0
 11
49.29999999999999
 21
33.5
 31
0.0
  0
LINE
  5
1B5
330
1E
100
AcDbEntity
  8
0
100
AcDbLine
 10
44.2
 20
60.5
 30
0.0
 11
50.1
 21
60.5
 31
0.0
  0
LINE
  5
1B6
330
1E
100
AcDbEntity
  8
0
100
AcDbLine
 10
44.7
 20
61.0
 30
0.0
 11
50.8
 21
61.0
 31
0.0
  0
LINE
  5
1B7
330
1E
100
AcDbEntity
  8
0
100
AcDbLine
 10
37.6
 20
61.0
 30
0.0
 11
44.7
 21
61.0
 31
0.0
  0
LINE
  5
1B8
330
1E
100
AcDbEntity
  8
0
100
AcDbLine
 10
44.79999999999999
 20
70.0
 30
0.0
 11
48.2
 21
70.0
 31
0.0
  0
LINE
  5
1B9
330
1E
100
AcDbEntity
  8
0
100
AcDbLine
 10
48.2
 20
70.0
 30
0.0
 11
50.2
 21
70.0
 31
0.0
  0
LINE
  5
1BA
330
1E
100
AcDbEntity
  8
0
100
AcDbLine
 10
43.39999999999999
 20
66.0
 30
0.0
 11
49.0
 21
66.0
 31
0.0
  0
LINE
  5
1BB
330
1E
100
AcDbEntity
  8
0
100
AcDbLine
 10
49.8
 20
35.0
 30
0.0
 11
50.5
 21
35.0
 31
0.0
  0
LINE
  5
1BC
330
1E
100
AcDbEntity
  8
0
100
AcDbLine
 10
49.29999999999999
 20
33.5
 30
0.0
 11
50.0
 21
33.5
 31
0.0
  0
LINE
  5
1BD
330
1E
100
AcDbEntity
  8
0
100
AcDbLine
 10
49.4
 20
35.5
 30
0.0
 11
53.79999999999999
 21
35.5
 31
0.0
  0
LINE
  5
1BE
330
1E
100
AcDbEntity
  8
0
100
AcDbLine
 10
49.0
 20
66.0
 30
0.0
 11
53.39999999999999
 21
66.0
 31
0.0
  0
LINE
  5
1BF
330
1E
100
AcDbEntity
  8
0
100
AcDbLine
 10
44.9
 20
114.0
 30
0.0
 11
51.2
 21
114.0
 31
0.0
  0
LINE
  5
1C0
330
1E
100
AcDbEntity
  8
0
100
AcDbLine
 10
37.7
 20
114.0
 30
0.0
 11
44.9
 21
114.0
 31
0.0
  0
LINE
  5
1C1
330
1E
100
AcDbEntity
  8
0
100
AcDbLine
 10
40.4
 20
70.0
 30
0.0
 11
44.79999999999999
 21
70.0
 31
0.0
  0
LINE
  5
1C2
330
1E
100
AcDbEntity
  8
0
100
AcDbLine
 10
50.2
 20
70.0
 30
0.0
 11
51.0
 21
70.0
 31
0.0
  0
LINE
  5
1C3
330
1E
100
AcDbEntity
  8
0
100
AcDbLine
 10
50.1
 20
60.5
 30
0.0
 11
54.7
 21
60.5
 31
0.0
  0
LINE
  5
1C4
330
1E
100
AcDbEntity
  8
0
100
AcDbLine
 10
51.0
 20
66.0
 30
0.0
 11
51.0
 21
70.0
 31
0.0
  0
LINE
  5
1C5
330
1E
100
AcDbEntity
  8
0
100
AcDbLine
 10
50.8
 20
61.0
 30
0.0
 11
55.5
 21
61.0
 31
0.0
  0
LINE
  5
1C6
330
1E
100
AcDbEntity
  8
0
100
AcDbLine
 10
50.5
 20
35.0
 30
0.0
 11
52.5
 21
35.0
 31
0.0
  0
LINE
  5
1C7
330
1E
100
AcDbEntity
  8
0
100
AcDbLine
 10
53.79999999999999
 20
35.5
 30
0.0
 11
56.5
 21
35.5
 31
0.0
  0
LINE
  5
1C8
330
1E
100
AcDbEntity
  8
0
100
AcDbLine
 10
54.7
 20
60.5
 30
0.0
 11
57.5
 21
60.5
 31
0.0
  0
LINE
  5
1C9
330
1E
100
AcDbEntity
  8
0
100
AcDbLine
 10
53.39999999999999
 20
66.0
 30
0.0
 11
56.0
 21
66.0
 31
0.0
  0
LINE
  5
1CA
330
1E
100
AcDbEntity
  8
0
100
AcDbLine
 10
53.39999999999999
 20
70.0
 30
0.0
 11
56.0
 21
70.0
 31
0.0
  0
LINE
  5
1CB
330
1E
100
AcDbEntity
  8
0
100
AcDbLine
 10
52.5
 20
35.0
 30
0.0
 11
55.1
 21
35.0
 31
0.0
  0
LINE
  5
1CC
330
1E
100
AcDbEntity
  8
0
100
AcDbLine
 10
51.2
 20
114.0
 30
0.0
 11
56.0
 21
114.0
 31
0.0
  0
LINE
  5
1CD
330
1E
100
AcDbEntity
  8
0
100
AcDbLine
 10
51.0
 20
70.0
 30
0.0
 11
51.0
 21
66.0
 31
0.0
  0
LINE
  5
1CE
330
1E
100
AcDbEntity
  8
0
100
AcDbLine
 10
51.0
 20
70.0
 30
0.0
 11
53.39999999999999
 21
70.0
 31
0.0
  0
LINE
  5
1CF
330
1E
100
AcDbEntity
  8
0
100
AcDbLine
 10
50.0
 20
33.5
 30
0.0
 11
50.5
 21
35.0
 31
0.0
  0
LINE
  5
1D0
330
1E
100
AcDbEntity
  8
0
100
AcDbLine
 10
38.0
 20
33.0
 30
0.0
 11
38.0
 21
18.3333
 31
0.0
  0
LINE
  5
1D1
330
1E
100
AcDbEntity
  8
0
100
AcDbLine
 10
38.0
 20
33.0
 30
0.0
 11
39.2
 21
33.0
 31
0.0
  0
LINE
  5
1D2
330
1E
100
AcDbEntity
  8
0
100
AcDbLine
 10
36.944
 20
33.0
 30
0.0
 11
37.71199999999999
 21
33.0
 31
0.0
  0
LINE
  5
1D3
330
1E
100
AcDbEntity
  8
0
100
AcDbLine
 10
38.0
 20
18.3333
 30
0.0
 11
38.0
 21
33.0
 31
0.0
  0
LINE
  5
1D4
330
1E
100
AcDbEntity
  8
0
100
AcDbLine
 10
36.5
 20
18.0
 30
0.0
 11
36.5
 21
13.0
 31
0.0
  0
LINE
  5
1D5
330
1E
100
AcDbEntity
  8
0
100
AcDbLine
 10
36.5
 20
18.0
 30
0.0
 11
36.75199999999999
 21
18.0
 31
0.0
  0
LINE
  5
1D6
330
1E
100
AcDbEntity
  8
0
100
AcDbLine
 10
54.8748
 20
11.908
 30
0.0
 11
56.3747
 21
11.524
 31
0.0
  0
LINE
  5
1D7
330
1E
100
AcDbEntity
  8
0
100
AcDbLine
 10
30.8
 20
11.908
 30
0.0
 11
30.8
 21
11.524
 31
0.0
  0
LINE
  5
1D8
330
1E
100
AcDbEntity
  8
0
100
AcDbLine
 10
30.8
 20
11.908
 30
0.0
 11
31.3
 21
11.409
 31
0.0
  0
LINE
  5
1D9
330
1E
100
AcDbEntity
  8
0
100
AcDbLine
 10
56.5
 20
35.5
 30
0.0
 11
57.5
 21
35.5
 31
0.0
  0
LINE
  5
1DA
330
1E
100
AcDbEntity
  8
0
100
AcDbLine
 10
56.0
 20
35.0
 30
0.0
 11
57.5
 21
35.5
 31
0.0
  0
LINE
  5
1DB
330
1E
100
AcDbEntity
  8
0
100
AcDbLine
 10
55.1
 20
35.0
 30
0.0
 11
56.0
 21
35.0
 31
0.0
  0
LINE
  5
1DC
330
1E
100
AcDbEntity
  8
0
100
AcDbLine
 10
58.0
 20
37.0
 30
0.0
 11
58.0
 21
59.0
 31
0.0
  0
LINE
  5
1DD
330
1E
100
AcDbEntity
  8
0
100
AcDbLine
 10
57.5
 20
60.5
 30
0.0
 11
58.5
 21
60.5
 31
0.0
  0
LINE
  5
1DE
330
1E
100
AcDbEntity
  8
0
100
AcDbLine
 10
57.5
 20
35.5
 30
0.0
 11
58.0
 21
37.0
 31
0.0
  0
LINE
  5
1DF
330
1E
100
AcDbEntity
  8
0
100
AcDbLine
 10
58.0
 20
59.0
 30
0.0
 11
58.5
 21
60.5
 31
0.0
  0
LINE
  5
1E0
330
1E
100
AcDbEntity
  8
0
100
AcDbLine
 10
58.0
 20
59.0
 30
0.0
 11
58.0
 21
37.0
 31
0.0
  0
LINE
  5
1E1
330
1E
100
AcDbEntity
  8
0
100
AcDbLine
 10
55.5
 20
61.0
 30
0.0
 11
58.39999999999999
 21
61.0
 31
0.0
  0
LINE
  5
1E2
330
1E
100
AcDbEntity
  8
0
100
AcDbLine
 10
58.39999999999999
 20
61.0
 30
0.0
 11
59.5
 21
61.0
 31
0.0
  0
LINE
  5
1E3
330
1E
100
AcDbEntity
  8
0
100
AcDbLine
 10
56.0
 20
66.0
 30
0.0
 11
57.0
 21
66.0
 31
0.0
  0
LINE
  5
1E4
330
1E
100
AcDbEntity
  8
0
100
AcDbLine
 10
58.5
 20
60.5
 30
0.0
 11
59.5
 21
61.0
 31
0.0
  0
LINE
  5
1E5
330
1E
100
AcDbEntity
  8
0
100
AcDbLine
 10
60.0
 20
62.5
 30
0.0
 11
60.0
 21
63.0
 31
0.0
  0
LINE
  5
1E6
330
1E
100
AcDbEntity
  8
0
100
AcDbLine
 10
59.5
 20
61.0
 30
0.0
 11
60.0
 21
62.5
 31
0.0
  0
LINE
  5
1E7
330
1E
100
AcDbEntity
  8
0
100
AcDbLine
 10
60.0
 20
63.0
 30
0.0
 11
60.0
 21
62.5
 31
0.0
  0
LINE
  5
1E8
330
1E
100
AcDbEntity
  8
0
100
AcDbLine
 10
59.5
 20
64.5
 30
0.0
 11
60.0
 21
63.0
 31
0.0
  0
LINE
  5
1E9
330
1E
100
AcDbEntity
  8
0
100
AcDbLine
 10
58.5
 20
65.5
 30
0.0
 11
59.5
 21
64.5
 31
0.0
  0
LINE
  5
1EA
330
1E
100
AcDbEntity
  8
0
100
AcDbLine
 10
57.0
 20
70.0
 30
0.0
 11
58.5
 21
70.5
 31
0.0
  0
LINE
  5
1EB
330
1E
100
AcDbEntity
  8
0
100
AcDbLine
 10
56.0
 20
70.0
 30
0.0
 11
57.0
 21
70.0
 31
0.0
  0
LINE
  5
1EC
330
1E
100
AcDbEntity
  8
0
100
AcDbLine
 10
58.5
 20
70.5
 30
0.0
 11
59.5
 21
71.5
 31
0.0
  0
LINE
  5
1ED
330
1E
100
AcDbEntity
  8
0
100
AcDbLine
 10
56.0
 20
114.0
 30
0.0
 11
58.9
 21
114.0
 31
0.0
  0
LINE
  5
1EE
330
1E
100
AcDbEntity
  8
0
100
AcDbLine
 10
60.0
 20
73.0
 30
0.0
 11
60.0
 21
114.0
 31
0.0
  0
LINE
  5
1EF
330
1E
100
AcDbEntity
  8
0
100
AcDbLine
 10
58.9
 20
114.0
 30
0.0
 11
60.0
 21
114.0
 31
0.0
  0
LINE
  5
1F0
330
1E
100
AcDbEntity
  8
0
100
AcDbLine
 10
59.5
 20
71.5
 30
0.0
 11
60.0
 21
73.0
 31
0.0
  0
LINE
  5
1F1
330
1E
100
AcDbEntity
  8
0
100
AcDbLine
 10
60.0
 20
114.0
 30
0.0
 11
60.0
 21
73.0
 31
0.0
  0
LINE
  5
1F2
330
1E
100
AcDbEntity
  8
0
100
AcDbLine
 10
57.0
 20
66.0
 30
0.0
 11
58.5
 21
65.5
 31
0.0
  0
LINE
  5
1F3
330
1E
100
AcDbEntity
  8
0
100
AcDbLine
 10
54.9902
 20
11.889
 30
0.0
 11
55.2628810344829
 21
11.80864463148109
 31
0.0
  0
LINE
  5
1F4
330
1E
100
AcDbEntity
  8
0
100
AcDbLine
 10
52.46383212950711
 20
11.7262802842455
 30
0.0
 11
53.1036
 21
11.807
 31
0.0
  0
LINE
  5
1F5
330
1E
100
AcDbEntity
  8
0
100
AcDbLine
 10
19.0776300327367
 20
1.767109901789889
 30
0.0
 11
19.5
 21
0.499999999999997
 31
0.0
  0
LINE
  5
1F6
330
1E
100
AcDbEntity
  8
0
100
AcDbLine
 10
15.6138050184536
 20
1.347368270882009
 30
0.0
 11
17.296
 21
1.551999999999999
 31
0.0
  0
LINE
  5
1F7
330
1E
100
AcDbEntity
  8
0
100
AcDbLine
 10
2.28288891655796
 20
1.476683307332289
 30
0.0
 11
2.43303
 21
1.283
 31
0.0
  0
ENDSEC
  0
SECTION
  2
OBJECTS
  0
DICTIONARY
  5
C
330
0
100
AcDbDictionary
281
     1
  3
ACAD_GROUP
350
D
  3
ACAD_LAYOUT
350
19
  3
ACAD_MLINESTYLE
350
16
  3
ACAD_PLOTSETTINGS
350
18
  3
ACAD_PLOTSTYLENAME
350
E
  3
AcDbVariableDictionary
350
1FC
  0
DICTIONARY
  5
D
102
{ACAD_REACTORS
330
C
102
}
330
C
100
AcDbDictionary
281
     1
  0
DICTIONARY
  5
19
102
{ACAD_REACTORS
330
C
102
}
330
C
100
AcDbDictionary
281
     1
  3
Layout1
350
1D
  3
Model
350
21
  0
DICTIONARY
  5
16
102
{ACAD_REACTORS
330
C
102
}
330
C
100
AcDbDictionary
281
     1
  3
Standard
350
17
  0
DICTIONARY
  5
18
102
{ACAD_REACTORS
330
C
102
}
330
C
100
AcDbDictionary
281
     1
  0
ACDBDICTIONARYWDFLT
  5
E
102
{ACAD_REACTORS
330
C
102
}
330
C
100
AcDbDictionary
281
     1
  3
Normal
350
F
100
AcDbDictionaryWithDefault
340
F
  0
DICTIONARY
  5
1FC
102
{ACAD_REACTORS
330
C
102
}
330
C
100
AcDbDictionary
281
     1
  3
DIMASSOC
350
1FD
  0
LAYOUT
  5
1D
102
{ACAD_REACTORS
330
19
102
}
330
19
100
AcDbPlotSettings
  1

  2
hp deskjet 980c series
  4

  6

 40
0.0
 41
0.0
 42
0.0
 43
0.0
 44
0.0
 45
0.0
 46
0.0
 47
0.0
 48
0.0
 49
0.0
140
0.0
141
0.0
142
1.0
143
1.0
 70
   688
 72
     0
 73
     0
 74
     5
  7

 75
    16
147
1.0
148
0.0
149
0.0
100
AcDbLayout
  1
Layout1
 70
     1
 71
     1
 10
0.0
 20
0.0
 11
12.0
 21
9.0
 12
0.0
 22
0.0
 32
0.0
 14
1.000000000000000E+20
 24
1.000000000000000E+20
 34
1.000000000000000E+20
 15
-1.000000000000000E+20
 25
-1.000000000000000E+20
 35
-1.000000000000000E+20
146
0.0
 13
0.0
 23
0.0
 33
0.0
 16
1.0
 26
0.0
 36
0.0
 17
0.0
 27
1.0
 37
0.0
 76
     0
330
1A
  0
LAYOUT
  5
21
102
{ACAD_REACTORS
330
19
102
}
330
19
100
AcDbPlotSettings
  1

  2
hp deskjet 980c series
  4

  6

 40
0.0
 41
0.0
 42
0.0
 43
0.0
 44
0.0
 45
0.0
 46
0.0
 47
0.0
 48
0.0
 49
0.0
140
0.0
141
0.0
142
1.0
143
1.0
 70
  1712
 72
     0
 73
     0
 74
     0
  7

 75
     0
147
1.0
148
0.0
149
0.0
100
AcDbLayout
  1
Model
 70
     1
 71
     0
 10
0.0
 20
0.0
 11
12.0
 21
9.0
 12
0.0
 22
0.0
 32
0.0
 14
0.0
 24
0.0
 34
0.0
 15
0.0
 25
0.0
 35
0.0
146
0.0
 13
0.0
 23
0.0
 33
0.0
 16
1.0
 26
0.0
 36
0.0
 17
0.0
 27
1.0
 37
0.0
 76
     0
330
1E
  0
MLINESTYLE
  5
17
102
{ACAD_REACTORS
330
16
102
}
330
16
100
AcDbMlineStyle
  2
STANDARD
 70
     0
  3

 62
   256
 51
90.0
 52
90.0
 71
     2
 49
0.5
 62
   256
  6
BYLAYER
 49
-0.5
 62
   256
  6
BYLAYER
  0
ACDBPLACEHOLDER
  5
F
102
{ACAD_REACTORS
330
E
102
}
330
E
  0
DICTIONARYVAR
  5
1FD
102
{ACAD_REACTORS
330
1FC
102
}
330
1FC
100
DictionaryVariables
280
     0
  1
1
  0
ENDSEC
  0
EOF
