  0
SECTION
  2
HEADER
  9
$ACADVER
  1
AC1015
  9
$ACADMAINTVER
 70
    13
  9
$DWGCODEPAGE
  3
ANSI_1252
  9
$INSBASE
 10
0.0
 20
0.0
 30
0.0
  9
$EXTMIN
 10
-0.0000000000000037
 20
0.0120999999999877
 30
0.0
  9
$EXTMAX
 10
114.0
 20
152.9879
 30
0.0
  9
$LIMMIN
 10
0.0
 20
0.0
  9
$LIMMAX
 10
12.0
 20
9.0
  9
$ORTHOMODE
 70
     0
  9
$REGENMODE
 70
     1
  9
$FILLMODE
 70
     1
  9
$QTEXTMODE
 70
     0
  9
$MIRRTEXT
 70
     1
  9
$LTSCALE
 40
1.0
  9
$ATTMODE
 70
     1
  9
$TEXTSIZE
 40
0.2
  9
$TRACEWID
 40
0.05
  9
$TEXTSTYLE
  7
Standard
  9
$CLAYER
  8
0
  9
$CELTYPE
  6
Continuous
  9
$CECOLOR
 62
   256
  9
$CELTSCALE
 40
1.0
  9
$DISPSILH
 70
     0
  9
$DIMSCALE
 40
1.0
  9
$DIMASZ
 40
0.18
  9
$DIMEXO
 40
0.0625
  9
$DIMDLI
 40
0.38
  9
$DIMRND
 40
0.0
  9
$DIMDLE
 40
0.0
  9
$DIMEXE
 40
0.18
  9
$DIMTP
 40
0.0
  9
$DIMTM
 40
0.0
  9
$DIMTXT
 40
0.18
  9
$DIMCEN
 40
0.09
  9
$DIMTSZ
 40
0.0
  9
$DIMTOL
 70
     0
  9
$DIMLIM
 70
     0
  9
$DIMTIH
 70
     1
  9
$DIMTOH
 70
     1
  9
$DIMSE1
 70
     0
  9
$DIMSE2
 70
     0
  9
$DIMTAD
 70
     0
  9
$DIMZIN
 70
     0
  9
$DIMBLK
  1

  9
$DIMASO
 70
     1
  9
$DIMSHO
 70
     1
  9
$DIMPOST
  1

  9
$DIMAPOST
  1

  9
$DIMALT
 70
     0
  9
$DIMALTD
 70
     2
  9
$DIMALTF
 40
25.4
  9
$DIMLFAC
 40
1.0
  9
$DIMTOFL
 70
     0
  9
$DIMTVP
 40
0.0
  9
$DIMTIX
 70
     0
  9
$DIMSOXD
 70
     0
  9
$DIMSAH
 70
     0
  9
$DIMBLK1
  1

  9
$DIMBLK2
  1

  9
$DIMSTYLE
  2
Standard
  9
$DIMCLRD
 70
     0
  9
$DIMCLRE
 70
     0
  9
$DIMCLRT
 70
     0
  9
$DIMTFAC
 40
1.0
  9
$DIMGAP
 40
0.09
  9
$DIMJUST
 70
     0
  9
$DIMSD1
 70
     0
  9
$DIMSD2
 70
     0
  9
$DIMTOLJ
 70
     1
  9
$DIMTZIN
 70
     0
  9
$DIMALTZ
 70
     0
  9
$DIMALTTZ
 70
     0
  9
$DIMUPT
 70
     0
  9
$DIMDEC
 70
     4
  9
$DIMTDEC
 70
     4
  9
$DIMALTU
 70
     2
  9
$DIMALTTD
 70
     2
  9
$DIMTXSTY
  7
Standard
  9
$DIMAUNIT
 70
     0
  9
$DIMADEC
 70
     0
  9
$DIMALTRND
 40
0.0
  9
$DIMAZIN
 70
     0
  9
$DIMDSEP
 70
    46
  9
$DIMATFIT
 70
     3
  9
$DIMFRAC
 70
     0
  9
$DIMLDRBLK
  1

  9
$DIMLUNIT
 70
     2
  9
$DIMLWD
 70
    -2
  9
$DIMLWE
 70
    -2
  9
$DIMTMOVE
 70
     0
  9
$LUNITS
 70
     2
  9
$LUPREC
 70
     4
  9
$SKETCHINC
 40
0.1
  9
$FILLETRAD
 40
0.0
  9
$AUNITS
 70
     0
  9
$AUPREC
 70
     0
  9
$MENU
  1
.
  9
$ELEVATION
 40
0.0
  9
$PELEVATION
 40
0.0
  9
$THICKNESS
 40
0.0
  9
$LIMCHECK
 70
     0
  9
$CHAMFERA
 40
0.0
  9
$CHAMFERB
 40
0.0
  9
$CHAMFERC
 40
0.0
  9
$CHAMFERD
 40
0.0
  9
$SKPOLY
 70
     0
  9
$TDCREATE
 40
2454749.828277986
  9
$TDUCREATE
 40
2454749.744944653
  9
$TDUPDATE
 40
2454749.833355393
  9
$TDUUPDATE
 40
2454749.750022060
  9
$TDINDWG
 40
0.0050775810
  9
$TDUSRTIMER
 40
0.0050775810
  9
$USRTIMER
 70
     1
  9
$ANGBASE
 50
0.0
  9
$ANGDIR
 70
     0
  9
$PDMODE
 70
     0
  9
$PDSIZE
 40
0.0
  9
$PLINEWID
 40
0.0
  9
$SPLFRAME
 70
     0
  9
$SPLINETYPE
 70
     6
  9
$SPLINESEGS
 70
     8
  9
$HANDSEED
  5
2AD
  9
$SURFTAB1
 70
     6
  9
$SURFTAB2
 70
     6
  9
$SURFTYPE
 70
     6
  9
$SURFU
 70
     6
  9
$SURFV
 70
     6
  9
$UCSBASE
  2

  9
$UCSNAME
  2

  9
$UCSORG
 10
0.0
 20
0.0
 30
0.0
  9
$UCSXDIR
 10
1.0
 20
0.0
 30
0.0
  9
$UCSYDIR
 10
0.0
 20
1.0
 30
0.0
  9
$UCSORTHOREF
  2

  9
$UCSORTHOVIEW
 70
     1
  9
$UCSORGTOP
 10
0.0
 20
0.0
 30
0.0
  9
$UCSORGBOTTOM
 10
0.0
 20
0.0
 30
0.0
  9
$UCSORGLEFT
 10
0.0
 20
0.0
 30
0.0
  9
$UCSORGRIGHT
 10
0.0
 20
0.0
 30
0.0
  9
$UCSORGFRONT
 10
0.0
 20
0.0
 30
0.0
  9
$UCSORGBACK
 10
0.0
 20
0.0
 30
0.0
  9
$PUCSBASE
  2

  9
$PUCSNAME
  2

  9
$PUCSORG
 10
0.0
 20
0.0
 30
0.0
  9
$PUCSXDIR
 10
1.0
 20
0.0
 30
0.0
  9
$PUCSYDIR
 10
0.0
 20
1.0
 30
0.0
  9
$PUCSORTHOREF
  2

  9
$PUCSORTHOVIEW
 70
     0
  9
$PUCSORGTOP
 10
0.0
 20
0.0
 30
0.0
  9
$PUCSORGBOTTOM
 10
0.0
 20
0.0
 30
0.0
  9
$PUCSORGLEFT
 10
0.0
 20
0.0
 30
0.0
  9
$PUCSORGRIGHT
 10
0.0
 20
0.0
 30
0.0
  9
$PUCSORGFRONT
 10
0.0
 20
0.0
 30
0.0
  9
$PUCSORGBACK
 10
0.0
 20
0.0
 30
0.0
  9
$USERI1
 70
     0
  9
$USERI2
 70
     0
  9
$USERI3
 70
     0
  9
$USERI4
 70
     0
  9
$USERI5
 70
     0
  9
$USERR1
 40
0.0
  9
$USERR2
 40
0.0
  9
$USERR3
 40
0.0
  9
$USERR4
 40
0.0
  9
$USERR5
 40
0.0
  9
$WORLDVIEW
 70
     1
  9
$SHADEDGE
 70
     3
  9
$SHADEDIF
 70
    70
  9
$TILEMODE
 70
     1
  9
$MAXACTVP
 70
    64
  9
$PINSBASE
 10
0.0
 20
0.0
 30
0.0
  9
$PLIMCHECK
 70
     0
  9
$PEXTMIN
 10
1.000000000000000E+20
 20
1.000000000000000E+20
 30
1.000000000000000E+20
  9
$PEXTMAX
 10
-1.000000000000000E+20
 20
-1.000000000000000E+20
 30
-1.000000000000000E+20
  9
$PLIMMIN
 10
0.0
 20
0.0
  9
$PLIMMAX
 10
12.0
 20
9.0
  9
$UNITMODE
 70
     0
  9
$VISRETAIN
 70
     1
  9
$PLINEGEN
 70
     0
  9
$PSLTSCALE
 70
     1
  9
$TREEDEPTH
 70
  3020
  9
$CMLSTYLE
  2
Standard
  9
$CMLJUST
 70
     0
  9
$CMLSCALE
 40
1.0
  9
$PROXYGRAPHICS
 70
     1
  9
$MEASUREMENT
 70
     0
  9
$CELWEIGHT
370
    -1
  9
$ENDCAPS
280
     0
  9
$JOINSTYLE
280
     0
  9
$LWDISPLAY
290
     0
  9
$INSUNITS
 70
     0
  9
$HYPERLINKBASE
  1

  9
$STYLESHEET
  1

  9
$XEDIT
290
     1
  9
$CEPSNTYPE
380
     0
  9
$PSTYLEMODE
290
     1
  9
$FINGERPRINTGUID
  2
{9379B353-6C67-4E34-8CCD-68B166AA799E}
  9
$VERSIONGUID
  2
{DE0788D4-6D7B-4971-8253-C1E619F01F08}
  9
$EXTNAMES
290
     1
  9
$PSVPSCALE
 40
0.0
  9
$OLESTARTUP
290
     0
  0
ENDSEC
  0
SECTION
  2
CLASSES
  0
CLASS
  1
ACDBDICTIONARYWDFLT
  2
AcDbDictionaryWithDefault
  3
AutoCAD 2000
 90
        0
280
     0
281
     0
  0
CLASS
  1
ACDBPLACEHOLDER
  2
AcDbPlaceHolder
  3
AutoCAD 2000
 90
        0
280
     0
281
     0
  0
CLASS
  1
LAYOUT
  2
AcDbLayout
  3
AutoCAD 2000
 90
        0
280
     0
281
     0
  0
CLASS
  1
DICTIONARYVAR
  2
AcDbDictionaryVar
  3
AutoCAD 2000
 90
        0
280
     0
281
     0
  0
ENDSEC
  0
SECTION
  2
TABLES
  0
TABLE
  2
VPORT
  5
8
330
0
100
AcDbSymbolTable
 70
     2
  0
VPORT
  5
2AC
330
8
100
AcDbSymbolTableRecord
100
AcDbViewportTableRecord
  2
*Active
 70
     0
 10
0.0
 20
0.0
 11
1.0
 21
1.0
 12
56.99999999999999
 22
76.5
 13
0.0
 23
0.0
 14
1.0
 24
1.0
 15
0.0
 25
0.0
 16
0.0
 26
0.0
 36
1.0
 17
0.0
 27
0.0
 37
0.0
 40
154.1495273657289
 41
2.078104993597951
 42
50.0
 43
0.0
 44
0.0
 50
0.0
 51
0.0
 71
     0
 72
   100
 73
     1
 74
     3
 75
     0
 76
     0
 77
     0
 78
     0
281
     0
 65
     1
110
0.0
120
0.0
130
0.0
111
1.0
121
0.0
131
0.0
112
0.0
122
1.0
132
0.0
 79
     1
146
0.0
  0
ENDTAB
  0
TABLE
  2
LTYPE
  5
5
330
0
100
AcDbSymbolTable
 70
     1
  0
LTYPE
  5
13
330
5
100
AcDbSymbolTableRecord
100
AcDbLinetypeTableRecord
  2
ByBlock
 70
     0
  3

 72
    65
 73
     0
 40
0.0
  0
LTYPE
  5
14
330
5
100
AcDbSymbolTableRecord
100
AcDbLinetypeTableRecord
  2
ByLayer
 70
     0
  3

 72
    65
 73
     0
 40
0.0
  0
LTYPE
  5
15
330
5
100
AcDbSymbolTableRecord
100
AcDbLinetypeTableRecord
  2
Continuous
 70
     0
  3
Solid line
 72
    65
 73
     0
 40
0.0
  0
ENDTAB
  0
TABLE
  2
LAYER
  5
2
330
0
100
AcDbSymbolTable
 70
     1
  0
LAYER
  5
10
330
2
100
AcDbSymbolTableRecord
100
AcDbLayerTableRecord
  2
0
 70
     0
 62
     7
  6
Continuous
370
    -3
390
F
  0
ENDTAB
  0
TABLE
  2
STYLE
  5
3
330
0
100
AcDbSymbolTable
 70
     1
  0
STYLE
  5
11
330
3
100
AcDbSymbolTableRecord
100
AcDbTextStyleTableRecord
  2
Standard
 70
     0
 40
0.0
 41
1.0
 50
0.0
 71
     0
 42
0.2
  3
txt
  4

  0
ENDTAB
  0
TABLE
  2
VIEW
  5
6
330
0
100
AcDbSymbolTable
 70
     0
  0
ENDTAB
  0
TABLE
  2
UCS
  5
7
330
0
100
AcDbSymbolTable
 70
     0
  0
ENDTAB
  0
TABLE
  2
APPID
  5
9
330
0
100
AcDbSymbolTable
 70
     1
  0
APPID
  5
12
330
9
100
AcDbSymbolTableRecord
100
AcDbRegAppTableRecord
  2
ACAD
 70
     0
  0
ENDTAB
  0
TABLE
  2
DIMSTYLE
  5
A
330
0
100
AcDbSymbolTable
 70
     1
100
AcDbDimStyleTable
 71
     0
  0
DIMSTYLE
105
2A6
330
A
100
AcDbSymbolTableRecord
100
AcDbDimStyleTableRecord
  2
Standard
 70
     0
340
11
  0
ENDTAB
  0
TABLE
  2
BLOCK_RECORD
  5
1
330
0
100
AcDbSymbolTable
 70
     0
  0
BLOCK_RECORD
  5
1E
330
1
100
AcDbSymbolTableRecord
100
AcDbBlockTableRecord
  2
*Model_Space
340
21
  0
BLOCK_RECORD
  5
1A
330
1
100
AcDbSymbolTableRecord
100
AcDbBlockTableRecord
  2
*Paper_Space
340
1D
  0
ENDTAB
  0
ENDSEC
  0
SECTION
  2
BLOCKS
  0
BLOCK
  5
1F
330
1E
100
AcDbEntity
  8
0
100
AcDbBlockBegin
  2
*Model_Space
 70
     0
 10
0.0
 20
0.0
 30
0.0
  3
*Model_Space
  1

  0
ENDBLK
  5
20
330
1E
100
AcDbEntity
  8
0
100
AcDbBlockEnd
  0
BLOCK
  5
1B
330
1A
100
AcDbEntity
 67
     1
  8
0
100
AcDbBlockBegin
  2
*Paper_Space
 70
     0
 10
0.0
 20
0.0
 30
0.0
  3
*Paper_Space
  1

  0
ENDBLK
  5
1C
330
1A
100
AcDbEntity
 67
     1
  8
0
100
AcDbBlockEnd
  0
ENDSEC
  0
SECTION
  2
ENTITIES
  0
LINE
  5
22
330
1E
100
AcDbEntity
  8
0
100
AcDbLine
 10
0.110999999999995
 20
97.99790000000001
 30
0.0
 11
0.190559999999942
 21
97.72790000000021
 31
0.0
  0
LINE
  5
23
330
1E
100
AcDbEntity
  8
0
100
AcDbLine
 10
-0.0000000000000036
 20
113.9879
 30
0.0
 11
0.4999999999999961
 21
112.4878999999999
 31
0.0
  0
LINE
  5
24
330
1E
100
AcDbEntity
  8
0
100
AcDbLine
 10
-0.0000000000000036
 20
113.9879
 30
0.0
 11
-0.0000000000000036
 21
114.2878999999999
 31
0.0
  0
LINE
  5
25
330
1E
100
AcDbEntity
  8
0
100
AcDbLine
 10
0.0919999999999954
 20
98.11289999999999
 30
0.0
 11
0.211999999999996
 21
100.0109
 31
0.0
  0
LINE
  5
26
330
1E
100
AcDbEntity
  8
0
100
AcDbLine
 10
0.0919999999999954
 20
98.11289999999999
 30
0.0
 11
0.475999999999995
 21
96.61290000000001
 31
0.0
  0
LINE
  5
27
330
1E
100
AcDbEntity
  8
0
100
AcDbLine
 10
0.0919999999999954
 20
98.11289999999999
 30
0.0
 11
0.475999999999995
 21
96.61290000000001
 31
0.0
  0
LINE
  5
28
330
1E
100
AcDbEntity
  8
0
100
AcDbLine
 10
0.0919999999999954
 20
98.11289999999999
 30
0.0
 11
0.211999999999996
 21
100.0109
 31
0.0
  0
LINE
  5
29
330
1E
100
AcDbEntity
  8
0
100
AcDbLine
 10
-0.0000000000000035
 20
116.5879
 30
0.0
 11
-0.0000000000000034
 21
118.4879
 31
0.0
  0
LINE
  5
2A
330
1E
100
AcDbEntity
  8
0
100
AcDbLine
 10
-0.0000000000000034
 20
118.4879
 30
0.0
 11
-0.0000000000000032
 21
120.6879
 31
0.0
  0
LINE
  5
2B
330
1E
100
AcDbEntity
  8
0
100
AcDbLine
 10
-0.0000000000000032
 20
120.6879
 30
0.0
 11
-0.0000000000000031
 21
122.9878999999999
 31
0.0
  0
LINE
  5
2C
330
1E
100
AcDbEntity
  8
0
100
AcDbLine
 10
-0.0000000000000036
 20
115.1879
 30
0.0
 11
-0.0000000000000035
 21
116.5879
 31
0.0
  0
LINE
  5
2D
330
1E
100
AcDbEntity
  8
0
100
AcDbLine
 10
-0.0000000000000036
 20
114.2878999999999
 30
0.0
 11
-0.0000000000000036
 21
115.1879
 31
0.0
  0
LINE
  5
2E
330
1E
100
AcDbEntity
  8
0
100
AcDbLine
 10
-0.0000000000000027
 20
129.3879
 30
0.0
 11
-0.0000000000000026
 21
130.7879
 31
0.0
  0
LINE
  5
2F
330
1E
100
AcDbEntity
  8
0
100
AcDbLine
 10
-0.0000000000000026
 20
130.7879
 30
0.0
 11
-0.0000000000000026
 21
131.6879
 31
0.0
  0
LINE
  5
30
330
1E
100
AcDbEntity
  8
0
100
AcDbLine
 10
-0.0000000000000025
 20
131.9879
 30
0.0
 11
0.4999999999999981
 21
133.4878999999999
 31
0.0
  0
LINE
  5
31
330
1E
100
AcDbEntity
  8
0
100
AcDbLine
 10
-0.0000000000000026
 20
131.9879
 30
0.0
 11
0.4999999999999981
 21
133.4878999999999
 31
0.0
  0
LINE
  5
32
330
1E
100
AcDbEntity
  8
0
100
AcDbLine
 10
-0.0000000000000026
 20
131.6879
 30
0.0
 11
-0.0000000000000025
 21
131.9879
 31
0.0
  0
LINE
  5
33
330
1E
100
AcDbEntity
  8
0
100
AcDbLine
 10
-0.0000000000000028
 20
127.4879
 30
0.0
 11
-0.0000000000000027
 21
129.3879
 31
0.0
  0
LINE
  5
34
330
1E
100
AcDbEntity
  8
0
100
AcDbLine
 10
-0.0000000000000029
 20
125.2878999999999
 30
0.0
 11
-0.0000000000000028
 21
127.4879
 31
0.0
  0
LINE
  5
35
330
1E
100
AcDbEntity
  8
0
100
AcDbLine
 10
-0.0000000000000031
 20
122.9878999999999
 30
0.0
 11
-0.0000000000000029
 21
125.2878999999999
 31
0.0
  0
LINE
  5
36
330
1E
100
AcDbEntity
  8
0
100
AcDbLine
 10
0.0919999999999969
 20
122.1878999999999
 30
0.0
 11
0.4759999999999971
 21
122.1878999999999
 31
0.0
  0
LINE
  5
37
330
1E
100
AcDbEntity
  8
0
100
AcDbLine
 10
0.0919999999999969
 20
122.1878999999999
 30
0.0
 11
0.5909999999999971
 21
121.6879
 31
0.0
  0
LINE
  5
38
330
1E
100
AcDbEntity
  8
0
100
AcDbLine
 10
0.091999999999997
 20
123.7878999999999
 30
0.0
 11
0.4759999999999971
 21
123.7878999999999
 31
0.0
  0
LINE
  5
39
330
1E
100
AcDbEntity
  8
0
100
AcDbLine
 10
0.091999999999997
 20
123.7878999999999
 30
0.0
 11
0.5909999999999971
 21
124.2879
 31
0.0
  0
LINE
  5
3A
330
1E
100
AcDbEntity
  8
0
100
AcDbLine
 10
0.091999999999997
 20
123.7878999999999
 30
0.0
 11
0.110999999999997
 21
122.9878999999999
 31
0.0
  0
LINE
  5
3B
330
1E
100
AcDbEntity
  8
0
100
AcDbLine
 10
0.091999999999997
 20
123.7878999999999
 30
0.0
 11
0.4759999999999971
 21
123.7878999999999
 31
0.0
  0
LINE
  5
3C
330
1E
100
AcDbEntity
  8
0
100
AcDbLine
 10
0.091999999999997
 20
123.7878999999999
 30
0.0
 11
0.5909999999999971
 21
124.2879
 31
0.0
  0
LINE
  5
3D
330
1E
100
AcDbEntity
  8
0
100
AcDbLine
 10
0.0919999999999985
 20
147.8628999999999
 30
0.0
 11
0.211999999999998
 21
145.9648999999999
 31
0.0
  0
LINE
  5
3E
330
1E
100
AcDbEntity
  8
0
100
AcDbLine
 10
0.0919999999999985
 20
147.8628999999999
 30
0.0
 11
0.475999999999999
 21
149.3629
 31
0.0
  0
LINE
  5
3F
330
1E
100
AcDbEntity
  8
0
100
AcDbLine
 10
0.110999999999998
 20
147.9779
 30
0.0
 11
0.190560000000005
 21
148.2478999999999
 31
0.0
  0
LINE
  5
40
330
1E
100
AcDbEntity
  8
0
100
AcDbLine
 10
0.110999999999998
 20
147.9779
 30
0.0
 11
0.190560000000005
 21
148.2478999999999
 31
0.0
  0
LINE
  5
41
330
1E
100
AcDbEntity
  8
0
100
AcDbLine
 10
0.0919999999999984
 20
147.8628999999999
 30
0.0
 11
0.475999999999999
 21
149.3629
 31
0.0
  0
LINE
  5
42
330
1E
100
AcDbEntity
  8
0
100
AcDbLine
 10
0.0919999999999984
 20
147.8628999999999
 30
0.0
 11
0.211999999999998
 21
145.9648999999999
 31
0.0
  0
LINE
  5
43
330
1E
100
AcDbEntity
  8
0
100
AcDbLine
 10
0.0919999999999969
 20
122.1878999999999
 30
0.0
 11
0.110999999999997
 21
122.9878999999999
 31
0.0
  0
LINE
  5
44
330
1E
100
AcDbEntity
  8
0
100
AcDbLine
 10
0.0919999999999969
 20
122.1878999999999
 30
0.0
 11
0.4759999999999971
 21
122.1878999999999
 31
0.0
  0
LINE
  5
45
330
1E
100
AcDbEntity
  8
0
100
AcDbLine
 10
0.0919999999999969
 20
122.1878999999999
 30
0.0
 11
0.5909999999999971
 21
121.6879
 31
0.0
  0
LINE
  5
46
330
1E
100
AcDbEntity
  8
0
100
AcDbLine
 10
-0.0000000000000037
 20
113.9879
 30
0.0
 11
0.4999999999999961
 21
112.4878999999999
 31
0.0
  0
LINE
  5
47
330
1E
100
AcDbEntity
  8
0
100
AcDbLine
 10
0.168844547563802
 20
146.647475406033
 30
0.0
 11
0.211999999999998
 21
145.9648999999999
 31
0.0
  0
LINE
  5
48
330
1E
100
AcDbEntity
  8
0
100
AcDbLine
 10
0.168844547563802
 20
146.647475406033
 30
0.0
 11
0.192999999999998
 21
146.0919
 31
0.0
  0
LINE
  5
49
330
1E
100
AcDbEntity
  8
0
100
AcDbLine
 10
0.1688445475638
 20
99.32832459396749
 30
0.0
 11
0.192999999999996
 21
99.8839
 31
0.0
  0
LINE
  5
4A
330
1E
100
AcDbEntity
  8
0
100
AcDbLine
 10
0.110999999999995
 20
97.99790000000001
 30
0.0
 11
0.190559999999942
 21
97.72790000000021
 31
0.0
  0
LINE
  5
4B
330
1E
100
AcDbEntity
  8
0
100
AcDbLine
 10
10.044
 20
94.8629
 30
0.0
 11
10.81299999999999
 21
95.5169
 31
0.0
  0
LINE
  5
4C
330
1E
100
AcDbEntity
  8
0
100
AcDbLine
 10
8.928999999999989
 20
94.3439
 30
0.0
 11
10.044
 21
94.8629
 31
0.0
  0
LINE
  5
4D
330
1E
100
AcDbEntity
  8
0
100
AcDbLine
 10
5.99999999999999
 20
93.98789999999999
 30
0.0
 11
8.928999999999989
 21
94.3439
 31
0.0
  0
LINE
  5
4E
330
1E
100
AcDbEntity
  8
0
100
AcDbLine
 10
3.07099999999999
 20
94.3439
 30
0.0
 11
5.99999999999999
 21
93.98789999999999
 31
0.0
  0
LINE
  5
51
330
1E
100
AcDbEntity
  8
0
100
AcDbLine
 10
0.475999999999995
 20
96.61290000000001
 30
0.0
 11
1.187
 21
95.5169
 31
0.0
  0
LINE
  5
52
330
1E
100
AcDbEntity
  8
0
100
AcDbLine
 10
1.187
 20
95.5169
 30
0.0
 11
1.955999999999999
 21
94.8629
 31
0.0
  0
LINE
  5
56
330
1E
100
AcDbEntity
  8
0
100
AcDbLine
 10
1.283
 20
95.42089999999999
 30
0.0
 11
1.473344827586219
 21
95.2733765705574
 31
0.0
  0
LINE
  5
57
330
1E
100
AcDbEntity
  8
0
100
AcDbLine
 10
1.955999999999999
 20
94.8629
 30
0.0
 11
3.07099999999999
 21
94.3439
 31
0.0
  0
LINE
  5
58
330
1E
100
AcDbEntity
  8
0
100
AcDbLine
 10
61.0
 20
93.48789999999999
 30
0.0
 11
62.5
 21
92.9879
 31
0.0
  0
LINE
  5
59
330
1E
100
AcDbEntity
  8
0
100
AcDbLine
 10
61.0
 20
93.48789999999999
 30
0.0
 11
61.0
 21
94.5879
 31
0.0
  0
LINE
  5
5A
330
1E
100
AcDbEntity
  8
0
100
AcDbLine
 10
62.5
 20
92.9879
 30
0.0
 11
63.0
 21
92.9879
 31
0.0
  0
LINE
  5
5B
330
1E
100
AcDbEntity
  8
0
100
AcDbLine
 10
63.0
 20
92.9879
 30
0.0
 11
64.5
 21
93.48789999999999
 31
0.0
  0
LINE
  5
5C
330
1E
100
AcDbEntity
  8
0
100
AcDbLine
 10
37.0
 20
94.98789999999999
 30
0.0
 11
59.0
 21
94.98789999999999
 31
0.0
  0
LINE
  5
5D
330
1E
100
AcDbEntity
  8
0
100
AcDbLine
 10
59.0
 20
94.98789999999999
 30
0.0
 11
60.5
 21
94.4879
 31
0.0
  0
LINE
  5
5E
330
1E
100
AcDbEntity
  8
0
100
AcDbLine
 10
61.0
 20
94.5879
 30
0.0
 11
61.0
 21
93.48789999999999
 31
0.0
  0
LINE
  5
5F
330
1E
100
AcDbEntity
  8
0
100
AcDbLine
 10
61.0
 20
94.5879
 30
0.0
 11
61.0
 21
97.48789999999999
 31
0.0
  0
LINE
  5
60
330
1E
100
AcDbEntity
  8
0
100
AcDbLine
 10
60.5
 20
94.4879
 30
0.0
 11
61.0
 21
93.48789999999999
 31
0.0
  0
LINE
  5
61
330
1E
100
AcDbEntity
  8
0
100
AcDbLine
 10
60.5
 20
94.4879
 30
0.0
 11
60.5
 21
95.4879
 31
0.0
  0
LINE
  5
62
330
1E
100
AcDbEntity
  8
0
100
AcDbLine
 10
64.5
 20
93.48789999999999
 30
0.0
 11
65.5
 21
94.4879
 31
0.0
  0
LINE
  5
63
330
1E
100
AcDbEntity
  8
0
100
AcDbLine
 10
79.6341
 20
60.0121
 30
0.0
 11
80.0341
 21
60.0121
 31
0.0
  0
LINE
  5
64
330
1E
100
AcDbEntity
  8
0
100
AcDbLine
 10
79.0
 20
90.0121
 30
0.0
 11
79.0
 21
92.9879
 31
0.0
  0
LINE
  5
65
330
1E
100
AcDbEntity
  8
0
100
AcDbLine
 10
79.0341
 20
90.0121
 30
0.0
 11
80.1341
 21
90.0121
 31
0.0
  0
LINE
  5
66
330
1E
100
AcDbEntity
  8
0
100
AcDbLine
 10
79.0
 20
92.9879
 30
0.0
 11
79.0
 21
90.0121
 31
0.0
  0
LINE
  5
67
330
1E
100
AcDbEntity
  8
0
100
AcDbLine
 10
80.1341
 20
90.0121
 30
0.0
 11
82.03409999999999
 21
90.0121
 31
0.0
  0
LINE
  5
68
330
1E
100
AcDbEntity
  8
0
100
AcDbLine
 10
78.6341
 20
90.0121
 30
0.0
 11
79.6341
 21
60.0121
 31
0.0
  0
LINE
  5
69
330
1E
100
AcDbEntity
  8
0
100
AcDbLine
 10
78.6341
 20
90.0121
 30
0.0
 11
79.0341
 21
90.0121
 31
0.0
  0
LINE
  5
6A
330
1E
100
AcDbEntity
  8
0
100
AcDbLine
 10
80.0341
 20
60.0121
 30
0.0
 11
81.0341
 21
60.0121
 31
0.0
  0
LINE
  5
6B
330
1E
100
AcDbEntity
  8
0
100
AcDbLine
 10
92.03409999999999
 20
0.0382999999999878
 30
0.0
 11
93.83410000000001
 21
0.113299999999987
 31
0.0
  0
LINE
  5
6C
330
1E
100
AcDbEntity
  8
0
100
AcDbLine
 10
90.1341
 20
0.0120999999999877
 30
0.0
 11
92.03409999999999
 21
0.0382999999999878
 31
0.0
  0
LINE
  5
6D
330
1E
100
AcDbEntity
  8
0
100
AcDbLine
 10
82.03409999999999
 20
90.0121
 30
0.0
 11
84.4341
 21
90.0121
 31
0.0
  0
LINE
  5
6E
330
1E
100
AcDbEntity
  8
0
100
AcDbLine
 10
82.6341
 20
4.27379999999999
 30
0.0
 11
82.6341
 21
60.0121
 31
0.0
  0
LINE
  5
6F
330
1E
100
AcDbEntity
  8
0
100
AcDbLine
 10
82.93409999999999
 20
5.62319999999999
 30
0.0
 11
83.6341
 21
6.82259999999999
 31
0.0
  0
LINE
  5
70
330
1E
100
AcDbEntity
  8
0
100
AcDbLine
 10
82.7341
 20
60.0121
 30
0.0
 11
84.9341
 21
60.0121
 31
0.0
  0
LINE
  5
71
330
1E
100
AcDbEntity
  8
0
100
AcDbLine
 10
82.6341
 20
60.0121
 30
0.0
 11
82.93409999999999
 21
60.0121
 31
0.0
  0
LINE
  5
72
330
1E
100
AcDbEntity
  8
0
100
AcDbLine
 10
82.93409999999999
 20
60.0121
 30
0.0
 11
83.6341
 21
60.0121
 31
0.0
  0
LINE
  5
73
330
1E
100
AcDbEntity
  8
0
100
AcDbLine
 10
83.6341
 20
60.0121
 30
0.0
 11
84.83410000000001
 21
60.0121
 31
0.0
  0
LINE
  5
74
330
1E
100
AcDbEntity
  8
0
100
AcDbLine
 10
83.6341
 20
6.82259999999999
 30
0.0
 11
84.83410000000001
 21
8.022099999999991
 31
0.0
  0
LINE
  5
75
330
1E
100
AcDbEntity
  8
0
100
AcDbLine
 10
82.6341
 20
4.27379999999999
 30
0.0
 11
82.93409999999999
 21
2.28729999999999
 31
0.0
  0
LINE
  5
76
330
1E
100
AcDbEntity
  8
0
100
AcDbLine
 10
82.6341
 20
4.27379999999999
 30
0.0
 11
82.6341
 21
60.0121
 31
0.0
  0
LINE
  5
77
330
1E
100
AcDbEntity
  8
0
100
AcDbLine
 10
82.6341
 20
4.27379999999999
 30
0.0
 11
82.93409999999999
 21
5.62319999999999
 31
0.0
  0
LINE
  5
78
330
1E
100
AcDbEntity
  8
0
100
AcDbLine
 10
82.93409999999999
 20
2.28729999999999
 30
0.0
 11
83.6341
 21
1.16279999999999
 31
0.0
  0
LINE
  5
79
330
1E
100
AcDbEntity
  8
0
100
AcDbLine
 10
84.9341
 20
60.0121
 30
0.0
 11
87.4341
 21
60.0121
 31
0.0
  0
LINE
  5
7A
330
1E
100
AcDbEntity
  8
0
100
AcDbLine
 10
84.83410000000001
 20
60.0121
 30
0.0
 11
86.43410000000001
 21
60.0121
 31
0.0
  0
LINE
  5
7B
330
1E
100
AcDbEntity
  8
0
100
AcDbLine
 10
84.83410000000001
 20
8.022099999999991
 30
0.0
 11
86.43410000000001
 21
9.071599999999991
 31
0.0
  0
LINE
  5
7C
330
1E
100
AcDbEntity
  8
0
100
AcDbLine
 10
86.43410000000001
 20
9.071599999999991
 30
0.0
 11
88.2341
 21
9.78379999999999
 31
0.0
  0
LINE
  5
7D
330
1E
100
AcDbEntity
  8
0
100
AcDbLine
 10
84.4341
 20
90.0121
 30
0.0
 11
87.13410000000001
 21
90.0121
 31
0.0
  0
LINE
  5
7E
330
1E
100
AcDbEntity
  8
0
100
AcDbLine
 10
86.43410000000001
 20
60.0121
 30
0.0
 11
88.2341
 21
60.0121
 31
0.0
  0
LINE
  5
7F
330
1E
100
AcDbEntity
  8
0
100
AcDbLine
 10
83.6341
 20
1.16279999999999
 30
0.0
 11
84.83410000000001
 21
0.488099999999989
 31
0.0
  0
LINE
  5
80
330
1E
100
AcDbEntity
  8
0
100
AcDbLine
 10
84.83410000000001
 20
0.488099999999989
 30
0.0
 11
86.43410000000001
 21
0.113299999999987
 31
0.0
  0
LINE
  5
81
330
1E
100
AcDbEntity
  8
0
100
AcDbLine
 10
87.4341
 20
60.0121
 30
0.0
 11
90.1341
 21
60.0121
 31
0.0
  0
LINE
  5
82
330
1E
100
AcDbEntity
  8
0
100
AcDbLine
 10
92.03409999999999
 20
9.78379999999999
 30
0.0
 11
93.83410000000001
 21
9.07159999999998
 31
0.0
  0
LINE
  5
83
330
1E
100
AcDbEntity
  8
0
100
AcDbLine
 10
92.03409999999999
 20
60.0121
 30
0.0
 11
93.83410000000001
 21
60.0121
 31
0.0
  0
LINE
  5
84
330
1E
100
AcDbEntity
  8
0
100
AcDbLine
 10
90.1341
 20
10.0121
 30
0.0
 11
92.03409999999999
 21
9.78379999999999
 31
0.0
  0
LINE
  5
85
330
1E
100
AcDbEntity
  8
0
100
AcDbLine
 10
95.43409999999999
 20
0.488099999999988
 30
0.0
 11
96.6341
 21
1.16279999999999
 31
0.0
  0
LINE
  5
86
330
1E
100
AcDbEntity
  8
0
100
AcDbLine
 10
93.83410000000001
 20
0.113299999999987
 30
0.0
 11
95.43409999999999
 21
0.488099999999988
 31
0.0
  0
LINE
  5
87
330
1E
100
AcDbEntity
  8
0
100
AcDbLine
 10
97.33410000000001
 20
2.28729999999999
 30
0.0
 11
97.6341
 21
4.27379999999999
 31
0.0
  0
LINE
  5
88
330
1E
100
AcDbEntity
  8
0
100
AcDbLine
 10
96.6341
 20
1.16279999999999
 30
0.0
 11
97.33410000000001
 21
2.28729999999999
 31
0.0
  0
LINE
  5
89
330
1E
100
AcDbEntity
  8
0
100
AcDbLine
 10
97.33410000000001
 20
5.62319999999999
 30
0.0
 11
97.6341
 21
4.27379999999999
 31
0.0
  0
LINE
  5
8A
330
1E
100
AcDbEntity
  8
0
100
AcDbLine
 10
96.6341
 20
6.82259999999999
 30
0.0
 11
97.33410000000001
 21
5.62319999999999
 31
0.0
  0
LINE
  5
8B
330
1E
100
AcDbEntity
  8
0
100
AcDbLine
 10
95.43409999999999
 20
8.022099999999991
 30
0.0
 11
96.6341
 21
6.82259999999999
 31
0.0
  0
LINE
  5
8C
330
1E
100
AcDbEntity
  8
0
100
AcDbLine
 10
97.33410000000001
 20
60.0121
 30
0.0
 11
97.6341
 21
60.0121
 31
0.0
  0
LINE
  5
8D
330
1E
100
AcDbEntity
  8
0
100
AcDbLine
 10
96.6341
 20
60.0121
 30
0.0
 11
97.33410000000001
 21
60.0121
 31
0.0
  0
LINE
  5
8E
330
1E
100
AcDbEntity
  8
0
100
AcDbLine
 10
95.43409999999999
 20
60.0121
 30
0.0
 11
96.6341
 21
60.0121
 31
0.0
  0
LINE
  5
8F
330
1E
100
AcDbEntity
  8
0
100
AcDbLine
 10
93.83410000000001
 20
60.0121
 30
0.0
 11
95.43409999999999
 21
60.0121
 31
0.0
  0
LINE
  5
90
330
1E
100
AcDbEntity
  8
0
100
AcDbLine
 10
93.83410000000001
 20
9.07159999999998
 30
0.0
 11
95.43409999999999
 21
8.022099999999991
 31
0.0
  0
LINE
  5
91
330
1E
100
AcDbEntity
  8
0
100
AcDbLine
 10
97.6341
 20
4.27379999999999
 30
0.0
 11
97.6341
 21
60.0121
 31
0.0
  0
LINE
  5
92
330
1E
100
AcDbEntity
  8
0
100
AcDbLine
 10
97.5341
 20
60.0121
 30
0.0
 11
99.2341
 21
60.0121
 31
0.0
  0
LINE
  5
93
330
1E
100
AcDbEntity
  8
0
100
AcDbLine
 10
95.33410000000001
 20
60.0121
 30
0.0
 11
97.5341
 21
60.0121
 31
0.0
  0
LINE
  5
94
330
1E
100
AcDbEntity
  8
0
100
AcDbLine
 10
92.83410000000001
 20
60.0121
 30
0.0
 11
95.33410000000001
 21
60.0121
 31
0.0
  0
LINE
  5
95
330
1E
100
AcDbEntity
  8
0
100
AcDbLine
 10
90.1341
 20
60.0121
 30
0.0
 11
92.83410000000001
 21
60.0121
 31
0.0
  0
LINE
  5
96
330
1E
100
AcDbEntity
  8
0
100
AcDbLine
 10
90.1341
 20
60.0121
 30
0.0
 11
92.03409999999999
 21
60.0121
 31
0.0
  0
LINE
  5
97
330
1E
100
AcDbEntity
  8
0
100
AcDbLine
 10
100.634
 20
60.0121
 30
0.0
 11
101.634
 21
90.0121
 31
0.0
  0
LINE
  5
98
330
1E
100
AcDbEntity
  8
0
100
AcDbLine
 10
100.234
 20
60.0121
 30
0.0
 11
100.634
 21
60.0121
 31
0.0
  0
LINE
  5
99
330
1E
100
AcDbEntity
  8
0
100
AcDbLine
 10
99.2341
 20
60.0121
 30
0.0
 11
100.234
 21
60.0121
 31
0.0
  0
LINE
  5
9A
330
1E
100
AcDbEntity
  8
0
100
AcDbLine
 10
97.6341
 20
60.0121
 30
0.0
 11
99.2341
 21
60.0121
 31
0.0
  0
LINE
  5
9B
330
1E
100
AcDbEntity
  8
0
100
AcDbLine
 10
97.6341
 20
60.0121
 30
0.0
 11
97.6341
 21
4.27379999999999
 31
0.0
  0
LINE
  5
9C
330
1E
100
AcDbEntity
  8
0
100
AcDbLine
 10
88.2341
 20
9.78379999999999
 30
0.0
 11
90.1341
 21
10.0121
 31
0.0
  0
LINE
  5
9D
330
1E
100
AcDbEntity
  8
0
100
AcDbLine
 10
101.0
 20
90.0121
 30
0.0
 11
101.0
 21
92.9879
 31
0.0
  0
LINE
  5
9E
330
1E
100
AcDbEntity
  8
0
100
AcDbLine
 10
101.234
 20
90.0121
 30
0.0
 11
101.634
 21
90.0121
 31
0.0
  0
LINE
  5
9F
330
1E
100
AcDbEntity
  8
0
100
AcDbLine
 10
100.134
 20
90.0121
 30
0.0
 11
101.234
 21
90.0121
 31
0.0
  0
LINE
  5
A0
330
1E
100
AcDbEntity
  8
0
100
AcDbLine
 10
98.2341
 20
90.0121
 30
0.0
 11
100.134
 21
90.0121
 31
0.0
  0
LINE
  5
A1
330
1E
100
AcDbEntity
  8
0
100
AcDbLine
 10
95.8341
 20
90.0121
 30
0.0
 11
98.2341
 21
90.0121
 31
0.0
  0
LINE
  5
A2
330
1E
100
AcDbEntity
  8
0
100
AcDbLine
 10
93.13410000000001
 20
90.0121
 30
0.0
 11
95.8341
 21
90.0121
 31
0.0
  0
LINE
  5
A3
330
1E
100
AcDbEntity
  8
0
100
AcDbLine
 10
90.1341
 20
90.0121
 30
0.0
 11
93.13410000000001
 21
90.0121
 31
0.0
  0
LINE
  5
A4
330
1E
100
AcDbEntity
  8
0
100
AcDbLine
 10
87.13410000000001
 20
90.0121
 30
0.0
 11
90.1341
 21
90.0121
 31
0.0
  0
LINE
  5
A5
330
1E
100
AcDbEntity
  8
0
100
AcDbLine
 10
88.2341
 20
60.0121
 30
0.0
 11
90.1341
 21
60.0121
 31
0.0
  0
LINE
  5
A6
330
1E
100
AcDbEntity
  8
0
100
AcDbLine
 10
86.43410000000001
 20
0.113299999999987
 30
0.0
 11
88.2341
 21
0.038299999999988
 31
0.0
  0
LINE
  5
A7
330
1E
100
AcDbEntity
  8
0
100
AcDbLine
 10
88.2341
 20
0.038299999999988
 30
0.0
 11
90.1341
 21
0.0120999999999877
 31
0.0
  0
LINE
  5
A8
330
1E
100
AcDbEntity
  8
0
100
AcDbLine
 10
81.0341
 20
60.0121
 30
0.0
 11
82.6341
 21
60.0121
 31
0.0
  0
LINE
  5
A9
330
1E
100
AcDbEntity
  8
0
100
AcDbLine
 10
81.0341
 20
60.0121
 30
0.0
 11
82.7341
 21
60.0121
 31
0.0
  0
LINE
  5
AA
330
1E
100
AcDbEntity
  8
0
100
AcDbLine
 10
114.0
 20
92.9879
 30
0.0
 11
114.0
 21
94.08790000000001
 31
0.0
  0
LINE
  5
AB
330
1E
100
AcDbEntity
  8
0
100
AcDbLine
 10
73.0
 20
92.9879
 30
0.0
 11
79.0
 21
92.9879
 31
0.0
  0
LINE
  5
AC
330
1E
100
AcDbEntity
  8
0
100
AcDbLine
 10
70.5
 20
94.4879
 30
0.0
 11
71.5
 21
93.48789999999999
 31
0.0
  0
LINE
  5
AD
330
1E
100
AcDbEntity
  8
0
100
AcDbLine
 10
114.0
 20
94.08790000000001
 30
0.0
 11
114.0
 21
92.9879
 31
0.0
  0
LINE
  5
AE
330
1E
100
AcDbEntity
  8
0
100
AcDbLine
 10
114.0
 20
94.08790000000001
 30
0.0
 11
114.0
 21
96.9879
 31
0.0
  0
LINE
  5
AF
330
1E
100
AcDbEntity
  8
0
100
AcDbLine
 10
71.5
 20
93.48789999999999
 30
0.0
 11
73.0
 21
92.9879
 31
0.0
  0
LINE
  5
B0
330
1E
100
AcDbEntity
  8
0
100
AcDbLine
 10
101.0
 20
92.9879
 30
0.0
 11
114.0
 21
92.9879
 31
0.0
  0
LINE
  5
B1
330
1E
100
AcDbEntity
  8
0
100
AcDbLine
 10
101.0
 20
92.9879
 30
0.0
 11
101.0
 21
90.0121
 31
0.0
  0
LINE
  5
B2
330
1E
100
AcDbEntity
  8
0
100
AcDbLine
 10
65.5
 20
94.4879
 30
0.0
 11
66.0
 21
95.98789999999999
 31
0.0
  0
LINE
  5
B4
330
1E
100
AcDbEntity
  8
0
100
AcDbLine
 10
11.524
 20
96.61290000000001
 30
0.0
 11
11.908
 21
98.11289999999999
 31
0.0
  0
LINE
  5
B5
330
1E
100
AcDbEntity
  8
0
100
AcDbLine
 10
10.81299999999999
 20
95.5169
 30
0.0
 11
11.524
 21
96.61290000000001
 31
0.0
  0
LINE
  5
B6
330
1E
100
AcDbEntity
  8
0
100
AcDbLine
 10
11.807
 20
99.8839
 30
0.0
 11
11.83115545243619
 21
99.3283245939674
 31
0.0
  0
LINE
  5
B7
330
1E
100
AcDbEntity
  8
0
100
AcDbLine
 10
35.0
 20
96.9879
 30
0.0
 11
35.0
 21
100.4879
 31
0.0
  0
LINE
  5
B8
330
1E
100
AcDbEntity
  8
0
100
AcDbLine
 10
35.0
 20
96.9879
 30
0.0
 11
35.5
 21
95.4879
 31
0.0
  0
LINE
  5
B9
330
1E
100
AcDbEntity
  8
0
100
AcDbLine
 10
60.5
 20
95.4879
 30
0.0
 11
60.5
 21
94.4879
 31
0.0
  0
LINE
  5
BA
330
1E
100
AcDbEntity
  8
0
100
AcDbLine
 10
60.5
 20
95.4879
 30
0.0
 11
60.5
 21
98.28789999999999
 31
0.0
  0
LINE
  5
BB
330
1E
100
AcDbEntity
  8
0
100
AcDbLine
 10
66.0
 20
95.98789999999999
 30
0.0
 11
66.0
 21
96.9879
 31
0.0
  0
LINE
  5
BC
330
1E
100
AcDbEntity
  8
0
100
AcDbLine
 10
35.5
 20
96.48789999999999
 30
0.0
 11
35.5
 21
99.18790000000001
 31
0.0
  0
LINE
  5
BD
330
1E
100
AcDbEntity
  8
0
100
AcDbLine
 10
66.0
 20
96.9879
 30
0.0
 11
66.0
 21
95.98789999999999
 31
0.0
  0
LINE
  5
BE
330
1E
100
AcDbEntity
  8
0
100
AcDbLine
 10
66.0
 20
96.9879
 30
0.0
 11
66.0
 21
99.5879
 31
0.0
  0
LINE
  5
BF
330
1E
100
AcDbEntity
  8
0
100
AcDbLine
 10
61.0
 20
97.48789999999999
 30
0.0
 11
61.0
 21
94.5879
 31
0.0
  0
LINE
  5
C0
330
1E
100
AcDbEntity
  8
0
100
AcDbLine
 10
61.0
 20
97.48789999999999
 30
0.0
 11
61.0
 21
102.1878999999999
 31
0.0
  0
LINE
  5
C1
330
1E
100
AcDbEntity
  8
0
100
AcDbLine
 10
70.0
 20
96.9879
 30
0.0
 11
70.0
 21
95.98789999999999
 31
0.0
  0
LINE
  5
C2
330
1E
100
AcDbEntity
  8
0
100
AcDbLine
 10
70.0
 20
96.9879
 30
0.0
 11
70.0
 21
99.5879
 31
0.0
  0
LINE
  5
C3
330
1E
100
AcDbEntity
  8
0
100
AcDbLine
 10
114.0
 20
96.9879
 30
0.0
 11
114.0
 21
94.08790000000001
 31
0.0
  0
LINE
  5
C4
330
1E
100
AcDbEntity
  8
0
100
AcDbLine
 10
114.0
 20
96.9879
 30
0.0
 11
114.0
 21
101.7878999999999
 31
0.0
  0
LINE
  5
C5
330
1E
100
AcDbEntity
  8
0
100
AcDbLine
 10
70.0
 20
95.98789999999999
 30
0.0
 11
70.5
 21
94.4879
 31
0.0
  0
LINE
  5
C6
330
1E
100
AcDbEntity
  8
0
100
AcDbLine
 10
70.0
 20
95.98789999999999
 30
0.0
 11
70.0
 21
96.9879
 31
0.0
  0
LINE
  5
C7
330
1E
100
AcDbEntity
  8
0
100
AcDbLine
 10
35.5
 20
95.4879
 30
0.0
 11
37.0
 21
94.98789999999999
 31
0.0
  0
LINE
  5
C8
330
1E
100
AcDbEntity
  8
0
100
AcDbLine
 10
35.5
 20
95.4879
 30
0.0
 11
35.5
 21
96.48789999999999
 31
0.0
  0
LINE
  5
C9
330
1E
100
AcDbEntity
  8
0
100
AcDbLine
 10
35.5
 20
99.18790000000001
 30
0.0
 11
35.5
 21
96.48789999999999
 31
0.0
  0
LINE
  5
CA
330
1E
100
AcDbEntity
  8
0
100
AcDbLine
 10
35.5
 20
99.18790000000001
 30
0.0
 11
35.5
 21
103.5878999999999
 31
0.0
  0
LINE
  5
CB
330
1E
100
AcDbEntity
  8
0
100
AcDbLine
 10
60.5
 20
98.28789999999999
 30
0.0
 11
60.5
 21
102.8879
 31
0.0
  0
LINE
  5
CC
330
1E
100
AcDbEntity
  8
0
100
AcDbLine
 10
66.0
 20
99.5879
 30
0.0
 11
66.0
 21
96.9879
 31
0.0
  0
LINE
  5
CD
330
1E
100
AcDbEntity
  8
0
100
AcDbLine
 10
66.0
 20
99.5879
 30
0.0
 11
66.0
 21
103.9878999999999
 31
0.0
  0
LINE
  5
CE
330
1E
100
AcDbEntity
  8
0
100
AcDbLine
 10
70.0
 20
99.5879
 30
0.0
 11
70.0
 21
96.9879
 31
0.0
  0
LINE
  5
CF
330
1E
100
AcDbEntity
  8
0
100
AcDbLine
 10
70.0
 20
99.5879
 30
0.0
 11
70.0
 21
103.9878999999999
 31
0.0
  0
LINE
  5
D0
330
1E
100
AcDbEntity
  8
0
100
AcDbLine
 10
11.80944
 20
97.7279
 30
0.0
 11
11.889
 21
97.99790000000001
 31
0.0
  0
LINE
  5
D1
330
1E
100
AcDbEntity
  8
0
100
AcDbLine
 10
10.5266551724139
 20
95.2733765705574
 30
0.0
 11
10.717
 21
95.42089999999999
 31
0.0
  0
LINE
  5
D2
330
1E
100
AcDbEntity
  8
0
100
AcDbLine
 10
0.211999999999996
 20
100.0109
 30
0.0
 11
0.689999999999996
 21
103.9859
 31
0.0
  0
LINE
  5
D3
330
1E
100
AcDbEntity
  8
0
100
AcDbLine
 10
1.217
 20
107.5299
 30
0.0
 11
1.551999999999999
 21
110.2839
 31
0.0
  0
LINE
  5
D4
330
1E
100
AcDbEntity
  8
0
100
AcDbLine
 10
1.217
 20
107.5299
 30
0.0
 11
1.242999999999999
 21
107.8499
 31
0.0
  0
LINE
  5
D5
330
1E
100
AcDbEntity
  8
0
100
AcDbLine
 10
0.689999999999996
 20
103.9859
 30
0.0
 11
1.217
 21
107.5299
 31
0.0
  0
LINE
  5
D6
330
1E
100
AcDbEntity
  8
0
100
AcDbLine
 10
0.211999999999996
 20
100.0109
 30
0.0
 11
0.689999999999996
 21
103.9859
 31
0.0
  0
LINE
  5
D7
330
1E
100
AcDbEntity
  8
0
100
AcDbLine
 10
1.551999999999999
 20
110.2839
 30
0.0
 11
1.857
 21
112.5658999999999
 31
0.0
  0
LINE
  5
D8
330
1E
100
AcDbEntity
  8
0
100
AcDbLine
 10
1.242999999999999
 20
107.8499
 30
0.0
 11
1.34754735998931
 21
108.603116207196
 31
0.0
  0
LINE
  5
D9
330
1E
100
AcDbEntity
  8
0
100
AcDbLine
 10
0.4999999999999961
 20
115.5879
 30
0.0
 11
0.499999999999997
 21
117.7878999999999
 31
0.0
  0
LINE
  5
DA
330
1E
100
AcDbEntity
  8
0
100
AcDbLine
 10
0.499999999999997
 20
117.7878999999999
 30
0.0
 11
0.499999999999997
 21
120.2879
 31
0.0
  0
LINE
  5
DB
330
1E
100
AcDbEntity
  8
0
100
AcDbLine
 10
0.499999999999997
 20
120.2879
 30
0.0
 11
0.499999999999997
 21
121.779082364729
 31
0.0
  0
LINE
  5
DC
330
1E
100
AcDbEntity
  8
0
100
AcDbLine
 10
0.4999999999999961
 20
113.8878999999999
 30
0.0
 11
0.4999999999999961
 21
115.5879
 31
0.0
  0
LINE
  5
DD
330
1E
100
AcDbEntity
  8
0
100
AcDbLine
 10
0.4999999999999961
 20
112.8878999999999
 30
0.0
 11
0.4999999999999961
 21
112.4878999999999
 31
0.0
  0
LINE
  5
DE
330
1E
100
AcDbEntity
  8
0
100
AcDbLine
 10
0.4999999999999961
 20
112.8878999999999
 30
0.0
 11
0.4999999999999961
 21
113.8878999999999
 31
0.0
  0
LINE
  5
DF
330
1E
100
AcDbEntity
  8
0
100
AcDbLine
 10
0.5909999999999971
 20
121.6879
 30
0.0
 11
3.051
 21
121.1878999999999
 31
0.0
  0
LINE
  5
E1
330
1E
100
AcDbEntity
  8
0
100
AcDbLine
 10
0.5909999999999971
 20
121.6879
 30
0.0
 11
3.051
 21
121.1878999999999
 31
0.0
  0
LINE
  5
E2
330
1E
100
AcDbEntity
  8
0
100
AcDbLine
 10
0.192999999999998
 20
146.0919
 30
0.0
 11
0.272738551902433
 21
145.4598043016479
 31
0.0
  0
LINE
  5
E3
330
1E
100
AcDbEntity
  8
0
100
AcDbLine
 10
0.192999999999998
 20
146.0919
 30
0.0
 11
0.272738551902433
 21
145.4598043016479
 31
0.0
  0
LINE
  5
E4
330
1E
100
AcDbEntity
  8
0
100
AcDbLine
 10
0.4759999999999971
 20
123.7878999999999
 30
0.0
 11
1.187
 21
123.7878999999999
 31
0.0
  0
LINE
  5
E5
330
1E
100
AcDbEntity
  8
0
100
AcDbLine
 10
0.5909999999999971
 20
124.2879
 30
0.0
 11
3.051
 21
124.7878999999999
 31
0.0
  0
LINE
  5
E7
330
1E
100
AcDbEntity
  8
0
100
AcDbLine
 10
0.5909999999999971
 20
124.2879
 30
0.0
 11
3.051
 21
124.7878999999999
 31
0.0
  0
LINE
  5
E8
330
1E
100
AcDbEntity
  8
0
100
AcDbLine
 10
0.499999999999997
 20
130.3879
 30
0.0
 11
0.499999999999997
 21
132.0878999999999
 31
0.0
  0
LINE
  5
E9
330
1E
100
AcDbEntity
  8
0
100
AcDbLine
 10
0.4999999999999981
 20
133.0878999999999
 30
0.0
 11
0.4999999999999981
 21
133.4878999999999
 31
0.0
  0
LINE
  5
EA
330
1E
100
AcDbEntity
  8
0
100
AcDbLine
 10
0.499999999999997
 20
132.0878999999999
 30
0.0
 11
0.4999999999999981
 21
133.0878999999999
 31
0.0
  0
LINE
  5
EB
330
1E
100
AcDbEntity
  8
0
100
AcDbLine
 10
0.4999999999999981
 20
133.4878999999999
 30
0.0
 11
1.783802479851209
 21
133.91583415995
 31
0.0
  0
LINE
  5
EC
330
1E
100
AcDbEntity
  8
0
100
AcDbLine
 10
0.4999999999999981
 20
133.4878999999999
 30
0.0
 11
0.4999999999999981
 21
133.0878999999999
 31
0.0
  0
LINE
  5
ED
330
1E
100
AcDbEntity
  8
0
100
AcDbLine
 10
0.4999999999999981
 20
133.4878999999999
 30
0.0
 11
1.783802479851209
 21
133.91583415995
 31
0.0
  0
LINE
  5
EE
330
1E
100
AcDbEntity
  8
0
100
AcDbLine
 10
0.499999999999997
 20
128.1879
 30
0.0
 11
0.499999999999997
 21
130.3879
 31
0.0
  0
LINE
  5
EF
330
1E
100
AcDbEntity
  8
0
100
AcDbLine
 10
0.499999999999997
 20
125.6879
 30
0.0
 11
0.499999999999997
 21
128.1879
 31
0.0
  0
LINE
  5
F0
330
1E
100
AcDbEntity
  8
0
100
AcDbLine
 10
0.499999999999997
 20
124.196717635271
 30
0.0
 11
0.499999999999997
 21
125.6879
 31
0.0
  0
LINE
  5
F2
330
1E
100
AcDbEntity
  8
0
100
AcDbLine
 10
0.475999999999999
 20
149.3629
 30
0.0
 11
1.187
 21
150.4588999999999
 31
0.0
  0
LINE
  5
F3
330
1E
100
AcDbEntity
  8
0
100
AcDbLine
 10
0.6899999999999979
 20
141.9899
 30
0.0
 11
1.217
 21
138.4458999999999
 31
0.0
  0
LINE
  5
F4
330
1E
100
AcDbEntity
  8
0
100
AcDbLine
 10
0.211999999999998
 20
145.9648999999999
 30
0.0
 11
0.6899999999999979
 21
141.9899
 31
0.0
  0
LINE
  5
F5
330
1E
100
AcDbEntity
  8
0
100
AcDbLine
 10
0.211999999999998
 20
145.9648999999999
 30
0.0
 11
0.272738551902433
 21
145.4598043016479
 31
0.0
  0
LINE
  5
F6
330
1E
100
AcDbEntity
  8
0
100
AcDbLine
 10
0.4759999999999971
 20
122.1878999999999
 30
0.0
 11
1.187
 21
122.1878999999999
 31
0.0
  0
LINE
  5
F7
330
1E
100
AcDbEntity
  8
0
100
AcDbLine
 10
0.8286650742973559
 20
121.61267482407
 30
0.0
 11
1.217
 21
120.8418999999999
 31
0.0
  0
LINE
  5
F8
330
1E
100
AcDbEntity
  8
0
100
AcDbLine
 10
1.857
 20
112.5658999999999
 30
0.0
 11
2.0
 21
114.4878999999999
 31
0.0
  0
LINE
  5
F9
330
1E
100
AcDbEntity
  8
0
100
AcDbLine
 10
1.857
 20
116.9878999999999
 30
0.0
 11
2.0
 21
114.4878999999999
 31
0.0
  0
LINE
  5
FA
330
1E
100
AcDbEntity
  8
0
100
AcDbLine
 10
1.551999999999999
 20
118.9979
 30
0.0
 11
1.857
 21
116.9878999999999
 31
0.0
  0
LINE
  5
FB
330
1E
100
AcDbEntity
  8
0
100
AcDbLine
 10
3.051
 20
121.1878999999999
 30
0.0
 11
6.0
 21
120.9878999999999
 31
0.0
  0
LINE
  5
FC
330
1E
100
AcDbEntity
  8
0
100
AcDbLine
 10
10.14299999999999
 20
112.5658999999999
 30
0.0
 11
10.448
 21
110.2839
 31
0.0
  0
LINE
  5
FD
330
1E
100
AcDbEntity
  8
0
100
AcDbLine
 10
10.0
 20
114.4878999999999
 30
0.0
 11
10.14299999999999
 21
112.5658999999999
 31
0.0
  0
LINE
  5
FE
330
1E
100
AcDbEntity
  8
0
100
AcDbLine
 10
10.0
 20
114.4878999999999
 30
0.0
 11
10.14299999999999
 21
116.9878999999999
 31
0.0
  0
LINE
  5
FF
330
1E
100
AcDbEntity
  8
0
100
AcDbLine
 10
10.14299999999999
 20
116.9878999999999
 30
0.0
 11
10.448
 21
118.9979
 31
0.0
  0
LINE
  5
100
330
1E
100
AcDbEntity
  8
0
100
AcDbLine
 10
10.09874493999969
 20
113.160712764479
 30
0.0
 11
10.2382769218243
 21
111.8530411947439
 31
0.0
  0
LINE
  5
101
330
1E
100
AcDbEntity
  8
0
100
AcDbLine
 10
6.0
 20
120.9878999999999
 30
0.0
 11
8.948999999999999
 21
121.1878999999999
 31
0.0
  0
LINE
  5
102
330
1E
100
AcDbEntity
  8
0
100
AcDbLine
 10
8.948999999999999
 20
121.1878999999999
 30
0.0
 11
11.409
 21
121.6879
 31
0.0
  0
LINE
  5
103
330
1E
100
AcDbEntity
  8
0
100
AcDbLine
 10
1.217
 20
120.8418999999999
 30
0.0
 11
1.551999999999999
 21
118.9979
 31
0.0
  0
LINE
  5
106
330
1E
100
AcDbEntity
  8
0
100
AcDbLine
 10
1.187
 20
122.1878999999999
 30
0.0
 11
1.955999999999999
 21
122.1878999999999
 31
0.0
  0
LINE
  5
107
330
1E
100
AcDbEntity
  8
0
100
AcDbLine
 10
1.955999999999999
 20
122.1878999999999
 30
0.0
 11
3.071
 21
122.1878999999999
 31
0.0
  0
LINE
  5
109
330
1E
100
AcDbEntity
  8
0
100
AcDbLine
 10
0.8286650742973559
 20
124.36312517593
 30
0.0
 11
1.217
 21
125.1338999999999
 31
0.0
  0
LINE
  5
10B
330
1E
100
AcDbEntity
  8
0
100
AcDbLine
 10
1.187
 20
123.7878999999999
 30
0.0
 11
1.955999999999999
 21
123.7878999999999
 31
0.0
  0
LINE
  5
10C
330
1E
100
AcDbEntity
  8
0
100
AcDbLine
 10
1.217
 20
125.1338999999999
 30
0.0
 11
1.551999999999999
 21
126.9778999999999
 31
0.0
  0
LINE
  5
10E
330
1E
100
AcDbEntity
  8
0
100
AcDbLine
 10
1.187
 20
150.4588999999999
 30
0.0
 11
1.955999999999999
 21
151.1128999999999
 31
0.0
  0
LINE
  5
110
330
1E
100
AcDbEntity
  8
0
100
AcDbLine
 10
1.551999999999999
 20
126.9778999999999
 30
0.0
 11
1.857
 21
128.9878999999999
 31
0.0
  0
LINE
  5
111
330
1E
100
AcDbEntity
  8
0
100
AcDbLine
 10
1.955999999999999
 20
123.7878999999999
 30
0.0
 11
3.071
 21
123.7878999999999
 31
0.0
  0
LINE
  5
112
330
1E
100
AcDbEntity
  8
0
100
AcDbLine
 10
3.071
 20
123.7878999999999
 30
0.0
 11
6.0
 21
123.7878999999999
 31
0.0
  0
LINE
  5
113
330
1E
100
AcDbEntity
  8
0
100
AcDbLine
 10
3.051
 20
124.7878999999999
 30
0.0
 11
6.0
 21
124.9878999999999
 31
0.0
  0
LINE
  5
114
330
1E
100
AcDbEntity
  8
0
100
AcDbLine
 10
6.0
 20
124.9878999999999
 30
0.0
 11
8.948999999999999
 21
124.7878999999999
 31
0.0
  0
LINE
  5
115
330
1E
100
AcDbEntity
  8
0
100
AcDbLine
 10
6.0
 20
123.7878999999999
 30
0.0
 11
8.929
 21
123.7878999999999
 31
0.0
  0
LINE
  5
116
330
1E
100
AcDbEntity
  8
0
100
AcDbLine
 10
1.857
 20
128.9878999999999
 30
0.0
 11
2.0
 21
131.4878999999999
 31
0.0
  0
LINE
  5
117
330
1E
100
AcDbEntity
  8
0
100
AcDbLine
 10
1.857
 20
133.4098999999999
 30
0.0
 11
2.0
 21
131.4878999999999
 31
0.0
  0
LINE
  5
118
330
1E
100
AcDbEntity
  8
0
100
AcDbLine
 10
1.551999999999999
 20
135.6918999999999
 30
0.0
 11
1.857
 21
133.4098999999999
 31
0.0
  0
LINE
  5
119
330
1E
100
AcDbEntity
  8
0
100
AcDbLine
 10
1.551999999999999
 20
135.6918999999999
 30
0.0
 11
1.76172307817568
 21
134.122758805256
 31
0.0
  0
LINE
  5
11B
330
1E
100
AcDbEntity
  8
0
100
AcDbLine
 10
1.283
 20
150.5549
 30
0.0
 11
1.4733448275862
 21
150.7024234294429
 31
0.0
  0
LINE
  5
11C
330
1E
100
AcDbEntity
  8
0
100
AcDbLine
 10
1.955999999999999
 20
151.1128999999999
 30
0.0
 11
3.071
 21
151.6319
 31
0.0
  0
LINE
  5
11D
330
1E
100
AcDbEntity
  8
0
100
AcDbLine
 10
3.071
 20
151.6319
 30
0.0
 11
6.0
 21
151.9878999999999
 31
0.0
  0
LINE
  5
11E
330
1E
100
AcDbEntity
  8
0
100
AcDbLine
 10
1.242999999999999
 20
138.1259
 30
0.0
 11
1.34754735998933
 21
137.372683792804
 31
0.0
  0
LINE
  5
11F
330
1E
100
AcDbEntity
  8
0
100
AcDbLine
 10
1.242999999999999
 20
138.1259
 30
0.0
 11
1.347547359989319
 21
137.372683792804
 31
0.0
  0
LINE
  5
120
330
1E
100
AcDbEntity
  8
0
100
AcDbLine
 10
1.217
 20
138.4458999999999
 30
0.0
 11
1.551999999999999
 21
135.6918999999999
 31
0.0
  0
LINE
  5
121
330
1E
100
AcDbEntity
  8
0
100
AcDbLine
 10
1.217
 20
138.4458999999999
 30
0.0
 11
1.242999999999999
 21
138.1259
 31
0.0
  0
LINE
  5
122
330
1E
100
AcDbEntity
  8
0
100
AcDbLine
 10
3.071
 20
122.1878999999999
 30
0.0
 11
6.0
 21
122.1878999999999
 31
0.0
  0
LINE
  5
124
330
1E
100
AcDbEntity
  8
0
100
AcDbLine
 10
10.044
 20
122.1878999999999
 30
0.0
 11
10.81299999999999
 21
122.1878999999999
 31
0.0
  0
LINE
  5
125
330
1E
100
AcDbEntity
  8
0
100
AcDbLine
 10
8.929
 20
123.7878999999999
 30
0.0
 11
10.044
 21
123.7878999999999
 31
0.0
  0
LINE
  5
126
330
1E
100
AcDbEntity
  8
0
100
AcDbLine
 10
8.948999999999999
 20
124.7878999999999
 30
0.0
 11
11.409
 21
124.2879
 31
0.0
  0
LINE
  5
128
330
1E
100
AcDbEntity
  8
0
100
AcDbLine
 10
10.044
 20
123.7878999999999
 30
0.0
 11
10.81299999999999
 21
123.7878999999999
 31
0.0
  0
LINE
  5
129
330
1E
100
AcDbEntity
  8
0
100
AcDbLine
 10
10.0
 20
131.4878999999999
 30
0.0
 11
10.14299999999999
 21
128.9878999999999
 31
0.0
  0
LINE
  5
12A
330
1E
100
AcDbEntity
  8
0
100
AcDbLine
 10
10.0
 20
131.4878999999999
 30
0.0
 11
10.14299999999999
 21
133.4098999999999
 31
0.0
  0
LINE
  5
12C
330
1E
100
AcDbEntity
  8
0
100
AcDbLine
 10
10.044
 20
151.1128999999999
 30
0.0
 11
10.81299999999999
 21
150.4588999999999
 31
0.0
  0
LINE
  5
12D
330
1E
100
AcDbEntity
  8
0
100
AcDbLine
 10
8.929
 20
151.6319
 30
0.0
 11
10.044
 21
151.1128999999999
 31
0.0
  0
LINE
  5
12E
330
1E
100
AcDbEntity
  8
0
100
AcDbLine
 10
6.0
 20
151.9878999999999
 30
0.0
 11
8.929
 21
151.6319
 31
0.0
  0
LINE
  5
12F
330
1E
100
AcDbEntity
  8
0
100
AcDbLine
 10
10.14299999999999
 20
128.9878999999999
 30
0.0
 11
10.448
 21
126.9778999999999
 31
0.0
  0
LINE
  5
130
330
1E
100
AcDbEntity
  8
0
100
AcDbLine
 10
10.14299999999999
 20
133.4098999999999
 30
0.0
 11
10.448
 21
135.6918999999999
 31
0.0
  0
LINE
  5
131
330
1E
100
AcDbEntity
  8
0
100
AcDbLine
 10
10.09874493999969
 20
132.815087235521
 30
0.0
 11
10.2382769218243
 21
134.122758805256
 31
0.0
  0
LINE
  5
132
330
1E
100
AcDbEntity
  8
0
100
AcDbLine
 10
8.929
 20
122.1878999999999
 30
0.0
 11
10.044
 21
122.1878999999999
 31
0.0
  0
LINE
  5
133
330
1E
100
AcDbEntity
  8
0
100
AcDbLine
 10
6.0
 20
122.1878999999999
 30
0.0
 11
8.929
 21
122.1878999999999
 31
0.0
  0
LINE
  5
134
330
1E
100
AcDbEntity
  8
0
100
AcDbLine
 10
0.8286650742973559
 20
121.61267482407
 30
0.0
 11
1.217
 21
120.8418999999999
 31
0.0
  0
LINE
  5
136
330
1E
100
AcDbEntity
  8
0
100
AcDbLine
 10
0.4999999999999961
 20
112.4878999999999
 30
0.0
 11
1.7838024798512
 21
112.05996584005
 31
0.0
  0
LINE
  5
137
330
1E
100
AcDbEntity
  8
0
100
AcDbLine
 10
0.4999999999999961
 20
112.4878999999999
 30
0.0
 11
1.7838024798512
 21
112.05996584005
 31
0.0
  0
LINE
  5
138
330
1E
100
AcDbEntity
  8
0
100
AcDbLine
 10
0.4999999999999961
 20
112.4878999999999
 30
0.0
 11
0.4999999999999961
 21
112.8878999999999
 31
0.0
  0
LINE
  5
139
330
1E
100
AcDbEntity
  8
0
100
AcDbLine
 10
10.757
 20
107.8499
 30
0.0
 11
10.783
 21
107.5299
 31
0.0
  0
LINE
  5
13A
330
1E
100
AcDbEntity
  8
0
100
AcDbLine
 10
10.448
 20
110.2839
 30
0.0
 11
10.783
 21
107.5299
 31
0.0
  0
LINE
  5
13B
330
1E
100
AcDbEntity
  8
0
100
AcDbLine
 10
10.783
 20
107.5299
 30
0.0
 11
11.31
 21
103.9859
 31
0.0
  0
LINE
  5
13C
330
1E
100
AcDbEntity
  8
0
100
AcDbLine
 10
10.448
 20
118.9979
 30
0.0
 11
10.783
 21
120.8418999999999
 31
0.0
  0
LINE
  5
13D
330
1E
100
AcDbEntity
  8
0
100
AcDbLine
 10
33.5
 20
103.6879
 30
0.0
 11
33.5
 21
102.9878999999999
 31
0.0
  0
LINE
  5
13E
330
1E
100
AcDbEntity
  8
0
100
AcDbLine
 10
33.5
 20
103.6879
 30
0.0
 11
33.5
 21
105.6878999999999
 31
0.0
  0
LINE
  5
13F
330
1E
100
AcDbEntity
  8
0
100
AcDbLine
 10
35.0
 20
103.1878999999999
 30
0.0
 11
35.0
 21
105.1879
 31
0.0
  0
LINE
  5
140
330
1E
100
AcDbEntity
  8
0
100
AcDbLine
 10
35.0
 20
102.4878999999999
 30
0.0
 11
35.0
 21
103.1878999999999
 31
0.0
  0
LINE
  5
141
330
1E
100
AcDbEntity
  8
0
100
AcDbLine
 10
35.5
 20
103.5878999999999
 30
0.0
 11
35.5
 21
99.18790000000001
 31
0.0
  0
LINE
  5
142
330
1E
100
AcDbEntity
  8
0
100
AcDbLine
 10
35.5
 20
103.5878999999999
 30
0.0
 11
35.5
 21
109.2878999999999
 31
0.0
  0
LINE
  5
143
330
1E
100
AcDbEntity
  8
0
100
AcDbLine
 10
60.5
 20
102.8879
 30
0.0
 11
60.5
 21
98.28789999999999
 31
0.0
  0
LINE
  5
144
330
1E
100
AcDbEntity
  8
0
100
AcDbLine
 10
60.5
 20
102.8879
 30
0.0
 11
60.5
 21
108.7879
 31
0.0
  0
LINE
  5
145
330
1E
100
AcDbEntity
  8
0
100
AcDbLine
 10
61.0
 20
102.1878999999999
 30
0.0
 11
61.0
 21
97.48789999999999
 31
0.0
  0
LINE
  5
146
330
1E
100
AcDbEntity
  8
0
100
AcDbLine
 10
61.0
 20
102.1878999999999
 30
0.0
 11
61.0
 21
108.2878999999999
 31
0.0
  0
LINE
  5
147
330
1E
100
AcDbEntity
  8
0
100
AcDbLine
 10
70.0
 20
102.7878999999999
 30
0.0
 11
70.0
 21
104.7879
 31
0.0
  0
LINE
  5
148
330
1E
100
AcDbEntity
  8
0
100
AcDbLine
 10
70.0
 20
101.9878999999999
 30
0.0
 11
70.0
 21
102.7878999999999
 31
0.0
  0
LINE
  5
149
330
1E
100
AcDbEntity
  8
0
100
AcDbLine
 10
114.0
 20
101.7878999999999
 30
0.0
 11
114.0
 21
96.9879
 31
0.0
  0
LINE
  5
14A
330
1E
100
AcDbEntity
  8
0
100
AcDbLine
 10
114.0
 20
101.7878999999999
 30
0.0
 11
114.0
 21
108.0879
 31
0.0
  0
LINE
  5
14B
330
1E
100
AcDbEntity
  8
0
100
AcDbLine
 10
66.0
 20
101.9878999999999
 30
0.0
 11
70.0
 21
101.9878999999999
 31
0.0
  0
LINE
  5
14C
330
1E
100
AcDbEntity
  8
0
100
AcDbLine
 10
35.0
 20
100.4879
 30
0.0
 11
35.0
 21
96.9879
 31
0.0
  0
LINE
  5
14D
330
1E
100
AcDbEntity
  8
0
100
AcDbLine
 10
35.0
 20
100.4879
 30
0.0
 11
35.0
 21
104.5879
 31
0.0
  0
LINE
  5
14E
330
1E
100
AcDbEntity
  8
0
100
AcDbLine
 10
33.5
 20
102.9878999999999
 30
0.0
 11
35.0
 21
102.4878999999999
 31
0.0
  0
LINE
  5
14F
330
1E
100
AcDbEntity
  8
0
100
AcDbLine
 10
33.5
 20
102.9878999999999
 30
0.0
 11
33.5
 21
103.6879
 31
0.0
  0
LINE
  5
150
330
1E
100
AcDbEntity
  8
0
100
AcDbLine
 10
11.788
 20
100.0109
 30
0.0
 11
11.908
 21
98.11289999999999
 31
0.0
  0
LINE
  5
151
330
1E
100
AcDbEntity
  8
0
100
AcDbLine
 10
11.72726144809759
 20
100.515995698352
 30
0.0
 11
11.807
 21
99.8839
 31
0.0
  0
LINE
  5
152
330
1E
100
AcDbEntity
  8
0
100
AcDbLine
 10
11.0
 20
117.3879
 30
0.0
 11
11.0
 21
116.0878999999999
 31
0.0
  0
LINE
  5
153
330
1E
100
AcDbEntity
  8
0
100
AcDbLine
 10
11.0
 20
117.3879
 30
0.0
 11
11.0
 21
118.9878999999999
 31
0.0
  0
LINE
  5
154
330
1E
100
AcDbEntity
  8
0
100
AcDbLine
 10
11.0
 20
116.0878999999999
 30
0.0
 11
11.0
 21
115.2878999999999
 31
0.0
  0
LINE
  5
155
330
1E
100
AcDbEntity
  8
0
100
AcDbLine
 10
11.0
 20
116.0878999999999
 30
0.0
 11
11.0
 21
117.3879
 31
0.0
  0
LINE
  5
156
330
1E
100
AcDbEntity
  8
0
100
AcDbLine
 10
11.0
 20
115.2878999999999
 30
0.0
 11
11.0
 21
114.9879
 31
0.0
  0
LINE
  5
157
330
1E
100
AcDbEntity
  8
0
100
AcDbLine
 10
11.0
 20
115.2878999999999
 30
0.0
 11
11.0
 21
116.0878999999999
 31
0.0
  0
LINE
  5
158
330
1E
100
AcDbEntity
  8
0
100
AcDbLine
 10
11.0
 20
118.9878999999999
 30
0.0
 11
11.0
 21
117.3879
 31
0.0
  0
LINE
  5
159
330
1E
100
AcDbEntity
  8
0
100
AcDbLine
 10
11.0
 20
118.9878999999999
 30
0.0
 11
11.0
 21
120.8879
 31
0.0
  0
LINE
  5
15A
330
1E
100
AcDbEntity
  8
0
100
AcDbLine
 10
11.0
 20
120.8879
 30
0.0
 11
11.0
 21
118.9878999999999
 31
0.0
  0
LINE
  5
15B
330
1E
100
AcDbEntity
  8
0
100
AcDbLine
 10
11.0
 20
120.8879
 30
0.0
 11
11.0
 21
121.272605882353
 31
0.0
  0
LINE
  5
15C
330
1E
100
AcDbEntity
  8
0
100
AcDbLine
 10
11.0
 20
121.272605882353
 30
0.0
 11
11.0
 21
120.8879
 31
0.0
  0
LINE
  5
15D
330
1E
100
AcDbEntity
  8
0
100
AcDbLine
 10
13.0
 20
119.7878999999999
 30
0.0
 11
13.0
 21
118.3879
 31
0.0
  0
LINE
  5
15E
330
1E
100
AcDbEntity
  8
0
100
AcDbLine
 10
13.0
 20
119.7878999999999
 30
0.0
 11
13.0
 21
121.2879
 31
0.0
  0
LINE
  5
15F
330
1E
100
AcDbEntity
  8
0
100
AcDbLine
 10
13.0
 20
121.2879
 30
0.0
 11
13.0
 21
119.7878999999999
 31
0.0
  0
LINE
  5
160
330
1E
100
AcDbEntity
  8
0
100
AcDbLine
 10
13.0
 20
121.2879
 30
0.0
 11
13.0
 21
122.9878999999999
 31
0.0
  0
LINE
  5
161
330
1E
100
AcDbEntity
  8
0
100
AcDbLine
 10
13.0
 20
118.3879
 30
0.0
 11
13.0
 21
117.3879
 31
0.0
  0
LINE
  5
162
330
1E
100
AcDbEntity
  8
0
100
AcDbLine
 10
13.0
 20
118.3879
 30
0.0
 11
13.0
 21
119.7878999999999
 31
0.0
  0
LINE
  5
163
330
1E
100
AcDbEntity
  8
0
100
AcDbLine
 10
13.0
 20
117.3879
 30
0.0
 11
13.0
 21
116.6878999999999
 31
0.0
  0
LINE
  5
164
330
1E
100
AcDbEntity
  8
0
100
AcDbLine
 10
13.0
 20
117.3879
 30
0.0
 11
13.0
 21
118.3879
 31
0.0
  0
LINE
  5
165
330
1E
100
AcDbEntity
  8
0
100
AcDbLine
 10
13.0
 20
116.6878999999999
 30
0.0
 11
13.0
 21
116.4878999999999
 31
0.0
  0
LINE
  5
166
330
1E
100
AcDbEntity
  8
0
100
AcDbLine
 10
13.0
 20
116.6878999999999
 30
0.0
 11
13.0
 21
117.3879
 31
0.0
  0
LINE
  5
167
330
1E
100
AcDbEntity
  8
0
100
AcDbLine
 10
11.0
 20
114.9879
 30
0.0
 11
13.0
 21
116.4878999999999
 31
0.0
  0
LINE
  5
168
330
1E
100
AcDbEntity
  8
0
100
AcDbLine
 10
11.0
 20
114.9879
 30
0.0
 11
11.0
 21
115.2878999999999
 31
0.0
  0
LINE
  5
169
330
1E
100
AcDbEntity
  8
0
100
AcDbLine
 10
33.0
 20
106.9879
 30
0.0
 11
33.0
 21
104.4878999999999
 31
0.0
  0
LINE
  5
16A
330
1E
100
AcDbEntity
  8
0
100
AcDbLine
 10
33.0
 20
106.9879
 30
0.0
 11
33.0
 21
109.8878999999999
 31
0.0
  0
LINE
  5
16B
330
1E
100
AcDbEntity
  8
0
100
AcDbLine
 10
33.0
 20
104.4878999999999
 30
0.0
 11
33.0
 21
106.9879
 31
0.0
  0
LINE
  5
16C
330
1E
100
AcDbEntity
  8
0
100
AcDbLine
 10
33.0
 20
104.4878999999999
 30
0.0
 11
33.5
 21
102.9878999999999
 31
0.0
  0
LINE
  5
16D
330
1E
100
AcDbEntity
  8
0
100
AcDbLine
 10
33.0
 20
114.9879
 30
0.0
 11
33.0
 21
109.8878999999999
 31
0.0
  0
LINE
  5
16E
330
1E
100
AcDbEntity
  8
0
100
AcDbLine
 10
33.0
 20
109.8878999999999
 30
0.0
 11
33.0
 21
114.9879
 31
0.0
  0
LINE
  5
16F
330
1E
100
AcDbEntity
  8
0
100
AcDbLine
 10
33.0
 20
109.8878999999999
 30
0.0
 11
33.0
 21
106.9879
 31
0.0
  0
LINE
  5
170
330
1E
100
AcDbEntity
  8
0
100
AcDbLine
 10
18.0
 20
116.2359
 30
0.0
 11
18.0
 21
117.4839
 31
0.0
  0
LINE
  5
171
330
1E
100
AcDbEntity
  8
0
100
AcDbLine
 10
18.0
 20
116.2359
 30
0.0
 11
18.0
 21
115.4679
 31
0.0
  0
LINE
  5
172
330
1E
100
AcDbEntity
  8
0
100
AcDbLine
 10
18.0
 20
116.2359
 30
0.0
 11
18.0
 21
116.4878999999999
 31
0.0
  0
LINE
  5
173
330
1E
100
AcDbEntity
  8
0
100
AcDbLine
 10
18.0
 20
115.4679
 30
0.0
 11
18.0
 21
116.2359
 31
0.0
  0
LINE
  5
174
330
1E
100
AcDbEntity
  8
0
100
AcDbLine
 10
18.0
 20
115.4679
 30
0.0
 11
18.0
 21
115.1799
 31
0.0
  0
LINE
  5
175
330
1E
100
AcDbEntity
  8
0
100
AcDbLine
 10
18.0
 20
115.1799
 30
0.0
 11
18.0
 21
115.4679
 31
0.0
  0
LINE
  5
176
330
1E
100
AcDbEntity
  8
0
100
AcDbLine
 10
18.0
 20
115.1799
 30
0.0
 11
18.3333
 21
114.9879
 31
0.0
  0
LINE
  5
177
330
1E
100
AcDbEntity
  8
0
100
AcDbLine
 10
33.0
 20
116.0438999999999
 30
0.0
 11
33.0
 21
115.2758999999999
 31
0.0
  0
LINE
  5
178
330
1E
100
AcDbEntity
  8
0
100
AcDbLine
 10
18.3333
 20
114.9879
 30
0.0
 11
33.0
 21
114.9879
 31
0.0
  0
LINE
  5
179
330
1E
100
AcDbEntity
  8
0
100
AcDbLine
 10
66.0
 20
103.9878999999999
 30
0.0
 11
66.0
 21
99.5879
 31
0.0
  0
LINE
  5
17A
330
1E
100
AcDbEntity
  8
0
100
AcDbLine
 10
66.0
 20
103.9878999999999
 30
0.0
 11
66.0
 21
109.5879
 31
0.0
  0
LINE
  5
17B
330
1E
100
AcDbEntity
  8
0
100
AcDbLine
 10
35.0
 20
105.1879
 30
0.0
 11
35.0
 21
108.4878999999999
 31
0.0
  0
LINE
  5
17C
330
1E
100
AcDbEntity
  8
0
100
AcDbLine
 10
33.5
 20
105.6878999999999
 30
0.0
 11
33.5
 21
103.6879
 31
0.0
  0
LINE
  5
17D
330
1E
100
AcDbEntity
  8
0
100
AcDbLine
 10
33.5
 20
105.6878999999999
 30
0.0
 11
33.5
 21
108.8879
 31
0.0
  0
LINE
  5
17E
330
1E
100
AcDbEntity
  8
0
100
AcDbLine
 10
35.0
 20
110.0879
 30
0.0
 11
35.0
 21
104.5879
 31
0.0
  0
LINE
  5
17F
330
1E
100
AcDbEntity
  8
0
100
AcDbLine
 10
35.0
 20
110.0879
 30
0.0
 11
35.0
 21
116.2878999999999
 31
0.0
  0
LINE
  5
180
330
1E
100
AcDbEntity
  8
0
100
AcDbLine
 10
33.5
 20
108.8879
 30
0.0
 11
33.5
 21
113.0878999999999
 31
0.0
  0
LINE
  5
181
330
1E
100
AcDbEntity
  8
0
100
AcDbLine
 10
33.5
 20
108.8879
 30
0.0
 11
33.5
 21
105.6878999999999
 31
0.0
  0
LINE
  5
182
330
1E
100
AcDbEntity
  8
0
100
AcDbLine
 10
35.0
 20
108.4878999999999
 30
0.0
 11
35.0
 21
112.7878999999999
 31
0.0
  0
LINE
  5
183
330
1E
100
AcDbEntity
  8
0
100
AcDbLine
 10
35.0
 20
116.2878999999999
 30
0.0
 11
35.0
 21
110.0879
 31
0.0
  0
LINE
  5
184
330
1E
100
AcDbEntity
  8
0
100
AcDbLine
 10
35.0
 20
116.2878999999999
 30
0.0
 11
35.0
 21
122.9878999999999
 31
0.0
  0
LINE
  5
185
330
1E
100
AcDbEntity
  8
0
100
AcDbLine
 10
33.5
 20
113.0878999999999
 30
0.0
 11
33.5
 21
108.8879
 31
0.0
  0
LINE
  5
186
330
1E
100
AcDbEntity
  8
0
100
AcDbLine
 10
33.5
 20
113.0878999999999
 30
0.0
 11
33.5
 21
117.8879
 31
0.0
  0
LINE
  5
187
330
1E
100
AcDbEntity
  8
0
100
AcDbLine
 10
35.0
 20
112.7878999999999
 30
0.0
 11
35.0
 21
117.6879
 31
0.0
  0
LINE
  5
188
330
1E
100
AcDbEntity
  8
0
100
AcDbLine
 10
35.5
 20
109.2878999999999
 30
0.0
 11
35.5
 21
103.5878999999999
 31
0.0
  0
LINE
  5
189
330
1E
100
AcDbEntity
  8
0
100
AcDbLine
 10
35.5
 20
109.2878999999999
 30
0.0
 11
35.5
 21
115.8878999999999
 31
0.0
  0
LINE
  5
18A
330
1E
100
AcDbEntity
  8
0
100
AcDbLine
 10
60.5
 20
108.7879
 30
0.0
 11
60.5
 21
102.8879
 31
0.0
  0
LINE
  5
18B
330
1E
100
AcDbEntity
  8
0
100
AcDbLine
 10
60.5
 20
108.7879
 30
0.0
 11
60.5
 21
115.6878999999999
 31
0.0
  0
LINE
  5
18C
330
1E
100
AcDbEntity
  8
0
100
AcDbLine
 10
70.0
 20
104.7879
 30
0.0
 11
70.0
 21
108.1879
 31
0.0
  0
LINE
  5
18D
330
1E
100
AcDbEntity
  8
0
100
AcDbLine
 10
70.0
 20
109.5879
 30
0.0
 11
70.0
 21
103.9878999999999
 31
0.0
  0
LINE
  5
18E
330
1E
100
AcDbEntity
  8
0
100
AcDbLine
 10
70.0
 20
109.5879
 30
0.0
 11
70.0
 21
116.0878999999999
 31
0.0
  0
LINE
  5
18F
330
1E
100
AcDbEntity
  8
0
100
AcDbLine
 10
61.0
 20
108.2878999999999
 30
0.0
 11
61.0
 21
102.1878999999999
 31
0.0
  0
LINE
  5
190
330
1E
100
AcDbEntity
  8
0
100
AcDbLine
 10
61.0
 20
108.2878999999999
 30
0.0
 11
61.0
 21
115.3879
 31
0.0
  0
LINE
  5
191
330
1E
100
AcDbEntity
  8
0
100
AcDbLine
 10
66.0
 20
109.5879
 30
0.0
 11
66.0
 21
103.9878999999999
 31
0.0
  0
LINE
  5
192
330
1E
100
AcDbEntity
  8
0
100
AcDbLine
 10
66.0
 20
109.5879
 30
0.0
 11
66.0
 21
116.0878999999999
 31
0.0
  0
LINE
  5
193
330
1E
100
AcDbEntity
  8
0
100
AcDbLine
 10
114.0
 20
108.0879
 30
0.0
 11
114.0
 21
101.7878999999999
 31
0.0
  0
LINE
  5
194
330
1E
100
AcDbEntity
  8
0
100
AcDbLine
 10
114.0
 20
108.0879
 30
0.0
 11
114.0
 21
115.2878999999999
 31
0.0
  0
LINE
  5
195
330
1E
100
AcDbEntity
  8
0
100
AcDbLine
 10
70.0
 20
108.1879
 30
0.0
 11
70.0
 21
112.5879
 31
0.0
  0
LINE
  5
196
330
1E
100
AcDbEntity
  8
0
100
AcDbLine
 10
35.5
 20
115.8878999999999
 30
0.0
 11
35.5
 21
109.2878999999999
 31
0.0
  0
LINE
  5
197
330
1E
100
AcDbEntity
  8
0
100
AcDbLine
 10
35.5
 20
115.8878999999999
 30
0.0
 11
35.5
 21
122.9878999999999
 31
0.0
  0
LINE
  5
198
330
1E
100
AcDbEntity
  8
0
100
AcDbLine
 10
60.5
 20
115.6878999999999
 30
0.0
 11
60.5
 21
108.7879
 31
0.0
  0
LINE
  5
199
330
1E
100
AcDbEntity
  8
0
100
AcDbLine
 10
60.5
 20
115.6878999999999
 30
0.0
 11
60.5
 21
122.9878999999999
 31
0.0
  0
LINE
  5
19A
330
1E
100
AcDbEntity
  8
0
100
AcDbLine
 10
61.0
 20
115.3879
 30
0.0
 11
61.0
 21
122.9878999999999
 31
0.0
  0
LINE
  5
19B
330
1E
100
AcDbEntity
  8
0
100
AcDbLine
 10
61.0
 20
115.3879
 30
0.0
 11
61.0
 21
108.2878999999999
 31
0.0
  0
LINE
  5
19C
330
1E
100
AcDbEntity
  8
0
100
AcDbLine
 10
70.0
 20
116.0878999999999
 30
0.0
 11
70.0
 21
109.5879
 31
0.0
  0
LINE
  5
19D
330
1E
100
AcDbEntity
  8
0
100
AcDbLine
 10
70.0
 20
116.0878999999999
 30
0.0
 11
70.0
 21
122.9878999999999
 31
0.0
  0
LINE
  5
19E
330
1E
100
AcDbEntity
  8
0
100
AcDbLine
 10
114.0
 20
115.2878999999999
 30
0.0
 11
114.0
 21
108.0879
 31
0.0
  0
LINE
  5
19F
330
1E
100
AcDbEntity
  8
0
100
AcDbLine
 10
114.0
 20
115.2878999999999
 30
0.0
 11
114.0
 21
122.9878999999999
 31
0.0
  0
LINE
  5
1A0
330
1E
100
AcDbEntity
  8
0
100
AcDbLine
 10
66.0
 20
116.0878999999999
 30
0.0
 11
66.0
 21
109.5879
 31
0.0
  0
LINE
  5
1A1
330
1E
100
AcDbEntity
  8
0
100
AcDbLine
 10
66.0
 20
116.0878999999999
 30
0.0
 11
66.0
 21
122.9878999999999
 31
0.0
  0
LINE
  5
1A2
330
1E
100
AcDbEntity
  8
0
100
AcDbLine
 10
70.0
 20
112.5879
 30
0.0
 11
70.0
 21
117.5879
 31
0.0
  0
LINE
  5
1A3
330
1E
100
AcDbEntity
  8
0
100
AcDbLine
 10
35.0
 20
104.5879
 30
0.0
 11
35.0
 21
100.4879
 31
0.0
  0
LINE
  5
1A4
330
1E
100
AcDbEntity
  8
0
100
AcDbLine
 10
35.0
 20
104.5879
 30
0.0
 11
35.0
 21
110.0879
 31
0.0
  0
LINE
  5
1A5
330
1E
100
AcDbEntity
  8
0
100
AcDbLine
 10
70.0
 20
103.9878999999999
 30
0.0
 11
70.0
 21
99.5879
 31
0.0
  0
LINE
  5
1A6
330
1E
100
AcDbEntity
  8
0
100
AcDbLine
 10
70.0
 20
103.9878999999999
 30
0.0
 11
70.0
 21
109.5879
 31
0.0
  0
LINE
  5
1A7
330
1E
100
AcDbEntity
  8
0
100
AcDbLine
 10
33.0
 20
115.2758999999999
 30
0.0
 11
33.0
 21
114.9879
 31
0.0
  0
LINE
  5
1A8
330
1E
100
AcDbEntity
  8
0
100
AcDbLine
 10
18.0
 20
119.1159
 30
0.0
 11
18.0
 21
120.9718999999999
 31
0.0
  0
LINE
  5
1A9
330
1E
100
AcDbEntity
  8
0
100
AcDbLine
 10
18.0
 20
119.1159
 30
0.0
 11
18.0
 21
117.4839
 31
0.0
  0
LINE
  5
1AA
330
1E
100
AcDbEntity
  8
0
100
AcDbLine
 10
18.0
 20
117.4839
 30
0.0
 11
18.0
 21
119.1159
 31
0.0
  0
LINE
  5
1AB
330
1E
100
AcDbEntity
  8
0
100
AcDbLine
 10
18.0
 20
117.4839
 30
0.0
 11
18.0
 21
116.2359
 31
0.0
  0
LINE
  5
1AC
330
1E
100
AcDbEntity
  8
0
100
AcDbLine
 10
18.0
 20
118.3879
 30
0.0
 11
18.0
 21
119.7878999999999
 31
0.0
  0
LINE
  5
1AD
330
1E
100
AcDbEntity
  8
0
100
AcDbLine
 10
18.0
 20
120.9718999999999
 30
0.0
 11
18.0
 21
122.9878999999999
 31
0.0
  0
LINE
  5
1AE
330
1E
100
AcDbEntity
  8
0
100
AcDbLine
 10
18.0
 20
120.9718999999999
 30
0.0
 11
18.0
 21
119.1159
 31
0.0
  0
LINE
  5
1AF
330
1E
100
AcDbEntity
  8
0
100
AcDbLine
 10
18.0
 20
119.7878999999999
 30
0.0
 11
18.0
 21
121.2879
 31
0.0
  0
LINE
  5
1B0
330
1E
100
AcDbEntity
  8
0
100
AcDbLine
 10
18.0
 20
121.2879
 30
0.0
 11
18.0
 21
122.9878999999999
 31
0.0
  0
LINE
  5
1B1
330
1E
100
AcDbEntity
  8
0
100
AcDbLine
 10
18.0
 20
117.3879
 30
0.0
 11
18.0
 21
118.3879
 31
0.0
  0
LINE
  5
1B2
330
1E
100
AcDbEntity
  8
0
100
AcDbLine
 10
33.0
 20
118.1879
 30
0.0
 11
33.0
 21
122.9878999999999
 31
0.0
  0
LINE
  5
1B3
330
1E
100
AcDbEntity
  8
0
100
AcDbLine
 10
33.0
 20
120.9398999999999
 30
0.0
 11
33.0
 21
119.0198999999999
 31
0.0
  0
LINE
  5
1B4
330
1E
100
AcDbEntity
  8
0
100
AcDbLine
 10
70.0
 20
117.5879
 30
0.0
 11
70.0
 21
122.9878999999999
 31
0.0
  0
LINE
  5
1B5
330
1E
100
AcDbEntity
  8
0
100
AcDbLine
 10
33.5
 20
117.8879
 30
0.0
 11
33.5
 21
113.0878999999999
 31
0.0
  0
LINE
  5
1B6
330
1E
100
AcDbEntity
  8
0
100
AcDbLine
 10
33.5
 20
117.8879
 30
0.0
 11
33.5
 21
122.9878999999999
 31
0.0
  0
LINE
  5
1B7
330
1E
100
AcDbEntity
  8
0
100
AcDbLine
 10
35.0
 20
117.6879
 30
0.0
 11
35.0
 21
122.9878999999999
 31
0.0
  0
LINE
  5
1B8
330
1E
100
AcDbEntity
  8
0
100
AcDbLine
 10
33.0
 20
119.0198999999999
 30
0.0
 11
33.0
 21
117.3238999999999
 31
0.0
  0
LINE
  5
1B9
330
1E
100
AcDbEntity
  8
0
100
AcDbLine
 10
33.0
 20
117.3238999999999
 30
0.0
 11
33.0
 21
116.0438999999999
 31
0.0
  0
LINE
  5
1BA
330
1E
100
AcDbEntity
  8
0
100
AcDbLine
 10
18.0
 20
116.6878999999999
 30
0.0
 11
18.0
 21
117.3879
 31
0.0
  0
LINE
  5
1BB
330
1E
100
AcDbEntity
  8
0
100
AcDbLine
 10
18.0
 20
116.4878999999999
 30
0.0
 11
18.0
 21
116.6878999999999
 31
0.0
  0
LINE
  5
1BC
330
1E
100
AcDbEntity
  8
0
100
AcDbLine
 10
18.0
 20
116.4878999999999
 30
0.0
 11
18.0
 21
116.2359
 31
0.0
  0
LINE
  5
1BD
330
1E
100
AcDbEntity
  8
0
100
AcDbLine
 10
13.0
 20
116.4878999999999
 30
0.0
 11
18.0
 21
116.4878999999999
 31
0.0
  0
LINE
  5
1BE
330
1E
100
AcDbEntity
  8
0
100
AcDbLine
 10
13.0
 20
116.4878999999999
 30
0.0
 11
13.0
 21
116.6878999999999
 31
0.0
  0
LINE
  5
1BF
330
1E
100
AcDbEntity
  8
0
100
AcDbLine
 10
11.31
 20
103.9859
 30
0.0
 11
11.788
 21
100.0109
 31
0.0
  0
LINE
  5
1C0
330
1E
100
AcDbEntity
  8
0
100
AcDbLine
 10
10.783
 20
120.8418999999999
 30
0.0
 11
11.1713349257026
 21
121.61267482407
 31
0.0
  0
LINE
  5
1C2
330
1E
100
AcDbEntity
  8
0
100
AcDbLine
 10
10.2382769218243
 20
134.122758805256
 30
0.0
 11
10.448
 21
135.6918999999999
 31
0.0
  0
LINE
  5
1C3
330
1E
100
AcDbEntity
  8
0
100
AcDbLine
 10
10.448
 20
126.9778999999999
 30
0.0
 11
10.783
 21
125.1338999999999
 31
0.0
  0
LINE
  5
1C4
330
1E
100
AcDbEntity
  8
0
100
AcDbLine
 10
10.783
 20
125.1338999999999
 30
0.0
 11
11.1713349257026
 21
124.36312517593
 31
0.0
  0
LINE
  5
1C6
330
1E
100
AcDbEntity
  8
0
100
AcDbLine
 10
10.1695976072366
 20
133.4791071782899
 30
0.0
 11
10.2382769218243
 21
134.122758805256
 31
0.0
  0
LINE
  5
1C7
330
1E
100
AcDbEntity
  8
0
100
AcDbLine
 10
10.1695976072366
 20
133.4791071782899
 30
0.0
 11
11.0
 21
130.9879
 31
0.0
  0
LINE
  5
1C9
330
1E
100
AcDbEntity
  8
0
100
AcDbLine
 10
10.5266551724138
 20
150.7024234294429
 30
0.0
 11
10.717
 21
150.5549
 31
0.0
  0
LINE
  5
1CA
330
1E
100
AcDbEntity
  8
0
100
AcDbLine
 10
10.757
 20
138.1259
 30
0.0
 11
10.783
 21
138.4458999999999
 31
0.0
  0
LINE
  5
1CB
330
1E
100
AcDbEntity
  8
0
100
AcDbLine
 10
10.448
 20
135.6918999999999
 30
0.0
 11
10.783
 21
138.4458999999999
 31
0.0
  0
LINE
  5
1CC
330
1E
100
AcDbEntity
  8
0
100
AcDbLine
 10
10.783
 20
138.4458999999999
 30
0.0
 11
11.31
 21
141.9899
 31
0.0
  0
LINE
  5
1CE
330
1E
100
AcDbEntity
  8
0
100
AcDbLine
 10
11.409
 20
121.6879
 30
0.0
 11
11.908
 21
122.1878999999999
 31
0.0
  0
LINE
  5
1D0
330
1E
100
AcDbEntity
  8
0
100
AcDbLine
 10
11.0
 20
124.703194117647
 30
0.0
 11
11.0
 21
125.0879
 31
0.0
  0
LINE
  5
1D1
330
1E
100
AcDbEntity
  8
0
100
AcDbLine
 10
11.0
 20
126.9878999999999
 30
0.0
 11
11.0
 21
125.0879
 31
0.0
  0
LINE
  5
1D2
330
1E
100
AcDbEntity
  8
0
100
AcDbLine
 10
11.0
 20
126.9878999999999
 30
0.0
 11
11.0
 21
128.5878999999999
 31
0.0
  0
LINE
  5
1D3
330
1E
100
AcDbEntity
  8
0
100
AcDbLine
 10
11.0
 20
125.0879
 30
0.0
 11
11.0
 21
124.703194117647
 31
0.0
  0
LINE
  5
1D4
330
1E
100
AcDbEntity
  8
0
100
AcDbLine
 10
11.0
 20
125.0879
 30
0.0
 11
11.0
 21
126.9878999999999
 31
0.0
  0
LINE
  5
1D5
330
1E
100
AcDbEntity
  8
0
100
AcDbLine
 10
11.0
 20
128.5878999999999
 30
0.0
 11
11.0
 21
129.8879
 31
0.0
  0
LINE
  5
1D6
330
1E
100
AcDbEntity
  8
0
100
AcDbLine
 10
11.0
 20
128.5878999999999
 30
0.0
 11
11.0
 21
126.9878999999999
 31
0.0
  0
LINE
  5
1D7
330
1E
100
AcDbEntity
  8
0
100
AcDbLine
 10
11.0
 20
129.8879
 30
0.0
 11
11.0
 21
128.5878999999999
 31
0.0
  0
LINE
  5
1D8
330
1E
100
AcDbEntity
  8
0
100
AcDbLine
 10
11.0
 20
129.8879
 30
0.0
 11
11.0
 21
130.6879
 31
0.0
  0
LINE
  5
1D9
330
1E
100
AcDbEntity
  8
0
100
AcDbLine
 10
11.0
 20
130.6879
 30
0.0
 11
11.0
 21
129.8879
 31
0.0
  0
LINE
  5
1DA
330
1E
100
AcDbEntity
  8
0
100
AcDbLine
 10
11.0
 20
130.6879
 30
0.0
 11
11.0
 21
130.9879
 31
0.0
  0
LINE
  5
1DB
330
1E
100
AcDbEntity
  8
0
100
AcDbLine
 10
11.0
 20
130.9879
 30
0.0
 11
11.0
 21
130.6879
 31
0.0
  0
LINE
  5
1DC
330
1E
100
AcDbEntity
  8
0
100
AcDbLine
 10
11.0
 20
130.9879
 30
0.0
 11
13.0
 21
129.4878999999999
 31
0.0
  0
LINE
  5
1DE
330
1E
100
AcDbEntity
  8
0
100
AcDbLine
 10
10.81299999999999
 20
123.7878999999999
 30
0.0
 11
11.524
 21
123.7878999999999
 31
0.0
  0
LINE
  5
1DF
330
1E
100
AcDbEntity
  8
0
100
AcDbLine
 10
11.409
 20
124.2879
 30
0.0
 11
11.908
 21
123.7878999999999
 31
0.0
  0
LINE
  5
1E0
330
1E
100
AcDbEntity
  8
0
100
AcDbLine
 10
11.524
 20
123.7878999999999
 30
0.0
 11
11.908
 21
123.7878999999999
 31
0.0
  0
LINE
  5
1E1
330
1E
100
AcDbEntity
  8
0
100
AcDbLine
 10
11.31
 20
141.9899
 30
0.0
 11
11.788
 21
145.9648999999999
 31
0.0
  0
LINE
  5
1E3
330
1E
100
AcDbEntity
  8
0
100
AcDbLine
 10
11.807
 20
146.0919
 30
0.0
 11
11.83115545243619
 21
146.647475406033
 31
0.0
  0
LINE
  5
1E4
330
1E
100
AcDbEntity
  8
0
100
AcDbLine
 10
11.788
 20
145.9648999999999
 30
0.0
 11
11.908
 21
147.8628999999999
 31
0.0
  0
LINE
  5
1E5
330
1E
100
AcDbEntity
  8
0
100
AcDbLine
 10
11.80944
 20
148.2478999999999
 30
0.0
 11
11.889
 21
147.9779
 31
0.0
  0
LINE
  5
1E6
330
1E
100
AcDbEntity
  8
0
100
AcDbLine
 10
11.524
 20
149.3629
 30
0.0
 11
11.908
 21
147.8628999999999
 31
0.0
  0
LINE
  5
1E7
330
1E
100
AcDbEntity
  8
0
100
AcDbLine
 10
10.81299999999999
 20
150.4588999999999
 30
0.0
 11
11.524
 21
149.3629
 31
0.0
  0
LINE
  5
1E8
330
1E
100
AcDbEntity
  8
0
100
AcDbLine
 10
11.7272614480975
 20
145.4598043016479
 30
0.0
 11
11.807
 21
146.0919
 31
0.0
  0
LINE
  5
1E9
330
1E
100
AcDbEntity
  8
0
100
AcDbLine
 10
11.7272614480975
 20
145.4598043016479
 30
0.0
 11
11.788
 21
145.9648999999999
 31
0.0
  0
LINE
  5
1EA
330
1E
100
AcDbEntity
  8
0
100
AcDbLine
 10
35.0
 20
122.9878999999999
 30
0.0
 11
35.0
 21
116.2878999999999
 31
0.0
  0
LINE
  5
1EB
330
1E
100
AcDbEntity
  8
0
100
AcDbLine
 10
35.0
 20
122.9878999999999
 30
0.0
 11
35.0
 21
129.6879
 31
0.0
  0
LINE
  5
1EC
330
1E
100
AcDbEntity
  8
0
100
AcDbLine
 10
35.0
 20
122.9878999999999
 30
0.0
 11
35.0
 21
128.2879
 31
0.0
  0
LINE
  5
1ED
330
1E
100
AcDbEntity
  8
0
100
AcDbLine
 10
35.5
 20
122.9878999999999
 30
0.0
 11
35.5
 21
115.8878999999999
 31
0.0
  0
LINE
  5
1EE
330
1E
100
AcDbEntity
  8
0
100
AcDbLine
 10
35.5
 20
122.9878999999999
 30
0.0
 11
35.5
 21
130.0878999999999
 31
0.0
  0
LINE
  5
1EF
330
1E
100
AcDbEntity
  8
0
100
AcDbLine
 10
61.0
 20
122.9878999999999
 30
0.0
 11
61.0
 21
130.5879
 31
0.0
  0
LINE
  5
1F0
330
1E
100
AcDbEntity
  8
0
100
AcDbLine
 10
70.0
 20
122.9878999999999
 30
0.0
 11
70.0
 21
116.0878999999999
 31
0.0
  0
LINE
  5
1F1
330
1E
100
AcDbEntity
  8
0
100
AcDbLine
 10
70.0
 20
122.9878999999999
 30
0.0
 11
70.0
 21
129.8879
 31
0.0
  0
LINE
  5
1F2
330
1E
100
AcDbEntity
  8
0
100
AcDbLine
 10
70.0
 20
122.9878999999999
 30
0.0
 11
70.0
 21
128.3878999999999
 31
0.0
  0
LINE
  5
1F3
330
1E
100
AcDbEntity
  8
0
100
AcDbLine
 10
114.0
 20
122.9878999999999
 30
0.0
 11
114.0
 21
115.2878999999999
 31
0.0
  0
LINE
  5
1F4
330
1E
100
AcDbEntity
  8
0
100
AcDbLine
 10
114.0
 20
122.9878999999999
 30
0.0
 11
114.0
 21
130.6879
 31
0.0
  0
LINE
  5
1F5
330
1E
100
AcDbEntity
  8
0
100
AcDbLine
 10
60.5
 20
122.9878999999999
 30
0.0
 11
60.5
 21
115.6878999999999
 31
0.0
  0
LINE
  5
1F6
330
1E
100
AcDbEntity
  8
0
100
AcDbLine
 10
60.5
 20
122.9878999999999
 30
0.0
 11
60.5
 21
130.2879
 31
0.0
  0
LINE
  5
1F7
330
1E
100
AcDbEntity
  8
0
100
AcDbLine
 10
66.0
 20
122.9878999999999
 30
0.0
 11
66.0
 21
116.0878999999999
 31
0.0
  0
LINE
  5
1F8
330
1E
100
AcDbEntity
  8
0
100
AcDbLine
 10
66.0
 20
122.9878999999999
 30
0.0
 11
66.0
 21
129.8879
 31
0.0
  0
LINE
  5
1F9
330
1E
100
AcDbEntity
  8
0
100
AcDbLine
 10
33.5
 20
122.9878999999999
 30
0.0
 11
33.5
 21
117.8879
 31
0.0
  0
LINE
  5
1FA
330
1E
100
AcDbEntity
  8
0
100
AcDbLine
 10
33.5
 20
122.9878999999999
 30
0.0
 11
33.5
 21
128.0878999999999
 31
0.0
  0
LINE
  5
1FB
330
1E
100
AcDbEntity
  8
0
100
AcDbLine
 10
33.0
 20
122.9878999999999
 30
0.0
 11
33.0
 21
120.9398999999999
 31
0.0
  0
LINE
  5
1FC
330
1E
100
AcDbEntity
  8
0
100
AcDbLine
 10
33.0
 20
122.9878999999999
 30
0.0
 11
33.0
 21
118.1879
 31
0.0
  0
LINE
  5
1FD
330
1E
100
AcDbEntity
  8
0
100
AcDbLine
 10
33.0
 20
122.9878999999999
 30
0.0
 11
33.0
 21
127.7878999999999
 31
0.0
  0
LINE
  5
1FE
330
1E
100
AcDbEntity
  8
0
100
AcDbLine
 10
18.0
 20
122.9878999999999
 30
0.0
 11
18.0
 21
124.6879
 31
0.0
  0
LINE
  5
1FF
330
1E
100
AcDbEntity
  8
0
100
AcDbLine
 10
18.0
 20
122.9878999999999
 30
0.0
 11
18.0
 21
120.9718999999999
 31
0.0
  0
LINE
  5
200
330
1E
100
AcDbEntity
  8
0
100
AcDbLine
 10
18.0
 20
122.9878999999999
 30
0.0
 11
18.0
 21
125.0039
 31
0.0
  0
LINE
  5
201
330
1E
100
AcDbEntity
  8
0
100
AcDbLine
 10
13.0
 20
126.1878999999999
 30
0.0
 11
13.0
 21
124.6879
 31
0.0
  0
LINE
  5
202
330
1E
100
AcDbEntity
  8
0
100
AcDbLine
 10
13.0
 20
126.1878999999999
 30
0.0
 11
13.0
 21
127.5878999999999
 31
0.0
  0
LINE
  5
203
330
1E
100
AcDbEntity
  8
0
100
AcDbLine
 10
13.0
 20
124.6879
 30
0.0
 11
13.0
 21
122.9878999999999
 31
0.0
  0
LINE
  5
204
330
1E
100
AcDbEntity
  8
0
100
AcDbLine
 10
13.0
 20
124.6879
 30
0.0
 11
13.0
 21
126.1878999999999
 31
0.0
  0
LINE
  5
205
330
1E
100
AcDbEntity
  8
0
100
AcDbLine
 10
18.0
 20
125.0039
 30
0.0
 11
18.0
 21
126.8599
 31
0.0
  0
LINE
  5
206
330
1E
100
AcDbEntity
  8
0
100
AcDbLine
 10
18.0
 20
125.0039
 30
0.0
 11
18.0
 21
122.9878999999999
 31
0.0
  0
LINE
  5
207
330
1E
100
AcDbEntity
  8
0
100
AcDbLine
 10
18.0
 20
126.8599
 30
0.0
 11
18.0
 21
128.4918999999999
 31
0.0
  0
LINE
  5
208
330
1E
100
AcDbEntity
  8
0
100
AcDbLine
 10
18.0
 20
126.8599
 30
0.0
 11
18.0
 21
125.0039
 31
0.0
  0
LINE
  5
209
330
1E
100
AcDbEntity
  8
0
100
AcDbLine
 10
18.0
 20
128.4918999999999
 30
0.0
 11
18.0
 21
129.7399
 31
0.0
  0
LINE
  5
20A
330
1E
100
AcDbEntity
  8
0
100
AcDbLine
 10
18.0
 20
128.4918999999999
 30
0.0
 11
18.0
 21
126.8599
 31
0.0
  0
LINE
  5
20B
330
1E
100
AcDbEntity
  8
0
100
AcDbLine
 10
18.0
 20
126.1878999999999
 30
0.0
 11
18.0
 21
127.5878999999999
 31
0.0
  0
LINE
  5
20C
330
1E
100
AcDbEntity
  8
0
100
AcDbLine
 10
18.0
 20
124.6879
 30
0.0
 11
18.0
 21
126.1878999999999
 31
0.0
  0
LINE
  5
20D
330
1E
100
AcDbEntity
  8
0
100
AcDbLine
 10
13.0
 20
127.5878999999999
 30
0.0
 11
13.0
 21
128.5878999999999
 31
0.0
  0
LINE
  5
20E
330
1E
100
AcDbEntity
  8
0
100
AcDbLine
 10
13.0
 20
127.5878999999999
 30
0.0
 11
13.0
 21
126.1878999999999
 31
0.0
  0
LINE
  5
20F
330
1E
100
AcDbEntity
  8
0
100
AcDbLine
 10
13.0
 20
128.5878999999999
 30
0.0
 11
13.0
 21
127.5878999999999
 31
0.0
  0
LINE
  5
210
330
1E
100
AcDbEntity
  8
0
100
AcDbLine
 10
13.0
 20
128.5878999999999
 30
0.0
 11
13.0
 21
129.2879
 31
0.0
  0
LINE
  5
211
330
1E
100
AcDbEntity
  8
0
100
AcDbLine
 10
18.0
 20
127.5878999999999
 30
0.0
 11
18.0
 21
128.5878999999999
 31
0.0
  0
LINE
  5
212
330
1E
100
AcDbEntity
  8
0
100
AcDbLine
 10
18.0
 20
129.4878999999999
 30
0.0
 11
18.0
 21
129.7399
 31
0.0
  0
LINE
  5
213
330
1E
100
AcDbEntity
  8
0
100
AcDbLine
 10
13.0
 20
129.2879
 30
0.0
 11
13.0
 21
128.5878999999999
 31
0.0
  0
LINE
  5
214
330
1E
100
AcDbEntity
  8
0
100
AcDbLine
 10
13.0
 20
129.2879
 30
0.0
 11
13.0
 21
129.4878999999999
 31
0.0
  0
LINE
  5
215
330
1E
100
AcDbEntity
  8
0
100
AcDbLine
 10
18.0
 20
128.5878999999999
 30
0.0
 11
18.0
 21
129.2879
 31
0.0
  0
LINE
  5
216
330
1E
100
AcDbEntity
  8
0
100
AcDbLine
 10
18.0
 20
129.7399
 30
0.0
 11
18.0
 21
130.5079
 31
0.0
  0
LINE
  5
217
330
1E
100
AcDbEntity
  8
0
100
AcDbLine
 10
18.0
 20
129.7399
 30
0.0
 11
18.0
 21
128.4918999999999
 31
0.0
  0
LINE
  5
218
330
1E
100
AcDbEntity
  8
0
100
AcDbLine
 10
18.0
 20
129.7399
 30
0.0
 11
18.0
 21
129.4878999999999
 31
0.0
  0
LINE
  5
219
330
1E
100
AcDbEntity
  8
0
100
AcDbLine
 10
18.0
 20
130.5079
 30
0.0
 11
18.0
 21
130.7958999999999
 31
0.0
  0
LINE
  5
21A
330
1E
100
AcDbEntity
  8
0
100
AcDbLine
 10
18.0
 20
130.5079
 30
0.0
 11
18.0
 21
129.7399
 31
0.0
  0
LINE
  5
21B
330
1E
100
AcDbEntity
  8
0
100
AcDbLine
 10
18.0
 20
130.7958999999999
 30
0.0
 11
18.3333
 21
130.9879
 31
0.0
  0
LINE
  5
21C
330
1E
100
AcDbEntity
  8
0
100
AcDbLine
 10
18.0
 20
130.7958999999999
 30
0.0
 11
18.0
 21
130.5079
 31
0.0
  0
LINE
  5
21D
330
1E
100
AcDbEntity
  8
0
100
AcDbLine
 10
13.0
 20
129.4878999999999
 30
0.0
 11
13.0
 21
129.2879
 31
0.0
  0
LINE
  5
21E
330
1E
100
AcDbEntity
  8
0
100
AcDbLine
 10
13.0
 20
129.4878999999999
 30
0.0
 11
18.0
 21
129.4878999999999
 31
0.0
  0
LINE
  5
21F
330
1E
100
AcDbEntity
  8
0
100
AcDbLine
 10
33.0
 20
127.7878999999999
 30
0.0
 11
33.0
 21
122.9878999999999
 31
0.0
  0
LINE
  5
220
330
1E
100
AcDbEntity
  8
0
100
AcDbLine
 10
33.0
 20
127.7878999999999
 30
0.0
 11
33.0
 21
132.1879
 31
0.0
  0
LINE
  5
221
330
1E
100
AcDbEntity
  8
0
100
AcDbLine
 10
33.0
 20
125.0358999999999
 30
0.0
 11
33.0
 21
122.9878999999999
 31
0.0
  0
LINE
  5
222
330
1E
100
AcDbEntity
  8
0
100
AcDbLine
 10
33.0
 20
126.9559
 30
0.0
 11
33.0
 21
125.0358999999999
 31
0.0
  0
LINE
  5
223
330
1E
100
AcDbEntity
  8
0
100
AcDbLine
 10
33.0
 20
128.6519
 30
0.0
 11
33.0
 21
126.9559
 31
0.0
  0
LINE
  5
224
330
1E
100
AcDbEntity
  8
0
100
AcDbLine
 10
35.0
 20
128.2879
 30
0.0
 11
35.0
 21
133.1879
 31
0.0
  0
LINE
  5
225
330
1E
100
AcDbEntity
  8
0
100
AcDbLine
 10
33.5
 20
128.0878999999999
 30
0.0
 11
33.5
 21
122.9878999999999
 31
0.0
  0
LINE
  5
226
330
1E
100
AcDbEntity
  8
0
100
AcDbLine
 10
33.5
 20
128.0878999999999
 30
0.0
 11
33.5
 21
132.8879
 31
0.0
  0
LINE
  5
227
330
1E
100
AcDbEntity
  8
0
100
AcDbLine
 10
70.0
 20
128.3878999999999
 30
0.0
 11
70.0
 21
133.3879
 31
0.0
  0
LINE
  5
228
330
1E
100
AcDbEntity
  8
0
100
AcDbLine
 10
35.0
 20
129.6879
 30
0.0
 11
35.0
 21
122.9878999999999
 31
0.0
  0
LINE
  5
229
330
1E
100
AcDbEntity
  8
0
100
AcDbLine
 10
35.5
 20
130.0878999999999
 30
0.0
 11
35.5
 21
122.9878999999999
 31
0.0
  0
LINE
  5
22A
330
1E
100
AcDbEntity
  8
0
100
AcDbLine
 10
35.5
 20
130.0878999999999
 30
0.0
 11
35.5
 21
136.6879
 31
0.0
  0
LINE
  5
22B
330
1E
100
AcDbEntity
  8
0
100
AcDbLine
 10
60.5
 20
130.2879
 30
0.0
 11
60.5
 21
122.9878999999999
 31
0.0
  0
LINE
  5
22C
330
1E
100
AcDbEntity
  8
0
100
AcDbLine
 10
60.5
 20
130.2879
 30
0.0
 11
60.5
 21
137.1879
 31
0.0
  0
LINE
  5
22D
330
1E
100
AcDbEntity
  8
0
100
AcDbLine
 10
61.0
 20
130.5879
 30
0.0
 11
61.0
 21
122.9878999999999
 31
0.0
  0
LINE
  5
22E
330
1E
100
AcDbEntity
  8
0
100
AcDbLine
 10
61.0
 20
130.5879
 30
0.0
 11
61.0
 21
137.6879
 31
0.0
  0
LINE
  5
22F
330
1E
100
AcDbEntity
  8
0
100
AcDbLine
 10
66.0
 20
129.8879
 30
0.0
 11
66.0
 21
122.9878999999999
 31
0.0
  0
LINE
  5
230
330
1E
100
AcDbEntity
  8
0
100
AcDbLine
 10
66.0
 20
129.8879
 30
0.0
 11
66.0
 21
146.3879
 31
0.0
  0
LINE
  5
231
330
1E
100
AcDbEntity
  8
0
100
AcDbLine
 10
70.0
 20
129.8879
 30
0.0
 11
70.0
 21
122.9878999999999
 31
0.0
  0
LINE
  5
232
330
1E
100
AcDbEntity
  8
0
100
AcDbLine
 10
114.0
 20
130.6879
 30
0.0
 11
114.0
 21
122.9878999999999
 31
0.0
  0
LINE
  5
233
330
1E
100
AcDbEntity
  8
0
100
AcDbLine
 10
114.0
 20
130.6879
 30
0.0
 11
114.0
 21
137.8878999999999
 31
0.0
  0
LINE
  5
234
330
1E
100
AcDbEntity
  8
0
100
AcDbLine
 10
33.0
 20
129.9319
 30
0.0
 11
33.0
 21
128.6519
 31
0.0
  0
LINE
  5
235
330
1E
100
AcDbEntity
  8
0
100
AcDbLine
 10
33.0
 20
130.6999
 30
0.0
 11
33.0
 21
129.9319
 31
0.0
  0
LINE
  5
236
330
1E
100
AcDbEntity
  8
0
100
AcDbLine
 10
18.3333
 20
130.9879
 30
0.0
 11
33.0
 21
130.9879
 31
0.0
  0
LINE
  5
237
330
1E
100
AcDbEntity
  8
0
100
AcDbLine
 10
33.0
 20
138.9879
 30
0.0
 11
33.0
 21
136.0878999999999
 31
0.0
  0
LINE
  5
238
330
1E
100
AcDbEntity
  8
0
100
AcDbLine
 10
33.0
 20
138.9879
 30
0.0
 11
33.0
 21
140.7879
 31
0.0
  0
LINE
  5
239
330
1E
100
AcDbEntity
  8
0
100
AcDbLine
 10
33.0
 20
140.7879
 30
0.0
 11
33.0
 21
138.9879
 31
0.0
  0
LINE
  5
23A
330
1E
100
AcDbEntity
  8
0
100
AcDbLine
 10
33.0
 20
140.7879
 30
0.0
 11
33.0
 21
141.4878999999999
 31
0.0
  0
LINE
  5
23B
330
1E
100
AcDbEntity
  8
0
100
AcDbLine
 10
33.0
 20
141.4878999999999
 30
0.0
 11
33.0
 21
140.7879
 31
0.0
  0
LINE
  5
23C
330
1E
100
AcDbEntity
  8
0
100
AcDbLine
 10
33.0
 20
141.4878999999999
 30
0.0
 11
33.5
 21
142.9878999999999
 31
0.0
  0
LINE
  5
23D
330
1E
100
AcDbEntity
  8
0
100
AcDbLine
 10
33.5
 20
132.8879
 30
0.0
 11
33.5
 21
128.0878999999999
 31
0.0
  0
LINE
  5
23E
330
1E
100
AcDbEntity
  8
0
100
AcDbLine
 10
33.5
 20
132.8879
 30
0.0
 11
33.5
 21
137.0878999999999
 31
0.0
  0
LINE
  5
23F
330
1E
100
AcDbEntity
  8
0
100
AcDbLine
 10
35.0
 20
133.1879
 30
0.0
 11
35.0
 21
137.4878999999999
 31
0.0
  0
LINE
  5
240
330
1E
100
AcDbEntity
  8
0
100
AcDbLine
 10
33.5
 20
137.0878999999999
 30
0.0
 11
33.5
 21
140.2879
 31
0.0
  0
LINE
  5
241
330
1E
100
AcDbEntity
  8
0
100
AcDbLine
 10
33.5
 20
137.0878999999999
 30
0.0
 11
33.5
 21
132.8879
 31
0.0
  0
LINE
  5
242
330
1E
100
AcDbEntity
  8
0
100
AcDbLine
 10
33.5
 20
140.2879
 30
0.0
 11
33.5
 21
137.0878999999999
 31
0.0
  0
LINE
  5
243
330
1E
100
AcDbEntity
  8
0
100
AcDbLine
 10
33.5
 20
140.2879
 30
0.0
 11
33.5
 21
142.2879
 31
0.0
  0
LINE
  5
244
330
1E
100
AcDbEntity
  8
0
100
AcDbLine
 10
35.0
 20
137.4878999999999
 30
0.0
 11
35.0
 21
140.7879
 31
0.0
  0
LINE
  5
245
330
1E
100
AcDbEntity
  8
0
100
AcDbLine
 10
33.5
 20
142.2879
 30
0.0
 11
33.5
 21
140.2879
 31
0.0
  0
LINE
  5
246
330
1E
100
AcDbEntity
  8
0
100
AcDbLine
 10
33.5
 20
142.2879
 30
0.0
 11
33.5
 21
142.9878999999999
 31
0.0
  0
LINE
  5
247
330
1E
100
AcDbEntity
  8
0
100
AcDbLine
 10
35.0
 20
140.7879
 30
0.0
 11
35.0
 21
142.7879
 31
0.0
  0
LINE
  5
248
330
1E
100
AcDbEntity
  8
0
100
AcDbLine
 10
33.5
 20
142.9878999999999
 30
0.0
 11
33.5
 21
142.2879
 31
0.0
  0
LINE
  5
249
330
1E
100
AcDbEntity
  8
0
100
AcDbLine
 10
33.5
 20
142.9878999999999
 30
0.0
 11
35.0
 21
143.4879
 31
0.0
  0
LINE
  5
24A
330
1E
100
AcDbEntity
  8
0
100
AcDbLine
 10
35.0
 20
142.7879
 30
0.0
 11
35.0
 21
143.4879
 31
0.0
  0
LINE
  5
24B
330
1E
100
AcDbEntity
  8
0
100
AcDbLine
 10
33.0
 20
136.0878999999999
 30
0.0
 11
33.0
 21
132.1879
 31
0.0
  0
LINE
  5
24C
330
1E
100
AcDbEntity
  8
0
100
AcDbLine
 10
33.0
 20
136.0878999999999
 30
0.0
 11
33.0
 21
138.9879
 31
0.0
  0
LINE
  5
24D
330
1E
100
AcDbEntity
  8
0
100
AcDbLine
 10
33.0
 20
132.1879
 30
0.0
 11
33.0
 21
136.0878999999999
 31
0.0
  0
LINE
  5
24E
330
1E
100
AcDbEntity
  8
0
100
AcDbLine
 10
33.0
 20
132.1879
 30
0.0
 11
33.0
 21
127.7878999999999
 31
0.0
  0
LINE
  5
24F
330
1E
100
AcDbEntity
  8
0
100
AcDbLine
 10
35.0
 20
141.3879
 30
0.0
 11
35.0
 21
145.4879
 31
0.0
  0
LINE
  5
250
330
1E
100
AcDbEntity
  8
0
100
AcDbLine
 10
35.0
 20
148.0878999999999
 30
0.0
 11
35.0
 21
145.4879
 31
0.0
  0
LINE
  5
251
330
1E
100
AcDbEntity
  8
0
100
AcDbLine
 10
35.0
 20
148.0878999999999
 30
0.0
 11
35.0
 21
148.9878999999999
 31
0.0
  0
LINE
  5
252
330
1E
100
AcDbEntity
  8
0
100
AcDbLine
 10
35.0
 20
145.4879
 30
0.0
 11
35.0
 21
143.4879
 31
0.0
  0
LINE
  5
253
330
1E
100
AcDbEntity
  8
0
100
AcDbLine
 10
35.0
 20
145.4879
 30
0.0
 11
35.0
 21
141.3879
 31
0.0
  0
LINE
  5
254
330
1E
100
AcDbEntity
  8
0
100
AcDbLine
 10
35.0
 20
145.4879
 30
0.0
 11
35.0
 21
148.0878999999999
 31
0.0
  0
LINE
  5
255
330
1E
100
AcDbEntity
  8
0
100
AcDbLine
 10
35.0
 20
143.4879
 30
0.0
 11
35.0
 21
145.4879
 31
0.0
  0
LINE
  5
256
330
1E
100
AcDbEntity
  8
0
100
AcDbLine
 10
70.0
 20
133.3879
 30
0.0
 11
70.0
 21
137.7879
 31
0.0
  0
LINE
  5
257
330
1E
100
AcDbEntity
  8
0
100
AcDbLine
 10
35.5
 20
136.6879
 30
0.0
 11
35.5
 21
130.0878999999999
 31
0.0
  0
LINE
  5
258
330
1E
100
AcDbEntity
  8
0
100
AcDbLine
 10
35.5
 20
136.6879
 30
0.0
 11
35.5
 21
142.3879
 31
0.0
  0
LINE
  5
259
330
1E
100
AcDbEntity
  8
0
100
AcDbLine
 10
60.5
 20
137.1879
 30
0.0
 11
60.5
 21
130.2879
 31
0.0
  0
LINE
  5
25A
330
1E
100
AcDbEntity
  8
0
100
AcDbLine
 10
60.5
 20
137.1879
 30
0.0
 11
60.5
 21
143.0879
 31
0.0
  0
LINE
  5
25B
330
1E
100
AcDbEntity
  8
0
100
AcDbLine
 10
61.0
 20
137.6879
 30
0.0
 11
61.0
 21
130.5879
 31
0.0
  0
LINE
  5
25C
330
1E
100
AcDbEntity
  8
0
100
AcDbLine
 10
61.0
 20
137.6879
 30
0.0
 11
61.0
 21
143.7879
 31
0.0
  0
LINE
  5
25D
330
1E
100
AcDbEntity
  8
0
100
AcDbLine
 10
66.0
 20
146.3879
 30
0.0
 11
66.0
 21
129.8879
 31
0.0
  0
LINE
  5
25E
330
1E
100
AcDbEntity
  8
0
100
AcDbLine
 10
70.0
 20
136.3879
 30
0.0
 11
70.0
 21
141.9878999999999
 31
0.0
  0
LINE
  5
25F
330
1E
100
AcDbEntity
  8
0
100
AcDbLine
 10
35.5
 20
142.3879
 30
0.0
 11
35.5
 21
136.6879
 31
0.0
  0
LINE
  5
260
330
1E
100
AcDbEntity
  8
0
100
AcDbLine
 10
35.5
 20
142.3879
 30
0.0
 11
35.5
 21
146.7879
 31
0.0
  0
LINE
  5
261
330
1E
100
AcDbEntity
  8
0
100
AcDbLine
 10
60.5
 20
143.0879
 30
0.0
 11
60.5
 21
137.1879
 31
0.0
  0
LINE
  5
262
330
1E
100
AcDbEntity
  8
0
100
AcDbLine
 10
60.5
 20
143.0879
 30
0.0
 11
60.5
 21
147.6879
 31
0.0
  0
LINE
  5
263
330
1E
100
AcDbEntity
  8
0
100
AcDbLine
 10
70.0
 20
141.9878999999999
 30
0.0
 11
70.0
 21
136.3879
 31
0.0
  0
LINE
  5
264
330
1E
100
AcDbEntity
  8
0
100
AcDbLine
 10
70.0
 20
137.7879
 30
0.0
 11
70.0
 21
141.1879
 31
0.0
  0
LINE
  5
265
330
1E
100
AcDbEntity
  8
0
100
AcDbLine
 10
70.0
 20
141.1879
 30
0.0
 11
70.0
 21
146.3879
 31
0.0
  0
LINE
  5
266
330
1E
100
AcDbEntity
  8
0
100
AcDbLine
 10
35.5
 20
146.7879
 30
0.0
 11
35.5
 21
142.3879
 31
0.0
  0
LINE
  5
267
330
1E
100
AcDbEntity
  8
0
100
AcDbLine
 10
35.5
 20
146.7879
 30
0.0
 11
35.5
 21
149.4879
 31
0.0
  0
LINE
  5
268
330
1E
100
AcDbEntity
  8
0
100
AcDbLine
 10
60.5
 20
147.6879
 30
0.0
 11
60.5
 21
143.0879
 31
0.0
  0
LINE
  5
269
330
1E
100
AcDbEntity
  8
0
100
AcDbLine
 10
60.5
 20
147.6879
 30
0.0
 11
60.5
 21
150.4879
 31
0.0
  0
LINE
  5
26A
330
1E
100
AcDbEntity
  8
0
100
AcDbLine
 10
61.0
 20
148.4879
 30
0.0
 11
61.0
 21
143.7879
 31
0.0
  0
LINE
  5
26B
330
1E
100
AcDbEntity
  8
0
100
AcDbLine
 10
61.0
 20
148.4879
 30
0.0
 11
61.0
 21
151.3879
 31
0.0
  0
LINE
  5
26C
330
1E
100
AcDbEntity
  8
0
100
AcDbLine
 10
66.0
 20
146.3879
 30
0.0
 11
66.0
 21
148.9878999999999
 31
0.0
  0
LINE
  5
26D
330
1E
100
AcDbEntity
  8
0
100
AcDbLine
 10
66.0
 20
148.9878999999999
 30
0.0
 11
66.0
 21
146.3879
 31
0.0
  0
LINE
  5
26E
330
1E
100
AcDbEntity
  8
0
100
AcDbLine
 10
66.0
 20
148.9878999999999
 30
0.0
 11
66.0
 21
149.9878999999999
 31
0.0
  0
LINE
  5
26F
330
1E
100
AcDbEntity
  8
0
100
AcDbLine
 10
61.0
 20
143.7879
 30
0.0
 11
61.0
 21
137.6879
 31
0.0
  0
LINE
  5
270
330
1E
100
AcDbEntity
  8
0
100
AcDbLine
 10
61.0
 20
143.7879
 30
0.0
 11
61.0
 21
148.4879
 31
0.0
  0
LINE
  5
271
330
1E
100
AcDbEntity
  8
0
100
AcDbLine
 10
66.0
 20
143.9878999999999
 30
0.0
 11
70.0
 21
143.9878999999999
 31
0.0
  0
LINE
  5
272
330
1E
100
AcDbEntity
  8
0
100
AcDbLine
 10
70.0
 20
143.1879
 30
0.0
 11
70.0
 21
143.9878999999999
 31
0.0
  0
LINE
  5
273
330
1E
100
AcDbEntity
  8
0
100
AcDbLine
 10
35.0
 20
148.9878999999999
 30
0.0
 11
35.5
 21
150.4879
 31
0.0
  0
LINE
  5
274
330
1E
100
AcDbEntity
  8
0
100
AcDbLine
 10
35.0
 20
148.9878999999999
 30
0.0
 11
35.0
 21
148.0878999999999
 31
0.0
  0
LINE
  5
275
330
1E
100
AcDbEntity
  8
0
100
AcDbLine
 10
35.5
 20
149.4879
 30
0.0
 11
35.5
 21
146.7879
 31
0.0
  0
LINE
  5
276
330
1E
100
AcDbEntity
  8
0
100
AcDbLine
 10
35.5
 20
149.4879
 30
0.0
 11
35.5
 21
150.4879
 31
0.0
  0
LINE
  5
277
330
1E
100
AcDbEntity
  8
0
100
AcDbLine
 10
66.0
 20
149.9878999999999
 30
0.0
 11
66.0
 21
148.9878999999999
 31
0.0
  0
LINE
  5
278
330
1E
100
AcDbEntity
  8
0
100
AcDbLine
 10
70.0
 20
148.9878999999999
 30
0.0
 11
70.0
 21
146.3879
 31
0.0
  0
LINE
  5
279
330
1E
100
AcDbEntity
  8
0
100
AcDbLine
 10
70.0
 20
148.9878999999999
 30
0.0
 11
70.0
 21
149.9878999999999
 31
0.0
  0
LINE
  5
27A
330
1E
100
AcDbEntity
  8
0
100
AcDbLine
 10
70.0
 20
146.3879
 30
0.0
 11
70.0
 21
148.9878999999999
 31
0.0
  0
LINE
  5
27B
330
1E
100
AcDbEntity
  8
0
100
AcDbLine
 10
35.5
 20
150.4879
 30
0.0
 11
37.0
 21
150.9878999999999
 31
0.0
  0
LINE
  5
27C
330
1E
100
AcDbEntity
  8
0
100
AcDbLine
 10
35.5
 20
150.4879
 30
0.0
 11
35.5
 21
149.4879
 31
0.0
  0
LINE
  5
27D
330
1E
100
AcDbEntity
  8
0
100
AcDbLine
 10
37.0
 20
150.9878999999999
 30
0.0
 11
59.0
 21
150.9878999999999
 31
0.0
  0
LINE
  5
27E
330
1E
100
AcDbEntity
  8
0
100
AcDbLine
 10
60.5
 20
150.4879
 30
0.0
 11
60.5
 21
147.6879
 31
0.0
  0
LINE
  5
27F
330
1E
100
AcDbEntity
  8
0
100
AcDbLine
 10
60.5
 20
150.4879
 30
0.0
 11
60.5
 21
151.4879
 31
0.0
  0
LINE
  5
280
330
1E
100
AcDbEntity
  8
0
100
AcDbLine
 10
61.0
 20
151.3879
 30
0.0
 11
61.0
 21
148.4879
 31
0.0
  0
LINE
  5
281
330
1E
100
AcDbEntity
  8
0
100
AcDbLine
 10
61.0
 20
151.3879
 30
0.0
 11
61.0
 21
152.4879
 31
0.0
  0
LINE
  5
282
330
1E
100
AcDbEntity
  8
0
100
AcDbLine
 10
59.0
 20
150.9878999999999
 30
0.0
 11
60.5
 21
151.4879
 31
0.0
  0
LINE
  5
283
330
1E
100
AcDbEntity
  8
0
100
AcDbLine
 10
60.5
 20
151.4879
 30
0.0
 11
61.0
 21
152.4879
 31
0.0
  0
LINE
  5
284
330
1E
100
AcDbEntity
  8
0
100
AcDbLine
 10
60.5
 20
151.4879
 30
0.0
 11
60.5
 21
150.4879
 31
0.0
  0
LINE
  5
285
330
1E
100
AcDbEntity
  8
0
100
AcDbLine
 10
61.0
 20
152.4879
 30
0.0
 11
62.5
 21
152.9879
 31
0.0
  0
LINE
  5
286
330
1E
100
AcDbEntity
  8
0
100
AcDbLine
 10
61.0
 20
152.4879
 30
0.0
 11
61.0
 21
151.3879
 31
0.0
  0
LINE
  5
287
330
1E
100
AcDbEntity
  8
0
100
AcDbLine
 10
64.5
 20
152.4879
 30
0.0
 11
65.5
 21
151.4879
 31
0.0
  0
LINE
  5
288
330
1E
100
AcDbEntity
  8
0
100
AcDbLine
 10
65.5
 20
151.4879
 30
0.0
 11
66.0
 21
149.9878999999999
 31
0.0
  0
LINE
  5
289
330
1E
100
AcDbEntity
  8
0
100
AcDbLine
 10
70.0
 20
149.9878999999999
 30
0.0
 11
70.5
 21
151.4879
 31
0.0
  0
LINE
  5
28A
330
1E
100
AcDbEntity
  8
0
100
AcDbLine
 10
70.0
 20
149.9878999999999
 30
0.0
 11
70.0
 21
148.9878999999999
 31
0.0
  0
LINE
  5
28B
330
1E
100
AcDbEntity
  8
0
100
AcDbLine
 10
70.5
 20
151.4879
 30
0.0
 11
71.5
 21
152.4879
 31
0.0
  0
LINE
  5
28C
330
1E
100
AcDbEntity
  8
0
100
AcDbLine
 10
62.5
 20
152.9879
 30
0.0
 11
63.0
 21
152.9879
 31
0.0
  0
LINE
  5
28D
330
1E
100
AcDbEntity
  8
0
100
AcDbLine
 10
63.0
 20
152.9879
 30
0.0
 11
64.5
 21
152.4879
 31
0.0
  0
LINE
  5
28E
330
1E
100
AcDbEntity
  8
0
100
AcDbLine
 10
71.5
 20
152.4879
 30
0.0
 11
73.0
 21
152.9879
 31
0.0
  0
LINE
  5
28F
330
1E
100
AcDbEntity
  8
0
100
AcDbLine
 10
114.0
 20
148.9878999999999
 30
0.0
 11
114.0
 21
144.1879
 31
0.0
  0
LINE
  5
290
330
1E
100
AcDbEntity
  8
0
100
AcDbLine
 10
114.0
 20
148.9878999999999
 30
0.0
 11
114.0
 21
151.8879
 31
0.0
  0
LINE
  5
291
330
1E
100
AcDbEntity
  8
0
100
AcDbLine
 10
114.0
 20
151.8879
 30
0.0
 11
114.0
 21
148.9878999999999
 31
0.0
  0
LINE
  5
292
330
1E
100
AcDbEntity
  8
0
100
AcDbLine
 10
114.0
 20
151.8879
 30
0.0
 11
114.0
 21
152.9879
 31
0.0
  0
LINE
  5
293
330
1E
100
AcDbEntity
  8
0
100
AcDbLine
 10
114.0
 20
152.9879
 30
0.0
 11
114.0
 21
151.8879
 31
0.0
  0
LINE
  5
294
330
1E
100
AcDbEntity
  8
0
100
AcDbLine
 10
114.0
 20
144.1879
 30
0.0
 11
114.0
 21
137.8878999999999
 31
0.0
  0
LINE
  5
295
330
1E
100
AcDbEntity
  8
0
100
AcDbLine
 10
114.0
 20
144.1879
 30
0.0
 11
114.0
 21
148.9878999999999
 31
0.0
  0
LINE
  5
296
330
1E
100
AcDbEntity
  8
0
100
AcDbLine
 10
114.0
 20
137.8878999999999
 30
0.0
 11
114.0
 21
130.6879
 31
0.0
  0
LINE
  5
297
330
1E
100
AcDbEntity
  8
0
100
AcDbLine
 10
114.0
 20
137.8878999999999
 30
0.0
 11
114.0
 21
144.1879
 31
0.0
  0
LINE
  5
298
330
1E
100
AcDbEntity
  8
0
100
AcDbLine
 10
73.0
 20
152.9879
 30
0.0
 11
114.0
 21
152.9879
 31
0.0
  0
LINE
  5
299
330
1E
100
AcDbEntity
  8
0
100
AcDbLine
 10
33.0
 20
130.9879
 30
0.0
 11
33.0
 21
130.6999
 31
0.0
  0
LINE
  5
29A
330
1E
100
AcDbEntity
  8
0
100
AcDbLine
 10
18.0
 20
129.2879
 30
0.0
 11
18.0
 21
129.4878999999999
 31
0.0
  0
LINE
  5
29B
330
1E
100
AcDbEntity
  8
0
100
AcDbLine
 10
13.0
 20
122.9878999999999
 30
0.0
 11
13.0
 21
121.2879
 31
0.0
  0
LINE
  5
29C
330
1E
100
AcDbEntity
  8
0
100
AcDbLine
 10
13.0
 20
122.9878999999999
 30
0.0
 11
13.0
 21
124.6879
 31
0.0
  0
LINE
  5
29D
330
1E
100
AcDbEntity
  8
0
100
AcDbLine
 10
11.889
 20
122.9878999999999
 30
0.0
 11
11.908
 21
122.1878999999999
 31
0.0
  0
LINE
  5
29E
330
1E
100
AcDbEntity
  8
0
100
AcDbLine
 10
11.889
 20
122.9878999999999
 30
0.0
 11
11.908
 21
123.7878999999999
 31
0.0
  0
LINE
  5
29F
330
1E
100
AcDbEntity
  8
0
100
AcDbLine
 10
11.524
 20
122.1878999999999
 30
0.0
 11
11.908
 21
122.1878999999999
 31
0.0
  0
LINE
  5
2A0
330
1E
100
AcDbEntity
  8
0
100
AcDbLine
 10
10.81299999999999
 20
122.1878999999999
 30
0.0
 11
11.524
 21
122.1878999999999
 31
0.0
  0
LINE
  5
2A2
330
1E
100
AcDbEntity
  8
0
100
AcDbLine
 10
10.1695976072366
 20
112.49669282171
 30
0.0
 11
10.2382769218243
 21
111.8530411947439
 31
0.0
  0
LINE
  5
2A3
330
1E
100
AcDbEntity
  8
0
100
AcDbLine
 10
10.1695976072366
 20
112.49669282171
 30
0.0
 11
11.0
 21
114.9879
 31
0.0
  0
LINE
  5
2A4
330
1E
100
AcDbEntity
  8
0
100
AcDbLine
 10
0.192999999999996
 20
99.8839
 30
0.0
 11
0.272738551902381
 21
100.515995698351
 31
0.0
  0
LINE
  5
2A5
330
1E
100
AcDbEntity
  8
0
100
AcDbLine
 10
0.192999999999995
 20
99.8839
 30
0.0
 11
0.272738551902381
 21
100.515995698351
 31
0.0
  0
ENDSEC
  0
SECTION
  2
OBJECTS
  0
DICTIONARY
  5
C
330
0
100
AcDbDictionary
281
     1
  3
ACAD_GROUP
350
D
  3
ACAD_LAYOUT
350
19
  3
ACAD_MLINESTYLE
350
16
  3
ACAD_PLOTSETTINGS
350
18
  3
ACAD_PLOTSTYLENAME
350
E
  3
AcDbVariableDictionary
350
2AA
  0
DICTIONARY
  5
D
102
{ACAD_REACTORS
330
C
102
}
330
C
100
AcDbDictionary
281
     1
  0
DICTIONARY
  5
19
102
{ACAD_REACTORS
330
C
102
}
330
C
100
AcDbDictionary
281
     1
  3
Layout1
350
1D
  3
Model
350
21
  0
DICTIONARY
  5
16
102
{ACAD_REACTORS
330
C
102
}
330
C
100
AcDbDictionary
281
     1
  3
Standard
350
17
  0
DICTIONARY
  5
18
102
{ACAD_REACTORS
330
C
102
}
330
C
100
AcDbDictionary
281
     1
  0
ACDBDICTIONARYWDFLT
  5
E
102
{ACAD_REACTORS
330
C
102
}
330
C
100
AcDbDictionary
281
     1
  3
Normal
350
F
100
AcDbDictionaryWithDefault
340
F
  0
DICTIONARY
  5
2AA
102
{ACAD_REACTORS
330
C
102
}
330
C
100
AcDbDictionary
281
     1
  3
DIMASSOC
350
2AB
  0
LAYOUT
  5
1D
102
{ACAD_REACTORS
330
19
102
}
330
19
100
AcDbPlotSettings
  1

  2
hp deskjet 980c series
  4

  6

 40
0.0
 41
0.0
 42
0.0
 43
0.0
 44
0.0
 45
0.0
 46
0.0
 47
0.0
 48
0.0
 49
0.0
140
0.0
141
0.0
142
1.0
143
1.0
 70
   688
 72
     0
 73
     0
 74
     5
  7

 75
    16
147
1.0
148
0.0
149
0.0
100
AcDbLayout
  1
Layout1
 70
     1
 71
     1
 10
0.0
 20
0.0
 11
12.0
 21
9.0
 12
0.0
 22
0.0
 32
0.0
 14
1.000000000000000E+20
 24
1.000000000000000E+20
 34
1.000000000000000E+20
 15
-1.000000000000000E+20
 25
-1.000000000000000E+20
 35
-1.000000000000000E+20
146
0.0
 13
0.0
 23
0.0
 33
0.0
 16
1.0
 26
0.0
 36
0.0
 17
0.0
 27
1.0
 37
0.0
 76
     0
330
1A
  0
LAYOUT
  5
21
102
{ACAD_REACTORS
330
19
102
}
330
19
100
AcDbPlotSettings
  1

  2
hp deskjet 980c series
  4

  6

 40
0.0
 41
0.0
 42
0.0
 43
0.0
 44
0.0
 45
0.0
 46
0.0
 47
0.0
 48
0.0
 49
0.0
140
0.0
141
0.0
142
1.0
143
1.0
 70
  1712
 72
     0
 73
     0
 74
     0
  7

 75
     0
147
1.0
148
0.0
149
0.0
100
AcDbLayout
  1
Model
 70
     1
 71
     0
 10
0.0
 20
0.0
 11
12.0
 21
9.0
 12
0.0
 22
0.0
 32
0.0
 14
0.0
 24
0.0
 34
0.0
 15
0.0
 25
0.0
 35
0.0
146
0.0
 13
0.0
 23
0.0
 33
0.0
 16
1.0
 26
0.0
 36
0.0
 17
0.0
 27
1.0
 37
0.0
 76
     0
330
1E
  0
MLINESTYLE
  5
17
102
{ACAD_REACTORS
330
16
102
}
330
16
100
AcDbMlineStyle
  2
STANDARD
 70
     0
  3

 62
   256
 51
90.0
 52
90.0
 71
     2
 49
0.5
 62
   256
  6
BYLAYER
 49
-0.5
 62
   256
  6
BYLAYER
  0
ACDBPLACEHOLDER
  5
F
102
{ACAD_REACTORS
330
E
102
}
330
E
  0
DICTIONARYVAR
  5
2AB
102
{ACAD_REACTORS
330
2AA
102
}
330
2AA
100
DictionaryVariables
280
     0
  1
1
  0
ENDSEC
  0
EOF
