  0
SECTION
  2
HEADER
  9
$ACADVER
  1
AC1015
  9
$ACADMAINTVER
 70
    13
  9
$DWGCODEPAGE
  3
ANSI_1252
  9
$INSBASE
 10
0.0
 20
0.0
 30
0.0
  9
$EXTMIN
 10
0.0000000000000021
 20
0.0000000000000006
 30
0.0
  9
$EXTMAX
 10
113.0
 20
60.0
 30
0.0
  9
$LIMMIN
 10
0.0
 20
0.0
  9
$LIMMAX
 10
12.0
 20
9.0
  9
$ORTHOMODE
 70
     0
  9
$REGENMODE
 70
     1
  9
$FILLMODE
 70
     1
  9
$QTEXTMODE
 70
     0
  9
$MIRRTEXT
 70
     1
  9
$LTSCALE
 40
1.0
  9
$ATTMODE
 70
     1
  9
$TEXTSIZE
 40
0.2
  9
$TRACEWID
 40
0.05
  9
$TEXTSTYLE
  7
Standard
  9
$CLAYER
  8
0
  9
$CELTYPE
  6
Continuous
  9
$CECOLOR
 62
   256
  9
$CELTSCALE
 40
1.0
  9
$DISPSILH
 70
     0
  9
$DIMSCALE
 40
1.0
  9
$DIMASZ
 40
0.18
  9
$DIMEXO
 40
0.0625
  9
$DIMDLI
 40
0.38
  9
$DIMRND
 40
0.0
  9
$DIMDLE
 40
0.0
  9
$DIMEXE
 40
0.18
  9
$DIMTP
 40
0.0
  9
$DIMTM
 40
0.0
  9
$DIMTXT
 40
0.18
  9
$DIMCEN
 40
0.09
  9
$DIMTSZ
 40
0.0
  9
$DIMTOL
 70
     0
  9
$DIMLIM
 70
     0
  9
$DIMTIH
 70
     1
  9
$DIMTOH
 70
     1
  9
$DIMSE1
 70
     0
  9
$DIMSE2
 70
     0
  9
$DIMTAD
 70
     0
  9
$DIMZIN
 70
     0
  9
$DIMBLK
  1

  9
$DIMASO
 70
     1
  9
$DIMSHO
 70
     1
  9
$DIMPOST
  1

  9
$DIMAPOST
  1

  9
$DIMALT
 70
     0
  9
$DIMALTD
 70
     2
  9
$DIMALTF
 40
25.4
  9
$DIMLFAC
 40
1.0
  9
$DIMTOFL
 70
     0
  9
$DIMTVP
 40
0.0
  9
$DIMTIX
 70
     0
  9
$DIMSOXD
 70
     0
  9
$DIMSAH
 70
     0
  9
$DIMBLK1
  1

  9
$DIMBLK2
  1

  9
$DIMSTYLE
  2
Standard
  9
$DIMCLRD
 70
     0
  9
$DIMCLRE
 70
     0
  9
$DIMCLRT
 70
     0
  9
$DIMTFAC
 40
1.0
  9
$DIMGAP
 40
0.09
  9
$DIMJUST
 70
     0
  9
$DIMSD1
 70
     0
  9
$DIMSD2
 70
     0
  9
$DIMTOLJ
 70
     1
  9
$DIMTZIN
 70
     0
  9
$DIMALTZ
 70
     0
  9
$DIMALTTZ
 70
     0
  9
$DIMUPT
 70
     0
  9
$DIMDEC
 70
     4
  9
$DIMTDEC
 70
     4
  9
$DIMALTU
 70
     2
  9
$DIMALTTD
 70
     2
  9
$DIMTXSTY
  7
Standard
  9
$DIMAUNIT
 70
     0
  9
$DIMADEC
 70
     0
  9
$DIMALTRND
 40
0.0
  9
$DIMAZIN
 70
     0
  9
$DIMDSEP
 70
    46
  9
$DIMATFIT
 70
     3
  9
$DIMFRAC
 70
     0
  9
$DIMLDRBLK
  1

  9
$DIMLUNIT
 70
     2
  9
$DIMLWD
 70
    -2
  9
$DIMLWE
 70
    -2
  9
$DIMTMOVE
 70
     0
  9
$LUNITS
 70
     2
  9
$LUPREC
 70
     4
  9
$SKETCHINC
 40
0.1
  9
$FILLETRAD
 40
0.0
  9
$AUNITS
 70
     0
  9
$AUPREC
 70
     0
  9
$MENU
  1
.
  9
$ELEVATION
 40
0.0
  9
$PELEVATION
 40
0.0
  9
$THICKNESS
 40
0.0
  9
$LIMCHECK
 70
     0
  9
$CHAMFERA
 40
0.0
  9
$CHAMFERB
 40
0.0
  9
$CHAMFERC
 40
0.0
  9
$CHAMFERD
 40
0.0
  9
$SKPOLY
 70
     0
  9
$TDCREATE
 40
2454749.834889502
  9
$TDUCREATE
 40
2454749.751556168
  9
$TDUPDATE
 40
2454749.836885659
  9
$TDUUPDATE
 40
2454749.753552326
  9
$TDINDWG
 40
0.0019961574
  9
$TDUSRTIMER
 40
0.0019961574
  9
$USRTIMER
 70
     1
  9
$ANGBASE
 50
0.0
  9
$ANGDIR
 70
     0
  9
$PDMODE
 70
     0
  9
$PDSIZE
 40
0.0
  9
$PLINEWID
 40
0.0
  9
$SPLFRAME
 70
     0
  9
$SPLINETYPE
 70
     6
  9
$SPLINESEGS
 70
     8
  9
$HANDSEED
  5
2ED
  9
$SURFTAB1
 70
     6
  9
$SURFTAB2
 70
     6
  9
$SURFTYPE
 70
     6
  9
$SURFU
 70
     6
  9
$SURFV
 70
     6
  9
$UCSBASE
  2

  9
$UCSNAME
  2

  9
$UCSORG
 10
0.0
 20
0.0
 30
0.0
  9
$UCSXDIR
 10
1.0
 20
0.0
 30
0.0
  9
$UCSYDIR
 10
0.0
 20
1.0
 30
0.0
  9
$UCSORTHOREF
  2

  9
$UCSORTHOVIEW
 70
     1
  9
$UCSORGTOP
 10
0.0
 20
0.0
 30
0.0
  9
$UCSORGBOTTOM
 10
0.0
 20
0.0
 30
0.0
  9
$UCSORGLEFT
 10
0.0
 20
0.0
 30
0.0
  9
$UCSORGRIGHT
 10
0.0
 20
0.0
 30
0.0
  9
$UCSORGFRONT
 10
0.0
 20
0.0
 30
0.0
  9
$UCSORGBACK
 10
0.0
 20
0.0
 30
0.0
  9
$PUCSBASE
  2

  9
$PUCSNAME
  2

  9
$PUCSORG
 10
0.0
 20
0.0
 30
0.0
  9
$PUCSXDIR
 10
1.0
 20
0.0
 30
0.0
  9
$PUCSYDIR
 10
0.0
 20
1.0
 30
0.0
  9
$PUCSORTHOREF
  2

  9
$PUCSORTHOVIEW
 70
     0
  9
$PUCSORGTOP
 10
0.0
 20
0.0
 30
0.0
  9
$PUCSORGBOTTOM
 10
0.0
 20
0.0
 30
0.0
  9
$PUCSORGLEFT
 10
0.0
 20
0.0
 30
0.0
  9
$PUCSORGRIGHT
 10
0.0
 20
0.0
 30
0.0
  9
$PUCSORGFRONT
 10
0.0
 20
0.0
 30
0.0
  9
$PUCSORGBACK
 10
0.0
 20
0.0
 30
0.0
  9
$USERI1
 70
     0
  9
$USERI2
 70
     0
  9
$USERI3
 70
     0
  9
$USERI4
 70
     0
  9
$USERI5
 70
     0
  9
$USERR1
 40
0.0
  9
$USERR2
 40
0.0
  9
$USERR3
 40
0.0
  9
$USERR4
 40
0.0
  9
$USERR5
 40
0.0
  9
$WORLDVIEW
 70
     1
  9
$SHADEDGE
 70
     3
  9
$SHADEDIF
 70
    70
  9
$TILEMODE
 70
     1
  9
$MAXACTVP
 70
    64
  9
$PINSBASE
 10
0.0
 20
0.0
 30
0.0
  9
$PLIMCHECK
 70
     0
  9
$PEXTMIN
 10
1.000000000000000E+20
 20
1.000000000000000E+20
 30
1.000000000000000E+20
  9
$PEXTMAX
 10
-1.000000000000000E+20
 20
-1.000000000000000E+20
 30
-1.000000000000000E+20
  9
$PLIMMIN
 10
0.0
 20
0.0
  9
$PLIMMAX
 10
12.0
 20
9.0
  9
$UNITMODE
 70
     0
  9
$VISRETAIN
 70
     1
  9
$PLINEGEN
 70
     0
  9
$PSLTSCALE
 70
     1
  9
$TREEDEPTH
 70
  3020
  9
$CMLSTYLE
  2
Standard
  9
$CMLJUST
 70
     0
  9
$CMLSCALE
 40
1.0
  9
$PROXYGRAPHICS
 70
     1
  9
$MEASUREMENT
 70
     0
  9
$CELWEIGHT
370
    -1
  9
$ENDCAPS
280
     0
  9
$JOINSTYLE
280
     0
  9
$LWDISPLAY
290
     0
  9
$INSUNITS
 70
     0
  9
$HYPERLINKBASE
  1

  9
$STYLESHEET
  1

  9
$XEDIT
290
     1
  9
$CEPSNTYPE
380
     0
  9
$PSTYLEMODE
290
     1
  9
$FINGERPRINTGUID
  2
{C88BCAFD-73E7-48C0-9D55-2C64B59C01CB}
  9
$VERSIONGUID
  2
{7F28DB9D-257C-4D51-8B3F-F9D85733651D}
  9
$EXTNAMES
290
     1
  9
$PSVPSCALE
 40
0.0
  9
$OLESTARTUP
290
     0
  0
ENDSEC
  0
SECTION
  2
CLASSES
  0
CLASS
  1
ACDBDICTIONARYWDFLT
  2
AcDbDictionaryWithDefault
  3
AutoCAD 2000
 90
        0
280
     0
281
     0
  0
CLASS
  1
ACDBPLACEHOLDER
  2
AcDbPlaceHolder
  3
AutoCAD 2000
 90
        0
280
     0
281
     0
  0
CLASS
  1
LAYOUT
  2
AcDbLayout
  3
AutoCAD 2000
 90
        0
280
     0
281
     0
  0
CLASS
  1
DICTIONARYVAR
  2
AcDbDictionaryVar
  3
AutoCAD 2000
 90
        0
280
     0
281
     0
  0
ENDSEC
  0
SECTION
  2
TABLES
  0
TABLE
  2
VPORT
  5
8
330
0
100
AcDbSymbolTable
 70
     2
  0
VPORT
  5
2EC
330
8
100
AcDbSymbolTableRecord
100
AcDbViewportTableRecord
  2
*Active
 70
     0
 10
0.0
 20
0.0
 11
1.0
 21
1.0
 12
56.5
 22
30.0
 13
0.0
 23
0.0
 14
1.0
 24
1.0
 15
0.0
 25
0.0
 16
0.0
 26
0.0
 36
1.0
 17
0.0
 27
0.0
 37
0.0
 40
60.46035805626598
 41
2.078104993597951
 42
50.0
 43
0.0
 44
0.0
 50
0.0
 51
0.0
 71
     0
 72
   100
 73
     1
 74
     3
 75
     0
 76
     0
 77
     0
 78
     0
281
     0
 65
     1
110
0.0
120
0.0
130
0.0
111
1.0
121
0.0
131
0.0
112
0.0
122
1.0
132
0.0
 79
     1
146
0.0
  0
ENDTAB
  0
TABLE
  2
LTYPE
  5
5
330
0
100
AcDbSymbolTable
 70
     1
  0
LTYPE
  5
13
330
5
100
AcDbSymbolTableRecord
100
AcDbLinetypeTableRecord
  2
ByBlock
 70
     0
  3

 72
    65
 73
     0
 40
0.0
  0
LTYPE
  5
14
330
5
100
AcDbSymbolTableRecord
100
AcDbLinetypeTableRecord
  2
ByLayer
 70
     0
  3

 72
    65
 73
     0
 40
0.0
  0
LTYPE
  5
15
330
5
100
AcDbSymbolTableRecord
100
AcDbLinetypeTableRecord
  2
Continuous
 70
     0
  3
Solid line
 72
    65
 73
     0
 40
0.0
  0
ENDTAB
  0
TABLE
  2
LAYER
  5
2
330
0
100
AcDbSymbolTable
 70
     1
  0
LAYER
  5
10
330
2
100
AcDbSymbolTableRecord
100
AcDbLayerTableRecord
  2
0
 70
     0
 62
     7
  6
Continuous
370
    -3
390
F
  0
ENDTAB
  0
TABLE
  2
STYLE
  5
3
330
0
100
AcDbSymbolTable
 70
     1
  0
STYLE
  5
11
330
3
100
AcDbSymbolTableRecord
100
AcDbTextStyleTableRecord
  2
Standard
 70
     0
 40
0.0
 41
1.0
 50
0.0
 71
     0
 42
0.2
  3
txt
  4

  0
ENDTAB
  0
TABLE
  2
VIEW
  5
6
330
0
100
AcDbSymbolTable
 70
     0
  0
ENDTAB
  0
TABLE
  2
UCS
  5
7
330
0
100
AcDbSymbolTable
 70
     0
  0
ENDTAB
  0
TABLE
  2
APPID
  5
9
330
0
100
AcDbSymbolTable
 70
     1
  0
APPID
  5
12
330
9
100
AcDbSymbolTableRecord
100
AcDbRegAppTableRecord
  2
ACAD
 70
     0
  0
ENDTAB
  0
TABLE
  2
DIMSTYLE
  5
A
330
0
100
AcDbSymbolTable
 70
     1
100
AcDbDimStyleTable
 71
     0
  0
DIMSTYLE
105
2E6
330
A
100
AcDbSymbolTableRecord
100
AcDbDimStyleTableRecord
  2
Standard
 70
     0
340
11
  0
ENDTAB
  0
TABLE
  2
BLOCK_RECORD
  5
1
330
0
100
AcDbSymbolTable
 70
     0
  0
BLOCK_RECORD
  5
1E
330
1
100
AcDbSymbolTableRecord
100
AcDbBlockTableRecord
  2
*Model_Space
340
21
  0
BLOCK_RECORD
  5
1A
330
1
100
AcDbSymbolTableRecord
100
AcDbBlockTableRecord
  2
*Paper_Space
340
1D
  0
ENDTAB
  0
ENDSEC
  0
SECTION
  2
BLOCKS
  0
BLOCK
  5
1F
330
1E
100
AcDbEntity
  8
0
100
AcDbBlockBegin
  2
*Model_Space
 70
     0
 10
0.0
 20
0.0
 30
0.0
  3
*Model_Space
  1

  0
ENDBLK
  5
20
330
1E
100
AcDbEntity
  8
0
100
AcDbBlockEnd
  0
BLOCK
  5
1B
330
1A
100
AcDbEntity
 67
     1
  8
0
100
AcDbBlockBegin
  2
*Paper_Space
 70
     0
 10
0.0
 20
0.0
 30
0.0
  3
*Paper_Space
  1

  0
ENDBLK
  5
1C
330
1A
100
AcDbEntity
 67
     1
  8
0
100
AcDbBlockEnd
  0
ENDSEC
  0
SECTION
  2
ENTITIES
  0
LINE
  5
22
330
1E
100
AcDbEntity
  8
0
100
AcDbLine
 10
0.0920000000000011
 20
5.125200000000009
 30
0.0
 11
0.4760000000000011
 21
3.625280000000009
 31
0.0
  0
LINE
  5
23
330
1E
100
AcDbEntity
  8
0
100
AcDbLine
 10
0.0920000000000011
 20
5.125200000000009
 30
0.0
 11
0.212000000000001
 21
7.022910000000009
 31
0.0
  0
LINE
  5
24
330
1E
100
AcDbEntity
  8
0
100
AcDbLine
 10
0.0920000000000011
 20
5.125200000000009
 30
0.0
 11
0.4760000000000011
 21
3.625280000000009
 31
0.0
  0
LINE
  5
25
330
1E
100
AcDbEntity
  8
0
100
AcDbLine
 10
0.0920000000000011
 20
5.125200000000009
 30
0.0
 11
0.212000000000001
 21
7.022910000000009
 31
0.0
  0
LINE
  5
26
330
1E
100
AcDbEntity
  8
0
100
AcDbLine
 10
0.111000000000001
 20
5.009830000000009
 30
0.0
 11
0.191297380710213
 21
4.737340293555059
 31
0.0
  0
LINE
  5
27
330
1E
100
AcDbEntity
  8
0
100
AcDbLine
 10
0.193000000000001
 20
6.896420000000009
 30
0.0
 11
0.2737409122543561
 21
7.536352851240929
 31
0.0
  0
LINE
  5
28
330
1E
100
AcDbEntity
  8
0
100
AcDbLine
 10
0.193000000000001
 20
6.896420000000009
 30
0.0
 11
0.2737409122543561
 21
7.536352851240929
 31
0.0
  0
LINE
  5
29
330
1E
100
AcDbEntity
  8
0
100
AcDbLine
 10
0.168812306774169
 20
6.339929022403389
 30
0.0
 11
0.193000000000001
 21
6.896420000000009
 31
0.0
  0
LINE
  5
2A
330
1E
100
AcDbEntity
  8
0
100
AcDbLine
 10
0.111000000000001
 20
5.009830000000009
 30
0.0
 11
0.191297380710213
 21
4.737340293555059
 31
0.0
  0
LINE
  5
2B
330
1E
100
AcDbEntity
  8
0
100
AcDbLine
 10
0.212000000000001
 20
7.022910000000009
 30
0.0
 11
0.6900000000000021
 21
10.99799999999999
 31
0.0
  0
LINE
  5
2C
330
1E
100
AcDbEntity
  8
0
100
AcDbLine
 10
8.929
 20
1.35617000000001
 30
0.0
 11
10.044
 21
1.87537000000001
 31
0.0
  0
LINE
  5
2D
330
1E
100
AcDbEntity
  8
0
100
AcDbLine
 10
6.0
 20
1.000000000000009
 30
0.0
 11
8.929
 21
1.35617000000001
 31
0.0
  0
LINE
  5
2E
330
1E
100
AcDbEntity
  8
0
100
AcDbLine
 10
1.187
 20
2.529180000000009
 30
0.0
 11
1.955999999999999
 21
1.87537000000001
 31
0.0
  0
LINE
  5
31
330
1E
100
AcDbEntity
  8
0
100
AcDbLine
 10
0.6900000000000021
 20
10.99799999999999
 30
0.0
 11
1.217
 21
14.54209999999999
 31
0.0
  0
LINE
  5
32
330
1E
100
AcDbEntity
  8
0
100
AcDbLine
 10
0.4760000000000011
 20
3.625280000000009
 30
0.0
 11
1.187
 21
2.529180000000009
 31
0.0
  0
LINE
  5
34
330
1E
100
AcDbEntity
  8
0
100
AcDbLine
 10
1.283
 20
2.433030000000009
 30
0.0
 11
1.4766833073323
 21
2.28288891655797
 31
0.0
  0
LINE
  5
37
330
1E
100
AcDbEntity
  8
0
100
AcDbLine
 10
10.044
 20
1.87537000000001
 30
0.0
 11
10.81299999999999
 21
2.529180000000009
 31
0.0
  0
LINE
  5
38
330
1E
100
AcDbEntity
  8
0
100
AcDbLine
 10
1.955999999999999
 20
1.87537000000001
 30
0.0
 11
3.071
 21
1.35617000000001
 31
0.0
  0
LINE
  5
39
330
1E
100
AcDbEntity
  8
0
100
AcDbLine
 10
3.071
 20
1.35617000000001
 30
0.0
 11
6.0
 21
1.000000000000009
 31
0.0
  0
LINE
  5
3B
330
1E
100
AcDbEntity
  8
0
100
AcDbLine
 10
10.81299999999999
 20
2.529180000000009
 30
0.0
 11
11.524
 21
3.625280000000009
 31
0.0
  0
LINE
  5
3C
330
1E
100
AcDbEntity
  8
0
100
AcDbLine
 10
10.52331669266769
 20
2.28288891655797
 30
0.0
 11
10.717
 21
2.433030000000009
 31
0.0
  0
LINE
  5
3D
330
1E
100
AcDbEntity
  8
0
100
AcDbLine
 10
1.217
 20
14.54209999999999
 30
0.0
 11
1.551999999999999
 21
17.296
 31
0.0
  0
LINE
  5
3E
330
1E
100
AcDbEntity
  8
0
100
AcDbLine
 10
1.217
 20
14.54209999999999
 30
0.0
 11
1.242999999999999
 21
14.8618
 31
0.0
  0
LINE
  5
3F
330
1E
100
AcDbEntity
  8
0
100
AcDbLine
 10
10.783
 20
14.54209999999999
 30
0.0
 11
11.31
 21
10.99799999999999
 31
0.0
  0
LINE
  5
40
330
1E
100
AcDbEntity
  8
0
100
AcDbLine
 10
11.0420475832426
 20
12.7999927139088
 30
0.0
 11
11.31
 21
10.99799999999999
 31
0.0
  0
LINE
  5
41
330
1E
100
AcDbEntity
  8
0
100
AcDbLine
 10
11.524
 20
3.625280000000009
 30
0.0
 11
11.908
 21
5.125200000000009
 31
0.0
  0
LINE
  5
42
330
1E
100
AcDbEntity
  8
0
100
AcDbLine
 10
11.31
 20
10.99799999999999
 30
0.0
 11
11.788
 21
7.022910000000009
 31
0.0
  0
LINE
  5
43
330
1E
100
AcDbEntity
  8
0
100
AcDbLine
 10
10.448
 20
17.296
 30
0.0
 11
10.783
 21
14.54209999999999
 31
0.0
  0
LINE
  5
44
330
1E
100
AcDbEntity
  8
0
100
AcDbLine
 10
1.551999999999999
 20
17.296
 30
0.0
 11
1.76163133605917
 21
18.8642485884793
 31
0.0
  0
LINE
  5
45
330
1E
100
AcDbEntity
  8
0
100
AcDbLine
 10
1.551999999999999
 20
17.296
 30
0.0
 11
1.857
 21
19.5777
 31
0.0
  0
LINE
  5
46
330
1E
100
AcDbEntity
  8
0
100
AcDbLine
 10
10.757
 20
14.8618
 30
0.0
 11
11.0420475832426
 21
12.7999927139088
 31
0.0
  0
LINE
  5
47
330
1E
100
AcDbEntity
  8
0
100
AcDbLine
 10
10.757
 20
14.8618
 30
0.0
 11
10.783
 21
14.54209999999999
 31
0.0
  0
LINE
  5
48
330
1E
100
AcDbEntity
  8
0
100
AcDbLine
 10
11.788
 20
7.022910000000009
 30
0.0
 11
11.908
 21
5.125200000000009
 31
0.0
  0
LINE
  5
49
330
1E
100
AcDbEntity
  8
0
100
AcDbLine
 10
11.807
 20
6.896420000000009
 30
0.0
 11
11.83118769322579
 21
6.339929022403349
 31
0.0
  0
LINE
  5
4A
330
1E
100
AcDbEntity
  8
0
100
AcDbLine
 10
11.8087026192898
 20
4.73734029355505
 30
0.0
 11
11.889
 21
5.009830000000009
 31
0.0
  0
LINE
  5
4B
330
1E
100
AcDbEntity
  8
0
100
AcDbLine
 10
11.7262590877456
 20
7.53635285124107
 30
0.0
 11
11.807
 21
6.896420000000009
 31
0.0
  0
LINE
  5
4C
330
1E
100
AcDbEntity
  8
0
100
AcDbLine
 10
1.76163133605917
 20
18.8642485884793
 30
0.0
 11
1.78380833571012
 21
19.0720638880966
 31
0.0
  0
LINE
  5
4D
330
1E
100
AcDbEntity
  8
0
100
AcDbLine
 10
1.76163133605917
 20
18.8642485884793
 30
0.0
 11
1.90126073952831
 21
20.17268195521169
 31
0.0
  0
LINE
  5
4E
330
1E
100
AcDbEntity
  8
0
100
AcDbLine
 10
0.212000000000001
 20
7.022910000000009
 30
0.0
 11
0.6900000000000021
 21
10.99799999999999
 31
0.0
  0
LINE
  5
4F
330
1E
100
AcDbEntity
  8
0
100
AcDbLine
 10
10.1695889339598
 20
19.50876680187939
 30
0.0
 11
11.0
 21
22.0
 31
0.0
  0
LINE
  5
50
330
1E
100
AcDbEntity
  8
0
100
AcDbLine
 10
1.857
 20
19.5777
 30
0.0
 11
2.0
 21
21.49999999999999
 31
0.0
  0
LINE
  5
51
330
1E
100
AcDbEntity
  8
0
100
AcDbLine
 10
0.0000000000000022
 20
23.6
 30
0.0
 11
0.0000000000000023
 21
25.5
 31
0.0
  0
LINE
  5
52
330
1E
100
AcDbEntity
  8
0
100
AcDbLine
 10
0.0000000000000021
 20
22.2
 30
0.0
 11
0.0000000000000022
 21
23.6
 31
0.0
  0
LINE
  5
53
330
1E
100
AcDbEntity
  8
0
100
AcDbLine
 10
0.0000000000000021
 20
21.3
 30
0.0
 11
0.0000000000000021
 21
22.2
 31
0.0
  0
LINE
  5
54
330
1E
100
AcDbEntity
  8
0
100
AcDbLine
 10
0.0000000000000021
 20
21.0
 30
0.0
 11
0.500000000000002
 21
19.5
 31
0.0
  0
LINE
  5
55
330
1E
100
AcDbEntity
  8
0
100
AcDbLine
 10
0.0000000000000021
 20
21.0
 30
0.0
 11
0.0000000000000021
 21
21.3
 31
0.0
  0
LINE
  5
56
330
1E
100
AcDbEntity
  8
0
100
AcDbLine
 10
1.857
 20
24.0
 30
0.0
 11
2.0
 21
21.49999999999999
 31
0.0
  0
LINE
  5
57
330
1E
100
AcDbEntity
  8
0
100
AcDbLine
 10
11.0
 20
23.1
 30
0.0
 11
11.0
 21
22.29999999999999
 31
0.0
  0
LINE
  5
58
330
1E
100
AcDbEntity
  8
0
100
AcDbLine
 10
11.0
 20
23.1
 30
0.0
 11
11.0
 21
24.39999999999999
 31
0.0
  0
LINE
  5
59
330
1E
100
AcDbEntity
  8
0
100
AcDbLine
 10
11.0
 20
22.29999999999999
 30
0.0
 11
11.0
 21
22.0
 31
0.0
  0
LINE
  5
5A
330
1E
100
AcDbEntity
  8
0
100
AcDbLine
 10
11.0
 20
22.29999999999999
 30
0.0
 11
11.0
 21
23.1
 31
0.0
  0
LINE
  5
5B
330
1E
100
AcDbEntity
  8
0
100
AcDbLine
 10
13.0
 20
23.7
 30
0.0
 11
13.0
 21
23.5
 31
0.0
  0
LINE
  5
5C
330
1E
100
AcDbEntity
  8
0
100
AcDbLine
 10
13.0
 20
23.7
 30
0.0
 11
13.0
 21
24.39999999999999
 31
0.0
  0
LINE
  5
5D
330
1E
100
AcDbEntity
  8
0
100
AcDbLine
 10
11.0
 20
22.0
 30
0.0
 11
13.0
 21
23.5
 31
0.0
  0
LINE
  5
5E
330
1E
100
AcDbEntity
  8
0
100
AcDbLine
 10
11.0
 20
22.0
 30
0.0
 11
11.0
 21
22.29999999999999
 31
0.0
  0
LINE
  5
5F
330
1E
100
AcDbEntity
  8
0
100
AcDbLine
 10
21.0
 20
23.5
 30
0.0
 11
21.0
 21
23.7
 31
0.0
  0
LINE
  5
60
330
1E
100
AcDbEntity
  8
0
100
AcDbLine
 10
21.0
 20
23.7
 30
0.0
 11
21.0
 21
23.5
 31
0.0
  0
LINE
  5
61
330
1E
100
AcDbEntity
  8
0
100
AcDbLine
 10
21.0
 20
23.7
 30
0.0
 11
21.0
 21
24.39999999999999
 31
0.0
  0
LINE
  5
62
330
1E
100
AcDbEntity
  8
0
100
AcDbLine
 10
13.0
 20
23.5
 30
0.0
 11
21.0
 21
23.5
 31
0.0
  0
LINE
  5
63
330
1E
100
AcDbEntity
  8
0
100
AcDbLine
 10
13.0
 20
23.5
 30
0.0
 11
13.0
 21
23.7
 31
0.0
  0
LINE
  5
64
330
1E
100
AcDbEntity
  8
0
100
AcDbLine
 10
21.0
 20
24.0
 30
0.0
 11
32.0
 21
24.0
 31
0.0
  0
LINE
  5
65
330
1E
100
AcDbEntity
  8
0
100
AcDbLine
 10
10.0
 20
21.49999999999999
 30
0.0
 11
10.14299999999999
 21
19.5777
 31
0.0
  0
LINE
  5
66
330
1E
100
AcDbEntity
  8
0
100
AcDbLine
 10
10.0
 20
21.49999999999999
 30
0.0
 11
10.14299999999999
 21
24.0
 31
0.0
  0
LINE
  5
67
330
1E
100
AcDbEntity
  8
0
100
AcDbLine
 10
10.14299999999999
 20
24.0
 30
0.0
 11
10.448
 21
26.00979999999999
 31
0.0
  0
LINE
  5
68
330
1E
100
AcDbEntity
  8
0
100
AcDbLine
 10
0.500000000000002
 20
22.6
 30
0.0
 11
0.500000000000002
 21
24.8
 31
0.0
  0
LINE
  5
69
330
1E
100
AcDbEntity
  8
0
100
AcDbLine
 10
0.500000000000002
 20
20.89999999999999
 30
0.0
 11
0.500000000000002
 21
22.6
 31
0.0
  0
LINE
  5
6A
330
1E
100
AcDbEntity
  8
0
100
AcDbLine
 10
0.500000000000002
 20
19.9
 30
0.0
 11
0.500000000000002
 21
19.5
 31
0.0
  0
LINE
  5
6B
330
1E
100
AcDbEntity
  8
0
100
AcDbLine
 10
0.500000000000002
 20
19.9
 30
0.0
 11
0.500000000000002
 21
20.89999999999999
 31
0.0
  0
LINE
  5
6C
330
1E
100
AcDbEntity
  8
0
100
AcDbLine
 10
10.14299999999999
 20
19.5777
 30
0.0
 11
10.448
 21
17.296
 31
0.0
  0
LINE
  5
6D
330
1E
100
AcDbEntity
  8
0
100
AcDbLine
 10
0.0000000000000021
 20
21.0
 30
0.0
 11
0.500000000000002
 21
19.5
 31
0.0
  0
LINE
  5
6E
330
1E
100
AcDbEntity
  8
0
100
AcDbLine
 10
0.500000000000002
 20
19.5
 30
0.0
 11
1.78380833571012
 21
19.0720638880966
 31
0.0
  0
LINE
  5
6F
330
1E
100
AcDbEntity
  8
0
100
AcDbLine
 10
0.500000000000002
 20
19.5
 30
0.0
 11
0.500000000000002
 21
19.9
 31
0.0
  0
LINE
  5
70
330
1E
100
AcDbEntity
  8
0
100
AcDbLine
 10
32.0
 20
20.0
 30
0.0
 11
32.0
 21
21.89999999999999
 31
0.0
  0
LINE
  5
71
330
1E
100
AcDbEntity
  8
0
100
AcDbLine
 10
32.0
 20
20.0
 30
0.0
 11
32.0
 21
18.89999999999999
 31
0.0
  0
LINE
  5
72
330
1E
100
AcDbEntity
  8
0
100
AcDbLine
 10
32.0
 20
18.89999999999999
 30
0.0
 11
32.0
 21
20.0
 31
0.0
  0
LINE
  5
73
330
1E
100
AcDbEntity
  8
0
100
AcDbLine
 10
32.0
 20
18.89999999999999
 30
0.0
 11
32.0
 21
18.5
 31
0.0
  0
LINE
  5
74
330
1E
100
AcDbEntity
  8
0
100
AcDbLine
 10
32.0
 20
18.5
 30
0.0
 11
32.5
 21
18.0
 31
0.0
  0
LINE
  5
75
330
1E
100
AcDbEntity
  8
0
100
AcDbLine
 10
32.0
 20
18.5
 30
0.0
 11
32.0
 21
18.89999999999999
 31
0.0
  0
LINE
  5
76
330
1E
100
AcDbEntity
  8
0
100
AcDbLine
 10
0.0000000000000023
 20
25.5
 30
0.0
 11
0.0000000000000025
 21
27.7
 31
0.0
  0
LINE
  5
77
330
1E
100
AcDbEntity
  8
0
100
AcDbLine
 10
11.0
 20
24.39999999999999
 30
0.0
 11
11.0
 21
23.1
 31
0.0
  0
LINE
  5
78
330
1E
100
AcDbEntity
  8
0
100
AcDbLine
 10
11.0
 20
24.39999999999999
 30
0.0
 11
11.0
 21
26.0
 31
0.0
  0
LINE
  5
79
330
1E
100
AcDbEntity
  8
0
100
AcDbLine
 10
13.0
 20
24.39999999999999
 30
0.0
 11
13.0
 21
23.7
 31
0.0
  0
LINE
  5
7A
330
1E
100
AcDbEntity
  8
0
100
AcDbLine
 10
13.0
 20
24.39999999999999
 30
0.0
 11
13.0
 21
25.4
 31
0.0
  0
LINE
  5
7B
330
1E
100
AcDbEntity
  8
0
100
AcDbLine
 10
21.0
 20
24.39999999999999
 30
0.0
 11
21.0
 21
23.7
 31
0.0
  0
LINE
  5
7C
330
1E
100
AcDbEntity
  8
0
100
AcDbLine
 10
21.0
 20
24.39999999999999
 30
0.0
 11
21.0
 21
25.4
 31
0.0
  0
LINE
  5
7D
330
1E
100
AcDbEntity
  8
0
100
AcDbLine
 10
11.0
 20
26.0
 30
0.0
 11
11.0
 21
27.9
 31
0.0
  0
LINE
  5
7E
330
1E
100
AcDbEntity
  8
0
100
AcDbLine
 10
13.0
 20
25.4
 30
0.0
 11
13.0
 21
24.39999999999999
 31
0.0
  0
LINE
  5
7F
330
1E
100
AcDbEntity
  8
0
100
AcDbLine
 10
13.0
 20
25.4
 30
0.0
 11
13.0
 21
26.8
 31
0.0
  0
LINE
  5
80
330
1E
100
AcDbEntity
  8
0
100
AcDbLine
 10
32.0
 20
25.8
 30
0.0
 11
32.0
 21
27.0
 31
0.0
  0
LINE
  5
81
330
1E
100
AcDbEntity
  8
0
100
AcDbLine
 10
21.0
 20
25.4
 30
0.0
 11
21.0
 21
24.39999999999999
 31
0.0
  0
LINE
  5
82
330
1E
100
AcDbEntity
  8
0
100
AcDbLine
 10
21.0
 20
25.4
 30
0.0
 11
21.0
 21
26.8
 31
0.0
  0
LINE
  5
83
330
1E
100
AcDbEntity
  8
0
100
AcDbLine
 10
32.0
 20
24.8
 30
0.0
 11
32.0
 21
25.8
 31
0.0
  0
LINE
  5
84
330
1E
100
AcDbEntity
  8
0
100
AcDbLine
 10
32.0
 20
24.19999999999999
 30
0.0
 11
32.0
 21
24.8
 31
0.0
  0
LINE
  5
85
330
1E
100
AcDbEntity
  8
0
100
AcDbLine
 10
1.551999999999999
 20
26.00979999999999
 30
0.0
 11
1.857
 21
24.0
 31
0.0
  0
LINE
  5
86
330
1E
100
AcDbEntity
  8
0
100
AcDbLine
 10
0.500000000000002
 20
24.8
 30
0.0
 11
0.500000000000002
 21
27.3
 31
0.0
  0
LINE
  5
87
330
1E
100
AcDbEntity
  8
0
100
AcDbLine
 10
13.0
 20
26.8
 30
0.0
 11
13.0
 21
28.3
 31
0.0
  0
LINE
  5
88
330
1E
100
AcDbEntity
  8
0
100
AcDbLine
 10
21.0
 20
26.8
 30
0.0
 11
21.0
 21
25.4
 31
0.0
  0
LINE
  5
89
330
1E
100
AcDbEntity
  8
0
100
AcDbLine
 10
21.0
 20
26.8
 30
0.0
 11
21.0
 21
28.3
 31
0.0
  0
LINE
  5
8A
330
1E
100
AcDbEntity
  8
0
100
AcDbLine
 10
10.448
 20
26.00979999999999
 30
0.0
 11
10.783
 21
27.8536
 31
0.0
  0
LINE
  5
8B
330
1E
100
AcDbEntity
  8
0
100
AcDbLine
 10
32.0
 20
24.3
 30
0.0
 11
32.0
 21
21.89999999999999
 31
0.0
  0
LINE
  5
8C
330
1E
100
AcDbEntity
  8
0
100
AcDbLine
 10
32.0
 20
24.3
 30
0.0
 11
32.0
 21
27.0
 31
0.0
  0
LINE
  5
8D
330
1E
100
AcDbEntity
  8
0
100
AcDbLine
 10
0.0000000000000025
 20
27.7
 30
0.0
 11
0.0000000000000026
 21
30.0
 31
0.0
  0
LINE
  5
8E
330
1E
100
AcDbEntity
  8
0
100
AcDbLine
 10
0.0920000000000026
 20
29.19999999999999
 30
0.0
 11
0.476000000000003
 21
29.19999999999999
 31
0.0
  0
LINE
  5
8F
330
1E
100
AcDbEntity
  8
0
100
AcDbLine
 10
0.0920000000000026
 20
29.19999999999999
 30
0.0
 11
0.5910000000000029
 21
28.7
 31
0.0
  0
LINE
  5
90
330
1E
100
AcDbEntity
  8
0
100
AcDbLine
 10
0.500000000000002
 20
27.3
 30
0.0
 11
0.5000000000000031
 21
28.7911823647295
 31
0.0
  0
LINE
  5
91
330
1E
100
AcDbEntity
  8
0
100
AcDbLine
 10
0.5910000000000029
 20
28.7
 30
0.0
 11
3.051
 21
28.2
 31
0.0
  0
LINE
  5
93
330
1E
100
AcDbEntity
  8
0
100
AcDbLine
 10
0.5910000000000029
 20
28.7
 30
0.0
 11
3.051
 21
28.2
 31
0.0
  0
LINE
  5
94
330
1E
100
AcDbEntity
  8
0
100
AcDbLine
 10
0.0920000000000026
 20
29.19999999999999
 30
0.0
 11
0.111000000000003
 21
30.0
 31
0.0
  0
LINE
  5
95
330
1E
100
AcDbEntity
  8
0
100
AcDbLine
 10
0.0920000000000026
 20
29.19999999999999
 30
0.0
 11
0.476000000000003
 21
29.19999999999999
 31
0.0
  0
LINE
  5
96
330
1E
100
AcDbEntity
  8
0
100
AcDbLine
 10
0.0920000000000026
 20
29.19999999999999
 30
0.0
 11
0.5910000000000029
 21
28.7
 31
0.0
  0
LINE
  5
97
330
1E
100
AcDbEntity
  8
0
100
AcDbLine
 10
0.0920000000000027
 20
30.8
 30
0.0
 11
0.476000000000003
 21
30.8
 31
0.0
  0
LINE
  5
98
330
1E
100
AcDbEntity
  8
0
100
AcDbLine
 10
0.0920000000000027
 20
30.8
 30
0.0
 11
0.5910000000000029
 21
31.3
 31
0.0
  0
LINE
  5
99
330
1E
100
AcDbEntity
  8
0
100
AcDbLine
 10
0.0920000000000027
 20
30.8
 30
0.0
 11
0.111000000000003
 21
30.0
 31
0.0
  0
LINE
  5
9A
330
1E
100
AcDbEntity
  8
0
100
AcDbLine
 10
0.0920000000000027
 20
30.8
 30
0.0
 11
0.476000000000003
 21
30.8
 31
0.0
  0
LINE
  5
9B
330
1E
100
AcDbEntity
  8
0
100
AcDbLine
 10
0.0920000000000027
 20
30.8
 30
0.0
 11
0.5910000000000029
 21
31.3
 31
0.0
  0
LINE
  5
9C
330
1E
100
AcDbEntity
  8
0
100
AcDbLine
 10
0.476000000000003
 20
30.8
 30
0.0
 11
1.187
 21
30.8
 31
0.0
  0
LINE
  5
9D
330
1E
100
AcDbEntity
  8
0
100
AcDbLine
 10
0.0000000000000026
 20
30.0
 30
0.0
 11
0.0000000000000028
 21
32.29999999999999
 31
0.0
  0
LINE
  5
9E
330
1E
100
AcDbEntity
  8
0
100
AcDbLine
 10
0.0000000000000029
 20
34.5
 30
0.0
 11
0.000000000000003
 21
36.4
 31
0.0
  0
LINE
  5
9F
330
1E
100
AcDbEntity
  8
0
100
AcDbLine
 10
0.0000000000000028
 20
32.29999999999999
 30
0.0
 11
0.0000000000000029
 21
34.5
 31
0.0
  0
LINE
  5
A1
330
1E
100
AcDbEntity
  8
0
100
AcDbLine
 10
0.5910000000000029
 20
31.3
 30
0.0
 11
3.051
 21
31.8
 31
0.0
  0
LINE
  5
A2
330
1E
100
AcDbEntity
  8
0
100
AcDbLine
 10
0.5000000000000031
 20
35.2
 30
0.0
 11
0.5000000000000031
 21
37.4
 31
0.0
  0
LINE
  5
A3
330
1E
100
AcDbEntity
  8
0
100
AcDbLine
 10
0.5000000000000031
 20
32.7
 30
0.0
 11
0.5000000000000031
 21
35.2
 31
0.0
  0
LINE
  5
A4
330
1E
100
AcDbEntity
  8
0
100
AcDbLine
 10
0.5000000000000031
 20
31.2088176352706
 30
0.0
 11
0.5000000000000031
 21
32.7
 31
0.0
  0
LINE
  5
A6
330
1E
100
AcDbEntity
  8
0
100
AcDbLine
 10
0.476000000000003
 20
29.19999999999999
 30
0.0
 11
1.187
 21
29.19999999999999
 31
0.0
  0
LINE
  5
A7
330
1E
100
AcDbEntity
  8
0
100
AcDbLine
 10
3.051
 20
28.2
 30
0.0
 11
6.0
 21
28.0
 31
0.0
  0
LINE
  5
A8
330
1E
100
AcDbEntity
  8
0
100
AcDbLine
 10
6.0
 20
28.0
 30
0.0
 11
8.948999999999999
 21
28.2
 31
0.0
  0
LINE
  5
A9
330
1E
100
AcDbEntity
  8
0
100
AcDbLine
 10
8.948999999999999
 20
28.2
 30
0.0
 11
11.409
 21
28.7
 31
0.0
  0
LINE
  5
AA
330
1E
100
AcDbEntity
  8
0
100
AcDbLine
 10
11.0
 20
27.9
 30
0.0
 11
11.0
 21
26.0
 31
0.0
  0
LINE
  5
AB
330
1E
100
AcDbEntity
  8
0
100
AcDbLine
 10
11.0
 20
27.9
 30
0.0
 11
11.0
 21
28.2844705882353
 31
0.0
  0
LINE
  5
AC
330
1E
100
AcDbEntity
  8
0
100
AcDbLine
 10
11.0
 20
28.2844705882353
 30
0.0
 11
11.0
 21
27.9
 31
0.0
  0
LINE
  5
AD
330
1E
100
AcDbEntity
  8
0
100
AcDbLine
 10
13.0
 20
28.3
 30
0.0
 11
13.0
 21
26.8
 31
0.0
  0
LINE
  5
AE
330
1E
100
AcDbEntity
  8
0
100
AcDbLine
 10
13.0
 20
28.3
 30
0.0
 11
13.0
 21
30.0
 31
0.0
  0
LINE
  5
AF
330
1E
100
AcDbEntity
  8
0
100
AcDbLine
 10
21.0
 20
28.3
 30
0.0
 11
21.0
 21
26.8
 31
0.0
  0
LINE
  5
B0
330
1E
100
AcDbEntity
  8
0
100
AcDbLine
 10
21.0
 20
28.3
 30
0.0
 11
21.0
 21
30.0
 31
0.0
  0
LINE
  5
B1
330
1E
100
AcDbEntity
  8
0
100
AcDbLine
 10
10.783
 20
27.8536
 30
0.0
 11
11.1714078588698
 21
28.6248143899836
 31
0.0
  0
LINE
  5
B2
330
1E
100
AcDbEntity
  8
0
100
AcDbLine
 10
32.0
 20
28.5
 30
0.0
 11
32.0
 21
30.0
 31
0.0
  0
LINE
  5
B4
330
1E
100
AcDbEntity
  8
0
100
AcDbLine
 10
1.217
 20
27.8536
 30
0.0
 11
1.551999999999999
 21
26.00979999999999
 31
0.0
  0
LINE
  5
B7
330
1E
100
AcDbEntity
  8
0
100
AcDbLine
 10
1.187
 20
29.19999999999999
 30
0.0
 11
1.955999999999999
 21
29.19999999999999
 31
0.0
  0
LINE
  5
B8
330
1E
100
AcDbEntity
  8
0
100
AcDbLine
 10
1.955999999999999
 20
29.19999999999999
 30
0.0
 11
3.071
 21
29.19999999999999
 31
0.0
  0
LINE
  5
B9
330
1E
100
AcDbEntity
  8
0
100
AcDbLine
 10
1.187
 20
30.8
 30
0.0
 11
1.955999999999999
 21
30.8
 31
0.0
  0
LINE
  5
BA
330
1E
100
AcDbEntity
  8
0
100
AcDbLine
 10
1.955999999999999
 20
30.8
 30
0.0
 11
3.071
 21
30.8
 31
0.0
  0
LINE
  5
BB
330
1E
100
AcDbEntity
  8
0
100
AcDbLine
 10
3.071
 20
30.8
 30
0.0
 11
6.0
 21
30.8
 31
0.0
  0
LINE
  5
BD
330
1E
100
AcDbEntity
  8
0
100
AcDbLine
 10
3.051
 20
31.8
 30
0.0
 11
6.0
 21
32.0
 31
0.0
  0
LINE
  5
BF
330
1E
100
AcDbEntity
  8
0
100
AcDbLine
 10
6.0
 20
32.0
 30
0.0
 11
8.948999999999999
 21
31.8
 31
0.0
  0
LINE
  5
C0
330
1E
100
AcDbEntity
  8
0
100
AcDbLine
 10
6.0
 20
30.8
 30
0.0
 11
8.929
 21
30.8
 31
0.0
  0
LINE
  5
C1
330
1E
100
AcDbEntity
  8
0
100
AcDbLine
 10
0.8285921411301957
 20
31.37518561001639
 30
0.0
 11
1.217
 21
32.1464
 31
0.0
  0
LINE
  5
C2
330
1E
100
AcDbEntity
  8
0
100
AcDbLine
 10
1.551999999999999
 20
33.9902
 30
0.0
 11
1.857
 21
36.0
 31
0.0
  0
LINE
  5
C3
330
1E
100
AcDbEntity
  8
0
100
AcDbLine
 10
1.217
 20
32.1464
 30
0.0
 11
1.551999999999999
 21
33.9902
 31
0.0
  0
LINE
  5
C4
330
1E
100
AcDbEntity
  8
0
100
AcDbLine
 10
0.8285921411301957
 20
31.37518561001639
 30
0.0
 11
1.217
 21
32.1464
 31
0.0
  0
LINE
  5
C5
330
1E
100
AcDbEntity
  8
0
100
AcDbLine
 10
3.071
 20
29.19999999999999
 30
0.0
 11
6.0
 21
29.19999999999999
 31
0.0
  0
LINE
  5
C7
330
1E
100
AcDbEntity
  8
0
100
AcDbLine
 10
11.409
 20
28.7
 30
0.0
 11
11.908
 21
29.19999999999999
 31
0.0
  0
LINE
  5
CA
330
1E
100
AcDbEntity
  8
0
100
AcDbLine
 10
11.524
 20
29.19999999999999
 30
0.0
 11
11.908
 21
29.19999999999999
 31
0.0
  0
LINE
  5
CB
330
1E
100
AcDbEntity
  8
0
100
AcDbLine
 10
10.81299999999999
 20
29.19999999999999
 30
0.0
 11
11.524
 21
29.19999999999999
 31
0.0
  0
LINE
  5
CC
330
1E
100
AcDbEntity
  8
0
100
AcDbLine
 10
10.044
 20
29.19999999999999
 30
0.0
 11
10.81299999999999
 21
29.19999999999999
 31
0.0
  0
LINE
  5
CD
330
1E
100
AcDbEntity
  8
0
100
AcDbLine
 10
11.524
 20
30.8
 30
0.0
 11
11.908
 21
30.8
 31
0.0
  0
LINE
  5
CE
330
1E
100
AcDbEntity
  8
0
100
AcDbLine
 10
10.81299999999999
 20
30.8
 30
0.0
 11
11.524
 21
30.8
 31
0.0
  0
LINE
  5
D0
330
1E
100
AcDbEntity
  8
0
100
AcDbLine
 10
11.409
 20
31.3
 30
0.0
 11
11.908
 21
30.8
 31
0.0
  0
LINE
  5
D3
330
1E
100
AcDbEntity
  8
0
100
AcDbLine
 10
10.044
 20
30.8
 30
0.0
 11
10.81299999999999
 21
30.8
 31
0.0
  0
LINE
  5
D4
330
1E
100
AcDbEntity
  8
0
100
AcDbLine
 10
8.929
 20
30.8
 30
0.0
 11
10.044
 21
30.8
 31
0.0
  0
LINE
  5
D5
330
1E
100
AcDbEntity
  8
0
100
AcDbLine
 10
8.948999999999999
 20
31.8
 30
0.0
 11
11.409
 21
31.3
 31
0.0
  0
LINE
  5
D6
330
1E
100
AcDbEntity
  8
0
100
AcDbLine
 10
10.448
 20
33.9902
 30
0.0
 11
10.783
 21
32.1464
 31
0.0
  0
LINE
  5
D7
330
1E
100
AcDbEntity
  8
0
100
AcDbLine
 10
11.0
 20
31.7155294117647
 30
0.0
 11
11.0
 21
32.1
 31
0.0
  0
LINE
  5
D8
330
1E
100
AcDbEntity
  8
0
100
AcDbLine
 10
11.0
 20
34.0
 30
0.0
 11
11.0
 21
32.1
 31
0.0
  0
LINE
  5
D9
330
1E
100
AcDbEntity
  8
0
100
AcDbLine
 10
11.0
 20
34.0
 30
0.0
 11
11.0
 21
35.6
 31
0.0
  0
LINE
  5
DA
330
1E
100
AcDbEntity
  8
0
100
AcDbLine
 10
11.0
 20
32.1
 30
0.0
 11
11.0
 21
31.7155294117647
 31
0.0
  0
LINE
  5
DB
330
1E
100
AcDbEntity
  8
0
100
AcDbLine
 10
11.0
 20
32.1
 30
0.0
 11
11.0
 21
34.0
 31
0.0
  0
LINE
  5
DC
330
1E
100
AcDbEntity
  8
0
100
AcDbLine
 10
11.0
 20
35.6
 30
0.0
 11
11.0
 21
36.89999999999999
 31
0.0
  0
LINE
  5
DD
330
1E
100
AcDbEntity
  8
0
100
AcDbLine
 10
11.0
 20
35.6
 30
0.0
 11
11.0
 21
34.0
 31
0.0
  0
LINE
  5
DE
330
1E
100
AcDbEntity
  8
0
100
AcDbLine
 10
10.783
 20
32.1464
 30
0.0
 11
11.1714078588698
 21
31.37518561001639
 31
0.0
  0
LINE
  5
E0
330
1E
100
AcDbEntity
  8
0
100
AcDbLine
 10
13.0
 20
30.0
 30
0.0
 11
13.0
 21
28.3
 31
0.0
  0
LINE
  5
E1
330
1E
100
AcDbEntity
  8
0
100
AcDbLine
 10
13.0
 20
30.0
 30
0.0
 11
13.0
 21
31.69999999999999
 31
0.0
  0
LINE
  5
E2
330
1E
100
AcDbEntity
  8
0
100
AcDbLine
 10
13.0
 20
31.69999999999999
 30
0.0
 11
13.0
 21
30.0
 31
0.0
  0
LINE
  5
E3
330
1E
100
AcDbEntity
  8
0
100
AcDbLine
 10
13.0
 20
31.69999999999999
 30
0.0
 11
13.0
 21
33.2
 31
0.0
  0
LINE
  5
E4
330
1E
100
AcDbEntity
  8
0
100
AcDbLine
 10
13.0
 20
33.2
 30
0.0
 11
13.0
 21
31.69999999999999
 31
0.0
  0
LINE
  5
E5
330
1E
100
AcDbEntity
  8
0
100
AcDbLine
 10
13.0
 20
33.2
 30
0.0
 11
13.0
 21
34.6
 31
0.0
  0
LINE
  5
E6
330
1E
100
AcDbEntity
  8
0
100
AcDbLine
 10
21.0
 20
33.2
 30
0.0
 11
21.0
 21
31.69999999999999
 31
0.0
  0
LINE
  5
E7
330
1E
100
AcDbEntity
  8
0
100
AcDbLine
 10
21.0
 20
33.2
 30
0.0
 11
21.0
 21
34.6
 31
0.0
  0
LINE
  5
E8
330
1E
100
AcDbEntity
  8
0
100
AcDbLine
 10
21.0
 20
31.69999999999999
 30
0.0
 11
21.0
 21
30.0
 31
0.0
  0
LINE
  5
E9
330
1E
100
AcDbEntity
  8
0
100
AcDbLine
 10
21.0
 20
31.69999999999999
 30
0.0
 11
21.0
 21
33.2
 31
0.0
  0
LINE
  5
EA
330
1E
100
AcDbEntity
  8
0
100
AcDbLine
 10
32.0
 20
31.5
 30
0.0
 11
32.0
 21
33.0
 31
0.0
  0
LINE
  5
EB
330
1E
100
AcDbEntity
  8
0
100
AcDbLine
 10
13.0
 20
34.6
 30
0.0
 11
13.0
 21
35.6
 31
0.0
  0
LINE
  5
EC
330
1E
100
AcDbEntity
  8
0
100
AcDbLine
 10
13.0
 20
34.6
 30
0.0
 11
13.0
 21
33.2
 31
0.0
  0
LINE
  5
ED
330
1E
100
AcDbEntity
  8
0
100
AcDbLine
 10
13.0
 20
35.6
 30
0.0
 11
13.0
 21
34.6
 31
0.0
  0
LINE
  5
EE
330
1E
100
AcDbEntity
  8
0
100
AcDbLine
 10
13.0
 20
35.6
 30
0.0
 11
13.0
 21
36.29999999999999
 31
0.0
  0
LINE
  5
EF
330
1E
100
AcDbEntity
  8
0
100
AcDbLine
 10
21.0
 20
34.6
 30
0.0
 11
21.0
 21
35.6
 31
0.0
  0
LINE
  5
F0
330
1E
100
AcDbEntity
  8
0
100
AcDbLine
 10
21.0
 20
34.6
 30
0.0
 11
21.0
 21
33.2
 31
0.0
  0
LINE
  5
F1
330
1E
100
AcDbEntity
  8
0
100
AcDbLine
 10
21.0
 20
35.6
 30
0.0
 11
21.0
 21
34.6
 31
0.0
  0
LINE
  5
F2
330
1E
100
AcDbEntity
  8
0
100
AcDbLine
 10
21.0
 20
35.6
 30
0.0
 11
21.0
 21
36.29999999999999
 31
0.0
  0
LINE
  5
F3
330
1E
100
AcDbEntity
  8
0
100
AcDbLine
 10
32.0
 20
34.2
 30
0.0
 11
32.0
 21
35.2
 31
0.0
  0
LINE
  5
F4
330
1E
100
AcDbEntity
  8
0
100
AcDbLine
 10
32.0
 20
35.2
 30
0.0
 11
32.0
 21
35.8
 31
0.0
  0
LINE
  5
F5
330
1E
100
AcDbEntity
  8
0
100
AcDbLine
 10
21.0
 20
30.0
 30
0.0
 11
21.0
 21
28.3
 31
0.0
  0
LINE
  5
F6
330
1E
100
AcDbEntity
  8
0
100
AcDbLine
 10
21.0
 20
30.0
 30
0.0
 11
21.0
 21
31.69999999999999
 31
0.0
  0
LINE
  5
F7
330
1E
100
AcDbEntity
  8
0
100
AcDbLine
 10
11.889
 20
30.0
 30
0.0
 11
11.908
 21
29.19999999999999
 31
0.0
  0
LINE
  5
F8
330
1E
100
AcDbEntity
  8
0
100
AcDbLine
 10
11.889
 20
30.0
 30
0.0
 11
11.908
 21
30.8
 31
0.0
  0
LINE
  5
F9
330
1E
100
AcDbEntity
  8
0
100
AcDbLine
 10
8.929
 20
29.19999999999999
 30
0.0
 11
10.044
 21
29.19999999999999
 31
0.0
  0
LINE
  5
FA
330
1E
100
AcDbEntity
  8
0
100
AcDbLine
 10
6.0
 20
29.19999999999999
 30
0.0
 11
8.929
 21
29.19999999999999
 31
0.0
  0
LINE
  5
FB
330
1E
100
AcDbEntity
  8
0
100
AcDbLine
 10
0.828592141130192
 20
28.6248143899836
 30
0.0
 11
1.217
 21
27.8536
 31
0.0
  0
LINE
  5
FD
330
1E
100
AcDbEntity
  8
0
100
AcDbLine
 10
1.857
 20
36.0
 30
0.0
 11
2.0
 21
38.5
 31
0.0
  0
LINE
  5
FE
330
1E
100
AcDbEntity
  8
0
100
AcDbLine
 10
21.0
 20
36.0
 30
0.0
 11
32.0
 21
36.0
 31
0.0
  0
LINE
  5
FF
330
1E
100
AcDbEntity
  8
0
100
AcDbLine
 10
32.0
 20
35.8
 30
0.0
 11
32.0
 21
36.0
 31
0.0
  0
LINE
  5
100
330
1E
100
AcDbEntity
  8
0
100
AcDbLine
 10
10.14299999999999
 20
36.0
 30
0.0
 11
10.448
 21
33.9902
 31
0.0
  0
LINE
  5
101
330
1E
100
AcDbEntity
  8
0
100
AcDbLine
 10
0.000000000000003
 20
36.4
 30
0.0
 11
0.0000000000000031
 21
37.79999999999999
 31
0.0
  0
LINE
  5
102
330
1E
100
AcDbEntity
  8
0
100
AcDbLine
 10
0.0000000000000031
 20
37.79999999999999
 30
0.0
 11
0.0000000000000032
 21
38.7
 31
0.0
  0
LINE
  5
103
330
1E
100
AcDbEntity
  8
0
100
AcDbLine
 10
0.0000000000000031
 20
39.0
 30
0.0
 11
0.5000000000000031
 21
40.49999999999999
 31
0.0
  0
LINE
  5
104
330
1E
100
AcDbEntity
  8
0
100
AcDbLine
 10
0.0000000000000032
 20
39.0
 30
0.0
 11
0.5000000000000031
 21
40.49999999999999
 31
0.0
  0
LINE
  5
105
330
1E
100
AcDbEntity
  8
0
100
AcDbLine
 10
0.0000000000000032
 20
38.7
 30
0.0
 11
0.0000000000000032
 21
39.0
 31
0.0
  0
LINE
  5
106
330
1E
100
AcDbEntity
  8
0
100
AcDbLine
 10
0.111000000000004
 20
54.9902
 30
0.0
 11
0.191355368518841
 21
55.2628810344828
 31
0.0
  0
LINE
  5
107
330
1E
100
AcDbEntity
  8
0
100
AcDbLine
 10
0.168814607392426
 20
53.6600409962617
 30
0.0
 11
0.193000000000004
 21
53.1036
 31
0.0
  0
LINE
  5
108
330
1E
100
AcDbEntity
  8
0
100
AcDbLine
 10
0.0920000000000042
 20
54.8748
 30
0.0
 11
0.212000000000004
 21
52.9771
 31
0.0
  0
LINE
  5
109
330
1E
100
AcDbEntity
  8
0
100
AcDbLine
 10
0.0920000000000042
 20
54.8748
 30
0.0
 11
0.476000000000004
 21
56.3747
 31
0.0
  0
LINE
  5
10A
330
1E
100
AcDbEntity
  8
0
100
AcDbLine
 10
0.111000000000004
 20
54.9902
 30
0.0
 11
0.191355368518841
 21
55.2628810344828
 31
0.0
  0
LINE
  5
10B
330
1E
100
AcDbEntity
  8
0
100
AcDbLine
 10
0.0920000000000041
 20
54.8748
 30
0.0
 11
0.476000000000004
 21
56.3747
 31
0.0
  0
LINE
  5
10C
330
1E
100
AcDbEntity
  8
0
100
AcDbLine
 10
0.193000000000004
 20
53.1036
 30
0.0
 11
0.273719715754429
 21
52.4638321295075
 31
0.0
  0
LINE
  5
10D
330
1E
100
AcDbEntity
  8
0
100
AcDbLine
 10
0.5000000000000031
 20
37.4
 30
0.0
 11
0.5000000000000031
 21
39.1
 31
0.0
  0
LINE
  5
10E
330
1E
100
AcDbEntity
  8
0
100
AcDbLine
 10
0.5000000000000031
 20
39.1
 30
0.0
 11
0.5000000000000031
 21
40.1
 31
0.0
  0
LINE
  5
10F
330
1E
100
AcDbEntity
  8
0
100
AcDbLine
 10
0.5000000000000031
 20
40.1
 30
0.0
 11
0.5000000000000031
 21
40.49999999999999
 31
0.0
  0
LINE
  5
110
330
1E
100
AcDbEntity
  8
0
100
AcDbLine
 10
0.5000000000000031
 20
40.49999999999999
 30
0.0
 11
1.783808335710129
 21
40.9279361119034
 31
0.0
  0
LINE
  5
111
330
1E
100
AcDbEntity
  8
0
100
AcDbLine
 10
0.5000000000000031
 20
40.49999999999999
 30
0.0
 11
0.5000000000000031
 21
40.1
 31
0.0
  0
LINE
  5
112
330
1E
100
AcDbEntity
  8
0
100
AcDbLine
 10
0.5000000000000031
 20
40.49999999999999
 30
0.0
 11
1.783808335710129
 21
40.9279361119034
 31
0.0
  0
LINE
  5
113
330
1E
100
AcDbEntity
  8
0
100
AcDbLine
 10
1.857
 20
40.42229999999999
 30
0.0
 11
2.0
 21
38.5
 31
0.0
  0
LINE
  5
114
330
1E
100
AcDbEntity
  8
0
100
AcDbLine
 10
10.0
 20
38.5
 30
0.0
 11
10.14299999999999
 21
36.0
 31
0.0
  0
LINE
  5
115
330
1E
100
AcDbEntity
  8
0
100
AcDbLine
 10
10.0
 20
38.5
 30
0.0
 11
10.14299999999999
 21
40.42229999999999
 31
0.0
  0
LINE
  5
116
330
1E
100
AcDbEntity
  8
0
100
AcDbLine
 10
13.0
 20
36.29999999999999
 30
0.0
 11
13.0
 21
35.6
 31
0.0
  0
LINE
  5
117
330
1E
100
AcDbEntity
  8
0
100
AcDbLine
 10
13.0
 20
36.29999999999999
 30
0.0
 11
13.0
 21
36.5
 31
0.0
  0
LINE
  5
118
330
1E
100
AcDbEntity
  8
0
100
AcDbLine
 10
21.0
 20
36.29999999999999
 30
0.0
 11
21.0
 21
35.6
 31
0.0
  0
LINE
  5
119
330
1E
100
AcDbEntity
  8
0
100
AcDbLine
 10
21.0
 20
36.29999999999999
 30
0.0
 11
21.0
 21
36.5
 31
0.0
  0
LINE
  5
11A
330
1E
100
AcDbEntity
  8
0
100
AcDbLine
 10
11.0
 20
36.89999999999999
 30
0.0
 11
11.0
 21
35.6
 31
0.0
  0
LINE
  5
11B
330
1E
100
AcDbEntity
  8
0
100
AcDbLine
 10
11.0
 20
36.89999999999999
 30
0.0
 11
11.0
 21
37.7
 31
0.0
  0
LINE
  5
11C
330
1E
100
AcDbEntity
  8
0
100
AcDbLine
 10
11.0
 20
37.7
 30
0.0
 11
11.0
 21
36.89999999999999
 31
0.0
  0
LINE
  5
11D
330
1E
100
AcDbEntity
  8
0
100
AcDbLine
 10
11.0
 20
37.7
 30
0.0
 11
11.0
 21
38.0
 31
0.0
  0
LINE
  5
11E
330
1E
100
AcDbEntity
  8
0
100
AcDbLine
 10
10.1695889339598
 20
40.4912331981207
 30
0.0
 11
11.0
 21
38.0
 31
0.0
  0
LINE
  5
11F
330
1E
100
AcDbEntity
  8
0
100
AcDbLine
 10
11.0
 20
38.0
 30
0.0
 11
11.0
 21
37.7
 31
0.0
  0
LINE
  5
120
330
1E
100
AcDbEntity
  8
0
100
AcDbLine
 10
11.0
 20
38.0
 30
0.0
 11
13.0
 21
36.5
 31
0.0
  0
LINE
  5
121
330
1E
100
AcDbEntity
  8
0
100
AcDbLine
 10
13.0
 20
36.5
 30
0.0
 11
13.0
 21
36.29999999999999
 31
0.0
  0
LINE
  5
122
330
1E
100
AcDbEntity
  8
0
100
AcDbLine
 10
13.0
 20
36.5
 30
0.0
 11
21.0
 21
36.5
 31
0.0
  0
LINE
  5
123
330
1E
100
AcDbEntity
  8
0
100
AcDbLine
 10
21.0
 20
36.5
 30
0.0
 11
21.0
 21
36.29999999999999
 31
0.0
  0
LINE
  5
124
330
1E
100
AcDbEntity
  8
0
100
AcDbLine
 10
10.14299999999999
 20
40.42229999999999
 30
0.0
 11
10.448
 21
42.70399999999999
 31
0.0
  0
LINE
  5
125
330
1E
100
AcDbEntity
  8
0
100
AcDbLine
 10
10.2383686639408
 20
41.13575141152071
 30
0.0
 11
10.448
 21
42.70399999999999
 31
0.0
  0
LINE
  5
126
330
1E
100
AcDbEntity
  8
0
100
AcDbLine
 10
1.551999999999999
 20
42.70399999999999
 30
0.0
 11
1.857
 21
40.42229999999999
 31
0.0
  0
LINE
  5
127
330
1E
100
AcDbEntity
  8
0
100
AcDbLine
 10
10.757
 20
45.13819999999999
 30
0.0
 11
10.783
 21
45.4579
 31
0.0
  0
LINE
  5
128
330
1E
100
AcDbEntity
  8
0
100
AcDbLine
 10
10.448
 20
42.70399999999999
 30
0.0
 11
10.783
 21
45.4579
 31
0.0
  0
LINE
  5
129
330
1E
100
AcDbEntity
  8
0
100
AcDbLine
 10
10.783
 20
45.4579
 30
0.0
 11
11.31
 21
49.00199999999999
 31
0.0
  0
LINE
  5
12A
330
1E
100
AcDbEntity
  8
0
100
AcDbLine
 10
11.31
 20
49.00199999999999
 30
0.0
 11
11.788
 21
52.9771
 31
0.0
  0
LINE
  5
12B
330
1E
100
AcDbEntity
  8
0
100
AcDbLine
 10
1.76163133605917
 20
41.13575141152071
 30
0.0
 11
1.90126073952831
 21
39.82731804478829
 31
0.0
  0
LINE
  5
12C
330
1E
100
AcDbEntity
  8
0
100
AcDbLine
 10
1.76163133605917
 20
41.13575141152071
 30
0.0
 11
1.783808335710129
 21
40.9279361119034
 31
0.0
  0
LINE
  5
12D
330
1E
100
AcDbEntity
  8
0
100
AcDbLine
 10
1.217
 20
45.4579
 30
0.0
 11
1.551999999999999
 21
42.70399999999999
 31
0.0
  0
LINE
  5
12E
330
1E
100
AcDbEntity
  8
0
100
AcDbLine
 10
1.217
 20
45.4579
 30
0.0
 11
1.242999999999999
 21
45.13819999999999
 31
0.0
  0
LINE
  5
132
330
1E
100
AcDbEntity
  8
0
100
AcDbLine
 10
0.476000000000004
 20
56.3747
 30
0.0
 11
1.187
 21
57.4708
 31
0.0
  0
LINE
  5
133
330
1E
100
AcDbEntity
  8
0
100
AcDbLine
 10
1.283
 20
57.567
 30
0.0
 11
1.477332755632649
 21
57.7176394741647
 31
0.0
  0
LINE
  5
134
330
1E
100
AcDbEntity
  8
0
100
AcDbLine
 10
1.187
 20
57.4708
 30
0.0
 11
1.955999999999999
 21
58.1246
 31
0.0
  0
LINE
  5
135
330
1E
100
AcDbEntity
  8
0
100
AcDbLine
 10
1.955999999999999
 20
58.1246
 30
0.0
 11
3.071
 21
58.6438
 31
0.0
  0
LINE
  5
136
330
1E
100
AcDbEntity
  8
0
100
AcDbLine
 10
3.071
 20
58.6438
 30
0.0
 11
6.0
 21
59.0
 31
0.0
  0
LINE
  5
13A
330
1E
100
AcDbEntity
  8
0
100
AcDbLine
 10
11.807
 20
53.1036
 30
0.0
 11
11.8311853926076
 21
53.6600409962617
 31
0.0
  0
LINE
  5
13B
330
1E
100
AcDbEntity
  8
0
100
AcDbLine
 10
11.788
 20
52.9771
 30
0.0
 11
11.908
 21
54.8748
 31
0.0
  0
LINE
  5
13C
330
1E
100
AcDbEntity
  8
0
100
AcDbLine
 10
11.80864463148119
 20
55.2628810344828
 30
0.0
 11
11.889
 21
54.9902
 31
0.0
  0
LINE
  5
13D
330
1E
100
AcDbEntity
  8
0
100
AcDbLine
 10
11.524
 20
56.3747
 30
0.0
 11
11.908
 21
54.8748
 31
0.0
  0
LINE
  5
13E
330
1E
100
AcDbEntity
  8
0
100
AcDbLine
 10
10.81299999999999
 20
57.4708
 30
0.0
 11
11.524
 21
56.3747
 31
0.0
  0
LINE
  5
13F
330
1E
100
AcDbEntity
  8
0
100
AcDbLine
 10
10.5226672443674
 20
57.7176394741647
 30
0.0
 11
10.717
 21
57.567
 31
0.0
  0
LINE
  5
140
330
1E
100
AcDbEntity
  8
0
100
AcDbLine
 10
10.044
 20
58.1246
 30
0.0
 11
10.81299999999999
 21
57.4708
 31
0.0
  0
LINE
  5
141
330
1E
100
AcDbEntity
  8
0
100
AcDbLine
 10
8.929000000000009
 20
58.6438
 30
0.0
 11
10.044
 21
58.1246
 31
0.0
  0
LINE
  5
142
330
1E
100
AcDbEntity
  8
0
100
AcDbLine
 10
6.0
 20
59.0
 30
0.0
 11
8.929000000000009
 21
58.6438
 31
0.0
  0
LINE
  5
143
330
1E
100
AcDbEntity
  8
0
100
AcDbLine
 10
11.7262802842456
 20
52.4638321295074
 30
0.0
 11
11.807
 21
53.1036
 31
0.0
  0
LINE
  5
144
330
1E
100
AcDbEntity
  8
0
100
AcDbLine
 10
0.212000000000004
 20
52.9771
 30
0.0
 11
0.6900000000000041
 21
49.00199999999999
 31
0.0
  0
LINE
  5
145
330
1E
100
AcDbEntity
  8
0
100
AcDbLine
 10
0.212000000000004
 20
52.9771
 30
0.0
 11
0.273719715754429
 21
52.4638321295075
 31
0.0
  0
LINE
  5
146
330
1E
100
AcDbEntity
  8
0
100
AcDbLine
 10
0.6900000000000041
 20
49.00199999999999
 30
0.0
 11
1.217
 21
45.4579
 31
0.0
  0
LINE
  5
147
330
1E
100
AcDbEntity
  8
0
100
AcDbLine
 10
0.6900000000000041
 20
49.00199999999999
 30
0.0
 11
0.9579524167574341
 21
47.2000072860911
 31
0.0
  0
LINE
  5
148
330
1E
100
AcDbEntity
  8
0
100
AcDbLine
 10
0.212000000000004
 20
52.9771
 30
0.0
 11
0.6900000000000041
 21
49.00199999999999
 31
0.0
  0
LINE
  5
149
330
1E
100
AcDbEntity
  8
0
100
AcDbLine
 10
0.212000000000004
 20
52.9771
 30
0.0
 11
0.273719715754428
 21
52.4638321295075
 31
0.0
  0
LINE
  5
14A
330
1E
100
AcDbEntity
  8
0
100
AcDbLine
 10
32.0
 20
36.0
 30
0.0
 11
32.0
 21
38.1
 31
0.0
  0
LINE
  5
14B
330
1E
100
AcDbEntity
  8
0
100
AcDbLine
 10
32.0
 20
38.1
 30
0.0
 11
32.0
 21
35.7
 31
0.0
  0
LINE
  5
14C
330
1E
100
AcDbEntity
  8
0
100
AcDbLine
 10
32.0
 20
38.1
 30
0.0
 11
32.0
 21
40.0
 31
0.0
  0
LINE
  5
14D
330
1E
100
AcDbEntity
  8
0
100
AcDbLine
 10
32.0
 20
38.1
 30
0.0
 11
32.0
 21
36.0
 31
0.0
  0
LINE
  5
14E
330
1E
100
AcDbEntity
  8
0
100
AcDbLine
 10
32.0
 20
35.7
 30
0.0
 11
32.0
 21
33.0
 31
0.0
  0
LINE
  5
14F
330
1E
100
AcDbEntity
  8
0
100
AcDbLine
 10
32.0
 20
35.7
 30
0.0
 11
32.0
 21
38.1
 31
0.0
  0
LINE
  5
150
330
1E
100
AcDbEntity
  8
0
100
AcDbLine
 10
32.0
 20
33.0
 30
0.0
 11
32.0
 21
30.0
 31
0.0
  0
LINE
  5
151
330
1E
100
AcDbEntity
  8
0
100
AcDbLine
 10
32.0
 20
33.0
 30
0.0
 11
32.0
 21
35.7
 31
0.0
  0
LINE
  5
152
330
1E
100
AcDbEntity
  8
0
100
AcDbLine
 10
32.0
 20
33.0
 30
0.0
 11
32.0
 21
34.2
 31
0.0
  0
LINE
  5
153
330
1E
100
AcDbEntity
  8
0
100
AcDbLine
 10
32.0
 20
27.0
 30
0.0
 11
32.0
 21
24.3
 31
0.0
  0
LINE
  5
154
330
1E
100
AcDbEntity
  8
0
100
AcDbLine
 10
32.0
 20
27.0
 30
0.0
 11
32.0
 21
30.0
 31
0.0
  0
LINE
  5
155
330
1E
100
AcDbEntity
  8
0
100
AcDbLine
 10
32.0
 20
27.0
 30
0.0
 11
32.0
 21
28.5
 31
0.0
  0
LINE
  5
156
330
1E
100
AcDbEntity
  8
0
100
AcDbLine
 10
32.0
 20
30.0
 30
0.0
 11
32.0
 21
27.0
 31
0.0
  0
LINE
  5
157
330
1E
100
AcDbEntity
  8
0
100
AcDbLine
 10
32.0
 20
30.0
 30
0.0
 11
32.0
 21
33.0
 31
0.0
  0
LINE
  5
158
330
1E
100
AcDbEntity
  8
0
100
AcDbLine
 10
32.0
 20
30.0
 30
0.0
 11
32.0
 21
31.5
 31
0.0
  0
LINE
  5
159
330
1E
100
AcDbEntity
  8
0
100
AcDbLine
 10
32.0
 20
24.0
 30
0.0
 11
32.0
 21
21.89999999999999
 31
0.0
  0
LINE
  5
15A
330
1E
100
AcDbEntity
  8
0
100
AcDbLine
 10
32.0
 20
24.0
 30
0.0
 11
32.0
 21
24.19999999999999
 31
0.0
  0
LINE
  5
15B
330
1E
100
AcDbEntity
  8
0
100
AcDbLine
 10
53.0
 20
14.5
 30
0.0
 11
53.0
 21
25.8415
 31
0.0
  0
LINE
  5
15C
330
1E
100
AcDbEntity
  8
0
100
AcDbLine
 10
47.0
 20
14.5
 30
0.0
 11
47.0
 21
18.0
 31
0.0
  0
LINE
  5
15D
330
1E
100
AcDbEntity
  8
0
100
AcDbLine
 10
47.0
 20
14.5
 30
0.0
 11
53.0
 21
14.5
 31
0.0
  0
LINE
  5
15E
330
1E
100
AcDbEntity
  8
0
100
AcDbLine
 10
47.0
 20
14.5
 30
0.0
 11
47.0
 21
25.8415
 31
0.0
  0
LINE
  5
15F
330
1E
100
AcDbEntity
  8
0
100
AcDbLine
 10
53.5
 20
14.1
 30
0.0
 11
53.5
 21
13.5
 31
0.0
  0
LINE
  5
160
330
1E
100
AcDbEntity
  8
0
100
AcDbLine
 10
53.5
 20
14.1
 30
0.0
 11
53.5
 21
15.7
 31
0.0
  0
LINE
  5
163
330
1E
100
AcDbEntity
  8
0
100
AcDbLine
 10
56.5
 20
14.1
 30
0.0
 11
56.5
 21
13.5
 31
0.0
  0
LINE
  5
164
330
1E
100
AcDbEntity
  8
0
100
AcDbLine
 10
56.5
 20
14.1
 30
0.0
 11
56.5
 21
15.7
 31
0.0
  0
LINE
  5
165
330
1E
100
AcDbEntity
  8
0
100
AcDbLine
 10
53.5
 20
13.5
 30
0.0
 11
55.0
 21
13.0
 31
0.0
  0
LINE
  5
166
330
1E
100
AcDbEntity
  8
0
100
AcDbLine
 10
53.5
 20
13.5
 30
0.0
 11
53.5
 21
14.1
 31
0.0
  0
LINE
  5
167
330
1E
100
AcDbEntity
  8
0
100
AcDbLine
 10
55.0
 20
13.0
 30
0.0
 11
56.5
 21
13.5
 31
0.0
  0
LINE
  5
169
330
1E
100
AcDbEntity
  8
0
100
AcDbLine
 10
113.0
 20
0.0000000000000006
 30
0.0
 11
113.0
 21
1.1
 31
0.0
  0
LINE
  5
16A
330
1E
100
AcDbEntity
  8
0
100
AcDbLine
 10
110.4999999999999
 20
1.5
 30
0.0
 11
111.4999999999999
 21
0.500000000000001
 31
0.0
  0
LINE
  5
16B
330
1E
100
AcDbEntity
  8
0
100
AcDbLine
 10
109.0
 20
3.0
 30
0.0
 11
110.0
 21
3.0
 31
0.0
  0
LINE
  5
16C
330
1E
100
AcDbEntity
  8
0
100
AcDbLine
 10
108.0
 20
7.0
 30
0.0
 11
108.0
 21
4.5
 31
0.0
  0
LINE
  5
16D
330
1E
100
AcDbEntity
  8
0
100
AcDbLine
 10
108.0
 20
7.0
 30
0.0
 11
108.0
 21
11.3
 31
0.0
  0
LINE
  5
16E
330
1E
100
AcDbEntity
  8
0
100
AcDbLine
 10
108.0
 20
4.5
 30
0.0
 11
108.0
 21
3.5
 31
0.0
  0
LINE
  5
16F
330
1E
100
AcDbEntity
  8
0
100
AcDbLine
 10
108.0
 20
4.5
 30
0.0
 11
108.0
 21
7.0
 31
0.0
  0
LINE
  5
170
330
1E
100
AcDbEntity
  8
0
100
AcDbLine
 10
98.50000000000001
 20
12.5
 30
0.0
 11
99.0
 21
12.5
 31
0.0
  0
LINE
  5
171
330
1E
100
AcDbEntity
  8
0
100
AcDbLine
 10
97.5
 20
13.0
 30
0.0
 11
98.50000000000001
 21
12.5
 31
0.0
  0
LINE
  5
173
330
1E
100
AcDbEntity
  8
0
100
AcDbLine
 10
99.0
 20
12.5
 30
0.0
 11
100.0
 21
13.0
 31
0.0
  0
LINE
  5
174
330
1E
100
AcDbEntity
  8
0
100
AcDbLine
 10
100.0
 20
13.0
 30
0.0
 11
101.0
 21
13.0
 31
0.0
  0
LINE
  5
177
330
1E
100
AcDbEntity
  8
0
100
AcDbLine
 10
97.0
 20
14.0
 30
0.0
 11
97.5
 21
13.0
 31
0.0
  0
LINE
  5
178
330
1E
100
AcDbEntity
  8
0
100
AcDbLine
 10
97.0
 20
14.0
 30
0.0
 11
97.0
 21
14.59999999999999
 31
0.0
  0
LINE
  5
179
330
1E
100
AcDbEntity
  8
0
100
AcDbLine
 10
101.0
 20
13.0
 30
0.0
 11
103.4999999999999
 21
11.5
 31
0.0
  0
LINE
  5
17A
330
1E
100
AcDbEntity
  8
0
100
AcDbLine
 10
108.0
 20
11.3
 30
0.0
 11
108.0
 21
7.0
 31
0.0
  0
LINE
  5
17B
330
1E
100
AcDbEntity
  8
0
100
AcDbLine
 10
108.0
 20
11.3
 30
0.0
 11
108.0
 21
16.8
 31
0.0
  0
LINE
  5
17C
330
1E
100
AcDbEntity
  8
0
100
AcDbLine
 10
103.4999999999999
 20
11.5
 30
0.0
 11
106.0
 21
8.5
 31
0.0
  0
LINE
  5
17D
330
1E
100
AcDbEntity
  8
0
100
AcDbLine
 10
106.0
 20
8.5
 30
0.0
 11
108.0
 21
3.5
 31
0.0
  0
LINE
  5
17E
330
1E
100
AcDbEntity
  8
0
100
AcDbLine
 10
110.0
 20
11.0
 30
0.0
 11
110.0
 21
6.599999999999999
 31
0.0
  0
LINE
  5
17F
330
1E
100
AcDbEntity
  8
0
100
AcDbLine
 10
110.0
 20
11.0
 30
0.0
 11
110.0
 21
16.6
 31
0.0
  0
LINE
  5
180
330
1E
100
AcDbEntity
  8
0
100
AcDbLine
 10
110.0
 20
6.599999999999999
 30
0.0
 11
110.0
 21
4.0
 31
0.0
  0
LINE
  5
181
330
1E
100
AcDbEntity
  8
0
100
AcDbLine
 10
110.0
 20
6.599999999999999
 30
0.0
 11
110.0
 21
11.0
 31
0.0
  0
LINE
  5
182
330
1E
100
AcDbEntity
  8
0
100
AcDbLine
 10
110.0
 20
4.0
 30
0.0
 11
110.0
 21
3.0
 31
0.0
  0
LINE
  5
183
330
1E
100
AcDbEntity
  8
0
100
AcDbLine
 10
110.0
 20
4.0
 30
0.0
 11
110.0
 21
6.599999999999999
 31
0.0
  0
LINE
  5
184
330
1E
100
AcDbEntity
  8
0
100
AcDbLine
 10
108.0
 20
3.5
 30
0.0
 11
109.0
 21
3.0
 31
0.0
  0
LINE
  5
185
330
1E
100
AcDbEntity
  8
0
100
AcDbLine
 10
108.0
 20
3.5
 30
0.0
 11
108.0
 21
4.5
 31
0.0
  0
LINE
  5
186
330
1E
100
AcDbEntity
  8
0
100
AcDbLine
 10
110.0
 20
3.0
 30
0.0
 11
110.4999999999999
 21
1.5
 31
0.0
  0
LINE
  5
187
330
1E
100
AcDbEntity
  8
0
100
AcDbLine
 10
110.0
 20
3.0
 30
0.0
 11
110.0
 21
4.0
 31
0.0
  0
LINE
  5
188
330
1E
100
AcDbEntity
  8
0
100
AcDbLine
 10
113.0
 20
8.8
 30
0.0
 11
113.0
 21
4.0
 31
0.0
  0
LINE
  5
189
330
1E
100
AcDbEntity
  8
0
100
AcDbLine
 10
113.0
 20
8.8
 30
0.0
 11
113.0
 21
15.09999999999999
 31
0.0
  0
LINE
  5
18A
330
1E
100
AcDbEntity
  8
0
100
AcDbLine
 10
113.0
 20
4.0
 30
0.0
 11
113.0
 21
1.1
 31
0.0
  0
LINE
  5
18B
330
1E
100
AcDbEntity
  8
0
100
AcDbLine
 10
113.0
 20
4.0
 30
0.0
 11
113.0
 21
8.8
 31
0.0
  0
LINE
  5
18C
330
1E
100
AcDbEntity
  8
0
100
AcDbLine
 10
113.0
 20
1.1
 30
0.0
 11
113.0
 21
0.0000000000000006
 31
0.0
  0
LINE
  5
18D
330
1E
100
AcDbEntity
  8
0
100
AcDbLine
 10
113.0
 20
1.1
 30
0.0
 11
113.0
 21
4.0
 31
0.0
  0
LINE
  5
18E
330
1E
100
AcDbEntity
  8
0
100
AcDbLine
 10
110.4999999999999
 20
1.5
 30
0.0
 11
111.4999999999999
 21
0.500000000000001
 31
0.0
  0
LINE
  5
18F
330
1E
100
AcDbEntity
  8
0
100
AcDbLine
 10
111.4999999999999
 20
0.500000000000001
 30
0.0
 11
113.0
 21
0.0000000000000006
 31
0.0
  0
LINE
  5
190
330
1E
100
AcDbEntity
  8
0
100
AcDbLine
 10
111.4999999999999
 20
0.500000000000001
 30
0.0
 11
113.0
 21
0.0000000000000006
 31
0.0
  0
LINE
  5
191
330
1E
100
AcDbEntity
  8
0
100
AcDbLine
 10
56.5
 20
13.5
 30
0.0
 11
57.0
 21
14.5
 31
0.0
  0
LINE
  5
192
330
1E
100
AcDbEntity
  8
0
100
AcDbLine
 10
56.5
 20
13.5
 30
0.0
 11
56.5
 21
14.1
 31
0.0
  0
LINE
  5
193
330
1E
100
AcDbEntity
  8
0
100
AcDbLine
 10
32.5
 20
18.0
 30
0.0
 11
34.0
 21
18.0
 31
0.0
  0
LINE
  5
194
330
1E
100
AcDbEntity
  8
0
100
AcDbLine
 10
32.5
 20
18.0
 30
0.0
 11
32.5
 21
18.39999999999999
 31
0.0
  0
LINE
  5
195
330
1E
100
AcDbEntity
  8
0
100
AcDbLine
 10
47.0
 20
18.0
 30
0.0
 11
47.0
 21
18.39999999999999
 31
0.0
  0
LINE
  5
196
330
1E
100
AcDbEntity
  8
0
100
AcDbLine
 10
47.0
 20
18.0
 30
0.0
 11
47.0
 21
14.5
 31
0.0
  0
LINE
  5
197
330
1E
100
AcDbEntity
  8
0
100
AcDbLine
 10
34.0
 20
18.0
 30
0.0
 11
34.5
 21
18.5
 31
0.0
  0
LINE
  5
198
330
1E
100
AcDbEntity
  8
0
100
AcDbLine
 10
34.0
 20
18.0
 30
0.0
 11
34.0
 21
18.39999999999999
 31
0.0
  0
LINE
  5
199
330
1E
100
AcDbEntity
  8
0
100
AcDbLine
 10
32.5
 20
18.39999999999999
 30
0.0
 11
32.5
 21
18.0
 31
0.0
  0
LINE
  5
19A
330
1E
100
AcDbEntity
  8
0
100
AcDbLine
 10
32.5
 20
18.39999999999999
 30
0.0
 11
32.5
 21
19.6
 31
0.0
  0
LINE
  5
19B
330
1E
100
AcDbEntity
  8
0
100
AcDbLine
 10
34.0
 20
18.39999999999999
 30
0.0
 11
34.0
 21
18.0
 31
0.0
  0
LINE
  5
19C
330
1E
100
AcDbEntity
  8
0
100
AcDbLine
 10
34.0
 20
18.39999999999999
 30
0.0
 11
34.0
 21
19.6
 31
0.0
  0
LINE
  5
19D
330
1E
100
AcDbEntity
  8
0
100
AcDbLine
 10
32.5
 20
21.49999999999999
 30
0.0
 11
32.5
 21
19.6
 31
0.0
  0
LINE
  5
19E
330
1E
100
AcDbEntity
  8
0
100
AcDbLine
 10
32.5
 20
21.49999999999999
 30
0.0
 11
32.5
 21
24.0
 31
0.0
  0
LINE
  5
19F
330
1E
100
AcDbEntity
  8
0
100
AcDbLine
 10
32.5
 20
19.6
 30
0.0
 11
32.5
 21
18.39999999999999
 31
0.0
  0
LINE
  5
1A0
330
1E
100
AcDbEntity
  8
0
100
AcDbLine
 10
32.5
 20
19.6
 30
0.0
 11
32.5
 21
21.49999999999999
 31
0.0
  0
LINE
  5
1A1
330
1E
100
AcDbEntity
  8
0
100
AcDbLine
 10
34.0
 20
21.49999999999999
 30
0.0
 11
34.0
 21
19.6
 31
0.0
  0
LINE
  5
1A2
330
1E
100
AcDbEntity
  8
0
100
AcDbLine
 10
34.0
 20
21.49999999999999
 30
0.0
 11
34.0
 21
24.0
 31
0.0
  0
LINE
  5
1A3
330
1E
100
AcDbEntity
  8
0
100
AcDbLine
 10
34.0
 20
19.6
 30
0.0
 11
34.0
 21
18.39999999999999
 31
0.0
  0
LINE
  5
1A4
330
1E
100
AcDbEntity
  8
0
100
AcDbLine
 10
34.0
 20
19.6
 30
0.0
 11
34.0
 21
21.49999999999999
 31
0.0
  0
LINE
  5
1A5
330
1E
100
AcDbEntity
  8
0
100
AcDbLine
 10
32.5
 20
24.0
 30
0.0
 11
32.5
 21
21.49999999999999
 31
0.0
  0
LINE
  5
1A6
330
1E
100
AcDbEntity
  8
0
100
AcDbLine
 10
32.5
 20
24.0
 30
0.0
 11
32.5
 21
26.89999999999999
 31
0.0
  0
LINE
  5
1A7
330
1E
100
AcDbEntity
  8
0
100
AcDbLine
 10
32.5
 20
26.89999999999999
 30
0.0
 11
32.5
 21
24.0
 31
0.0
  0
LINE
  5
1A8
330
1E
100
AcDbEntity
  8
0
100
AcDbLine
 10
32.5
 20
26.89999999999999
 30
0.0
 11
32.5
 21
30.0
 31
0.0
  0
LINE
  5
1A9
330
1E
100
AcDbEntity
  8
0
100
AcDbLine
 10
34.0
 20
24.0
 30
0.0
 11
34.0
 21
21.49999999999999
 31
0.0
  0
LINE
  5
1AA
330
1E
100
AcDbEntity
  8
0
100
AcDbLine
 10
34.0
 20
24.0
 30
0.0
 11
34.0
 21
26.89999999999999
 31
0.0
  0
LINE
  5
1AB
330
1E
100
AcDbEntity
  8
0
100
AcDbLine
 10
34.0
 20
26.89999999999999
 30
0.0
 11
34.0
 21
24.0
 31
0.0
  0
LINE
  5
1AC
330
1E
100
AcDbEntity
  8
0
100
AcDbLine
 10
34.0
 20
26.89999999999999
 30
0.0
 11
34.0
 21
30.0
 31
0.0
  0
LINE
  5
1AD
330
1E
100
AcDbEntity
  8
0
100
AcDbLine
 10
34.5
 20
24.3
 30
0.0
 11
34.5
 21
21.89999999999999
 31
0.0
  0
LINE
  5
1AE
330
1E
100
AcDbEntity
  8
0
100
AcDbLine
 10
34.5
 20
24.3
 30
0.0
 11
34.5
 21
27.0
 31
0.0
  0
LINE
  5
1AF
330
1E
100
AcDbEntity
  8
0
100
AcDbLine
 10
32.5
 20
36.0
 30
0.0
 11
32.5
 21
33.1
 31
0.0
  0
LINE
  5
1B0
330
1E
100
AcDbEntity
  8
0
100
AcDbLine
 10
32.5
 20
36.0
 30
0.0
 11
32.5
 21
38.5
 31
0.0
  0
LINE
  5
1B1
330
1E
100
AcDbEntity
  8
0
100
AcDbLine
 10
32.5
 20
33.1
 30
0.0
 11
32.5
 21
30.0
 31
0.0
  0
LINE
  5
1B2
330
1E
100
AcDbEntity
  8
0
100
AcDbLine
 10
32.5
 20
33.1
 30
0.0
 11
32.5
 21
36.0
 31
0.0
  0
LINE
  5
1B3
330
1E
100
AcDbEntity
  8
0
100
AcDbLine
 10
32.0
 20
40.0
 30
0.0
 11
32.0
 21
41.1
 31
0.0
  0
LINE
  5
1B4
330
1E
100
AcDbEntity
  8
0
100
AcDbLine
 10
32.0
 20
41.1
 30
0.0
 11
32.0
 21
40.0
 31
0.0
  0
LINE
  5
1B5
330
1E
100
AcDbEntity
  8
0
100
AcDbLine
 10
32.0
 20
41.1
 30
0.0
 11
32.0
 21
41.5
 31
0.0
  0
LINE
  5
1B6
330
1E
100
AcDbEntity
  8
0
100
AcDbLine
 10
32.0
 20
41.5
 30
0.0
 11
32.0
 21
41.1
 31
0.0
  0
LINE
  5
1B7
330
1E
100
AcDbEntity
  8
0
100
AcDbLine
 10
32.0
 20
41.5
 30
0.0
 11
32.5
 21
42.0
 31
0.0
  0
LINE
  5
1B8
330
1E
100
AcDbEntity
  8
0
100
AcDbLine
 10
32.5
 20
40.4
 30
0.0
 11
32.5
 21
38.5
 31
0.0
  0
LINE
  5
1B9
330
1E
100
AcDbEntity
  8
0
100
AcDbLine
 10
32.5
 20
40.4
 30
0.0
 11
32.5
 21
41.6
 31
0.0
  0
LINE
  5
1BA
330
1E
100
AcDbEntity
  8
0
100
AcDbLine
 10
32.5
 20
41.6
 30
0.0
 11
32.5
 21
40.4
 31
0.0
  0
LINE
  5
1BB
330
1E
100
AcDbEntity
  8
0
100
AcDbLine
 10
32.5
 20
41.6
 30
0.0
 11
32.5
 21
42.0
 31
0.0
  0
LINE
  5
1BC
330
1E
100
AcDbEntity
  8
0
100
AcDbLine
 10
34.0
 20
40.4
 30
0.0
 11
34.0
 21
38.5
 31
0.0
  0
LINE
  5
1BD
330
1E
100
AcDbEntity
  8
0
100
AcDbLine
 10
34.0
 20
40.4
 30
0.0
 11
34.0
 21
41.6
 31
0.0
  0
LINE
  5
1BE
330
1E
100
AcDbEntity
  8
0
100
AcDbLine
 10
32.5
 20
42.0
 30
0.0
 11
32.5
 21
41.6
 31
0.0
  0
LINE
  5
1BF
330
1E
100
AcDbEntity
  8
0
100
AcDbLine
 10
32.5
 20
42.0
 30
0.0
 11
34.0
 21
42.0
 31
0.0
  0
LINE
  5
1C0
330
1E
100
AcDbEntity
  8
0
100
AcDbLine
 10
34.0
 20
41.6
 30
0.0
 11
34.0
 21
40.4
 31
0.0
  0
LINE
  5
1C1
330
1E
100
AcDbEntity
  8
0
100
AcDbLine
 10
34.0
 20
41.6
 30
0.0
 11
34.0
 21
42.0
 31
0.0
  0
LINE
  5
1C2
330
1E
100
AcDbEntity
  8
0
100
AcDbLine
 10
34.0
 20
42.0
 30
0.0
 11
34.0
 21
41.6
 31
0.0
  0
LINE
  5
1C3
330
1E
100
AcDbEntity
  8
0
100
AcDbLine
 10
34.0
 20
42.0
 30
0.0
 11
34.5
 21
41.5
 31
0.0
  0
LINE
  5
1C4
330
1E
100
AcDbEntity
  8
0
100
AcDbLine
 10
32.5
 20
38.5
 30
0.0
 11
32.5
 21
36.0
 31
0.0
  0
LINE
  5
1C5
330
1E
100
AcDbEntity
  8
0
100
AcDbLine
 10
32.5
 20
38.5
 30
0.0
 11
32.5
 21
40.4
 31
0.0
  0
LINE
  5
1C6
330
1E
100
AcDbEntity
  8
0
100
AcDbLine
 10
34.0
 20
38.5
 30
0.0
 11
34.0
 21
36.0
 31
0.0
  0
LINE
  5
1C7
330
1E
100
AcDbEntity
  8
0
100
AcDbLine
 10
34.0
 20
38.5
 30
0.0
 11
34.0
 21
40.4
 31
0.0
  0
LINE
  5
1C8
330
1E
100
AcDbEntity
  8
0
100
AcDbLine
 10
34.0
 20
36.0
 30
0.0
 11
34.0
 21
33.1
 31
0.0
  0
LINE
  5
1C9
330
1E
100
AcDbEntity
  8
0
100
AcDbLine
 10
34.0
 20
36.0
 30
0.0
 11
34.0
 21
38.5
 31
0.0
  0
LINE
  5
1CA
330
1E
100
AcDbEntity
  8
0
100
AcDbLine
 10
34.0
 20
33.1
 30
0.0
 11
34.0
 21
30.0
 31
0.0
  0
LINE
  5
1CB
330
1E
100
AcDbEntity
  8
0
100
AcDbLine
 10
34.0
 20
33.1
 30
0.0
 11
34.0
 21
36.0
 31
0.0
  0
LINE
  5
1CC
330
1E
100
AcDbEntity
  8
0
100
AcDbLine
 10
32.5
 20
30.0
 30
0.0
 11
32.5
 21
26.89999999999999
 31
0.0
  0
LINE
  5
1CD
330
1E
100
AcDbEntity
  8
0
100
AcDbLine
 10
32.5
 20
30.0
 30
0.0
 11
32.5
 21
33.1
 31
0.0
  0
LINE
  5
1CE
330
1E
100
AcDbEntity
  8
0
100
AcDbLine
 10
34.5
 20
40.0
 30
0.0
 11
34.5
 21
38.1
 31
0.0
  0
LINE
  5
1CF
330
1E
100
AcDbEntity
  8
0
100
AcDbLine
 10
34.5
 20
40.0
 30
0.0
 11
34.5
 21
41.1
 31
0.0
  0
LINE
  5
1D0
330
1E
100
AcDbEntity
  8
0
100
AcDbLine
 10
34.5
 20
41.1
 30
0.0
 11
34.5
 21
40.0
 31
0.0
  0
LINE
  5
1D1
330
1E
100
AcDbEntity
  8
0
100
AcDbLine
 10
34.5
 20
41.1
 30
0.0
 11
34.5
 21
41.5
 31
0.0
  0
LINE
  5
1D2
330
1E
100
AcDbEntity
  8
0
100
AcDbLine
 10
34.5
 20
41.5
 30
0.0
 11
34.5
 21
41.1
 31
0.0
  0
LINE
  5
1D3
330
1E
100
AcDbEntity
  8
0
100
AcDbLine
 10
34.5
 20
41.5
 30
0.0
 11
35.0
 21
42.0
 31
0.0
  0
LINE
  5
1D4
330
1E
100
AcDbEntity
  8
0
100
AcDbLine
 10
34.5
 20
38.1
 30
0.0
 11
34.5
 21
35.7
 31
0.0
  0
LINE
  5
1D5
330
1E
100
AcDbEntity
  8
0
100
AcDbLine
 10
34.5
 20
38.1
 30
0.0
 11
34.5
 21
40.0
 31
0.0
  0
LINE
  5
1D6
330
1E
100
AcDbEntity
  8
0
100
AcDbLine
 10
34.5
 20
35.7
 30
0.0
 11
34.5
 21
33.0
 31
0.0
  0
LINE
  5
1D7
330
1E
100
AcDbEntity
  8
0
100
AcDbLine
 10
34.5
 20
35.7
 30
0.0
 11
34.5
 21
38.1
 31
0.0
  0
LINE
  5
1D8
330
1E
100
AcDbEntity
  8
0
100
AcDbLine
 10
34.5
 20
33.0
 30
0.0
 11
34.5
 21
30.0
 31
0.0
  0
LINE
  5
1D9
330
1E
100
AcDbEntity
  8
0
100
AcDbLine
 10
34.5
 20
33.0
 30
0.0
 11
34.5
 21
35.7
 31
0.0
  0
LINE
  5
1DA
330
1E
100
AcDbEntity
  8
0
100
AcDbLine
 10
34.0
 20
30.0
 30
0.0
 11
34.0
 21
26.89999999999999
 31
0.0
  0
LINE
  5
1DB
330
1E
100
AcDbEntity
  8
0
100
AcDbLine
 10
34.0
 20
30.0
 30
0.0
 11
34.0
 21
33.1
 31
0.0
  0
LINE
  5
1DC
330
1E
100
AcDbEntity
  8
0
100
AcDbLine
 10
34.5
 20
27.0
 30
0.0
 11
34.5
 21
24.3
 31
0.0
  0
LINE
  5
1DD
330
1E
100
AcDbEntity
  8
0
100
AcDbLine
 10
34.5
 20
27.0
 30
0.0
 11
34.5
 21
30.0
 31
0.0
  0
LINE
  5
1DE
330
1E
100
AcDbEntity
  8
0
100
AcDbLine
 10
34.5
 20
30.0
 30
0.0
 11
34.5
 21
27.0
 31
0.0
  0
LINE
  5
1DF
330
1E
100
AcDbEntity
  8
0
100
AcDbLine
 10
34.5
 20
30.0
 30
0.0
 11
34.5
 21
33.0
 31
0.0
  0
LINE
  5
1E0
330
1E
100
AcDbEntity
  8
0
100
AcDbLine
 10
34.5
 20
21.89999999999999
 30
0.0
 11
34.5
 21
20.0
 31
0.0
  0
LINE
  5
1E1
330
1E
100
AcDbEntity
  8
0
100
AcDbLine
 10
34.5
 20
21.89999999999999
 30
0.0
 11
34.5
 21
24.3
 31
0.0
  0
LINE
  5
1E2
330
1E
100
AcDbEntity
  8
0
100
AcDbLine
 10
34.5
 20
20.0
 30
0.0
 11
34.5
 21
18.89999999999999
 31
0.0
  0
LINE
  5
1E3
330
1E
100
AcDbEntity
  8
0
100
AcDbLine
 10
34.5
 20
20.0
 30
0.0
 11
34.5
 21
21.89999999999999
 31
0.0
  0
LINE
  5
1E4
330
1E
100
AcDbEntity
  8
0
100
AcDbLine
 10
34.5
 20
18.89999999999999
 30
0.0
 11
34.5
 21
18.5
 31
0.0
  0
LINE
  5
1E5
330
1E
100
AcDbEntity
  8
0
100
AcDbLine
 10
34.5
 20
18.89999999999999
 30
0.0
 11
34.5
 21
20.0
 31
0.0
  0
LINE
  5
1E6
330
1E
100
AcDbEntity
  8
0
100
AcDbLine
 10
47.0
 20
18.39999999999999
 30
0.0
 11
47.0
 21
19.6
 31
0.0
  0
LINE
  5
1E7
330
1E
100
AcDbEntity
  8
0
100
AcDbLine
 10
35.0
 20
21.49999999999999
 30
0.0
 11
35.0
 21
19.6
 31
0.0
  0
LINE
  5
1E8
330
1E
100
AcDbEntity
  8
0
100
AcDbLine
 10
35.0
 20
21.49999999999999
 30
0.0
 11
35.0
 21
24.0
 31
0.0
  0
LINE
  5
1E9
330
1E
100
AcDbEntity
  8
0
100
AcDbLine
 10
47.0
 20
21.49999999999999
 30
0.0
 11
47.0
 21
24.0
 31
0.0
  0
LINE
  5
1EA
330
1E
100
AcDbEntity
  8
0
100
AcDbLine
 10
47.0
 20
19.6
 30
0.0
 11
47.0
 21
21.49999999999999
 31
0.0
  0
LINE
  5
1EB
330
1E
100
AcDbEntity
  8
0
100
AcDbLine
 10
35.0
 20
19.6
 30
0.0
 11
35.0
 21
18.39999999999999
 31
0.0
  0
LINE
  5
1EC
330
1E
100
AcDbEntity
  8
0
100
AcDbLine
 10
35.0
 20
19.6
 30
0.0
 11
35.0
 21
21.49999999999999
 31
0.0
  0
LINE
  5
1ED
330
1E
100
AcDbEntity
  8
0
100
AcDbLine
 10
35.0
 20
18.39999999999999
 30
0.0
 11
35.0
 21
18.0
 31
0.0
  0
LINE
  5
1EE
330
1E
100
AcDbEntity
  8
0
100
AcDbLine
 10
35.0
 20
18.39999999999999
 30
0.0
 11
35.0
 21
19.6
 31
0.0
  0
LINE
  5
1EF
330
1E
100
AcDbEntity
  8
0
100
AcDbLine
 10
53.0
 20
19.39999999999999
 30
0.0
 11
53.0
 21
22.5
 31
0.0
  0
LINE
  5
1F0
330
1E
100
AcDbEntity
  8
0
100
AcDbLine
 10
35.0
 20
24.0
 30
0.0
 11
35.0
 21
21.49999999999999
 31
0.0
  0
LINE
  5
1F1
330
1E
100
AcDbEntity
  8
0
100
AcDbLine
 10
35.0
 20
24.0
 30
0.0
 11
35.0
 21
26.89999999999999
 31
0.0
  0
LINE
  5
1F2
330
1E
100
AcDbEntity
  8
0
100
AcDbLine
 10
35.0
 20
40.4
 30
0.0
 11
35.0
 21
38.5
 31
0.0
  0
LINE
  5
1F3
330
1E
100
AcDbEntity
  8
0
100
AcDbLine
 10
35.0
 20
40.4
 30
0.0
 11
35.0
 21
41.6
 31
0.0
  0
LINE
  5
1F4
330
1E
100
AcDbEntity
  8
0
100
AcDbLine
 10
35.0
 20
41.6
 30
0.0
 11
35.0
 21
40.4
 31
0.0
  0
LINE
  5
1F5
330
1E
100
AcDbEntity
  8
0
100
AcDbLine
 10
35.0
 20
41.6
 30
0.0
 11
35.0
 21
42.0
 31
0.0
  0
LINE
  5
1F6
330
1E
100
AcDbEntity
  8
0
100
AcDbLine
 10
35.0
 20
42.0
 30
0.0
 11
35.0
 21
41.6
 31
0.0
  0
LINE
  5
1F7
330
1E
100
AcDbEntity
  8
0
100
AcDbLine
 10
35.0
 20
42.0
 30
0.0
 11
47.0
 21
42.0
 31
0.0
  0
LINE
  5
1F8
330
1E
100
AcDbEntity
  8
0
100
AcDbLine
 10
35.0
 20
38.5
 30
0.0
 11
35.0
 21
36.0
 31
0.0
  0
LINE
  5
1F9
330
1E
100
AcDbEntity
  8
0
100
AcDbLine
 10
35.0
 20
38.5
 30
0.0
 11
35.0
 21
40.4
 31
0.0
  0
LINE
  5
1FA
330
1E
100
AcDbEntity
  8
0
100
AcDbLine
 10
35.0
 20
36.0
 30
0.0
 11
35.0
 21
33.1
 31
0.0
  0
LINE
  5
1FB
330
1E
100
AcDbEntity
  8
0
100
AcDbLine
 10
35.0
 20
36.0
 30
0.0
 11
35.0
 21
38.5
 31
0.0
  0
LINE
  5
1FC
330
1E
100
AcDbEntity
  8
0
100
AcDbLine
 10
35.0
 20
33.1
 30
0.0
 11
35.0
 21
30.0
 31
0.0
  0
LINE
  5
1FD
330
1E
100
AcDbEntity
  8
0
100
AcDbLine
 10
35.0
 20
33.1
 30
0.0
 11
35.0
 21
36.0
 31
0.0
  0
LINE
  5
1FE
330
1E
100
AcDbEntity
  8
0
100
AcDbLine
 10
35.0
 20
26.89999999999999
 30
0.0
 11
35.0
 21
24.0
 31
0.0
  0
LINE
  5
1FF
330
1E
100
AcDbEntity
  8
0
100
AcDbLine
 10
35.0
 20
26.89999999999999
 30
0.0
 11
35.0
 21
30.0
 31
0.0
  0
LINE
  5
200
330
1E
100
AcDbEntity
  8
0
100
AcDbLine
 10
47.0
 20
25.8415
 30
0.0
 11
47.0
 21
14.5
 31
0.0
  0
LINE
  5
202
330
1E
100
AcDbEntity
  8
0
100
AcDbLine
 10
47.0
 20
25.8415
 30
0.0
 11
47.0
 21
41.3415
 31
0.0
  0
LINE
  5
203
330
1E
100
AcDbEntity
  8
0
100
AcDbLine
 10
53.0
 20
25.8415
 30
0.0
 11
53.0
 21
41.3415
 31
0.0
  0
LINE
  5
204
330
1E
100
AcDbEntity
  8
0
100
AcDbLine
 10
53.0
 20
25.8415
 30
0.0
 11
53.0
 21
14.5
 31
0.0
  0
LINE
  5
205
330
1E
100
AcDbEntity
  8
0
100
AcDbLine
 10
47.0
 20
24.0
 30
0.0
 11
47.0
 21
26.89999999999999
 31
0.0
  0
LINE
  5
206
330
1E
100
AcDbEntity
  8
0
100
AcDbLine
 10
47.0
 20
41.3415
 30
0.0
 11
47.0
 21
25.8415
 31
0.0
  0
LINE
  5
208
330
1E
100
AcDbEntity
  8
0
100
AcDbLine
 10
47.0
 20
41.3415
 30
0.0
 11
47.0
 21
45.49999999999999
 31
0.0
  0
LINE
  5
209
330
1E
100
AcDbEntity
  8
0
100
AcDbLine
 10
47.0
 20
38.5
 30
0.0
 11
47.0
 21
40.4
 31
0.0
  0
LINE
  5
20A
330
1E
100
AcDbEntity
  8
0
100
AcDbLine
 10
47.0
 20
40.4
 30
0.0
 11
47.0
 21
41.6
 31
0.0
  0
LINE
  5
20B
330
1E
100
AcDbEntity
  8
0
100
AcDbLine
 10
47.0
 20
42.0
 30
0.0
 11
47.0
 21
45.49999999999999
 31
0.0
  0
LINE
  5
20C
330
1E
100
AcDbEntity
  8
0
100
AcDbLine
 10
47.0
 20
45.49999999999999
 30
0.0
 11
53.0
 21
45.49999999999999
 31
0.0
  0
LINE
  5
20D
330
1E
100
AcDbEntity
  8
0
100
AcDbLine
 10
47.0
 20
45.49999999999999
 30
0.0
 11
47.0
 21
41.3415
 31
0.0
  0
LINE
  5
20E
330
1E
100
AcDbEntity
  8
0
100
AcDbLine
 10
47.0
 20
45.49999999999999
 30
0.0
 11
47.0
 21
42.0
 31
0.0
  0
LINE
  5
20F
330
1E
100
AcDbEntity
  8
0
100
AcDbLine
 10
47.0
 20
41.6
 30
0.0
 11
47.0
 21
42.0
 31
0.0
  0
LINE
  5
210
330
1E
100
AcDbEntity
  8
0
100
AcDbLine
 10
47.0
 20
36.0
 30
0.0
 11
47.0
 21
38.5
 31
0.0
  0
LINE
  5
211
330
1E
100
AcDbEntity
  8
0
100
AcDbLine
 10
47.0
 20
33.1
 30
0.0
 11
47.0
 21
36.0
 31
0.0
  0
LINE
  5
212
330
1E
100
AcDbEntity
  8
0
100
AcDbLine
 10
53.0
 20
33.9
 30
0.0
 11
53.0
 21
37.5
 31
0.0
  0
LINE
  5
213
330
1E
100
AcDbEntity
  8
0
100
AcDbLine
 10
53.0
 20
41.3415
 30
0.0
 11
53.0
 21
43.0
 31
0.0
  0
LINE
  5
214
330
1E
100
AcDbEntity
  8
0
100
AcDbLine
 10
53.0
 20
41.3415
 30
0.0
 11
53.0
 21
45.49999999999999
 31
0.0
  0
LINE
  5
215
330
1E
100
AcDbEntity
  8
0
100
AcDbLine
 10
53.0
 20
41.3415
 30
0.0
 11
53.0
 21
25.8415
 31
0.0
  0
LINE
  5
216
330
1E
100
AcDbEntity
  8
0
100
AcDbLine
 10
53.0
 20
43.0
 30
0.0
 11
53.0
 21
41.3415
 31
0.0
  0
LINE
  5
217
330
1E
100
AcDbEntity
  8
0
100
AcDbLine
 10
53.0
 20
43.0
 30
0.0
 11
53.0
 21
44.5
 31
0.0
  0
LINE
  5
218
330
1E
100
AcDbEntity
  8
0
100
AcDbLine
 10
53.0
 20
45.49999999999999
 30
0.0
 11
53.0
 21
41.3415
 31
0.0
  0
LINE
  5
219
330
1E
100
AcDbEntity
  8
0
100
AcDbLine
 10
53.0
 20
44.5
 30
0.0
 11
53.0
 21
43.0
 31
0.0
  0
LINE
  5
21A
330
1E
100
AcDbEntity
  8
0
100
AcDbLine
 10
53.0
 20
44.5
 30
0.0
 11
53.0
 21
45.0
 31
0.0
  0
LINE
  5
21B
330
1E
100
AcDbEntity
  8
0
100
AcDbLine
 10
53.0
 20
45.0
 30
0.0
 11
53.0
 21
44.5
 31
0.0
  0
LINE
  5
21C
330
1E
100
AcDbEntity
  8
0
100
AcDbLine
 10
53.0
 20
45.0
 30
0.0
 11
53.5
 21
46.5
 31
0.0
  0
LINE
  5
21D
330
1E
100
AcDbEntity
  8
0
100
AcDbLine
 10
53.0
 20
37.5
 30
0.0
 11
53.0
 21
33.9
 31
0.0
  0
LINE
  5
21E
330
1E
100
AcDbEntity
  8
0
100
AcDbLine
 10
47.0
 20
30.0
 30
0.0
 11
47.0
 21
33.1
 31
0.0
  0
LINE
  5
21F
330
1E
100
AcDbEntity
  8
0
100
AcDbLine
 10
47.0
 20
26.89999999999999
 30
0.0
 11
47.0
 21
30.0
 31
0.0
  0
LINE
  5
220
330
1E
100
AcDbEntity
  8
0
100
AcDbLine
 10
35.0
 20
30.0
 30
0.0
 11
35.0
 21
26.89999999999999
 31
0.0
  0
LINE
  5
221
330
1E
100
AcDbEntity
  8
0
100
AcDbLine
 10
35.0
 20
30.0
 30
0.0
 11
35.0
 21
33.1
 31
0.0
  0
LINE
  5
222
330
1E
100
AcDbEntity
  8
0
100
AcDbLine
 10
53.0
 20
22.5
 30
0.0
 11
53.0
 21
19.39999999999999
 31
0.0
  0
LINE
  5
223
330
1E
100
AcDbEntity
  8
0
100
AcDbLine
 10
34.5
 20
18.5
 30
0.0
 11
35.0
 21
18.0
 31
0.0
  0
LINE
  5
224
330
1E
100
AcDbEntity
  8
0
100
AcDbLine
 10
34.5
 20
18.5
 30
0.0
 11
34.5
 21
18.89999999999999
 31
0.0
  0
LINE
  5
225
330
1E
100
AcDbEntity
  8
0
100
AcDbLine
 10
35.0
 20
18.0
 30
0.0
 11
47.0
 21
18.0
 31
0.0
  0
LINE
  5
226
330
1E
100
AcDbEntity
  8
0
100
AcDbLine
 10
35.0
 20
18.0
 30
0.0
 11
35.0
 21
18.39999999999999
 31
0.0
  0
LINE
  5
227
330
1E
100
AcDbEntity
  8
0
100
AcDbLine
 10
53.5
 20
15.7
 30
0.0
 11
53.5
 21
14.1
 31
0.0
  0
LINE
  5
228
330
1E
100
AcDbEntity
  8
0
100
AcDbLine
 10
53.5
 20
15.7
 30
0.0
 11
53.5
 21
18.3
 31
0.0
  0
LINE
  5
22A
330
1E
100
AcDbEntity
  8
0
100
AcDbLine
 10
56.5
 20
15.7
 30
0.0
 11
56.5
 21
14.1
 31
0.0
  0
LINE
  5
22B
330
1E
100
AcDbEntity
  8
0
100
AcDbLine
 10
56.5
 20
15.7
 30
0.0
 11
56.5
 21
18.3
 31
0.0
  0
LINE
  5
22C
330
1E
100
AcDbEntity
  8
0
100
AcDbLine
 10
53.5
 20
18.3
 30
0.0
 11
53.5
 21
21.8
 31
0.0
  0
LINE
  5
22D
330
1E
100
AcDbEntity
  8
0
100
AcDbLine
 10
53.5
 20
18.3
 30
0.0
 11
53.5
 21
15.7
 31
0.0
  0
LINE
  5
22E
330
1E
100
AcDbEntity
  8
0
100
AcDbLine
 10
53.5
 20
21.8
 30
0.0
 11
53.5
 21
18.3
 31
0.0
  0
LINE
  5
22F
330
1E
100
AcDbEntity
  8
0
100
AcDbLine
 10
53.5
 20
21.8
 30
0.0
 11
53.5
 21
25.8
 31
0.0
  0
LINE
  5
231
330
1E
100
AcDbEntity
  8
0
100
AcDbLine
 10
56.5
 20
18.3
 30
0.0
 11
56.5
 21
21.8
 31
0.0
  0
LINE
  5
232
330
1E
100
AcDbEntity
  8
0
100
AcDbLine
 10
56.5
 20
18.3
 30
0.0
 11
56.5
 21
15.7
 31
0.0
  0
LINE
  5
233
330
1E
100
AcDbEntity
  8
0
100
AcDbLine
 10
57.0
 20
16.6
 30
0.0
 11
57.0
 21
15.09999999999999
 31
0.0
  0
LINE
  5
234
330
1E
100
AcDbEntity
  8
0
100
AcDbLine
 10
57.0
 20
16.6
 30
0.0
 11
57.0
 21
19.1
 31
0.0
  0
LINE
  5
235
330
1E
100
AcDbEntity
  8
0
100
AcDbLine
 10
57.0
 20
15.09999999999999
 30
0.0
 11
57.0
 21
14.5
 31
0.0
  0
LINE
  5
236
330
1E
100
AcDbEntity
  8
0
100
AcDbLine
 10
57.0
 20
15.09999999999999
 30
0.0
 11
57.0
 21
16.6
 31
0.0
  0
LINE
  5
237
330
1E
100
AcDbEntity
  8
0
100
AcDbLine
 10
57.0
 20
19.1
 30
0.0
 11
57.0
 21
22.29999999999999
 31
0.0
  0
LINE
  5
238
330
1E
100
AcDbEntity
  8
0
100
AcDbLine
 10
57.0
 20
19.1
 30
0.0
 11
57.0
 21
16.6
 31
0.0
  0
LINE
  5
239
330
1E
100
AcDbEntity
  8
0
100
AcDbLine
 10
56.5
 20
21.8
 30
0.0
 11
56.5
 21
18.3
 31
0.0
  0
LINE
  5
23A
330
1E
100
AcDbEntity
  8
0
100
AcDbLine
 10
56.5
 20
21.8
 30
0.0
 11
56.5
 21
25.8
 31
0.0
  0
LINE
  5
23B
330
1E
100
AcDbEntity
  8
0
100
AcDbLine
 10
53.5
 20
25.8
 30
0.0
 11
53.5
 21
21.8
 31
0.0
  0
LINE
  5
23C
330
1E
100
AcDbEntity
  8
0
100
AcDbLine
 10
53.5
 20
25.8
 30
0.0
 11
53.5
 21
30.0
 31
0.0
  0
LINE
  5
241
330
1E
100
AcDbEntity
  8
0
100
AcDbLine
 10
56.5
 20
25.8
 30
0.0
 11
56.5
 21
21.8
 31
0.0
  0
LINE
  5
242
330
1E
100
AcDbEntity
  8
0
100
AcDbLine
 10
56.5
 20
25.8
 30
0.0
 11
56.5
 21
30.0
 31
0.0
  0
LINE
  5
243
330
1E
100
AcDbEntity
  8
0
100
AcDbLine
 10
56.5
 20
30.0
 30
0.0
 11
56.5
 21
25.8
 31
0.0
  0
LINE
  5
244
330
1E
100
AcDbEntity
  8
0
100
AcDbLine
 10
56.5
 20
30.0
 30
0.0
 11
56.5
 21
34.2
 31
0.0
  0
LINE
  5
245
330
1E
100
AcDbEntity
  8
0
100
AcDbLine
 10
57.0
 20
22.29999999999999
 30
0.0
 11
57.0
 21
19.1
 31
0.0
  0
LINE
  5
246
330
1E
100
AcDbEntity
  8
0
100
AcDbLine
 10
57.0
 20
22.29999999999999
 30
0.0
 11
57.0
 21
26.0
 31
0.0
  0
LINE
  5
247
330
1E
100
AcDbEntity
  8
0
100
AcDbLine
 10
97.0
 20
14.59999999999999
 30
0.0
 11
97.0
 21
14.0
 31
0.0
  0
LINE
  5
248
330
1E
100
AcDbEntity
  8
0
100
AcDbLine
 10
97.0
 20
14.59999999999999
 30
0.0
 11
97.0
 21
16.1
 31
0.0
  0
LINE
  5
249
330
1E
100
AcDbEntity
  8
0
100
AcDbLine
 10
95.0
 20
15.0
 30
0.0
 11
97.0
 21
14.0
 31
0.0
  0
LINE
  5
24A
330
1E
100
AcDbEntity
  8
0
100
AcDbLine
 10
97.0
 20
22.0
 30
0.0
 11
97.0
 21
18.7
 31
0.0
  0
LINE
  5
24B
330
1E
100
AcDbEntity
  8
0
100
AcDbLine
 10
97.0
 20
22.0
 30
0.0
 11
97.0
 21
25.89999999999999
 31
0.0
  0
LINE
  5
24C
330
1E
100
AcDbEntity
  8
0
100
AcDbLine
 10
97.0
 20
25.89999999999999
 30
0.0
 11
97.0
 21
22.0
 31
0.0
  0
LINE
  5
24D
330
1E
100
AcDbEntity
  8
0
100
AcDbLine
 10
97.0
 20
25.89999999999999
 30
0.0
 11
97.0
 21
30.0
 31
0.0
  0
LINE
  5
24E
330
1E
100
AcDbEntity
  8
0
100
AcDbLine
 10
97.0
 20
18.7
 30
0.0
 11
97.0
 21
16.1
 31
0.0
  0
LINE
  5
24F
330
1E
100
AcDbEntity
  8
0
100
AcDbLine
 10
97.0
 20
18.7
 30
0.0
 11
97.0
 21
22.0
 31
0.0
  0
LINE
  5
250
330
1E
100
AcDbEntity
  8
0
100
AcDbLine
 10
97.0
 20
16.1
 30
0.0
 11
97.0
 21
14.59999999999999
 31
0.0
  0
LINE
  5
251
330
1E
100
AcDbEntity
  8
0
100
AcDbLine
 10
97.0
 20
16.1
 30
0.0
 11
97.0
 21
18.7
 31
0.0
  0
LINE
  5
255
330
1E
100
AcDbEntity
  8
0
100
AcDbLine
 10
108.0
 20
16.8
 30
0.0
 11
108.0
 21
11.3
 31
0.0
  0
LINE
  5
256
330
1E
100
AcDbEntity
  8
0
100
AcDbLine
 10
108.0
 20
16.8
 30
0.0
 11
108.0
 21
23.19999999999999
 31
0.0
  0
LINE
  5
257
330
1E
100
AcDbEntity
  8
0
100
AcDbLine
 10
108.0
 20
23.19999999999999
 30
0.0
 11
108.0
 21
16.8
 31
0.0
  0
LINE
  5
258
330
1E
100
AcDbEntity
  8
0
100
AcDbLine
 10
108.0
 20
23.19999999999999
 30
0.0
 11
108.0
 21
30.0
 31
0.0
  0
LINE
  5
25A
330
1E
100
AcDbEntity
  8
0
100
AcDbLine
 10
97.0
 20
30.0
 30
0.0
 11
97.0
 21
34.1
 31
0.0
  0
LINE
  5
25B
330
1E
100
AcDbEntity
  8
0
100
AcDbLine
 10
97.0
 20
30.0
 30
0.0
 11
97.0
 21
25.89999999999999
 31
0.0
  0
LINE
  5
25E
330
1E
100
AcDbEntity
  8
0
100
AcDbLine
 10
110.0
 20
16.6
 30
0.0
 11
110.0
 21
11.0
 31
0.0
  0
LINE
  5
25F
330
1E
100
AcDbEntity
  8
0
100
AcDbLine
 10
110.0
 20
16.6
 30
0.0
 11
110.0
 21
23.1
 31
0.0
  0
LINE
  5
260
330
1E
100
AcDbEntity
  8
0
100
AcDbLine
 10
113.0
 20
15.09999999999999
 30
0.0
 11
113.0
 21
8.8
 31
0.0
  0
LINE
  5
261
330
1E
100
AcDbEntity
  8
0
100
AcDbLine
 10
113.0
 20
15.09999999999999
 30
0.0
 11
113.0
 21
22.29999999999999
 31
0.0
  0
LINE
  5
262
330
1E
100
AcDbEntity
  8
0
100
AcDbLine
 10
110.0
 20
23.1
 30
0.0
 11
110.0
 21
16.6
 31
0.0
  0
LINE
  5
263
330
1E
100
AcDbEntity
  8
0
100
AcDbLine
 10
110.0
 20
23.1
 30
0.0
 11
110.0
 21
30.0
 31
0.0
  0
LINE
  5
264
330
1E
100
AcDbEntity
  8
0
100
AcDbLine
 10
113.0
 20
22.29999999999999
 30
0.0
 11
113.0
 21
15.09999999999999
 31
0.0
  0
LINE
  5
265
330
1E
100
AcDbEntity
  8
0
100
AcDbLine
 10
113.0
 20
22.29999999999999
 30
0.0
 11
113.0
 21
30.0
 31
0.0
  0
LINE
  5
266
330
1E
100
AcDbEntity
  8
0
100
AcDbLine
 10
108.0
 20
30.0
 30
0.0
 11
108.0
 21
36.79999999999999
 31
0.0
  0
LINE
  5
267
330
1E
100
AcDbEntity
  8
0
100
AcDbLine
 10
108.0
 20
30.0
 30
0.0
 11
108.0
 21
23.19999999999999
 31
0.0
  0
LINE
  5
268
330
1E
100
AcDbEntity
  8
0
100
AcDbLine
 10
110.0
 20
30.0
 30
0.0
 11
110.0
 21
36.89999999999999
 31
0.0
  0
LINE
  5
269
330
1E
100
AcDbEntity
  8
0
100
AcDbLine
 10
110.0
 20
30.0
 30
0.0
 11
110.0
 21
23.1
 31
0.0
  0
LINE
  5
26A
330
1E
100
AcDbEntity
  8
0
100
AcDbLine
 10
113.0
 20
30.0
 30
0.0
 11
113.0
 21
37.7
 31
0.0
  0
LINE
  5
26B
330
1E
100
AcDbEntity
  8
0
100
AcDbLine
 10
113.0
 20
30.0
 30
0.0
 11
113.0
 21
22.29999999999999
 31
0.0
  0
LINE
  5
26C
330
1E
100
AcDbEntity
  8
0
100
AcDbLine
 10
58.5
 20
15.0
 30
0.0
 11
95.0
 21
15.0
 31
0.0
  0
LINE
  5
26D
330
1E
100
AcDbEntity
  8
0
100
AcDbLine
 10
57.0
 20
26.0
 30
0.0
 11
57.0
 21
22.29999999999999
 31
0.0
  0
LINE
  5
26E
330
1E
100
AcDbEntity
  8
0
100
AcDbLine
 10
57.0
 20
26.0
 30
0.0
 11
57.0
 21
30.0
 31
0.0
  0
LINE
  5
26F
330
1E
100
AcDbEntity
  8
0
100
AcDbLine
 10
53.5
 20
44.29999999999999
 30
0.0
 11
53.5
 21
41.7
 31
0.0
  0
LINE
  5
270
330
1E
100
AcDbEntity
  8
0
100
AcDbLine
 10
53.5
 20
44.29999999999999
 30
0.0
 11
53.5
 21
45.89999999999999
 31
0.0
  0
LINE
  5
271
330
1E
100
AcDbEntity
  8
0
100
AcDbLine
 10
53.5
 20
45.89999999999999
 30
0.0
 11
53.5
 21
44.29999999999999
 31
0.0
  0
LINE
  5
272
330
1E
100
AcDbEntity
  8
0
100
AcDbLine
 10
53.5
 20
45.89999999999999
 30
0.0
 11
53.5
 21
46.5
 31
0.0
  0
LINE
  5
273
330
1E
100
AcDbEntity
  8
0
100
AcDbLine
 10
53.5
 20
46.5
 30
0.0
 11
53.5
 21
45.89999999999999
 31
0.0
  0
LINE
  5
274
330
1E
100
AcDbEntity
  8
0
100
AcDbLine
 10
53.5
 20
46.5
 30
0.0
 11
55.0
 21
47.0
 31
0.0
  0
LINE
  5
275
330
1E
100
AcDbEntity
  8
0
100
AcDbLine
 10
53.5
 20
41.7
 30
0.0
 11
53.5
 21
38.2
 31
0.0
  0
LINE
  5
276
330
1E
100
AcDbEntity
  8
0
100
AcDbLine
 10
53.5
 20
41.7
 30
0.0
 11
53.5
 21
44.29999999999999
 31
0.0
  0
LINE
  5
277
330
1E
100
AcDbEntity
  8
0
100
AcDbLine
 10
53.5
 20
38.2
 30
0.0
 11
53.5
 21
34.2
 31
0.0
  0
LINE
  5
278
330
1E
100
AcDbEntity
  8
0
100
AcDbLine
 10
53.5
 20
38.2
 30
0.0
 11
53.5
 21
41.7
 31
0.0
  0
LINE
  5
279
330
1E
100
AcDbEntity
  8
0
100
AcDbLine
 10
53.5
 20
34.2
 30
0.0
 11
53.5
 21
30.0
 31
0.0
  0
LINE
  5
27A
330
1E
100
AcDbEntity
  8
0
100
AcDbLine
 10
53.5
 20
34.2
 30
0.0
 11
53.5
 21
38.2
 31
0.0
  0
LINE
  5
27E
330
1E
100
AcDbEntity
  8
0
100
AcDbLine
 10
56.5
 20
38.2
 30
0.0
 11
56.5
 21
34.2
 31
0.0
  0
LINE
  5
27F
330
1E
100
AcDbEntity
  8
0
100
AcDbLine
 10
56.5
 20
38.2
 30
0.0
 11
56.5
 21
41.7
 31
0.0
  0
LINE
  5
280
330
1E
100
AcDbEntity
  8
0
100
AcDbLine
 10
56.5
 20
34.2
 30
0.0
 11
56.5
 21
30.0
 31
0.0
  0
LINE
  5
281
330
1E
100
AcDbEntity
  8
0
100
AcDbLine
 10
56.5
 20
34.2
 30
0.0
 11
56.5
 21
38.2
 31
0.0
  0
LINE
  5
285
330
1E
100
AcDbEntity
  8
0
100
AcDbLine
 10
56.5
 20
44.29999999999999
 30
0.0
 11
56.5
 21
41.7
 31
0.0
  0
LINE
  5
286
330
1E
100
AcDbEntity
  8
0
100
AcDbLine
 10
56.5
 20
44.29999999999999
 30
0.0
 11
56.5
 21
45.89999999999999
 31
0.0
  0
LINE
  5
287
330
1E
100
AcDbEntity
  8
0
100
AcDbLine
 10
56.5
 20
45.89999999999999
 30
0.0
 11
56.5
 21
44.29999999999999
 31
0.0
  0
LINE
  5
288
330
1E
100
AcDbEntity
  8
0
100
AcDbLine
 10
56.5
 20
45.89999999999999
 30
0.0
 11
56.5
 21
46.5
 31
0.0
  0
LINE
  5
28A
330
1E
100
AcDbEntity
  8
0
100
AcDbLine
 10
55.0
 20
47.0
 30
0.0
 11
56.5
 21
46.5
 31
0.0
  0
LINE
  5
28B
330
1E
100
AcDbEntity
  8
0
100
AcDbLine
 10
56.5
 20
46.5
 30
0.0
 11
56.5
 21
45.89999999999999
 31
0.0
  0
LINE
  5
28C
330
1E
100
AcDbEntity
  8
0
100
AcDbLine
 10
56.5
 20
46.5
 30
0.0
 11
57.0
 21
45.49999999999999
 31
0.0
  0
LINE
  5
28D
330
1E
100
AcDbEntity
  8
0
100
AcDbLine
 10
57.0
 20
43.39999999999999
 30
0.0
 11
57.0
 21
40.89999999999999
 31
0.0
  0
LINE
  5
28E
330
1E
100
AcDbEntity
  8
0
100
AcDbLine
 10
57.0
 20
43.39999999999999
 30
0.0
 11
57.0
 21
44.9
 31
0.0
  0
LINE
  5
28F
330
1E
100
AcDbEntity
  8
0
100
AcDbLine
 10
57.0
 20
44.9
 30
0.0
 11
57.0
 21
43.39999999999999
 31
0.0
  0
LINE
  5
290
330
1E
100
AcDbEntity
  8
0
100
AcDbLine
 10
57.0
 20
44.9
 30
0.0
 11
57.0
 21
45.49999999999999
 31
0.0
  0
LINE
  5
291
330
1E
100
AcDbEntity
  8
0
100
AcDbLine
 10
57.0
 20
45.49999999999999
 30
0.0
 11
57.0
 21
44.9
 31
0.0
  0
LINE
  5
292
330
1E
100
AcDbEntity
  8
0
100
AcDbLine
 10
57.0
 20
45.49999999999999
 30
0.0
 11
58.5
 21
45.0
 31
0.0
  0
LINE
  5
293
330
1E
100
AcDbEntity
  8
0
100
AcDbLine
 10
56.5
 20
41.7
 30
0.0
 11
56.5
 21
38.2
 31
0.0
  0
LINE
  5
294
330
1E
100
AcDbEntity
  8
0
100
AcDbLine
 10
56.5
 20
41.7
 30
0.0
 11
56.5
 21
44.29999999999999
 31
0.0
  0
LINE
  5
295
330
1E
100
AcDbEntity
  8
0
100
AcDbLine
 10
57.0
 20
40.89999999999999
 30
0.0
 11
57.0
 21
37.7
 31
0.0
  0
LINE
  5
296
330
1E
100
AcDbEntity
  8
0
100
AcDbLine
 10
57.0
 20
40.89999999999999
 30
0.0
 11
57.0
 21
43.39999999999999
 31
0.0
  0
LINE
  5
297
330
1E
100
AcDbEntity
  8
0
100
AcDbLine
 10
58.5
 20
45.0
 30
0.0
 11
95.0
 21
45.0
 31
0.0
  0
LINE
  5
298
330
1E
100
AcDbEntity
  8
0
100
AcDbLine
 10
97.0
 20
34.1
 30
0.0
 11
97.0
 21
30.0
 31
0.0
  0
LINE
  5
299
330
1E
100
AcDbEntity
  8
0
100
AcDbLine
 10
97.0
 20
34.1
 30
0.0
 11
97.0
 21
38.0
 31
0.0
  0
LINE
  5
29A
330
1E
100
AcDbEntity
  8
0
100
AcDbLine
 10
97.0
 20
43.89999999999999
 30
0.0
 11
97.0
 21
41.29999999999999
 31
0.0
  0
LINE
  5
29B
330
1E
100
AcDbEntity
  8
0
100
AcDbLine
 10
97.0
 20
43.89999999999999
 30
0.0
 11
97.0
 21
45.4
 31
0.0
  0
LINE
  5
29C
330
1E
100
AcDbEntity
  8
0
100
AcDbLine
 10
97.0
 20
45.4
 30
0.0
 11
97.0
 21
43.89999999999999
 31
0.0
  0
LINE
  5
29D
330
1E
100
AcDbEntity
  8
0
100
AcDbLine
 10
97.0
 20
45.4
 30
0.0
 11
97.0
 21
46.0
 31
0.0
  0
LINE
  5
29F
330
1E
100
AcDbEntity
  8
0
100
AcDbLine
 10
97.0
 20
41.29999999999999
 30
0.0
 11
97.0
 21
38.0
 31
0.0
  0
LINE
  5
2A0
330
1E
100
AcDbEntity
  8
0
100
AcDbLine
 10
97.0
 20
41.29999999999999
 30
0.0
 11
97.0
 21
43.89999999999999
 31
0.0
  0
LINE
  5
2A1
330
1E
100
AcDbEntity
  8
0
100
AcDbLine
 10
97.0
 20
38.0
 30
0.0
 11
97.0
 21
34.1
 31
0.0
  0
LINE
  5
2A2
330
1E
100
AcDbEntity
  8
0
100
AcDbLine
 10
97.0
 20
38.0
 30
0.0
 11
97.0
 21
41.29999999999999
 31
0.0
  0
LINE
  5
2A6
330
1E
100
AcDbEntity
  8
0
100
AcDbLine
 10
95.0
 20
45.0
 30
0.0
 11
97.0
 21
46.0
 31
0.0
  0
LINE
  5
2A9
330
1E
100
AcDbEntity
  8
0
100
AcDbLine
 10
97.0
 20
46.0
 30
0.0
 11
97.5
 21
47.0
 31
0.0
  0
LINE
  5
2AA
330
1E
100
AcDbEntity
  8
0
100
AcDbLine
 10
97.0
 20
46.0
 30
0.0
 11
97.0
 21
45.4
 31
0.0
  0
LINE
  5
2AB
330
1E
100
AcDbEntity
  8
0
100
AcDbLine
 10
97.5
 20
47.0
 30
0.0
 11
98.50000000000001
 21
47.5
 31
0.0
  0
LINE
  5
2AD
330
1E
100
AcDbEntity
  8
0
100
AcDbLine
 10
98.50000000000001
 20
47.5
 30
0.0
 11
99.0
 21
47.5
 31
0.0
  0
LINE
  5
2AE
330
1E
100
AcDbEntity
  8
0
100
AcDbLine
 10
99.0
 20
47.5
 30
0.0
 11
100.0
 21
47.0
 31
0.0
  0
LINE
  5
2AF
330
1E
100
AcDbEntity
  8
0
100
AcDbLine
 10
100.0
 20
47.0
 30
0.0
 11
101.0
 21
47.0
 31
0.0
  0
LINE
  5
2B0
330
1E
100
AcDbEntity
  8
0
100
AcDbLine
 10
101.0
 20
47.0
 30
0.0
 11
103.4999999999999
 21
48.5
 31
0.0
  0
LINE
  5
2B1
330
1E
100
AcDbEntity
  8
0
100
AcDbLine
 10
103.4999999999999
 20
48.5
 30
0.0
 11
106.0
 21
51.5
 31
0.0
  0
LINE
  5
2B2
330
1E
100
AcDbEntity
  8
0
100
AcDbLine
 10
108.0
 20
53.0
 30
0.0
 11
108.0
 21
48.7
 31
0.0
  0
LINE
  5
2B3
330
1E
100
AcDbEntity
  8
0
100
AcDbLine
 10
108.0
 20
53.0
 30
0.0
 11
108.0
 21
55.5
 31
0.0
  0
LINE
  5
2B4
330
1E
100
AcDbEntity
  8
0
100
AcDbLine
 10
108.0
 20
55.5
 30
0.0
 11
108.0
 21
53.0
 31
0.0
  0
LINE
  5
2B5
330
1E
100
AcDbEntity
  8
0
100
AcDbLine
 10
108.0
 20
55.5
 30
0.0
 11
108.0
 21
56.5
 31
0.0
  0
LINE
  5
2B6
330
1E
100
AcDbEntity
  8
0
100
AcDbLine
 10
108.0
 20
48.7
 30
0.0
 11
108.0
 21
43.2
 31
0.0
  0
LINE
  5
2B7
330
1E
100
AcDbEntity
  8
0
100
AcDbLine
 10
108.0
 20
48.7
 30
0.0
 11
108.0
 21
53.0
 31
0.0
  0
LINE
  5
2B8
330
1E
100
AcDbEntity
  8
0
100
AcDbLine
 10
108.0
 20
43.2
 30
0.0
 11
108.0
 21
36.79999999999999
 31
0.0
  0
LINE
  5
2B9
330
1E
100
AcDbEntity
  8
0
100
AcDbLine
 10
108.0
 20
43.2
 30
0.0
 11
108.0
 21
48.7
 31
0.0
  0
LINE
  5
2BA
330
1E
100
AcDbEntity
  8
0
100
AcDbLine
 10
108.0
 20
36.79999999999999
 30
0.0
 11
108.0
 21
30.0
 31
0.0
  0
LINE
  5
2BB
330
1E
100
AcDbEntity
  8
0
100
AcDbLine
 10
108.0
 20
36.79999999999999
 30
0.0
 11
108.0
 21
43.2
 31
0.0
  0
LINE
  5
2BC
330
1E
100
AcDbEntity
  8
0
100
AcDbLine
 10
106.0
 20
51.5
 30
0.0
 11
108.0
 21
56.5
 31
0.0
  0
LINE
  5
2BD
330
1E
100
AcDbEntity
  8
0
100
AcDbLine
 10
108.0
 20
56.5
 30
0.0
 11
109.0
 21
57.0
 31
0.0
  0
LINE
  5
2BE
330
1E
100
AcDbEntity
  8
0
100
AcDbLine
 10
108.0
 20
56.5
 30
0.0
 11
108.0
 21
55.5
 31
0.0
  0
LINE
  5
2BF
330
1E
100
AcDbEntity
  8
0
100
AcDbLine
 10
110.0
 20
53.39999999999999
 30
0.0
 11
110.0
 21
49.0
 31
0.0
  0
LINE
  5
2C0
330
1E
100
AcDbEntity
  8
0
100
AcDbLine
 10
110.0
 20
53.39999999999999
 30
0.0
 11
110.0
 21
56.0
 31
0.0
  0
LINE
  5
2C1
330
1E
100
AcDbEntity
  8
0
100
AcDbLine
 10
110.0
 20
56.0
 30
0.0
 11
110.0
 21
53.39999999999999
 31
0.0
  0
LINE
  5
2C2
330
1E
100
AcDbEntity
  8
0
100
AcDbLine
 10
110.0
 20
56.0
 30
0.0
 11
110.0
 21
57.0
 31
0.0
  0
LINE
  5
2C3
330
1E
100
AcDbEntity
  8
0
100
AcDbLine
 10
110.0
 20
43.39999999999999
 30
0.0
 11
110.0
 21
49.0
 31
0.0
  0
LINE
  5
2C4
330
1E
100
AcDbEntity
  8
0
100
AcDbLine
 10
110.0
 20
49.0
 30
0.0
 11
110.0
 21
43.39999999999999
 31
0.0
  0
LINE
  5
2C5
330
1E
100
AcDbEntity
  8
0
100
AcDbLine
 10
110.0
 20
49.0
 30
0.0
 11
110.0
 21
53.39999999999999
 31
0.0
  0
LINE
  5
2C6
330
1E
100
AcDbEntity
  8
0
100
AcDbLine
 10
110.0
 20
36.89999999999999
 30
0.0
 11
110.0
 21
30.0
 31
0.0
  0
LINE
  5
2C7
330
1E
100
AcDbEntity
  8
0
100
AcDbLine
 10
110.0
 20
36.89999999999999
 30
0.0
 11
110.0
 21
43.39999999999999
 31
0.0
  0
LINE
  5
2C8
330
1E
100
AcDbEntity
  8
0
100
AcDbLine
 10
109.0
 20
57.0
 30
0.0
 11
110.0
 21
57.0
 31
0.0
  0
LINE
  5
2C9
330
1E
100
AcDbEntity
  8
0
100
AcDbLine
 10
110.0
 20
57.0
 30
0.0
 11
110.4999999999999
 21
58.5
 31
0.0
  0
LINE
  5
2CA
330
1E
100
AcDbEntity
  8
0
100
AcDbLine
 10
110.0
 20
57.0
 30
0.0
 11
110.0
 21
56.0
 31
0.0
  0
LINE
  5
2CB
330
1E
100
AcDbEntity
  8
0
100
AcDbLine
 10
113.0
 20
56.0
 30
0.0
 11
113.0
 21
51.2
 31
0.0
  0
LINE
  5
2CC
330
1E
100
AcDbEntity
  8
0
100
AcDbLine
 10
113.0
 20
56.0
 30
0.0
 11
113.0
 21
58.9
 31
0.0
  0
LINE
  5
2CD
330
1E
100
AcDbEntity
  8
0
100
AcDbLine
 10
113.0
 20
58.9
 30
0.0
 11
113.0
 21
56.0
 31
0.0
  0
LINE
  5
2CE
330
1E
100
AcDbEntity
  8
0
100
AcDbLine
 10
113.0
 20
58.9
 30
0.0
 11
113.0
 21
60.0
 31
0.0
  0
LINE
  5
2CF
330
1E
100
AcDbEntity
  8
0
100
AcDbLine
 10
113.0
 20
51.2
 30
0.0
 11
113.0
 21
44.9
 31
0.0
  0
LINE
  5
2D0
330
1E
100
AcDbEntity
  8
0
100
AcDbLine
 10
113.0
 20
51.2
 30
0.0
 11
113.0
 21
56.0
 31
0.0
  0
LINE
  5
2D1
330
1E
100
AcDbEntity
  8
0
100
AcDbLine
 10
113.0
 20
44.9
 30
0.0
 11
113.0
 21
37.7
 31
0.0
  0
LINE
  5
2D2
330
1E
100
AcDbEntity
  8
0
100
AcDbLine
 10
113.0
 20
44.9
 30
0.0
 11
113.0
 21
51.2
 31
0.0
  0
LINE
  5
2D3
330
1E
100
AcDbEntity
  8
0
100
AcDbLine
 10
113.0
 20
37.7
 30
0.0
 11
113.0
 21
30.0
 31
0.0
  0
LINE
  5
2D4
330
1E
100
AcDbEntity
  8
0
100
AcDbLine
 10
113.0
 20
37.7
 30
0.0
 11
113.0
 21
44.9
 31
0.0
  0
LINE
  5
2D5
330
1E
100
AcDbEntity
  8
0
100
AcDbLine
 10
110.4999999999999
 20
58.5
 30
0.0
 11
111.4999999999999
 21
59.5
 31
0.0
  0
LINE
  5
2D6
330
1E
100
AcDbEntity
  8
0
100
AcDbLine
 10
113.0
 20
60.0
 30
0.0
 11
113.0
 21
58.9
 31
0.0
  0
LINE
  5
2D7
330
1E
100
AcDbEntity
  8
0
100
AcDbLine
 10
111.4999999999999
 20
59.5
 30
0.0
 11
113.0
 21
60.0
 31
0.0
  0
LINE
  5
2D8
330
1E
100
AcDbEntity
  8
0
100
AcDbLine
 10
57.0
 20
37.7
 30
0.0
 11
57.0
 21
34.0
 31
0.0
  0
LINE
  5
2D9
330
1E
100
AcDbEntity
  8
0
100
AcDbLine
 10
57.0
 20
37.7
 30
0.0
 11
57.0
 21
40.89999999999999
 31
0.0
  0
LINE
  5
2DA
330
1E
100
AcDbEntity
  8
0
100
AcDbLine
 10
57.0
 20
34.0
 30
0.0
 11
57.0
 21
30.0
 31
0.0
  0
LINE
  5
2DB
330
1E
100
AcDbEntity
  8
0
100
AcDbLine
 10
57.0
 20
34.0
 30
0.0
 11
57.0
 21
37.7
 31
0.0
  0
LINE
  5
2DC
330
1E
100
AcDbEntity
  8
0
100
AcDbLine
 10
53.5
 20
30.0
 30
0.0
 11
53.5
 21
25.8
 31
0.0
  0
LINE
  5
2DD
330
1E
100
AcDbEntity
  8
0
100
AcDbLine
 10
53.5
 20
30.0
 30
0.0
 11
53.5
 21
34.2
 31
0.0
  0
LINE
  5
2DE
330
1E
100
AcDbEntity
  8
0
100
AcDbLine
 10
57.0
 20
30.0
 30
0.0
 11
57.0
 21
26.0
 31
0.0
  0
LINE
  5
2DF
330
1E
100
AcDbEntity
  8
0
100
AcDbLine
 10
57.0
 20
30.0
 30
0.0
 11
57.0
 21
34.0
 31
0.0
  0
LINE
  5
2E0
330
1E
100
AcDbEntity
  8
0
100
AcDbLine
 10
53.0
 20
15.0
 30
0.0
 11
53.5
 21
13.5
 31
0.0
  0
LINE
  5
2E1
330
1E
100
AcDbEntity
  8
0
100
AcDbLine
 10
57.0
 20
14.5
 30
0.0
 11
58.5
 21
15.0
 31
0.0
  0
LINE
  5
2E2
330
1E
100
AcDbEntity
  8
0
100
AcDbLine
 10
57.0
 20
14.5
 30
0.0
 11
57.0
 21
15.09999999999999
 31
0.0
  0
LINE
  5
2E3
330
1E
100
AcDbEntity
  8
0
100
AcDbLine
 10
32.0
 20
21.89999999999999
 30
0.0
 11
32.0
 21
24.0
 31
0.0
  0
LINE
  5
2E4
330
1E
100
AcDbEntity
  8
0
100
AcDbLine
 10
32.0
 20
21.89999999999999
 30
0.0
 11
32.0
 21
20.0
 31
0.0
  0
LINE
  5
2E5
330
1E
100
AcDbEntity
  8
0
100
AcDbLine
 10
32.0
 20
21.89999999999999
 30
0.0
 11
32.0
 21
24.3
 31
0.0
  0
ENDSEC
  0
SECTION
  2
OBJECTS
  0
DICTIONARY
  5
C
330
0
100
AcDbDictionary
281
     1
  3
ACAD_GROUP
350
D
  3
ACAD_LAYOUT
350
19
  3
ACAD_MLINESTYLE
350
16
  3
ACAD_PLOTSETTINGS
350
18
  3
ACAD_PLOTSTYLENAME
350
E
  3
AcDbVariableDictionary
350
2EA
  0
DICTIONARY
  5
D
102
{ACAD_REACTORS
330
C
102
}
330
C
100
AcDbDictionary
281
     1
  0
DICTIONARY
  5
19
102
{ACAD_REACTORS
330
C
102
}
330
C
100
AcDbDictionary
281
     1
  3
Layout1
350
1D
  3
Model
350
21
  0
DICTIONARY
  5
16
102
{ACAD_REACTORS
330
C
102
}
330
C
100
AcDbDictionary
281
     1
  3
Standard
350
17
  0
DICTIONARY
  5
18
102
{ACAD_REACTORS
330
C
102
}
330
C
100
AcDbDictionary
281
     1
  0
ACDBDICTIONARYWDFLT
  5
E
102
{ACAD_REACTORS
330
C
102
}
330
C
100
AcDbDictionary
281
     1
  3
Normal
350
F
100
AcDbDictionaryWithDefault
340
F
  0
DICTIONARY
  5
2EA
102
{ACAD_REACTORS
330
C
102
}
330
C
100
AcDbDictionary
281
     1
  3
DIMASSOC
350
2EB
  0
LAYOUT
  5
1D
102
{ACAD_REACTORS
330
19
102
}
330
19
100
AcDbPlotSettings
  1

  2
hp deskjet 980c series
  4

  6

 40
0.0
 41
0.0
 42
0.0
 43
0.0
 44
0.0
 45
0.0
 46
0.0
 47
0.0
 48
0.0
 49
0.0
140
0.0
141
0.0
142
1.0
143
1.0
 70
   688
 72
     0
 73
     0
 74
     5
  7

 75
    16
147
1.0
148
0.0
149
0.0
100
AcDbLayout
  1
Layout1
 70
     1
 71
     1
 10
0.0
 20
0.0
 11
12.0
 21
9.0
 12
0.0
 22
0.0
 32
0.0
 14
1.000000000000000E+20
 24
1.000000000000000E+20
 34
1.000000000000000E+20
 15
-1.000000000000000E+20
 25
-1.000000000000000E+20
 35
-1.000000000000000E+20
146
0.0
 13
0.0
 23
0.0
 33
0.0
 16
1.0
 26
0.0
 36
0.0
 17
0.0
 27
1.0
 37
0.0
 76
     0
330
1A
  0
LAYOUT
  5
21
102
{ACAD_REACTORS
330
19
102
}
330
19
100
AcDbPlotSettings
  1

  2
hp deskjet 980c series
  4

  6

 40
0.0
 41
0.0
 42
0.0
 43
0.0
 44
0.0
 45
0.0
 46
0.0
 47
0.0
 48
0.0
 49
0.0
140
0.0
141
0.0
142
1.0
143
1.0
 70
  1712
 72
     0
 73
     0
 74
     0
  7

 75
     0
147
1.0
148
0.0
149
0.0
100
AcDbLayout
  1
Model
 70
     1
 71
     0
 10
0.0
 20
0.0
 11
12.0
 21
9.0
 12
0.0
 22
0.0
 32
0.0
 14
0.0
 24
0.0
 34
0.0
 15
0.0
 25
0.0
 35
0.0
146
0.0
 13
0.0
 23
0.0
 33
0.0
 16
1.0
 26
0.0
 36
0.0
 17
0.0
 27
1.0
 37
0.0
 76
     0
330
1E
  0
MLINESTYLE
  5
17
102
{ACAD_REACTORS
330
16
102
}
330
16
100
AcDbMlineStyle
  2
STANDARD
 70
     0
  3

 62
   256
 51
90.0
 52
90.0
 71
     2
 49
0.5
 62
   256
  6
BYLAYER
 49
-0.5
 62
   256
  6
BYLAYER
  0
ACDBPLACEHOLDER
  5
F
102
{ACAD_REACTORS
330
E
102
}
330
E
  0
DICTIONARYVAR
  5
2EB
102
{ACAD_REACTORS
330
2EA
102
}
330
2EA
100
DictionaryVariables
280
     0
  1
1
  0
ENDSEC
  0
EOF
