  0
SECTION
  2
HEADER
  9
$ACADVER
  1
AC1015
  9
$ACADMAINTVER
 70
    13
  9
$DWGCODEPAGE
  3
ANSI_1252
  9
$INSBASE
 10
0.0
 20
0.0
 30
0.0
  9
$EXTMIN
 10
-0.0000000000000036
 20
-0.0000000000000088
 30
0.0
  9
$EXTMAX
 10
130.0
 20
130.0
 30
0.0
  9
$LIMMIN
 10
0.0
 20
0.0
  9
$LIMMAX
 10
12.0
 20
9.0
  9
$ORTHOMODE
 70
     0
  9
$REGENMODE
 70
     1
  9
$FILLMODE
 70
     1
  9
$QTEXTMODE
 70
     0
  9
$MIRRTEXT
 70
     1
  9
$LTSCALE
 40
1.0
  9
$ATTMODE
 70
     1
  9
$TEXTSIZE
 40
0.2
  9
$TRACEWID
 40
0.05
  9
$TEXTSTYLE
  7
Standard
  9
$CLAYER
  8
0
  9
$CELTYPE
  6
Continuous
  9
$CECOLOR
 62
   256
  9
$CELTSCALE
 40
1.0
  9
$DISPSILH
 70
     0
  9
$DIMSCALE
 40
1.0
  9
$DIMASZ
 40
0.18
  9
$DIMEXO
 40
0.0625
  9
$DIMDLI
 40
0.38
  9
$DIMRND
 40
0.0
  9
$DIMDLE
 40
0.0
  9
$DIMEXE
 40
0.18
  9
$DIMTP
 40
0.0
  9
$DIMTM
 40
0.0
  9
$DIMTXT
 40
0.18
  9
$DIMCEN
 40
0.09
  9
$DIMTSZ
 40
0.0
  9
$DIMTOL
 70
     0
  9
$DIMLIM
 70
     0
  9
$DIMTIH
 70
     1
  9
$DIMTOH
 70
     1
  9
$DIMSE1
 70
     0
  9
$DIMSE2
 70
     0
  9
$DIMTAD
 70
     0
  9
$DIMZIN
 70
     0
  9
$DIMBLK
  1

  9
$DIMASO
 70
     1
  9
$DIMSHO
 70
     1
  9
$DIMPOST
  1

  9
$DIMAPOST
  1

  9
$DIMALT
 70
     0
  9
$DIMALTD
 70
     2
  9
$DIMALTF
 40
25.4
  9
$DIMLFAC
 40
1.0
  9
$DIMTOFL
 70
     0
  9
$DIMTVP
 40
0.0
  9
$DIMTIX
 70
     0
  9
$DIMSOXD
 70
     0
  9
$DIMSAH
 70
     0
  9
$DIMBLK1
  1

  9
$DIMBLK2
  1

  9
$DIMSTYLE
  2
Standard
  9
$DIMCLRD
 70
     0
  9
$DIMCLRE
 70
     0
  9
$DIMCLRT
 70
     0
  9
$DIMTFAC
 40
1.0
  9
$DIMGAP
 40
0.09
  9
$DIMJUST
 70
     0
  9
$DIMSD1
 70
     0
  9
$DIMSD2
 70
     0
  9
$DIMTOLJ
 70
     1
  9
$DIMTZIN
 70
     0
  9
$DIMALTZ
 70
     0
  9
$DIMALTTZ
 70
     0
  9
$DIMUPT
 70
     0
  9
$DIMDEC
 70
     4
  9
$DIMTDEC
 70
     4
  9
$DIMALTU
 70
     2
  9
$DIMALTTD
 70
     2
  9
$DIMTXSTY
  7
Standard
  9
$DIMAUNIT
 70
     0
  9
$DIMADEC
 70
     0
  9
$DIMALTRND
 40
0.0
  9
$DIMAZIN
 70
     0
  9
$DIMDSEP
 70
    46
  9
$DIMATFIT
 70
     3
  9
$DIMFRAC
 70
     0
  9
$DIMLDRBLK
  1

  9
$DIMLUNIT
 70
     2
  9
$DIMLWD
 70
    -2
  9
$DIMLWE
 70
    -2
  9
$DIMTMOVE
 70
     0
  9
$LUNITS
 70
     2
  9
$LUPREC
 70
     4
  9
$SKETCHINC
 40
0.1
  9
$FILLETRAD
 40
0.0
  9
$AUNITS
 70
     0
  9
$AUPREC
 70
     0
  9
$MENU
  1
.
  9
$ELEVATION
 40
0.0
  9
$PELEVATION
 40
0.0
  9
$THICKNESS
 40
0.0
  9
$LIMCHECK
 70
     0
  9
$CHAMFERA
 40
0.0
  9
$CHAMFERB
 40
0.0
  9
$CHAMFERC
 40
0.0
  9
$CHAMFERD
 40
0.0
  9
$SKPOLY
 70
     0
  9
$TDCREATE
 40
2454749.840551030
  9
$TDUCREATE
 40
2454749.757217697
  9
$TDUPDATE
 40
2454749.843189190
  9
$TDUUPDATE
 40
2454749.759855856
  9
$TDINDWG
 40
0.0026383449
  9
$TDUSRTIMER
 40
0.0026383449
  9
$USRTIMER
 70
     1
  9
$ANGBASE
 50
0.0
  9
$ANGDIR
 70
     0
  9
$PDMODE
 70
     0
  9
$PDSIZE
 40
0.0
  9
$PLINEWID
 40
0.0
  9
$SPLFRAME
 70
     0
  9
$SPLINETYPE
 70
     6
  9
$SPLINESEGS
 70
     8
  9
$HANDSEED
  5
22A
  9
$SURFTAB1
 70
     6
  9
$SURFTAB2
 70
     6
  9
$SURFTYPE
 70
     6
  9
$SURFU
 70
     6
  9
$SURFV
 70
     6
  9
$UCSBASE
  2

  9
$UCSNAME
  2

  9
$UCSORG
 10
0.0
 20
0.0
 30
0.0
  9
$UCSXDIR
 10
1.0
 20
0.0
 30
0.0
  9
$UCSYDIR
 10
0.0
 20
1.0
 30
0.0
  9
$UCSORTHOREF
  2

  9
$UCSORTHOVIEW
 70
     1
  9
$UCSORGTOP
 10
0.0
 20
0.0
 30
0.0
  9
$UCSORGBOTTOM
 10
0.0
 20
0.0
 30
0.0
  9
$UCSORGLEFT
 10
0.0
 20
0.0
 30
0.0
  9
$UCSORGRIGHT
 10
0.0
 20
0.0
 30
0.0
  9
$UCSORGFRONT
 10
0.0
 20
0.0
 30
0.0
  9
$UCSORGBACK
 10
0.0
 20
0.0
 30
0.0
  9
$PUCSBASE
  2

  9
$PUCSNAME
  2

  9
$PUCSORG
 10
0.0
 20
0.0
 30
0.0
  9
$PUCSXDIR
 10
1.0
 20
0.0
 30
0.0
  9
$PUCSYDIR
 10
0.0
 20
1.0
 30
0.0
  9
$PUCSORTHOREF
  2

  9
$PUCSORTHOVIEW
 70
     0
  9
$PUCSORGTOP
 10
0.0
 20
0.0
 30
0.0
  9
$PUCSORGBOTTOM
 10
0.0
 20
0.0
 30
0.0
  9
$PUCSORGLEFT
 10
0.0
 20
0.0
 30
0.0
  9
$PUCSORGRIGHT
 10
0.0
 20
0.0
 30
0.0
  9
$PUCSORGFRONT
 10
0.0
 20
0.0
 30
0.0
  9
$PUCSORGBACK
 10
0.0
 20
0.0
 30
0.0
  9
$USERI1
 70
     0
  9
$USERI2
 70
     0
  9
$USERI3
 70
     0
  9
$USERI4
 70
     0
  9
$USERI5
 70
     0
  9
$USERR1
 40
0.0
  9
$USERR2
 40
0.0
  9
$USERR3
 40
0.0
  9
$USERR4
 40
0.0
  9
$USERR5
 40
0.0
  9
$WORLDVIEW
 70
     1
  9
$SHADEDGE
 70
     3
  9
$SHADEDIF
 70
    70
  9
$TILEMODE
 70
     1
  9
$MAXACTVP
 70
    64
  9
$PINSBASE
 10
0.0
 20
0.0
 30
0.0
  9
$PLIMCHECK
 70
     0
  9
$PEXTMIN
 10
1.000000000000000E+20
 20
1.000000000000000E+20
 30
1.000000000000000E+20
  9
$PEXTMAX
 10
-1.000000000000000E+20
 20
-1.000000000000000E+20
 30
-1.000000000000000E+20
  9
$PLIMMIN
 10
0.0
 20
0.0
  9
$PLIMMAX
 10
12.0
 20
9.0
  9
$UNITMODE
 70
     0
  9
$VISRETAIN
 70
     1
  9
$PLINEGEN
 70
     0
  9
$PSLTSCALE
 70
     1
  9
$TREEDEPTH
 70
  3020
  9
$CMLSTYLE
  2
Standard
  9
$CMLJUST
 70
     0
  9
$CMLSCALE
 40
1.0
  9
$PROXYGRAPHICS
 70
     1
  9
$MEASUREMENT
 70
     0
  9
$CELWEIGHT
370
    -1
  9
$ENDCAPS
280
     0
  9
$JOINSTYLE
280
     0
  9
$LWDISPLAY
290
     0
  9
$INSUNITS
 70
     0
  9
$HYPERLINKBASE
  1

  9
$STYLESHEET
  1

  9
$XEDIT
290
     1
  9
$CEPSNTYPE
380
     0
  9
$PSTYLEMODE
290
     1
  9
$FINGERPRINTGUID
  2
{9AB902B2-E37C-4078-903E-F1DEA7FCABD6}
  9
$VERSIONGUID
  2
{6CA67DC0-DF7D-4BA7-9FC7-EAAAF968C1C1}
  9
$EXTNAMES
290
     1
  9
$PSVPSCALE
 40
0.0
  9
$OLESTARTUP
290
     0
  0
ENDSEC
  0
SECTION
  2
CLASSES
  0
CLASS
  1
ACDBDICTIONARYWDFLT
  2
AcDbDictionaryWithDefault
  3
AutoCAD 2000
 90
        0
280
     0
281
     0
  0
CLASS
  1
ACDBPLACEHOLDER
  2
AcDbPlaceHolder
  3
AutoCAD 2000
 90
        0
280
     0
281
     0
  0
CLASS
  1
LAYOUT
  2
AcDbLayout
  3
AutoCAD 2000
 90
        0
280
     0
281
     0
  0
CLASS
  1
DICTIONARYVAR
  2
AcDbDictionaryVar
  3
AutoCAD 2000
 90
        0
280
     0
281
     0
  0
ENDSEC
  0
SECTION
  2
TABLES
  0
TABLE
  2
VPORT
  5
8
330
0
100
AcDbSymbolTable
 70
     2
  0
VPORT
  5
229
330
8
100
AcDbSymbolTableRecord
100
AcDbViewportTableRecord
  2
*Active
 70
     0
 10
0.0
 20
0.0
 11
1.0
 21
1.0
 12
65.0
 22
64.99999999999999
 13
0.0
 23
0.0
 14
1.0
 24
1.0
 15
0.0
 25
0.0
 16
0.0
 26
0.0
 36
1.0
 17
0.0
 27
0.0
 37
0.0
 40
130.9974424552429
 41
2.078104993597951
 42
50.0
 43
0.0
 44
0.0
 50
0.0
 51
0.0
 71
     0
 72
   100
 73
     1
 74
     3
 75
     0
 76
     0
 77
     0
 78
     0
281
     0
 65
     1
110
0.0
120
0.0
130
0.0
111
1.0
121
0.0
131
0.0
112
0.0
122
1.0
132
0.0
 79
     1
146
0.0
  0
ENDTAB
  0
TABLE
  2
LTYPE
  5
5
330
0
100
AcDbSymbolTable
 70
     1
  0
LTYPE
  5
13
330
5
100
AcDbSymbolTableRecord
100
AcDbLinetypeTableRecord
  2
ByBlock
 70
     0
  3

 72
    65
 73
     0
 40
0.0
  0
LTYPE
  5
14
330
5
100
AcDbSymbolTableRecord
100
AcDbLinetypeTableRecord
  2
ByLayer
 70
     0
  3

 72
    65
 73
     0
 40
0.0
  0
LTYPE
  5
15
330
5
100
AcDbSymbolTableRecord
100
AcDbLinetypeTableRecord
  2
Continuous
 70
     0
  3
Solid line
 72
    65
 73
     0
 40
0.0
  0
ENDTAB
  0
TABLE
  2
LAYER
  5
2
330
0
100
AcDbSymbolTable
 70
     1
  0
LAYER
  5
10
330
2
100
AcDbSymbolTableRecord
100
AcDbLayerTableRecord
  2
0
 70
     0
 62
     7
  6
Continuous
370
    -3
390
F
  0
ENDTAB
  0
TABLE
  2
STYLE
  5
3
330
0
100
AcDbSymbolTable
 70
     1
  0
STYLE
  5
11
330
3
100
AcDbSymbolTableRecord
100
AcDbTextStyleTableRecord
  2
Standard
 70
     0
 40
0.0
 41
1.0
 50
0.0
 71
     0
 42
0.2
  3
txt
  4

  0
ENDTAB
  0
TABLE
  2
VIEW
  5
6
330
0
100
AcDbSymbolTable
 70
     0
  0
ENDTAB
  0
TABLE
  2
UCS
  5
7
330
0
100
AcDbSymbolTable
 70
     0
  0
ENDTAB
  0
TABLE
  2
APPID
  5
9
330
0
100
AcDbSymbolTable
 70
     1
  0
APPID
  5
12
330
9
100
AcDbSymbolTableRecord
100
AcDbRegAppTableRecord
  2
ACAD
 70
     0
  0
ENDTAB
  0
TABLE
  2
DIMSTYLE
  5
A
330
0
100
AcDbSymbolTable
 70
     1
100
AcDbDimStyleTable
 71
     0
  0
DIMSTYLE
105
212
330
A
100
AcDbSymbolTableRecord
100
AcDbDimStyleTableRecord
  2
Standard
 70
     0
340
11
  0
ENDTAB
  0
TABLE
  2
BLOCK_RECORD
  5
1
330
0
100
AcDbSymbolTable
 70
     0
  0
BLOCK_RECORD
  5
1E
330
1
100
AcDbSymbolTableRecord
100
AcDbBlockTableRecord
  2
*Model_Space
340
21
  0
BLOCK_RECORD
  5
1A
330
1
100
AcDbSymbolTableRecord
100
AcDbBlockTableRecord
  2
*Paper_Space
340
1D
  0
ENDTAB
  0
ENDSEC
  0
SECTION
  2
BLOCKS
  0
BLOCK
  5
1F
330
1E
100
AcDbEntity
  8
0
100
AcDbBlockBegin
  2
*Model_Space
 70
     0
 10
0.0
 20
0.0
 30
0.0
  3
*Model_Space
  1

  0
ENDBLK
  5
20
330
1E
100
AcDbEntity
  8
0
100
AcDbBlockEnd
  0
BLOCK
  5
1B
330
1A
100
AcDbEntity
 67
     1
  8
0
100
AcDbBlockBegin
  2
*Paper_Space
 70
     0
 10
0.0
 20
0.0
 30
0.0
  3
*Paper_Space
  1

  0
ENDBLK
  5
1C
330
1A
100
AcDbEntity
 67
     1
  8
0
100
AcDbBlockEnd
  0
ENDSEC
  0
SECTION
  2
ENTITIES
  0
LINE
  5
22
330
1E
100
AcDbEntity
  8
0
100
AcDbLine
 10
5.096589999999999
 20
40.1818
 30
0.0
 11
8.71591
 21
32.6477
 31
0.0
  0
LINE
  5
23
330
1E
100
AcDbEntity
  8
0
100
AcDbLine
 10
24.3011
 20
24.3011
 30
0.0
 11
29.9886
 21
19.35229999999999
 31
0.0
  0
LINE
  5
24
330
1E
100
AcDbEntity
  8
0
100
AcDbLine
 10
19.1307
 20
19.1307
 30
0.0
 11
25.483
 21
13.517
 31
0.0
  0
LINE
  5
25
330
1E
100
AcDbEntity
  8
0
100
AcDbLine
 10
29.9886
 20
19.35229999999999
 30
0.0
 11
36.3409
 21
15.0682
 31
0.0
  0
LINE
  5
26
330
1E
100
AcDbEntity
  8
0
100
AcDbLine
 10
32.6477
 20
8.71590999999999
 30
0.0
 11
40.1818
 21
5.09658999999999
 31
0.0
  0
LINE
  5
27
330
1E
100
AcDbEntity
  8
0
100
AcDbLine
 10
25.483
 20
13.517
 30
0.0
 11
32.6477
 21
8.71590999999999
 31
0.0
  0
LINE
  5
28
330
1E
100
AcDbEntity
  8
0
100
AcDbLine
 10
19.35229999999999
 20
29.9886
 30
0.0
 11
24.3011
 21
24.3011
 31
0.0
  0
LINE
  5
29
330
1E
100
AcDbEntity
  8
0
100
AcDbLine
 10
15.0682
 20
36.3409
 30
0.0
 11
19.35229999999999
 21
29.9886
 31
0.0
  0
LINE
  5
2A
330
1E
100
AcDbEntity
  8
0
100
AcDbLine
 10
11.892
 20
42.9886
 30
0.0
 11
15.0682
 21
36.3409
 31
0.0
  0
LINE
  5
2B
330
1E
100
AcDbEntity
  8
0
100
AcDbLine
 10
8.71591
 20
32.6477
 30
0.0
 11
13.517
 21
25.483
 31
0.0
  0
LINE
  5
2C
330
1E
100
AcDbEntity
  8
0
100
AcDbLine
 10
-0.0000000000000036
 20
65.0
 30
0.0
 11
0.6647729999999971
 21
73.49429999999999
 31
0.0
  0
LINE
  5
2D
330
1E
100
AcDbEntity
  8
0
100
AcDbLine
 10
9.454549999999999
 20
50.1534
 30
0.0
 11
11.892
 21
42.9886
 31
0.0
  0
LINE
  5
2E
330
1E
100
AcDbEntity
  8
0
100
AcDbLine
 10
7.977269999999999
 20
57.5398
 30
0.0
 11
9.454549999999999
 21
50.1534
 31
0.0
  0
LINE
  5
2F
330
1E
100
AcDbEntity
  8
0
100
AcDbLine
 10
7.38636
 20
65.0
 30
0.0
 11
7.977269999999999
 21
57.5398
 31
0.0
  0
LINE
  5
30
330
1E
100
AcDbEntity
  8
0
100
AcDbLine
 10
7.38636
 20
65.0
 30
0.0
 11
7.977269999999999
 21
72.4602
 31
0.0
  0
LINE
  5
31
330
1E
100
AcDbEntity
  8
0
100
AcDbLine
 10
2.36364
 20
48.233
 30
0.0
 11
5.096589999999999
 21
40.1818
 31
0.0
  0
LINE
  5
32
330
1E
100
AcDbEntity
  8
0
100
AcDbLine
 10
35.5
 20
65.0
 30
0.0
 11
36.6
 21
57.4
 31
0.0
  0
LINE
  5
33
330
1E
100
AcDbEntity
  8
0
100
AcDbLine
 10
35.5
 20
65.0
 30
0.0
 11
36.6
 21
72.59999999999999
 31
0.0
  0
LINE
  5
34
330
1E
100
AcDbEntity
  8
0
100
AcDbLine
 10
35.0
 20
65.0
 30
0.0
 11
36.1
 21
57.3
 31
0.0
  0
LINE
  5
35
330
1E
100
AcDbEntity
  8
0
100
AcDbLine
 10
35.0
 20
65.0
 30
0.0
 11
36.1
 21
72.7
 31
0.0
  0
LINE
  5
36
330
1E
100
AcDbEntity
  8
0
100
AcDbLine
 10
9.454549999999999
 20
79.84659999999999
 30
0.0
 11
11.892
 21
87.0114
 31
0.0
  0
LINE
  5
37
330
1E
100
AcDbEntity
  8
0
100
AcDbLine
 10
7.977269999999999
 20
72.4602
 30
0.0
 11
9.454549999999999
 21
79.84659999999999
 31
0.0
  0
LINE
  5
38
330
1E
100
AcDbEntity
  8
0
100
AcDbLine
 10
11.892
 20
87.0114
 30
0.0
 11
15.0682
 21
93.65909999999999
 31
0.0
  0
LINE
  5
39
330
1E
100
AcDbEntity
  8
0
100
AcDbLine
 10
8.71591
 20
97.35230000000001
 30
0.0
 11
13.517
 21
104.517
 31
0.0
  0
LINE
  5
3A
330
1E
100
AcDbEntity
  8
0
100
AcDbLine
 10
15.0682
 20
93.65909999999999
 30
0.0
 11
19.35229999999999
 21
100.011
 31
0.0
  0
LINE
  5
3B
330
1E
100
AcDbEntity
  8
0
100
AcDbLine
 10
13.517
 20
104.517
 30
0.0
 11
19.1307
 21
110.8689999999999
 31
0.0
  0
LINE
  5
3C
330
1E
100
AcDbEntity
  8
0
100
AcDbLine
 10
2.36364
 20
81.767
 30
0.0
 11
5.096589999999999
 21
89.8182
 31
0.0
  0
LINE
  5
3D
330
1E
100
AcDbEntity
  8
0
100
AcDbLine
 10
19.35229999999999
 20
100.011
 30
0.0
 11
24.3011
 21
105.699
 31
0.0
  0
LINE
  5
3E
330
1E
100
AcDbEntity
  8
0
100
AcDbLine
 10
24.3011
 20
105.699
 30
0.0
 11
29.9886
 21
110.6479999999999
 31
0.0
  0
LINE
  5
3F
330
1E
100
AcDbEntity
  8
0
100
AcDbLine
 10
29.9886
 20
110.6479999999999
 30
0.0
 11
36.3409
 21
114.932
 31
0.0
  0
LINE
  5
40
330
1E
100
AcDbEntity
  8
0
100
AcDbLine
 10
19.1307
 20
110.8689999999999
 30
0.0
 11
25.483
 21
116.483
 31
0.0
  0
LINE
  5
41
330
1E
100
AcDbEntity
  8
0
100
AcDbLine
 10
32.6477
 20
121.2839999999999
 30
0.0
 11
40.1818
 21
124.9029999999999
 31
0.0
  0
LINE
  5
42
330
1E
100
AcDbEntity
  8
0
100
AcDbLine
 10
25.483
 20
116.483
 30
0.0
 11
32.6477
 21
121.2839999999999
 31
0.0
  0
LINE
  5
43
330
1E
100
AcDbEntity
  8
0
100
AcDbLine
 10
36.0
 20
65.8
 30
0.0
 11
36.5
 21
66.29999999999999
 31
0.0
  0
LINE
  5
44
330
1E
100
AcDbEntity
  8
0
100
AcDbLine
 10
36.0
 20
65.8
 30
0.0
 11
36.0
 21
65.0
 31
0.0
  0
LINE
  5
45
330
1E
100
AcDbEntity
  8
0
100
AcDbLine
 10
36.0
 20
65.8
 30
0.0
 11
36.3562
 21
65.8
 31
0.0
  0
LINE
  5
46
330
1E
100
AcDbEntity
  8
0
100
AcDbLine
 10
36.0
 20
65.0
 30
0.0
 11
36.0
 21
64.2
 31
0.0
  0
LINE
  5
47
330
1E
100
AcDbEntity
  8
0
100
AcDbLine
 10
36.0
 20
65.0
 30
0.0
 11
36.0
 21
65.8
 31
0.0
  0
LINE
  5
48
330
1E
100
AcDbEntity
  8
0
100
AcDbLine
 10
36.3409
 20
15.0682
 30
0.0
 11
42.9886
 21
11.892
 31
0.0
  0
LINE
  5
49
330
1E
100
AcDbEntity
  8
0
100
AcDbLine
 10
36.68309859154929
 20
63.6633802816901
 30
0.0
 11
37.5
 21
57.7
 31
0.0
  0
LINE
  5
4A
330
1E
100
AcDbEntity
  8
0
100
AcDbLine
 10
36.6
 20
57.4
 30
0.0
 11
39.5
 21
50.3
 31
0.0
  0
LINE
  5
4B
330
1E
100
AcDbEntity
  8
0
100
AcDbLine
 10
36.1
 20
57.3
 30
0.0
 11
39.0
 21
50.1
 31
0.0
  0
LINE
  5
4C
330
1E
100
AcDbEntity
  8
0
100
AcDbLine
 10
36.5
 20
63.7
 30
0.0
 11
39.0
 21
63.2
 31
0.0
  0
LINE
  5
4D
330
1E
100
AcDbEntity
  8
0
100
AcDbLine
 10
37.7173913043478
 20
63.4565217391304
 30
0.0
 11
38.5
 21
57.9
 31
0.0
  0
LINE
  5
4E
330
1E
100
AcDbEntity
  8
0
100
AcDbLine
 10
37.5
 20
57.7
 30
0.0
 11
40.3
 21
50.8
 31
0.0
  0
LINE
  5
4F
330
1E
100
AcDbEntity
  8
0
100
AcDbLine
 10
38.5
 20
57.9
 30
0.0
 11
41.2
 21
51.29999999999999
 31
0.0
  0
LINE
  5
53
330
1E
100
AcDbEntity
  8
0
100
AcDbLine
 10
40.1818
 20
5.09658999999999
 30
0.0
 11
48.233
 21
2.363639999999989
 31
0.0
  0
LINE
  5
54
330
1E
100
AcDbEntity
  8
0
100
AcDbLine
 10
41.2
 20
51.29999999999999
 30
0.0
 11
45.6
 21
45.6
 31
0.0
  0
LINE
  5
55
330
1E
100
AcDbEntity
  8
0
100
AcDbLine
 10
40.3
 20
50.8
 30
0.0
 11
44.9
 21
44.9
 31
0.0
  0
LINE
  5
56
330
1E
100
AcDbEntity
  8
0
100
AcDbLine
 10
39.5
 20
50.3
 30
0.0
 11
44.2
 21
44.2
 31
0.0
  0
LINE
  5
57
330
1E
100
AcDbEntity
  8
0
100
AcDbLine
 10
39.0
 20
50.1
 30
0.0
 11
43.79999999999999
 21
43.79999999999999
 31
0.0
  0
LINE
  5
58
330
1E
100
AcDbEntity
  8
0
100
AcDbLine
 10
42.9886
 20
11.892
 30
0.0
 11
50.1534
 21
9.45454999999999
 31
0.0
  0
LINE
  5
59
330
1E
100
AcDbEntity
  8
0
100
AcDbLine
 10
48.233
 20
2.363639999999989
 30
0.0
 11
56.5057
 21
0.664772999999991
 31
0.0
  0
LINE
  5
5A
330
1E
100
AcDbEntity
  8
0
100
AcDbLine
 10
44.9
 20
44.9
 30
0.0
 11
50.8
 21
40.3
 31
0.0
  0
LINE
  5
5B
330
1E
100
AcDbEntity
  8
0
100
AcDbLine
 10
44.2
 20
44.2
 30
0.0
 11
50.3
 21
39.5
 31
0.0
  0
LINE
  5
5C
330
1E
100
AcDbEntity
  8
0
100
AcDbLine
 10
45.6
 20
45.6
 30
0.0
 11
51.29999999999999
 21
41.2
 31
0.0
  0
LINE
  5
5D
330
1E
100
AcDbEntity
  8
0
100
AcDbLine
 10
47.7
 20
55.1
 30
0.0
 11
50.89999999999999
 21
50.89999999999999
 31
0.0
  0
LINE
  5
5E
330
1E
100
AcDbEntity
  8
0
100
AcDbLine
 10
47.2
 20
54.8
 30
0.0
 11
50.5
 21
50.5
 31
0.0
  0
LINE
  5
5F
330
1E
100
AcDbEntity
  8
0
100
AcDbLine
 10
45.7
 20
59.9
 30
0.0
 11
47.7
 21
55.1
 31
0.0
  0
LINE
  5
60
330
1E
100
AcDbEntity
  8
0
100
AcDbLine
 10
45.2
 20
59.7
 30
0.0
 11
47.2
 21
54.8
 31
0.0
  0
LINE
  5
61
330
1E
100
AcDbEntity
  8
0
100
AcDbLine
 10
50.1534
 20
9.45454999999999
 30
0.0
 11
57.5398
 21
7.97726999999999
 31
0.0
  0
LINE
  5
62
330
1E
100
AcDbEntity
  8
0
100
AcDbLine
 10
50.3
 20
39.5
 30
0.0
 11
57.4
 21
36.6
 31
0.0
  0
LINE
  5
63
330
1E
100
AcDbEntity
  8
0
100
AcDbLine
 10
50.1
 20
39.0
 30
0.0
 11
57.3
 21
36.1
 31
0.0
  0
LINE
  5
64
330
1E
100
AcDbEntity
  8
0
100
AcDbLine
 10
51.29999999999999
 20
41.2
 30
0.0
 11
57.9
 21
38.5
 31
0.0
  0
LINE
  5
66
330
1E
100
AcDbEntity
  8
0
100
AcDbLine
 10
50.8
 20
40.3
 30
0.0
 11
57.7
 21
37.5
 31
0.0
  0
LINE
  5
67
330
1E
100
AcDbEntity
  8
0
100
AcDbLine
 10
50.5
 20
50.5
 30
0.0
 11
54.8
 21
47.2
 31
0.0
  0
LINE
  5
68
330
1E
100
AcDbEntity
  8
0
100
AcDbLine
 10
50.89999999999999
 20
50.89999999999999
 30
0.0
 11
55.1
 21
47.7
 31
0.0
  0
LINE
  5
69
330
1E
100
AcDbEntity
  8
0
100
AcDbLine
 10
54.8
 20
47.2
 30
0.0
 11
59.7
 21
45.2
 31
0.0
  0
LINE
  5
6A
330
1E
100
AcDbEntity
  8
0
100
AcDbLine
 10
55.1
 20
47.7
 30
0.0
 11
59.9
 21
45.7
 31
0.0
  0
LINE
  5
6B
330
1E
100
AcDbEntity
  8
0
100
AcDbLine
 10
56.5057
 20
0.664772999999991
 30
0.0
 11
65.0
 21
-0.0000000000000088
 31
0.0
  0
LINE
  5
6C
330
1E
100
AcDbEntity
  8
0
100
AcDbLine
 10
56.5057
 20
0.664772999999991
 30
0.0
 11
65.0
 21
-0.0000000000000088
 31
0.0
  0
LINE
  5
6D
330
1E
100
AcDbEntity
  8
0
100
AcDbLine
 10
56.5
 20
56.5
 30
0.0
 11
59.0
 21
54.5777
 31
0.0
  0
LINE
  5
6E
330
1E
100
AcDbEntity
  8
0
100
AcDbLine
 10
55.7
 20
55.7
 30
0.0
 11
58.39999999999999
 21
53.6
 31
0.0
  0
LINE
  5
6F
330
1E
100
AcDbEntity
  8
0
100
AcDbLine
 10
54.5777
 20
59.0
 30
0.0
 11
56.5
 21
56.5
 31
0.0
  0
LINE
  5
70
330
1E
100
AcDbEntity
  8
0
100
AcDbLine
 10
53.6
 20
58.39999999999999
 30
0.0
 11
55.7
 21
55.7
 31
0.0
  0
LINE
  5
71
330
1E
100
AcDbEntity
  8
0
100
AcDbLine
 10
55.89999999999999
 20
59.8
 30
0.0
 11
57.6
 21
57.6
 31
0.0
  0
LINE
  5
72
330
1E
100
AcDbEntity
  8
0
100
AcDbLine
 10
57.5398
 20
7.97726999999999
 30
0.0
 11
65.0
 21
7.38635999999999
 31
0.0
  0
LINE
  5
73
330
1E
100
AcDbEntity
  8
0
100
AcDbLine
 10
57.3
 20
36.1
 30
0.0
 11
65.0
 21
35.0
 31
0.0
  0
LINE
  5
74
330
1E
100
AcDbEntity
  8
0
100
AcDbLine
 10
57.9
 20
38.5
 30
0.0
 11
63.4565217391304
 21
37.7173913043478
 31
0.0
  0
LINE
  5
75
330
1E
100
AcDbEntity
  8
0
100
AcDbLine
 10
57.7
 20
37.5
 30
0.0
 11
63.6633802816901
 21
36.68309859154929
 31
0.0
  0
LINE
  5
76
330
1E
100
AcDbEntity
  8
0
100
AcDbLine
 10
57.4
 20
36.6
 30
0.0
 11
65.0
 21
35.5
 31
0.0
  0
LINE
  5
77
330
1E
100
AcDbEntity
  8
0
100
AcDbLine
 10
59.7
 20
45.2
 30
0.0
 11
62.7906145783707
 21
44.7918056217246
 31
0.0
  0
LINE
  5
78
330
1E
100
AcDbEntity
  8
0
100
AcDbLine
 10
59.9
 20
45.7
 30
0.0
 11
62.75185735512629
 21
45.308568598316
 31
0.0
  0
LINE
  5
79
330
1E
100
AcDbEntity
  8
0
100
AcDbLine
 10
63.0
 20
42.0
 30
0.0
 11
63.2
 21
39.0
 31
0.0
  0
LINE
  5
80
330
1E
100
AcDbEntity
  8
0
100
AcDbLine
 10
63.2
 20
39.0
 30
0.0
 11
63.7
 21
36.5
 31
0.0
  0
LINE
  5
81
330
1E
100
AcDbEntity
  8
0
100
AcDbLine
 10
63.7
 20
36.5
 30
0.0
 11
64.2
 21
36.0
 31
0.0
  0
LINE
  5
82
330
1E
100
AcDbEntity
  8
0
100
AcDbLine
 10
65.0
 20
7.38635999999999
 30
0.0
 11
72.4602
 21
7.97726999999999
 31
0.0
  0
LINE
  5
83
330
1E
100
AcDbEntity
  8
0
100
AcDbLine
 10
65.0
 20
-0.0000000000000088
 30
0.0
 11
73.49429999999999
 21
0.664772999999991
 31
0.0
  0
LINE
  5
84
330
1E
100
AcDbEntity
  8
0
100
AcDbLine
 10
65.0
 20
-0.0000000000000088
 30
0.0
 11
73.49429999999999
 21
0.664772999999991
 31
0.0
  0
LINE
  5
85
330
1E
100
AcDbEntity
  8
0
100
AcDbLine
 10
65.0
 20
35.5
 30
0.0
 11
72.59999999999999
 21
36.6
 31
0.0
  0
LINE
  5
86
330
1E
100
AcDbEntity
  8
0
100
AcDbLine
 10
65.0
 20
35.0
 30
0.0
 11
72.7
 21
36.1
 31
0.0
  0
LINE
  5
87
330
1E
100
AcDbEntity
  8
0
100
AcDbLine
 10
65.0
 20
36.0
 30
0.0
 11
65.8
 21
36.0
 31
0.0
  0
LINE
  5
88
330
1E
100
AcDbEntity
  8
0
100
AcDbLine
 10
100.011
 20
19.35229999999999
 30
0.0
 11
105.699
 21
24.3011
 31
0.0
  0
LINE
  5
89
330
1E
100
AcDbEntity
  8
0
100
AcDbLine
 10
93.65909999999999
 20
15.0682
 30
0.0
 11
100.011
 21
19.35229999999999
 31
0.0
  0
LINE
  5
8A
330
1E
100
AcDbEntity
  8
0
100
AcDbLine
 10
87.0114
 20
11.892
 30
0.0
 11
93.65909999999999
 21
15.0682
 31
0.0
  0
LINE
  5
8B
330
1E
100
AcDbEntity
  8
0
100
AcDbLine
 10
79.84659999999999
 20
9.45454999999999
 30
0.0
 11
87.0114
 21
11.892
 31
0.0
  0
LINE
  5
8C
330
1E
100
AcDbEntity
  8
0
100
AcDbLine
 10
72.4602
 20
7.97726999999999
 30
0.0
 11
79.84659999999999
 21
9.45454999999999
 31
0.0
  0
LINE
  5
8D
330
1E
100
AcDbEntity
  8
0
100
AcDbLine
 10
105.699
 20
24.3011
 30
0.0
 11
110.6479999999999
 21
29.9886
 31
0.0
  0
LINE
  5
8E
330
1E
100
AcDbEntity
  8
0
100
AcDbLine
 10
110.6479999999999
 20
29.9886
 30
0.0
 11
114.932
 21
36.3409
 31
0.0
  0
LINE
  5
8F
330
1E
100
AcDbEntity
  8
0
100
AcDbLine
 10
121.2839999999999
 20
32.6477
 30
0.0
 11
124.9029999999999
 21
40.1818
 31
0.0
  0
LINE
  5
90
330
1E
100
AcDbEntity
  8
0
100
AcDbLine
 10
116.483
 20
25.483
 30
0.0
 11
121.2839999999999
 21
32.6477
 31
0.0
  0
LINE
  5
91
330
1E
100
AcDbEntity
  8
0
100
AcDbLine
 10
104.517
 20
13.517
 30
0.0
 11
110.8689999999999
 21
19.1307
 31
0.0
  0
LINE
  5
92
330
1E
100
AcDbEntity
  8
0
100
AcDbLine
 10
89.8182
 20
5.09658999999999
 30
0.0
 11
97.35230000000001
 21
8.71590999999999
 31
0.0
  0
LINE
  5
93
330
1E
100
AcDbEntity
  8
0
100
AcDbLine
 10
65.8
 20
36.0
 30
0.0
 11
65.8
 21
36.3562
 31
0.0
  0
LINE
  5
94
330
1E
100
AcDbEntity
  8
0
100
AcDbLine
 10
65.8
 20
36.0
 30
0.0
 11
66.29999999999999
 21
36.5
 31
0.0
  0
LINE
  5
95
330
1E
100
AcDbEntity
  8
0
100
AcDbLine
 10
64.2
 20
42.0229
 30
0.0
 11
64.2
 21
40.1252
 31
0.0
  0
LINE
  5
96
330
1E
100
AcDbEntity
  8
0
100
AcDbLine
 10
64.2
 20
40.1252
 30
0.0
 11
64.2
 21
38.6253
 31
0.0
  0
LINE
  5
97
330
1E
100
AcDbEntity
  8
0
100
AcDbLine
 10
64.2
 20
40.1252
 30
0.0
 11
64.2
 21
42.0229
 31
0.0
  0
LINE
  5
98
330
1E
100
AcDbEntity
  8
0
100
AcDbLine
 10
64.2
 20
38.6253
 30
0.0
 11
64.2
 21
37.5292
 31
0.0
  0
LINE
  5
99
330
1E
100
AcDbEntity
  8
0
100
AcDbLine
 10
64.2
 20
38.6253
 30
0.0
 11
64.2
 21
40.1252
 31
0.0
  0
LINE
  5
9A
330
1E
100
AcDbEntity
  8
0
100
AcDbLine
 10
64.2
 20
37.5292
 30
0.0
 11
64.2
 21
36.8754
 31
0.0
  0
LINE
  5
9B
330
1E
100
AcDbEntity
  8
0
100
AcDbLine
 10
64.2
 20
37.5292
 30
0.0
 11
64.2
 21
38.6253
 31
0.0
  0
LINE
  5
9C
330
1E
100
AcDbEntity
  8
0
100
AcDbLine
 10
64.2
 20
36.8754
 30
0.0
 11
64.2
 21
36.3562
 31
0.0
  0
LINE
  5
9D
330
1E
100
AcDbEntity
  8
0
100
AcDbLine
 10
64.2
 20
36.8754
 30
0.0
 11
64.2
 21
37.5292
 31
0.0
  0
LINE
  5
9E
330
1E
100
AcDbEntity
  8
0
100
AcDbLine
 10
65.8
 20
40.1252
 30
0.0
 11
65.8
 21
42.0229
 31
0.0
  0
LINE
  5
9F
330
1E
100
AcDbEntity
  8
0
100
AcDbLine
 10
65.8
 20
40.1252
 30
0.0
 11
65.8
 21
38.6253
 31
0.0
  0
LINE
  5
A0
330
1E
100
AcDbEntity
  8
0
100
AcDbLine
 10
65.8
 20
38.6253
 30
0.0
 11
65.8
 21
40.1252
 31
0.0
  0
LINE
  5
A1
330
1E
100
AcDbEntity
  8
0
100
AcDbLine
 10
65.8
 20
38.6253
 30
0.0
 11
65.8
 21
37.5292
 31
0.0
  0
LINE
  5
A2
330
1E
100
AcDbEntity
  8
0
100
AcDbLine
 10
65.8
 20
37.5292
 30
0.0
 11
65.8
 21
38.6253
 31
0.0
  0
LINE
  5
A3
330
1E
100
AcDbEntity
  8
0
100
AcDbLine
 10
65.8
 20
37.5292
 30
0.0
 11
65.8
 21
36.8754
 31
0.0
  0
LINE
  5
A4
330
1E
100
AcDbEntity
  8
0
100
AcDbLine
 10
65.8
 20
36.8754
 30
0.0
 11
65.8
 21
37.5292
 31
0.0
  0
LINE
  5
A5
330
1E
100
AcDbEntity
  8
0
100
AcDbLine
 10
65.8
 20
36.8754
 30
0.0
 11
65.8
 21
36.3562
 31
0.0
  0
LINE
  5
A6
330
1E
100
AcDbEntity
  8
0
100
AcDbLine
 10
66.33661971830979
 20
36.68309859154929
 30
0.0
 11
72.3
 21
37.5
 31
0.0
  0
LINE
  5
A7
330
1E
100
AcDbEntity
  8
0
100
AcDbLine
 10
66.3366197183099
 20
36.68309859154929
 30
0.0
 11
72.3
 21
37.5
 31
0.0
  0
LINE
  5
A8
330
1E
100
AcDbEntity
  8
0
100
AcDbLine
 10
114.932
 20
36.3409
 30
0.0
 11
118.1079999999999
 21
42.9886
 31
0.0
  0
LINE
  5
A9
330
1E
100
AcDbEntity
  8
0
100
AcDbLine
 10
72.59999999999999
 20
36.6
 30
0.0
 11
79.7
 21
39.5
 31
0.0
  0
LINE
  5
AA
330
1E
100
AcDbEntity
  8
0
100
AcDbLine
 10
72.7
 20
36.1
 30
0.0
 11
79.90000000000001
 21
39.0
 31
0.0
  0
LINE
  5
AB
330
1E
100
AcDbEntity
  8
0
100
AcDbLine
 10
66.29999999999999
 20
36.5
 30
0.0
 11
66.79999999999999
 21
39.0
 31
0.0
  0
LINE
  5
AF
330
1E
100
AcDbEntity
  8
0
100
AcDbLine
 10
72.09999999999999
 20
38.5
 30
0.0
 11
78.7
 21
41.2
 31
0.0
  0
LINE
  5
B0
330
1E
100
AcDbEntity
  8
0
100
AcDbLine
 10
66.54347826086961
 20
37.7173913043478
 30
0.0
 11
72.09999999999999
 21
38.5
 31
0.0
  0
LINE
  5
B1
330
1E
100
AcDbEntity
  8
0
100
AcDbLine
 10
72.3
 20
37.5
 30
0.0
 11
79.2
 21
40.3
 31
0.0
  0
LINE
  5
B2
330
1E
100
AcDbEntity
  8
0
100
AcDbLine
 10
79.90000000000001
 20
39.0
 30
0.0
 11
86.2
 21
43.79999999999999
 31
0.0
  0
LINE
  5
B3
330
1E
100
AcDbEntity
  8
0
100
AcDbLine
 10
78.7
 20
41.2
 30
0.0
 11
84.40000000000001
 21
45.6
 31
0.0
  0
LINE
  5
B5
330
1E
100
AcDbEntity
  8
0
100
AcDbLine
 10
79.2
 20
40.3
 30
0.0
 11
85.09999999999999
 21
44.9
 31
0.0
  0
LINE
  5
B6
330
1E
100
AcDbEntity
  8
0
100
AcDbLine
 10
124.9029999999999
 20
40.1818
 30
0.0
 11
127.636
 21
48.233
 31
0.0
  0
LINE
  5
B7
330
1E
100
AcDbEntity
  8
0
100
AcDbLine
 10
79.7
 20
39.5
 30
0.0
 11
85.8
 21
44.2
 31
0.0
  0
LINE
  5
B8
330
1E
100
AcDbEntity
  8
0
100
AcDbLine
 10
66.79999999999999
 20
39.0
 30
0.0
 11
67.0
 21
42.0
 31
0.0
  0
LINE
  5
BC
330
1E
100
AcDbEntity
  8
0
100
AcDbLine
 10
65.8
 20
36.3562
 30
0.0
 11
65.8
 21
36.8754
 31
0.0
  0
LINE
  5
BD
330
1E
100
AcDbEntity
  8
0
100
AcDbLine
 10
65.8
 20
36.3562
 30
0.0
 11
65.8
 21
36.0
 31
0.0
  0
LINE
  5
BE
330
1E
100
AcDbEntity
  8
0
100
AcDbLine
 10
67.20938542162929
 20
44.7918056217246
 30
0.0
 11
70.3
 21
45.2
 31
0.0
  0
LINE
  5
BF
330
1E
100
AcDbEntity
  8
0
100
AcDbLine
 10
67.2481426448737
 20
45.308568598316
 30
0.0
 11
70.09999999999999
 21
45.7
 31
0.0
  0
LINE
  5
C0
330
1E
100
AcDbEntity
  8
0
100
AcDbLine
 10
65.8
 20
42.0229
 30
0.0
 11
66.09999999999999
 21
45.998
 31
0.0
  0
LINE
  5
C1
330
1E
100
AcDbEntity
  8
0
100
AcDbLine
 10
65.8
 20
42.0229
 30
0.0
 11
65.8
 21
40.1252
 31
0.0
  0
LINE
  5
C2
330
1E
100
AcDbEntity
  8
0
100
AcDbLine
 10
66.09999999999999
 20
45.998
 30
0.0
 11
67.1464
 21
49.54209999999999
 31
0.0
  0
LINE
  5
C3
330
1E
100
AcDbEntity
  8
0
100
AcDbLine
 10
66.09999999999999
 20
45.998
 30
0.0
 11
67.1464
 21
49.54209999999999
 31
0.0
  0
LINE
  5
C4
330
1E
100
AcDbEntity
  8
0
100
AcDbLine
 10
118.1079999999999
 20
42.9886
 30
0.0
 11
120.545
 21
50.1534
 31
0.0
  0
LINE
  5
C5
330
1E
100
AcDbEntity
  8
0
100
AcDbLine
 10
70.3
 20
45.2
 30
0.0
 11
75.2
 21
47.2
 31
0.0
  0
LINE
  5
C6
330
1E
100
AcDbEntity
  8
0
100
AcDbLine
 10
70.09999999999999
 20
45.7
 30
0.0
 11
74.90000000000001
 21
47.7
 31
0.0
  0
LINE
  5
C7
330
1E
100
AcDbEntity
  8
0
100
AcDbLine
 10
84.40000000000001
 20
45.6
 30
0.0
 11
88.8
 21
51.29999999999999
 31
0.0
  0
LINE
  5
C8
330
1E
100
AcDbEntity
  8
0
100
AcDbLine
 10
85.09999999999999
 20
44.9
 30
0.0
 11
89.7
 21
50.8
 31
0.0
  0
LINE
  5
C9
330
1E
100
AcDbEntity
  8
0
100
AcDbLine
 10
85.8
 20
44.2
 30
0.0
 11
90.5
 21
50.3
 31
0.0
  0
LINE
  5
CA
330
1E
100
AcDbEntity
  8
0
100
AcDbLine
 10
86.2
 20
43.79999999999999
 30
0.0
 11
91.0
 21
50.1
 31
0.0
  0
LINE
  5
CB
330
1E
100
AcDbEntity
  8
0
100
AcDbLine
 10
67.3
 20
46.0
 30
0.0
 11
68.22960000000001
 21
48.88609999999999
 31
0.0
  0
LINE
  5
CC
330
1E
100
AcDbEntity
  8
0
100
AcDbLine
 10
67.0
 20
42.0
 30
0.0
 11
67.3
 21
46.0
 31
0.0
  0
LINE
  5
CD
330
1E
100
AcDbEntity
  8
0
100
AcDbLine
 10
64.2
 20
36.3562
 30
0.0
 11
64.2
 21
36.0
 31
0.0
  0
LINE
  5
CE
330
1E
100
AcDbEntity
  8
0
100
AcDbLine
 10
64.2
 20
36.3562
 30
0.0
 11
64.2
 21
36.8754
 31
0.0
  0
LINE
  5
CF
330
1E
100
AcDbEntity
  8
0
100
AcDbLine
 10
64.2
 20
36.0
 30
0.0
 11
65.0
 21
36.0
 31
0.0
  0
LINE
  5
D0
330
1E
100
AcDbEntity
  8
0
100
AcDbLine
 10
64.2
 20
36.0
 30
0.0
 11
64.2
 21
36.3562
 31
0.0
  0
LINE
  5
D1
330
1E
100
AcDbEntity
  8
0
100
AcDbLine
 10
63.9
 20
45.998
 30
0.0
 11
64.2
 21
42.0229
 31
0.0
  0
LINE
  5
D2
330
1E
100
AcDbEntity
  8
0
100
AcDbLine
 10
59.0
 20
54.5777
 30
0.0
 11
61.00979999999999
 21
52.29600000000001
 31
0.0
  0
LINE
  5
D3
330
1E
100
AcDbEntity
  8
0
100
AcDbLine
 10
58.39999999999999
 20
53.6
 30
0.0
 11
60.2492
 21
51.6072
 31
0.0
  0
LINE
  5
D4
330
1E
100
AcDbEntity
  8
0
100
AcDbLine
 10
57.6
 20
57.6
 30
0.0
 11
59.8
 21
55.89999999999999
 31
0.0
  0
LINE
  5
D5
330
1E
100
AcDbEntity
  8
0
100
AcDbLine
 10
59.8
 20
55.89999999999999
 30
0.0
 11
62.3
 21
54.9
 31
0.0
  0
LINE
  5
D6
330
1E
100
AcDbEntity
  8
0
100
AcDbLine
 10
61.00979999999999
 20
52.29600000000001
 30
0.0
 11
62.8536
 21
49.54209999999999
 31
0.0
  0
LINE
  5
D7
330
1E
100
AcDbEntity
  8
0
100
AcDbLine
 10
60.2492
 20
51.6072
 30
0.0
 11
61.7704
 21
48.88609999999999
 31
0.0
  0
LINE
  5
D8
330
1E
100
AcDbEntity
  8
0
100
AcDbLine
 10
75.2
 20
47.2
 30
0.0
 11
79.5
 21
50.5
 31
0.0
  0
LINE
  5
D9
330
1E
100
AcDbEntity
  8
0
100
AcDbLine
 10
74.90000000000001
 20
47.7
 30
0.0
 11
79.1
 21
50.89999999999999
 31
0.0
  0
LINE
  5
DA
330
1E
100
AcDbEntity
  8
0
100
AcDbLine
 10
67.1464
 20
49.54209999999999
 30
0.0
 11
68.9902
 21
52.29600000000001
 31
0.0
  0
LINE
  5
DB
330
1E
100
AcDbEntity
  8
0
100
AcDbLine
 10
68.22960000000001
 20
48.88609999999999
 30
0.0
 11
69.7508
 21
51.6072
 31
0.0
  0
LINE
  5
DC
330
1E
100
AcDbEntity
  8
0
100
AcDbLine
 10
62.8536
 20
49.54209999999999
 30
0.0
 11
63.9
 21
45.998
 31
0.0
  0
LINE
  5
DD
330
1E
100
AcDbEntity
  8
0
100
AcDbLine
 10
67.7
 20
54.9
 30
0.0
 11
70.2
 21
55.89999999999999
 31
0.0
  0
LINE
  5
DE
330
1E
100
AcDbEntity
  8
0
100
AcDbLine
 10
65.0
 20
54.5
 30
0.0
 11
67.7
 21
54.9
 31
0.0
  0
LINE
  5
DF
330
1E
100
AcDbEntity
  8
0
100
AcDbLine
 10
68.9902
 20
52.29600000000001
 30
0.0
 11
71.0
 21
54.5777
 31
0.0
  0
LINE
  5
E0
330
1E
100
AcDbEntity
  8
0
100
AcDbLine
 10
71.0
 20
54.5777
 30
0.0
 11
73.5
 21
56.5
 31
0.0
  0
LINE
  5
E1
330
1E
100
AcDbEntity
  8
0
100
AcDbLine
 10
79.1
 20
50.89999999999999
 30
0.0
 11
82.3
 21
55.1
 31
0.0
  0
LINE
  5
E2
330
1E
100
AcDbEntity
  8
0
100
AcDbLine
 10
79.5
 20
50.5
 30
0.0
 11
82.79999999999999
 21
54.8
 31
0.0
  0
LINE
  5
E3
330
1E
100
AcDbEntity
  8
0
100
AcDbLine
 10
82.3
 20
55.1
 30
0.0
 11
84.29999999999999
 21
59.9
 31
0.0
  0
LINE
  5
E4
330
1E
100
AcDbEntity
  8
0
100
AcDbLine
 10
88.8
 20
51.29999999999999
 30
0.0
 11
91.5
 21
57.9
 31
0.0
  0
LINE
  5
E6
330
1E
100
AcDbEntity
  8
0
100
AcDbLine
 10
89.7
 20
50.8
 30
0.0
 11
92.5
 21
57.7
 31
0.0
  0
LINE
  5
E7
330
1E
100
AcDbEntity
  8
0
100
AcDbLine
 10
120.545
 20
50.1534
 30
0.0
 11
122.0229999999999
 21
57.5398
 31
0.0
  0
LINE
  5
E8
330
1E
100
AcDbEntity
  8
0
100
AcDbLine
 10
90.5
 20
50.3
 30
0.0
 11
93.40000000000001
 21
57.4
 31
0.0
  0
LINE
  5
E9
330
1E
100
AcDbEntity
  8
0
100
AcDbLine
 10
91.0
 20
50.1
 30
0.0
 11
93.9
 21
57.3
 31
0.0
  0
LINE
  5
EA
330
1E
100
AcDbEntity
  8
0
100
AcDbLine
 10
82.79999999999999
 20
54.8
 30
0.0
 11
84.8
 21
59.7
 31
0.0
  0
LINE
  5
EB
330
1E
100
AcDbEntity
  8
0
100
AcDbLine
 10
74.29999999999999
 20
55.7
 30
0.0
 11
76.4
 21
58.39999999999999
 31
0.0
  0
LINE
  5
EC
330
1E
100
AcDbEntity
  8
0
100
AcDbLine
 10
71.6
 20
53.6
 30
0.0
 11
74.29999999999999
 21
55.7
 31
0.0
  0
LINE
  5
ED
330
1E
100
AcDbEntity
  8
0
100
AcDbLine
 10
73.5
 20
56.5
 30
0.0
 11
75.4223
 21
59.0
 31
0.0
  0
LINE
  5
EE
330
1E
100
AcDbEntity
  8
0
100
AcDbLine
 10
72.40000000000001
 20
57.6
 30
0.0
 11
74.1
 21
59.8
 31
0.0
  0
LINE
  5
F0
330
1E
100
AcDbEntity
  8
0
100
AcDbLine
 10
91.5
 20
57.9
 30
0.0
 11
92.2826086956522
 21
63.4565217391304
 31
0.0
  0
LINE
  5
F1
330
1E
100
AcDbEntity
  8
0
100
AcDbLine
 10
92.5
 20
57.7
 30
0.0
 11
93.3169014084507
 21
63.6633802816901
 31
0.0
  0
LINE
  5
F2
330
1E
100
AcDbEntity
  8
0
100
AcDbLine
 10
93.40000000000001
 20
57.4
 30
0.0
 11
94.50000000000001
 21
65.0
 31
0.0
  0
LINE
  5
F3
330
1E
100
AcDbEntity
  8
0
100
AcDbLine
 10
122.0229999999999
 20
57.5398
 30
0.0
 11
122.614
 21
65.0
 31
0.0
  0
LINE
  5
F4
330
1E
100
AcDbEntity
  8
0
100
AcDbLine
 10
129.335
 20
56.5057
 30
0.0
 11
130.0
 21
65.0
 31
0.0
  0
LINE
  5
F5
330
1E
100
AcDbEntity
  8
0
100
AcDbLine
 10
93.9
 20
57.3
 30
0.0
 11
95.0
 21
65.0
 31
0.0
  0
LINE
  5
F6
330
1E
100
AcDbEntity
  8
0
100
AcDbLine
 10
84.29999999999999
 20
59.9
 30
0.0
 11
84.691431401684
 21
62.75185735512629
 31
0.0
  0
LINE
  5
F7
330
1E
100
AcDbEntity
  8
0
100
AcDbLine
 10
84.8
 20
59.7
 30
0.0
 11
85.2081943782754
 21
62.7906145783707
 31
0.0
  0
LINE
  5
F8
330
1E
100
AcDbEntity
  8
0
100
AcDbLine
 10
75.4223
 20
59.0
 30
0.0
 11
77.70399999999999
 21
61.00979999999999
 31
0.0
  0
LINE
  5
F9
330
1E
100
AcDbEntity
  8
0
100
AcDbLine
 10
76.4
 20
58.39999999999999
 30
0.0
 11
78.39279999999999
 21
60.2492
 31
0.0
  0
LINE
  5
FA
330
1E
100
AcDbEntity
  8
0
100
AcDbLine
 10
74.1
 20
59.8
 30
0.0
 11
75.09999999999999
 21
62.3
 31
0.0
  0
LINE
  5
FB
330
1E
100
AcDbEntity
  8
0
100
AcDbLine
 10
70.2
 20
55.89999999999999
 30
0.0
 11
72.40000000000001
 21
57.6
 31
0.0
  0
LINE
  5
FC
330
1E
100
AcDbEntity
  8
0
100
AcDbLine
 10
69.7508
 20
51.6072
 30
0.0
 11
71.6
 21
53.6
 31
0.0
  0
LINE
  5
FD
330
1E
100
AcDbEntity
  8
0
100
AcDbLine
 10
78.39279999999999
 20
60.2492
 30
0.0
 11
81.1139
 21
61.7704
 31
0.0
  0
LINE
  5
FE
330
1E
100
AcDbEntity
  8
0
100
AcDbLine
 10
62.3
 20
54.9
 30
0.0
 11
65.0
 21
54.5
 31
0.0
  0
LINE
  5
FF
330
1E
100
AcDbEntity
  8
0
100
AcDbLine
 10
62.8536
 20
49.54209999999999
 30
0.0
 11
63.9
 21
45.998
 31
0.0
  0
LINE
  5
100
330
1E
100
AcDbEntity
  8
0
100
AcDbLine
 10
61.7704
 20
48.88609999999999
 30
0.0
 11
62.7
 21
46.0
 31
0.0
  0
LINE
  5
101
330
1E
100
AcDbEntity
  8
0
100
AcDbLine
 10
62.7
 20
46.0
 30
0.0
 11
63.0
 21
42.0
 31
0.0
  0
LINE
  5
103
330
1E
100
AcDbEntity
  8
0
100
AcDbLine
 10
75.09999999999999
 20
62.3
 30
0.0
 11
75.5
 21
65.0
 31
0.0
  0
LINE
  5
104
330
1E
100
AcDbEntity
  8
0
100
AcDbLine
 10
77.70399999999999
 20
61.00979999999999
 30
0.0
 11
80.4579
 21
62.8536
 31
0.0
  0
LINE
  5
105
330
1E
100
AcDbEntity
  8
0
100
AcDbLine
 10
81.1139
 20
61.7704
 30
0.0
 11
84.0
 21
62.7
 31
0.0
  0
LINE
  5
106
330
1E
100
AcDbEntity
  8
0
100
AcDbLine
 10
84.0
 20
62.7
 30
0.0
 11
88.0
 21
63.0
 31
0.0
  0
LINE
  5
107
330
1E
100
AcDbEntity
  8
0
100
AcDbLine
 10
54.9
 20
62.3
 30
0.0
 11
55.89999999999999
 21
59.8
 31
0.0
  0
LINE
  5
108
330
1E
100
AcDbEntity
  8
0
100
AcDbLine
 10
52.29600000000001
 20
61.00979999999999
 30
0.0
 11
54.5777
 21
59.0
 31
0.0
  0
LINE
  5
109
330
1E
100
AcDbEntity
  8
0
100
AcDbLine
 10
51.6072
 20
60.2492
 30
0.0
 11
53.6
 21
58.39999999999999
 31
0.0
  0
LINE
  5
10A
330
1E
100
AcDbEntity
  8
0
100
AcDbLine
 10
48.88609999999999
 20
61.7704
 30
0.0
 11
51.6072
 21
60.2492
 31
0.0
  0
LINE
  5
10B
330
1E
100
AcDbEntity
  8
0
100
AcDbLine
 10
45.308568598316
 20
62.75185735512629
 30
0.0
 11
45.7
 21
59.9
 31
0.0
  0
LINE
  5
10C
330
1E
100
AcDbEntity
  8
0
100
AcDbLine
 10
44.7918056217246
 20
62.7906145783707
 30
0.0
 11
45.2
 21
59.7
 31
0.0
  0
LINE
  5
10D
330
1E
100
AcDbEntity
  8
0
100
AcDbLine
 10
88.0
 20
63.0
 30
0.0
 11
91.0
 21
63.2
 31
0.0
  0
LINE
  5
10E
330
1E
100
AcDbEntity
  8
0
100
AcDbLine
 10
91.0
 20
63.2
 30
0.0
 11
93.49999999999999
 21
63.7
 31
0.0
  0
LINE
  5
10F
330
1E
100
AcDbEntity
  8
0
100
AcDbLine
 10
80.4579
 20
62.8536
 30
0.0
 11
84.00200000000001
 21
63.9
 31
0.0
  0
LINE
  5
110
330
1E
100
AcDbEntity
  8
0
100
AcDbLine
 10
49.54209999999999
 20
62.8536
 30
0.0
 11
52.29600000000001
 21
61.00979999999999
 31
0.0
  0
LINE
  5
111
330
1E
100
AcDbEntity
  8
0
100
AcDbLine
 10
46.0
 20
62.7
 30
0.0
 11
48.88609999999999
 21
61.7704
 31
0.0
  0
LINE
  5
112
330
1E
100
AcDbEntity
  8
0
100
AcDbLine
 10
42.0
 20
63.0
 30
0.0
 11
46.0
 21
62.7
 31
0.0
  0
LINE
  5
116
330
1E
100
AcDbEntity
  8
0
100
AcDbLine
 10
93.49999999999999
 20
63.7
 30
0.0
 11
94.0
 21
64.2
 31
0.0
  0
LINE
  5
117
330
1E
100
AcDbEntity
  8
0
100
AcDbLine
 10
84.00200000000001
 20
63.9
 30
0.0
 11
87.9771
 21
64.2
 31
0.0
  0
LINE
  5
118
330
1E
100
AcDbEntity
  8
0
100
AcDbLine
 10
87.9771
 20
64.2
 30
0.0
 11
89.87479999999999
 21
64.2
 31
0.0
  0
LINE
  5
119
330
1E
100
AcDbEntity
  8
0
100
AcDbLine
 10
89.87479999999999
 20
64.2
 30
0.0
 11
91.3747
 21
64.2
 31
0.0
  0
LINE
  5
11A
330
1E
100
AcDbEntity
  8
0
100
AcDbLine
 10
91.3747
 20
64.2
 30
0.0
 11
92.4708
 21
64.2
 31
0.0
  0
LINE
  5
11B
330
1E
100
AcDbEntity
  8
0
100
AcDbLine
 10
92.4708
 20
64.2
 30
0.0
 11
93.12459999999999
 21
64.2
 31
0.0
  0
LINE
  5
11C
330
1E
100
AcDbEntity
  8
0
100
AcDbLine
 10
93.12459999999999
 20
64.2
 30
0.0
 11
93.6438
 21
64.2
 31
0.0
  0
LINE
  5
11D
330
1E
100
AcDbEntity
  8
0
100
AcDbLine
 10
93.6438
 20
64.2
 30
0.0
 11
94.0
 21
64.2
 31
0.0
  0
LINE
  5
11E
330
1E
100
AcDbEntity
  8
0
100
AcDbLine
 10
94.0
 20
64.2
 30
0.0
 11
94.0
 21
65.0
 31
0.0
  0
LINE
  5
11F
330
1E
100
AcDbEntity
  8
0
100
AcDbLine
 10
45.998
 20
63.9
 30
0.0
 11
49.54209999999999
 21
62.8536
 31
0.0
  0
LINE
  5
120
330
1E
100
AcDbEntity
  8
0
100
AcDbLine
 10
42.0229
 20
64.2
 30
0.0
 11
45.998
 21
63.9
 31
0.0
  0
LINE
  5
121
330
1E
100
AcDbEntity
  8
0
100
AcDbLine
 10
39.0
 20
63.2
 30
0.0
 11
42.0
 21
63.0
 31
0.0
  0
LINE
  5
123
330
1E
100
AcDbEntity
  8
0
100
AcDbLine
 10
40.1252
 20
64.2
 30
0.0
 11
42.0229
 21
64.2
 31
0.0
  0
LINE
  5
124
330
1E
100
AcDbEntity
  8
0
100
AcDbLine
 10
38.6253
 20
64.2
 30
0.0
 11
40.1252
 21
64.2
 31
0.0
  0
LINE
  5
125
330
1E
100
AcDbEntity
  8
0
100
AcDbLine
 10
37.5292
 20
64.2
 30
0.0
 11
38.6253
 21
64.2
 31
0.0
  0
LINE
  5
126
330
1E
100
AcDbEntity
  8
0
100
AcDbLine
 10
36.8754
 20
64.2
 30
0.0
 11
37.5292
 21
64.2
 31
0.0
  0
LINE
  5
127
330
1E
100
AcDbEntity
  8
0
100
AcDbLine
 10
40.1252
 20
65.8
 30
0.0
 11
42.0229
 21
65.8
 31
0.0
  0
LINE
  5
128
330
1E
100
AcDbEntity
  8
0
100
AcDbLine
 10
38.6253
 20
65.8
 30
0.0
 11
40.1252
 21
65.8
 31
0.0
  0
LINE
  5
129
330
1E
100
AcDbEntity
  8
0
100
AcDbLine
 10
37.5292
 20
65.8
 30
0.0
 11
38.6253
 21
65.8
 31
0.0
  0
LINE
  5
12D
330
1E
100
AcDbEntity
  8
0
100
AcDbLine
 10
36.8754
 20
65.8
 30
0.0
 11
37.5292
 21
65.8
 31
0.0
  0
LINE
  5
12E
330
1E
100
AcDbEntity
  8
0
100
AcDbLine
 10
36.3562
 20
65.8
 30
0.0
 11
36.8754
 21
65.8
 31
0.0
  0
LINE
  5
12F
330
1E
100
AcDbEntity
  8
0
100
AcDbLine
 10
37.7173913043478
 20
66.54347826086961
 30
0.0
 11
38.5
 21
72.09999999999999
 31
0.0
  0
LINE
  5
131
330
1E
100
AcDbEntity
  8
0
100
AcDbLine
 10
36.68309859154929
 20
66.3366197183099
 30
0.0
 11
37.5
 21
72.3
 31
0.0
  0
LINE
  5
132
330
1E
100
AcDbEntity
  8
0
100
AcDbLine
 10
39.0
 20
66.79999999999999
 30
0.0
 11
42.0
 21
67.0
 31
0.0
  0
LINE
  5
133
330
1E
100
AcDbEntity
  8
0
100
AcDbLine
 10
36.5
 20
66.29999999999999
 30
0.0
 11
39.0
 21
66.79999999999999
 31
0.0
  0
LINE
  5
134
330
1E
100
AcDbEntity
  8
0
100
AcDbLine
 10
45.998
 20
66.09999999999999
 30
0.0
 11
49.54209999999999
 21
67.1464
 31
0.0
  0
LINE
  5
135
330
1E
100
AcDbEntity
  8
0
100
AcDbLine
 10
42.0229
 20
65.8
 30
0.0
 11
45.998
 21
66.09999999999999
 31
0.0
  0
LINE
  5
136
330
1E
100
AcDbEntity
  8
0
100
AcDbLine
 10
38.5
 20
72.09999999999999
 30
0.0
 11
41.2
 21
78.7
 31
0.0
  0
LINE
  5
138
330
1E
100
AcDbEntity
  8
0
100
AcDbLine
 10
37.5
 20
72.3
 30
0.0
 11
40.3
 21
79.2
 31
0.0
  0
LINE
  5
139
330
1E
100
AcDbEntity
  8
0
100
AcDbLine
 10
36.6
 20
72.59999999999999
 30
0.0
 11
39.5
 21
79.7
 31
0.0
  0
LINE
  5
13A
330
1E
100
AcDbEntity
  8
0
100
AcDbLine
 10
41.2
 20
78.7
 30
0.0
 11
45.6
 21
84.40000000000001
 31
0.0
  0
LINE
  5
13C
330
1E
100
AcDbEntity
  8
0
100
AcDbLine
 10
40.3
 20
79.2
 30
0.0
 11
44.9
 21
85.09999999999999
 31
0.0
  0
LINE
  5
13D
330
1E
100
AcDbEntity
  8
0
100
AcDbLine
 10
39.5
 20
79.7
 30
0.0
 11
44.2
 21
85.8
 31
0.0
  0
LINE
  5
13E
330
1E
100
AcDbEntity
  8
0
100
AcDbLine
 10
39.0
 20
79.90000000000001
 30
0.0
 11
43.79999999999999
 21
86.2
 31
0.0
  0
LINE
  5
13F
330
1E
100
AcDbEntity
  8
0
100
AcDbLine
 10
36.1
 20
72.7
 30
0.0
 11
39.0
 21
79.90000000000001
 31
0.0
  0
LINE
  5
140
330
1E
100
AcDbEntity
  8
0
100
AcDbLine
 10
45.2
 20
70.3
 30
0.0
 11
47.2
 21
75.2
 31
0.0
  0
LINE
  5
141
330
1E
100
AcDbEntity
  8
0
100
AcDbLine
 10
44.7918056217246
 20
67.20938542162929
 30
0.0
 11
45.2
 21
70.3
 31
0.0
  0
LINE
  5
142
330
1E
100
AcDbEntity
  8
0
100
AcDbLine
 10
45.7
 20
70.09999999999999
 30
0.0
 11
47.7
 21
74.90000000000001
 31
0.0
  0
LINE
  5
143
330
1E
100
AcDbEntity
  8
0
100
AcDbLine
 10
45.308568598316
 20
67.2481426448737
 30
0.0
 11
45.7
 21
70.09999999999999
 31
0.0
  0
LINE
  5
144
330
1E
100
AcDbEntity
  8
0
100
AcDbLine
 10
45.6
 20
84.40000000000001
 30
0.0
 11
51.29999999999999
 21
88.8
 31
0.0
  0
LINE
  5
145
330
1E
100
AcDbEntity
  8
0
100
AcDbLine
 10
44.9
 20
85.09999999999999
 30
0.0
 11
50.8
 21
89.7
 31
0.0
  0
LINE
  5
146
330
1E
100
AcDbEntity
  8
0
100
AcDbLine
 10
44.2
 20
85.8
 30
0.0
 11
50.3
 21
90.5
 31
0.0
  0
LINE
  5
147
330
1E
100
AcDbEntity
  8
0
100
AcDbLine
 10
36.3409
 20
114.932
 30
0.0
 11
42.9886
 21
118.1079999999999
 31
0.0
  0
LINE
  5
148
330
1E
100
AcDbEntity
  8
0
100
AcDbLine
 10
42.9886
 20
118.1079999999999
 30
0.0
 11
50.1534
 21
120.545
 31
0.0
  0
LINE
  5
149
330
1E
100
AcDbEntity
  8
0
100
AcDbLine
 10
40.1818
 20
124.9029999999999
 30
0.0
 11
48.233
 21
127.636
 31
0.0
  0
LINE
  5
14A
330
1E
100
AcDbEntity
  8
0
100
AcDbLine
 10
49.54209999999999
 20
67.1464
 30
0.0
 11
52.29600000000001
 21
68.9902
 31
0.0
  0
LINE
  5
14B
330
1E
100
AcDbEntity
  8
0
100
AcDbLine
 10
47.2
 20
75.2
 30
0.0
 11
50.5
 21
79.5
 31
0.0
  0
LINE
  5
14C
330
1E
100
AcDbEntity
  8
0
100
AcDbLine
 10
47.7
 20
74.90000000000001
 30
0.0
 11
50.89999999999999
 21
79.1
 31
0.0
  0
LINE
  5
14D
330
1E
100
AcDbEntity
  8
0
100
AcDbLine
 10
50.5
 20
79.5
 30
0.0
 11
54.8
 21
82.79999999999999
 31
0.0
  0
LINE
  5
14E
330
1E
100
AcDbEntity
  8
0
100
AcDbLine
 10
50.89999999999999
 20
79.1
 30
0.0
 11
55.1
 21
82.3
 31
0.0
  0
LINE
  5
14F
330
1E
100
AcDbEntity
  8
0
100
AcDbLine
 10
51.29999999999999
 20
88.8
 30
0.0
 11
57.9
 21
91.5
 31
0.0
  0
LINE
  5
151
330
1E
100
AcDbEntity
  8
0
100
AcDbLine
 10
50.8
 20
89.7
 30
0.0
 11
57.7
 21
92.5
 31
0.0
  0
LINE
  5
152
330
1E
100
AcDbEntity
  8
0
100
AcDbLine
 10
50.3
 20
90.5
 30
0.0
 11
57.4
 21
93.40000000000001
 31
0.0
  0
LINE
  5
153
330
1E
100
AcDbEntity
  8
0
100
AcDbLine
 10
50.1534
 20
120.545
 30
0.0
 11
57.5398
 21
122.0229999999999
 31
0.0
  0
LINE
  5
154
330
1E
100
AcDbEntity
  8
0
100
AcDbLine
 10
48.233
 20
127.636
 30
0.0
 11
56.5057
 21
129.335
 31
0.0
  0
LINE
  5
155
330
1E
100
AcDbEntity
  8
0
100
AcDbLine
 10
50.1
 20
91.0
 30
0.0
 11
57.3
 21
93.9
 31
0.0
  0
LINE
  5
156
330
1E
100
AcDbEntity
  8
0
100
AcDbLine
 10
53.6
 20
71.6
 30
0.0
 11
55.7
 21
74.29999999999999
 31
0.0
  0
LINE
  5
157
330
1E
100
AcDbEntity
  8
0
100
AcDbLine
 10
52.29600000000001
 20
68.9902
 30
0.0
 11
54.5777
 21
71.0
 31
0.0
  0
LINE
  5
158
330
1E
100
AcDbEntity
  8
0
100
AcDbLine
 10
51.6072
 20
69.7508
 30
0.0
 11
53.6
 21
71.6
 31
0.0
  0
LINE
  5
159
330
1E
100
AcDbEntity
  8
0
100
AcDbLine
 10
48.88609999999999
 20
68.22960000000001
 30
0.0
 11
51.6072
 21
69.7508
 31
0.0
  0
LINE
  5
15A
330
1E
100
AcDbEntity
  8
0
100
AcDbLine
 10
46.0
 20
67.3
 30
0.0
 11
48.88609999999999
 21
68.22960000000001
 31
0.0
  0
LINE
  5
15B
330
1E
100
AcDbEntity
  8
0
100
AcDbLine
 10
42.0
 20
67.0
 30
0.0
 11
46.0
 21
67.3
 31
0.0
  0
LINE
  5
15C
330
1E
100
AcDbEntity
  8
0
100
AcDbLine
 10
54.5777
 20
71.0
 30
0.0
 11
56.5
 21
73.5
 31
0.0
  0
LINE
  5
15D
330
1E
100
AcDbEntity
  8
0
100
AcDbLine
 10
55.89999999999999
 20
70.2
 30
0.0
 11
57.6
 21
72.40000000000001
 31
0.0
  0
LINE
  5
15E
330
1E
100
AcDbEntity
  8
0
100
AcDbLine
 10
54.9
 20
67.7
 30
0.0
 11
55.89999999999999
 21
70.2
 31
0.0
  0
LINE
  5
15F
330
1E
100
AcDbEntity
  8
0
100
AcDbLine
 10
56.5
 20
73.5
 30
0.0
 11
59.0
 21
75.4223
 31
0.0
  0
LINE
  5
160
330
1E
100
AcDbEntity
  8
0
100
AcDbLine
 10
55.7
 20
74.29999999999999
 30
0.0
 11
58.39999999999999
 21
76.4
 31
0.0
  0
LINE
  5
161
330
1E
100
AcDbEntity
  8
0
100
AcDbLine
 10
57.6
 20
72.40000000000001
 30
0.0
 11
59.8
 21
74.1
 31
0.0
  0
LINE
  5
162
330
1E
100
AcDbEntity
  8
0
100
AcDbLine
 10
59.8
 20
74.1
 30
0.0
 11
62.3
 21
75.09999999999999
 31
0.0
  0
LINE
  5
163
330
1E
100
AcDbEntity
  8
0
100
AcDbLine
 10
59.0
 20
75.4223
 30
0.0
 11
61.00979999999999
 21
77.70399999999999
 31
0.0
  0
LINE
  5
164
330
1E
100
AcDbEntity
  8
0
100
AcDbLine
 10
58.39999999999999
 20
76.4
 30
0.0
 11
60.2492
 21
78.39279999999999
 31
0.0
  0
LINE
  5
165
330
1E
100
AcDbEntity
  8
0
100
AcDbLine
 10
61.00979999999999
 20
77.70399999999999
 30
0.0
 11
62.8536
 21
80.4579
 31
0.0
  0
LINE
  5
166
330
1E
100
AcDbEntity
  8
0
100
AcDbLine
 10
54.8
 20
82.79999999999999
 30
0.0
 11
59.7
 21
84.8
 31
0.0
  0
LINE
  5
167
330
1E
100
AcDbEntity
  8
0
100
AcDbLine
 10
55.1
 20
82.3
 30
0.0
 11
59.9
 21
84.29999999999999
 31
0.0
  0
LINE
  5
168
330
1E
100
AcDbEntity
  8
0
100
AcDbLine
 10
60.2492
 20
78.39279999999999
 30
0.0
 11
61.7704
 21
81.1139
 31
0.0
  0
LINE
  5
169
330
1E
100
AcDbEntity
  8
0
100
AcDbLine
 10
62.3
 20
75.09999999999999
 30
0.0
 11
65.0
 21
75.5
 31
0.0
  0
LINE
  5
16A
330
1E
100
AcDbEntity
  8
0
100
AcDbLine
 10
65.0
 20
75.5
 30
0.0
 11
67.7
 21
75.09999999999999
 31
0.0
  0
LINE
  5
16B
330
1E
100
AcDbEntity
  8
0
100
AcDbLine
 10
62.8536
 20
80.4579
 30
0.0
 11
63.9
 21
84.00200000000001
 31
0.0
  0
LINE
  5
16C
330
1E
100
AcDbEntity
  8
0
100
AcDbLine
 10
61.7704
 20
81.1139
 30
0.0
 11
62.7
 21
84.0
 31
0.0
  0
LINE
  5
16D
330
1E
100
AcDbEntity
  8
0
100
AcDbLine
 10
59.7
 20
84.8
 30
0.0
 11
62.7906145783707
 21
85.2081943782754
 31
0.0
  0
LINE
  5
16E
330
1E
100
AcDbEntity
  8
0
100
AcDbLine
 10
59.9
 20
84.29999999999999
 30
0.0
 11
62.75185735512629
 21
84.691431401684
 31
0.0
  0
LINE
  5
16F
330
1E
100
AcDbEntity
  8
0
100
AcDbLine
 10
64.2
 20
87.9771
 30
0.0
 11
64.2
 21
89.87479999999999
 31
0.0
  0
LINE
  5
170
330
1E
100
AcDbEntity
  8
0
100
AcDbLine
 10
63.9
 20
84.00200000000001
 30
0.0
 11
64.2
 21
87.9771
 31
0.0
  0
LINE
  5
171
330
1E
100
AcDbEntity
  8
0
100
AcDbLine
 10
62.7
 20
84.0
 30
0.0
 11
63.0
 21
88.0
 31
0.0
  0
LINE
  5
172
330
1E
100
AcDbEntity
  8
0
100
AcDbLine
 10
66.09999999999999
 20
84.00200000000001
 30
0.0
 11
67.1464
 21
80.4579
 31
0.0
  0
LINE
  5
173
330
1E
100
AcDbEntity
  8
0
100
AcDbLine
 10
63.0
 20
88.0
 30
0.0
 11
63.2
 21
91.0
 31
0.0
  0
LINE
  5
175
330
1E
100
AcDbEntity
  8
0
100
AcDbLine
 10
63.2
 20
91.0
 30
0.0
 11
63.7
 21
93.49999999999999
 31
0.0
  0
LINE
  5
178
330
1E
100
AcDbEntity
  8
0
100
AcDbLine
 10
64.2
 20
89.87479999999999
 30
0.0
 11
64.2
 21
87.9771
 31
0.0
  0
LINE
  5
179
330
1E
100
AcDbEntity
  8
0
100
AcDbLine
 10
64.2
 20
89.87479999999999
 30
0.0
 11
64.2
 21
91.3747
 31
0.0
  0
LINE
  5
17A
330
1E
100
AcDbEntity
  8
0
100
AcDbLine
 10
57.9
 20
91.5
 30
0.0
 11
63.4565217391304
 21
92.2826086956522
 31
0.0
  0
LINE
  5
17C
330
1E
100
AcDbEntity
  8
0
100
AcDbLine
 10
57.7
 20
92.5
 30
0.0
 11
63.6633802816901
 21
93.3169014084507
 31
0.0
  0
LINE
  5
180
330
1E
100
AcDbEntity
  8
0
100
AcDbLine
 10
64.2
 20
91.3747
 30
0.0
 11
64.2
 21
89.87479999999999
 31
0.0
  0
LINE
  5
181
330
1E
100
AcDbEntity
  8
0
100
AcDbLine
 10
64.2
 20
91.3747
 30
0.0
 11
64.2
 21
92.4708
 31
0.0
  0
LINE
  5
182
330
1E
100
AcDbEntity
  8
0
100
AcDbLine
 10
64.2
 20
92.4708
 30
0.0
 11
64.2
 21
91.3747
 31
0.0
  0
LINE
  5
183
330
1E
100
AcDbEntity
  8
0
100
AcDbLine
 10
64.2
 20
92.4708
 30
0.0
 11
64.2
 21
93.12459999999999
 31
0.0
  0
LINE
  5
184
330
1E
100
AcDbEntity
  8
0
100
AcDbLine
 10
57.4
 20
93.40000000000001
 30
0.0
 11
65.0
 21
94.50000000000001
 31
0.0
  0
LINE
  5
185
330
1E
100
AcDbEntity
  8
0
100
AcDbLine
 10
57.3
 20
93.9
 30
0.0
 11
65.0
 21
95.0
 31
0.0
  0
LINE
  5
186
330
1E
100
AcDbEntity
  8
0
100
AcDbLine
 10
63.7
 20
93.49999999999999
 30
0.0
 11
64.2
 21
94.0
 31
0.0
  0
LINE
  5
187
330
1E
100
AcDbEntity
  8
0
100
AcDbLine
 10
64.2
 20
93.12459999999999
 30
0.0
 11
64.2
 21
92.4708
 31
0.0
  0
LINE
  5
188
330
1E
100
AcDbEntity
  8
0
100
AcDbLine
 10
64.2
 20
93.12459999999999
 30
0.0
 11
64.2
 21
93.6438
 31
0.0
  0
LINE
  5
189
330
1E
100
AcDbEntity
  8
0
100
AcDbLine
 10
64.2
 20
93.6438
 30
0.0
 11
64.2
 21
93.12459999999999
 31
0.0
  0
LINE
  5
18A
330
1E
100
AcDbEntity
  8
0
100
AcDbLine
 10
64.2
 20
93.6438
 30
0.0
 11
64.2
 21
94.0
 31
0.0
  0
LINE
  5
18B
330
1E
100
AcDbEntity
  8
0
100
AcDbLine
 10
65.0
 20
122.614
 30
0.0
 11
72.4602
 21
122.0229999999999
 31
0.0
  0
LINE
  5
18C
330
1E
100
AcDbEntity
  8
0
100
AcDbLine
 10
57.5398
 20
122.0229999999999
 30
0.0
 11
65.0
 21
122.614
 31
0.0
  0
LINE
  5
18D
330
1E
100
AcDbEntity
  8
0
100
AcDbLine
 10
65.0
 20
130.0
 30
0.0
 11
73.49429999999999
 21
129.335
 31
0.0
  0
LINE
  5
18E
330
1E
100
AcDbEntity
  8
0
100
AcDbLine
 10
56.5057
 20
129.335
 30
0.0
 11
65.0
 21
130.0
 31
0.0
  0
LINE
  5
18F
330
1E
100
AcDbEntity
  8
0
100
AcDbLine
 10
65.0
 20
94.50000000000001
 30
0.0
 11
72.59999999999999
 21
93.40000000000001
 31
0.0
  0
LINE
  5
190
330
1E
100
AcDbEntity
  8
0
100
AcDbLine
 10
65.0
 20
95.0
 30
0.0
 11
72.7
 21
93.9
 31
0.0
  0
LINE
  5
191
330
1E
100
AcDbEntity
  8
0
100
AcDbLine
 10
64.2
 20
94.0
 30
0.0
 11
64.2
 21
93.6438
 31
0.0
  0
LINE
  5
192
330
1E
100
AcDbEntity
  8
0
100
AcDbLine
 10
64.2
 20
94.0
 30
0.0
 11
65.0
 21
94.0
 31
0.0
  0
LINE
  5
193
330
1E
100
AcDbEntity
  8
0
100
AcDbLine
 10
65.8
 20
89.87479999999999
 30
0.0
 11
65.8
 21
91.3747
 31
0.0
  0
LINE
  5
194
330
1E
100
AcDbEntity
  8
0
100
AcDbLine
 10
65.8
 20
89.87479999999999
 30
0.0
 11
65.8
 21
87.9771
 31
0.0
  0
LINE
  5
195
330
1E
100
AcDbEntity
  8
0
100
AcDbLine
 10
65.8
 20
91.3747
 30
0.0
 11
65.8
 21
92.4708
 31
0.0
  0
LINE
  5
196
330
1E
100
AcDbEntity
  8
0
100
AcDbLine
 10
65.8
 20
91.3747
 30
0.0
 11
65.8
 21
89.87479999999999
 31
0.0
  0
LINE
  5
197
330
1E
100
AcDbEntity
  8
0
100
AcDbLine
 10
65.8
 20
92.4708
 30
0.0
 11
65.8
 21
93.12459999999999
 31
0.0
  0
LINE
  5
198
330
1E
100
AcDbEntity
  8
0
100
AcDbLine
 10
65.8
 20
92.4708
 30
0.0
 11
65.8
 21
91.3747
 31
0.0
  0
LINE
  5
19F
330
1E
100
AcDbEntity
  8
0
100
AcDbLine
 10
65.8
 20
93.12459999999999
 30
0.0
 11
65.8
 21
93.6438
 31
0.0
  0
LINE
  5
1A0
330
1E
100
AcDbEntity
  8
0
100
AcDbLine
 10
65.8
 20
93.12459999999999
 30
0.0
 11
65.8
 21
92.4708
 31
0.0
  0
LINE
  5
1A1
330
1E
100
AcDbEntity
  8
0
100
AcDbLine
 10
65.8
 20
93.6438
 30
0.0
 11
65.8
 21
94.0
 31
0.0
  0
LINE
  5
1A2
330
1E
100
AcDbEntity
  8
0
100
AcDbLine
 10
65.8
 20
93.6438
 30
0.0
 11
65.8
 21
93.12459999999999
 31
0.0
  0
LINE
  5
1A3
330
1E
100
AcDbEntity
  8
0
100
AcDbLine
 10
66.54347826086961
 20
92.2826086956522
 30
0.0
 11
72.09999999999999
 21
91.5
 31
0.0
  0
LINE
  5
1A5
330
1E
100
AcDbEntity
  8
0
100
AcDbLine
 10
66.3366197183099
 20
93.3169014084507
 30
0.0
 11
72.3
 21
92.5
 31
0.0
  0
LINE
  5
1A6
330
1E
100
AcDbEntity
  8
0
100
AcDbLine
 10
66.79999999999999
 20
91.0
 30
0.0
 11
67.0
 21
88.0
 31
0.0
  0
LINE
  5
1A7
330
1E
100
AcDbEntity
  8
0
100
AcDbLine
 10
66.29999999999999
 20
93.49999999999999
 30
0.0
 11
66.79999999999999
 21
91.0
 31
0.0
  0
LINE
  5
1A8
330
1E
100
AcDbEntity
  8
0
100
AcDbLine
 10
65.8
 20
94.0
 30
0.0
 11
66.29999999999999
 21
93.49999999999999
 31
0.0
  0
LINE
  5
1A9
330
1E
100
AcDbEntity
  8
0
100
AcDbLine
 10
65.8
 20
94.0
 30
0.0
 11
65.8
 21
93.6438
 31
0.0
  0
LINE
  5
1AA
330
1E
100
AcDbEntity
  8
0
100
AcDbLine
 10
65.0
 20
94.0
 30
0.0
 11
65.8
 21
94.0
 31
0.0
  0
LINE
  5
1AB
330
1E
100
AcDbEntity
  8
0
100
AcDbLine
 10
65.8
 20
87.9771
 30
0.0
 11
66.09999999999999
 21
84.00200000000001
 31
0.0
  0
LINE
  5
1AC
330
1E
100
AcDbEntity
  8
0
100
AcDbLine
 10
65.8
 20
87.9771
 30
0.0
 11
65.8
 21
89.87479999999999
 31
0.0
  0
LINE
  5
1AD
330
1E
100
AcDbEntity
  8
0
100
AcDbLine
 10
67.7
 20
75.09999999999999
 30
0.0
 11
70.2
 21
74.1
 31
0.0
  0
LINE
  5
1AE
330
1E
100
AcDbEntity
  8
0
100
AcDbLine
 10
67.1464
 20
80.4579
 30
0.0
 11
68.9902
 21
77.70399999999999
 31
0.0
  0
LINE
  5
1AF
330
1E
100
AcDbEntity
  8
0
100
AcDbLine
 10
80.4579
 20
67.1464
 30
0.0
 11
84.00200000000001
 21
66.09999999999999
 31
0.0
  0
LINE
  5
1B0
330
1E
100
AcDbEntity
  8
0
100
AcDbLine
 10
87.9771
 20
65.8
 30
0.0
 11
89.87479999999999
 21
65.8
 31
0.0
  0
LINE
  5
1B1
330
1E
100
AcDbEntity
  8
0
100
AcDbLine
 10
89.87479999999999
 20
65.8
 30
0.0
 11
91.3747
 21
65.8
 31
0.0
  0
LINE
  5
1B2
330
1E
100
AcDbEntity
  8
0
100
AcDbLine
 10
91.3747
 20
65.8
 30
0.0
 11
92.4708
 21
65.8
 31
0.0
  0
LINE
  5
1B3
330
1E
100
AcDbEntity
  8
0
100
AcDbLine
 10
92.4708
 20
65.8
 30
0.0
 11
93.12459999999999
 21
65.8
 31
0.0
  0
LINE
  5
1B4
330
1E
100
AcDbEntity
  8
0
100
AcDbLine
 10
93.12459999999999
 20
65.8
 30
0.0
 11
93.6438
 21
65.8
 31
0.0
  0
LINE
  5
1B5
330
1E
100
AcDbEntity
  8
0
100
AcDbLine
 10
93.6438
 20
65.8
 30
0.0
 11
94.0
 21
65.8
 31
0.0
  0
LINE
  5
1B9
330
1E
100
AcDbEntity
  8
0
100
AcDbLine
 10
88.0
 20
67.0
 30
0.0
 11
91.0
 21
66.79999999999999
 31
0.0
  0
LINE
  5
1BA
330
1E
100
AcDbEntity
  8
0
100
AcDbLine
 10
91.0
 20
66.79999999999999
 30
0.0
 11
93.49999999999999
 21
66.29999999999999
 31
0.0
  0
LINE
  5
1BB
330
1E
100
AcDbEntity
  8
0
100
AcDbLine
 10
93.49999999999999
 20
66.29999999999999
 30
0.0
 11
94.0
 21
65.8
 31
0.0
  0
LINE
  5
1BC
330
1E
100
AcDbEntity
  8
0
100
AcDbLine
 10
94.0
 20
65.8
 30
0.0
 11
94.0
 21
65.0
 31
0.0
  0
LINE
  5
1BD
330
1E
100
AcDbEntity
  8
0
100
AcDbLine
 10
84.00200000000001
 20
66.09999999999999
 30
0.0
 11
87.9771
 21
65.8
 31
0.0
  0
LINE
  5
1BE
330
1E
100
AcDbEntity
  8
0
100
AcDbLine
 10
75.09999999999999
 20
67.7
 30
0.0
 11
75.5
 21
65.0
 31
0.0
  0
LINE
  5
1BF
330
1E
100
AcDbEntity
  8
0
100
AcDbLine
 10
77.70399999999999
 20
68.9902
 30
0.0
 11
80.4579
 21
67.1464
 31
0.0
  0
LINE
  5
1C1
330
1E
100
AcDbEntity
  8
0
100
AcDbLine
 10
68.9902
 20
77.70399999999999
 30
0.0
 11
71.0
 21
75.4223
 31
0.0
  0
LINE
  5
1C2
330
1E
100
AcDbEntity
  8
0
100
AcDbLine
 10
71.0
 20
75.4223
 30
0.0
 11
73.5
 21
73.5
 31
0.0
  0
LINE
  5
1C3
330
1E
100
AcDbEntity
  8
0
100
AcDbLine
 10
71.6
 20
76.4
 30
0.0
 11
74.29999999999999
 21
74.29999999999999
 31
0.0
  0
LINE
  5
1C4
330
1E
100
AcDbEntity
  8
0
100
AcDbLine
 10
69.7508
 20
78.39279999999999
 30
0.0
 11
71.6
 21
76.4
 31
0.0
  0
LINE
  5
1C5
330
1E
100
AcDbEntity
  8
0
100
AcDbLine
 10
70.2
 20
74.1
 30
0.0
 11
72.40000000000001
 21
72.40000000000001
 31
0.0
  0
LINE
  5
1C6
330
1E
100
AcDbEntity
  8
0
100
AcDbLine
 10
73.5
 20
73.5
 30
0.0
 11
75.4223
 21
71.0
 31
0.0
  0
LINE
  5
1C8
330
1E
100
AcDbEntity
  8
0
100
AcDbLine
 10
72.40000000000001
 20
72.40000000000001
 30
0.0
 11
74.1
 21
70.2
 31
0.0
  0
LINE
  5
1C9
330
1E
100
AcDbEntity
  8
0
100
AcDbLine
 10
75.4223
 20
71.0
 30
0.0
 11
77.70399999999999
 21
68.9902
 31
0.0
  0
LINE
  5
1CA
330
1E
100
AcDbEntity
  8
0
100
AcDbLine
 10
79.5
 20
79.5
 30
0.0
 11
82.79999999999999
 21
75.2
 31
0.0
  0
LINE
  5
1CB
330
1E
100
AcDbEntity
  8
0
100
AcDbLine
 10
79.1
 20
79.1
 30
0.0
 11
82.3
 21
74.90000000000001
 31
0.0
  0
LINE
  5
1CC
330
1E
100
AcDbEntity
  8
0
100
AcDbLine
 10
75.2
 20
82.79999999999999
 30
0.0
 11
79.5
 21
79.5
 31
0.0
  0
LINE
  5
1CD
330
1E
100
AcDbEntity
  8
0
100
AcDbLine
 10
74.90000000000001
 20
82.3
 30
0.0
 11
79.1
 21
79.1
 31
0.0
  0
LINE
  5
1CE
330
1E
100
AcDbEntity
  8
0
100
AcDbLine
 10
74.29999999999999
 20
74.29999999999999
 30
0.0
 11
76.4
 21
71.6
 31
0.0
  0
LINE
  5
1CF
330
1E
100
AcDbEntity
  8
0
100
AcDbLine
 10
76.4
 20
71.6
 30
0.0
 11
78.39279999999999
 21
69.7508
 31
0.0
  0
LINE
  5
1D0
330
1E
100
AcDbEntity
  8
0
100
AcDbLine
 10
74.1
 20
70.2
 30
0.0
 11
75.09999999999999
 21
67.7
 31
0.0
  0
LINE
  5
1D1
330
1E
100
AcDbEntity
  8
0
100
AcDbLine
 10
78.39279999999999
 20
69.7508
 30
0.0
 11
81.1139
 21
68.22960000000001
 31
0.0
  0
LINE
  5
1D2
330
1E
100
AcDbEntity
  8
0
100
AcDbLine
 10
84.8
 20
70.3
 30
0.0
 11
85.2081943782754
 21
67.20938542162929
 31
0.0
  0
LINE
  5
1D3
330
1E
100
AcDbEntity
  8
0
100
AcDbLine
 10
84.29999999999999
 20
70.09999999999999
 30
0.0
 11
84.691431401684
 21
67.2481426448737
 31
0.0
  0
LINE
  5
1D4
330
1E
100
AcDbEntity
  8
0
100
AcDbLine
 10
91.5
 20
72.09999999999999
 30
0.0
 11
92.2826086956522
 21
66.54347826086961
 31
0.0
  0
LINE
  5
1D6
330
1E
100
AcDbEntity
  8
0
100
AcDbLine
 10
92.5
 20
72.3
 30
0.0
 11
93.3169014084507
 21
66.3366197183099
 31
0.0
  0
LINE
  5
1D7
330
1E
100
AcDbEntity
  8
0
100
AcDbLine
 10
122.0229999999999
 20
72.4602
 30
0.0
 11
122.614
 21
65.0
 31
0.0
  0
LINE
  5
1D8
330
1E
100
AcDbEntity
  8
0
100
AcDbLine
 10
93.40000000000001
 20
72.59999999999999
 30
0.0
 11
94.50000000000001
 21
65.0
 31
0.0
  0
LINE
  5
1D9
330
1E
100
AcDbEntity
  8
0
100
AcDbLine
 10
82.79999999999999
 20
75.2
 30
0.0
 11
84.8
 21
70.3
 31
0.0
  0
LINE
  5
1DA
330
1E
100
AcDbEntity
  8
0
100
AcDbLine
 10
82.3
 20
74.90000000000001
 30
0.0
 11
84.29999999999999
 21
70.09999999999999
 31
0.0
  0
LINE
  5
1DB
330
1E
100
AcDbEntity
  8
0
100
AcDbLine
 10
88.8
 20
78.7
 30
0.0
 11
91.5
 21
72.09999999999999
 31
0.0
  0
LINE
  5
1DD
330
1E
100
AcDbEntity
  8
0
100
AcDbLine
 10
89.7
 20
79.2
 30
0.0
 11
92.5
 21
72.3
 31
0.0
  0
LINE
  5
1DE
330
1E
100
AcDbEntity
  8
0
100
AcDbLine
 10
90.5
 20
79.7
 30
0.0
 11
93.40000000000001
 21
72.59999999999999
 31
0.0
  0
LINE
  5
1DF
330
1E
100
AcDbEntity
  8
0
100
AcDbLine
 10
120.545
 20
79.84659999999999
 30
0.0
 11
122.0229999999999
 21
72.4602
 31
0.0
  0
LINE
  5
1E0
330
1E
100
AcDbEntity
  8
0
100
AcDbLine
 10
129.335
 20
73.49429999999999
 30
0.0
 11
130.0
 21
65.0
 31
0.0
  0
LINE
  5
1E1
330
1E
100
AcDbEntity
  8
0
100
AcDbLine
 10
91.0
 20
79.90000000000001
 30
0.0
 11
93.9
 21
72.7
 31
0.0
  0
LINE
  5
1E2
330
1E
100
AcDbEntity
  8
0
100
AcDbLine
 10
93.9
 20
72.7
 30
0.0
 11
95.0
 21
65.0
 31
0.0
  0
LINE
  5
1E3
330
1E
100
AcDbEntity
  8
0
100
AcDbLine
 10
81.1139
 20
68.22960000000001
 30
0.0
 11
84.0
 21
67.3
 31
0.0
  0
LINE
  5
1E4
330
1E
100
AcDbEntity
  8
0
100
AcDbLine
 10
84.0
 20
67.3
 30
0.0
 11
88.0
 21
67.0
 31
0.0
  0
LINE
  5
1E5
330
1E
100
AcDbEntity
  8
0
100
AcDbLine
 10
68.22960000000001
 20
81.1139
 30
0.0
 11
69.7508
 21
78.39279999999999
 31
0.0
  0
LINE
  5
1E6
330
1E
100
AcDbEntity
  8
0
100
AcDbLine
 10
70.09999999999999
 20
84.29999999999999
 30
0.0
 11
74.90000000000001
 21
82.3
 31
0.0
  0
LINE
  5
1E7
330
1E
100
AcDbEntity
  8
0
100
AcDbLine
 10
70.3
 20
84.8
 30
0.0
 11
75.2
 21
82.79999999999999
 31
0.0
  0
LINE
  5
1E8
330
1E
100
AcDbEntity
  8
0
100
AcDbLine
 10
67.2481426448737
 20
84.691431401684
 30
0.0
 11
70.09999999999999
 21
84.29999999999999
 31
0.0
  0
LINE
  5
1E9
330
1E
100
AcDbEntity
  8
0
100
AcDbLine
 10
84.40000000000001
 20
84.40000000000001
 30
0.0
 11
88.8
 21
78.7
 31
0.0
  0
LINE
  5
1EA
330
1E
100
AcDbEntity
  8
0
100
AcDbLine
 10
67.20938542162929
 20
85.2081943782754
 30
0.0
 11
70.3
 21
84.8
 31
0.0
  0
LINE
  5
1EC
330
1E
100
AcDbEntity
  8
0
100
AcDbLine
 10
85.09999999999999
 20
85.09999999999999
 30
0.0
 11
89.7
 21
79.2
 31
0.0
  0
LINE
  5
1ED
330
1E
100
AcDbEntity
  8
0
100
AcDbLine
 10
78.7
 20
88.8
 30
0.0
 11
84.40000000000001
 21
84.40000000000001
 31
0.0
  0
LINE
  5
1EE
330
1E
100
AcDbEntity
  8
0
100
AcDbLine
 10
72.09999999999999
 20
91.5
 30
0.0
 11
78.7
 21
88.8
 31
0.0
  0
LINE
  5
1F1
330
1E
100
AcDbEntity
  8
0
100
AcDbLine
 10
79.2
 20
89.7
 30
0.0
 11
85.09999999999999
 21
85.09999999999999
 31
0.0
  0
LINE
  5
1F2
330
1E
100
AcDbEntity
  8
0
100
AcDbLine
 10
72.3
 20
92.5
 30
0.0
 11
79.2
 21
89.7
 31
0.0
  0
LINE
  5
1F3
330
1E
100
AcDbEntity
  8
0
100
AcDbLine
 10
79.7
 20
90.5
 30
0.0
 11
85.8
 21
85.8
 31
0.0
  0
LINE
  5
1F4
330
1E
100
AcDbEntity
  8
0
100
AcDbLine
 10
72.4602
 20
122.0229999999999
 30
0.0
 11
79.84659999999999
 21
120.545
 31
0.0
  0
LINE
  5
1F5
330
1E
100
AcDbEntity
  8
0
100
AcDbLine
 10
79.84659999999999
 20
120.545
 30
0.0
 11
87.0114
 21
118.1079999999999
 31
0.0
  0
LINE
  5
1F6
330
1E
100
AcDbEntity
  8
0
100
AcDbLine
 10
73.49429999999999
 20
129.335
 30
0.0
 11
81.767
 21
127.636
 31
0.0
  0
LINE
  5
1F7
330
1E
100
AcDbEntity
  8
0
100
AcDbLine
 10
72.59999999999999
 20
93.40000000000001
 30
0.0
 11
79.7
 21
90.5
 31
0.0
  0
LINE
  5
1F8
330
1E
100
AcDbEntity
  8
0
100
AcDbLine
 10
81.767
 20
127.636
 30
0.0
 11
89.8182
 21
124.9029999999999
 31
0.0
  0
LINE
  5
1F9
330
1E
100
AcDbEntity
  8
0
100
AcDbLine
 10
79.90000000000001
 20
91.0
 30
0.0
 11
86.2
 21
86.2
 31
0.0
  0
LINE
  5
1FA
330
1E
100
AcDbEntity
  8
0
100
AcDbLine
 10
85.8
 20
85.8
 30
0.0
 11
90.5
 21
79.7
 31
0.0
  0
LINE
  5
1FB
330
1E
100
AcDbEntity
  8
0
100
AcDbLine
 10
110.6479999999999
 20
100.011
 30
0.0
 11
114.932
 21
93.65909999999999
 31
0.0
  0
LINE
  5
1FC
330
1E
100
AcDbEntity
  8
0
100
AcDbLine
 10
114.932
 20
93.65909999999999
 30
0.0
 11
118.1079999999999
 21
87.0114
 31
0.0
  0
LINE
  5
1FD
330
1E
100
AcDbEntity
  8
0
100
AcDbLine
 10
118.1079999999999
 20
87.0114
 30
0.0
 11
120.545
 21
79.84659999999999
 31
0.0
  0
LINE
  5
1FE
330
1E
100
AcDbEntity
  8
0
100
AcDbLine
 10
121.2839999999999
 20
97.35230000000001
 30
0.0
 11
124.9029999999999
 21
89.8182
 31
0.0
  0
LINE
  5
1FF
330
1E
100
AcDbEntity
  8
0
100
AcDbLine
 10
100.011
 20
110.6479999999999
 30
0.0
 11
105.699
 21
105.699
 31
0.0
  0
LINE
  5
200
330
1E
100
AcDbEntity
  8
0
100
AcDbLine
 10
93.65909999999999
 20
114.932
 30
0.0
 11
100.011
 21
110.6479999999999
 31
0.0
  0
LINE
  5
201
330
1E
100
AcDbEntity
  8
0
100
AcDbLine
 10
87.0114
 20
118.1079999999999
 30
0.0
 11
93.65909999999999
 21
114.932
 31
0.0
  0
LINE
  5
202
330
1E
100
AcDbEntity
  8
0
100
AcDbLine
 10
89.8182
 20
124.9029999999999
 30
0.0
 11
97.35230000000001
 21
121.2839999999999
 31
0.0
  0
LINE
  5
203
330
1E
100
AcDbEntity
  8
0
100
AcDbLine
 10
104.517
 20
116.483
 30
0.0
 11
110.8689999999999
 21
110.8689999999999
 31
0.0
  0
LINE
  5
204
330
1E
100
AcDbEntity
  8
0
100
AcDbLine
 10
105.699
 20
105.699
 30
0.0
 11
110.6479999999999
 21
100.011
 31
0.0
  0
LINE
  5
205
330
1E
100
AcDbEntity
  8
0
100
AcDbLine
 10
110.8689999999999
 20
110.8689999999999
 30
0.0
 11
116.483
 21
104.517
 31
0.0
  0
LINE
  5
206
330
1E
100
AcDbEntity
  8
0
100
AcDbLine
 10
116.483
 20
104.517
 30
0.0
 11
121.2839999999999
 21
97.35230000000001
 31
0.0
  0
LINE
  5
207
330
1E
100
AcDbEntity
  8
0
100
AcDbLine
 10
86.2
 20
86.2
 30
0.0
 11
91.0
 21
79.90000000000001
 31
0.0
  0
LINE
  5
208
330
1E
100
AcDbEntity
  8
0
100
AcDbLine
 10
67.3
 20
84.0
 30
0.0
 11
68.22960000000001
 21
81.1139
 31
0.0
  0
LINE
  5
209
330
1E
100
AcDbEntity
  8
0
100
AcDbLine
 10
67.0
 20
88.0
 30
0.0
 11
67.3
 21
84.0
 31
0.0
  0
LINE
  5
20A
330
1E
100
AcDbEntity
  8
0
100
AcDbLine
 10
94.0
 20
65.0
 30
0.0
 11
94.0
 21
64.2
 31
0.0
  0
LINE
  5
20B
330
1E
100
AcDbEntity
  8
0
100
AcDbLine
 10
94.0
 20
65.0
 30
0.0
 11
94.0
 21
65.8
 31
0.0
  0
LINE
  5
20C
330
1E
100
AcDbEntity
  8
0
100
AcDbLine
 10
54.5
 20
65.0
 30
0.0
 11
54.9
 21
62.3
 31
0.0
  0
LINE
  5
20D
330
1E
100
AcDbEntity
  8
0
100
AcDbLine
 10
54.5
 20
65.0
 30
0.0
 11
54.9
 21
67.7
 31
0.0
  0
LINE
  5
20E
330
1E
100
AcDbEntity
  8
0
100
AcDbLine
 10
36.3562
 20
64.2
 30
0.0
 11
36.8754
 21
64.2
 31
0.0
  0
LINE
  5
20F
330
1E
100
AcDbEntity
  8
0
100
AcDbLine
 10
36.0
 20
64.2
 30
0.0
 11
36.3562
 21
64.2
 31
0.0
  0
LINE
  5
210
330
1E
100
AcDbEntity
  8
0
100
AcDbLine
 10
36.0
 20
64.2
 30
0.0
 11
36.5
 21
63.7
 31
0.0
  0
LINE
  5
211
330
1E
100
AcDbEntity
  8
0
100
AcDbLine
 10
36.0
 20
64.2
 30
0.0
 11
36.0
 21
65.0
 31
0.0
  0
LINE
  5
216
330
1E
100
AcDbEntity
  8
0
100
AcDbLine
 10
5.096589999999999
 20
89.8182
 30
0.0
 11
8.71591
 21
97.35230000000001
 31
0.0
  0
LINE
  5
217
330
1E
100
AcDbEntity
  8
0
100
AcDbLine
 10
97.35230000000001
 20
121.2839999999999
 30
0.0
 11
101.3747368081104
 21
118.825494734015
 31
0.0
  0
LINE
  5
218
330
1E
100
AcDbEntity
  8
0
100
AcDbLine
 10
101.3747368081104
 20
118.825494734015
 30
0.0
 11
104.517
 21
116.483
 31
0.0
  0
LINE
  5
219
330
1E
100
AcDbEntity
  8
0
100
AcDbLine
 10
124.9029999999999
 20
89.8182
 30
0.0
 11
127.3322952788516
 21
82.72140415786498
 31
0.0
  0
LINE
  5
21A
330
1E
100
AcDbEntity
  8
0
100
AcDbLine
 10
127.3322952788516
 20
82.72140415786498
 30
0.0
 11
129.335
 21
73.49429999999999
 31
0.0
  0
LINE
  5
21B
330
1E
100
AcDbEntity
  8
0
100
AcDbLine
 10
0.6647729999999971
 20
73.49429999999999
 30
0.0
 11
2.36364
 21
81.767
 31
0.0
  0
LINE
  5
21C
330
1E
100
AcDbEntity
  8
0
100
AcDbLine
 10
2.36364
 20
48.233
 30
0.0
 11
1.096318082267316
 21
53.76513137508817
 31
0.0
  0
LINE
  5
21D
330
1E
100
AcDbEntity
  8
0
100
AcDbLine
 10
1.096318082267316
 20
53.76513137508817
 30
0.0
 11
-0.0000000000000036
 21
65.0
 31
0.0
  0
LINE
  5
21E
330
1E
100
AcDbEntity
  8
0
100
AcDbLine
 10
19.1307
 20
19.1307
 30
0.0
 11
13.517
 21
25.483
 31
0.0
  0
LINE
  5
21F
330
1E
100
AcDbEntity
  8
0
100
AcDbLine
 10
97.35230000000001
 20
8.71590999999999
 30
0.0
 11
104.517
 21
13.517
 31
0.0
  0
LINE
  5
220
330
1E
100
AcDbEntity
  8
0
100
AcDbLine
 10
127.636
 20
48.233
 30
0.0
 11
129.335
 21
56.5057
 31
0.0
  0
LINE
  5
221
330
1E
100
AcDbEntity
  8
0
100
AcDbLine
 10
110.8689999999999
 20
19.1307
 30
0.0
 11
116.483
 21
25.483
 31
0.0
  0
LINE
  5
222
330
1E
100
AcDbEntity
  8
0
100
AcDbLine
 10
73.49429999999999
 20
0.664772999999991
 30
0.0
 11
80.64439614435844
 21
2.014261071261671
 31
0.0
  0
LINE
  5
223
330
1E
100
AcDbEntity
  8
0
100
AcDbLine
 10
80.64439614435844
 20
2.014261071261671
 30
0.0
 11
89.8182
 21
5.09658999999999
 31
0.0
  0
LINE
  5
224
330
1E
100
AcDbEntity
  8
0
100
AcDbLine
 10
43.79999999999999
 20
86.2
 30
0.0
 11
50.1
 21
91.0
 31
0.0
  0
LINE
  5
225
330
1E
100
AcDbEntity
  8
0
100
AcDbLine
 10
43.79999999999999
 20
43.79999999999999
 30
0.0
 11
50.1
 21
39.0
 31
0.0
  0
LINE
  5
226
330
1E
100
AcDbEntity
  8
0
100
AcDbLine
 10
72.7
 20
93.9
 30
0.0
 11
79.90000000000001
 21
91.0
 31
0.0
  0
ENDSEC
  0
SECTION
  2
OBJECTS
  0
DICTIONARY
  5
C
330
0
100
AcDbDictionary
281
     1
  3
ACAD_GROUP
350
D
  3
ACAD_LAYOUT
350
19
  3
ACAD_MLINESTYLE
350
16
  3
ACAD_PLOTSETTINGS
350
18
  3
ACAD_PLOTSTYLENAME
350
E
  3
AcDbVariableDictionary
350
227
  0
DICTIONARY
  5
D
102
{ACAD_REACTORS
330
C
102
}
330
C
100
AcDbDictionary
281
     1
  0
DICTIONARY
  5
19
102
{ACAD_REACTORS
330
C
102
}
330
C
100
AcDbDictionary
281
     1
  3
Layout1
350
1D
  3
Model
350
21
  0
DICTIONARY
  5
16
102
{ACAD_REACTORS
330
C
102
}
330
C
100
AcDbDictionary
281
     1
  3
Standard
350
17
  0
DICTIONARY
  5
18
102
{ACAD_REACTORS
330
C
102
}
330
C
100
AcDbDictionary
281
     1
  0
ACDBDICTIONARYWDFLT
  5
E
102
{ACAD_REACTORS
330
C
102
}
330
C
100
AcDbDictionary
281
     1
  3
Normal
350
F
100
AcDbDictionaryWithDefault
340
F
  0
DICTIONARY
  5
227
102
{ACAD_REACTORS
330
C
102
}
330
C
100
AcDbDictionary
281
     1
  3
DIMASSOC
350
228
  0
LAYOUT
  5
1D
102
{ACAD_REACTORS
330
19
102
}
330
19
100
AcDbPlotSettings
  1

  2
hp deskjet 980c series
  4

  6

 40
0.0
 41
0.0
 42
0.0
 43
0.0
 44
0.0
 45
0.0
 46
0.0
 47
0.0
 48
0.0
 49
0.0
140
0.0
141
0.0
142
1.0
143
1.0
 70
   688
 72
     0
 73
     0
 74
     5
  7

 75
    16
147
1.0
148
0.0
149
0.0
100
AcDbLayout
  1
Layout1
 70
     1
 71
     1
 10
0.0
 20
0.0
 11
12.0
 21
9.0
 12
0.0
 22
0.0
 32
0.0
 14
1.000000000000000E+20
 24
1.000000000000000E+20
 34
1.000000000000000E+20
 15
-1.000000000000000E+20
 25
-1.000000000000000E+20
 35
-1.000000000000000E+20
146
0.0
 13
0.0
 23
0.0
 33
0.0
 16
1.0
 26
0.0
 36
0.0
 17
0.0
 27
1.0
 37
0.0
 76
     0
330
1A
  0
LAYOUT
  5
21
102
{ACAD_REACTORS
330
19
102
}
330
19
100
AcDbPlotSettings
  1

  2
hp deskjet 980c series
  4

  6

 40
0.0
 41
0.0
 42
0.0
 43
0.0
 44
0.0
 45
0.0
 46
0.0
 47
0.0
 48
0.0
 49
0.0
140
0.0
141
0.0
142
1.0
143
1.0
 70
  1712
 72
     0
 73
     0
 74
     0
  7

 75
     0
147
1.0
148
0.0
149
0.0
100
AcDbLayout
  1
Model
 70
     1
 71
     0
 10
0.0
 20
0.0
 11
12.0
 21
9.0
 12
0.0
 22
0.0
 32
0.0
 14
0.0
 24
0.0
 34
0.0
 15
0.0
 25
0.0
 35
0.0
146
0.0
 13
0.0
 23
0.0
 33
0.0
 16
1.0
 26
0.0
 36
0.0
 17
0.0
 27
1.0
 37
0.0
 76
     0
330
1E
  0
MLINESTYLE
  5
17
102
{ACAD_REACTORS
330
16
102
}
330
16
100
AcDbMlineStyle
  2
STANDARD
 70
     0
  3

 62
   256
 51
90.0
 52
90.0
 71
     2
 49
0.5
 62
   256
  6
BYLAYER
 49
-0.5
 62
   256
  6
BYLAYER
  0
ACDBPLACEHOLDER
  5
F
102
{ACAD_REACTORS
330
E
102
}
330
E
  0
DICTIONARYVAR
  5
228
102
{ACAD_REACTORS
330
227
102
}
330
227
100
DictionaryVariables
280
     0
  1
1
  0
ENDSEC
  0
EOF
