  0
SECTION
  2
HEADER
  9
$ACADVER
  1
AC1015
  9
$ACADMAINTVER
 70
    13
  9
$DWGCODEPAGE
  3
ANSI_1252
  9
$INSBASE
 10
0.0
 20
0.0
 30
0.0
  9
$EXTMIN
 10
0.206750000000023
 20
-0.0000000000000114
 30
0.0
  9
$EXTMAX
 10
259.79325
 20
298.0
 30
0.0
  9
$LIMMIN
 10
0.0
 20
0.0
  9
$LIMMAX
 10
12.0
 20
9.0
  9
$ORTHOMODE
 70
     0
  9
$REGENMODE
 70
     1
  9
$FILLMODE
 70
     1
  9
$QTEXTMODE
 70
     0
  9
$MIRRTEXT
 70
     1
  9
$LTSCALE
 40
1.0
  9
$ATTMODE
 70
     1
  9
$TEXTSIZE
 40
0.2
  9
$TRACEWID
 40
0.05
  9
$TEXTSTYLE
  7
Standard
  9
$CLAYER
  8
0
  9
$CELTYPE
  6
Continuous
  9
$CECOLOR
 62
   256
  9
$CELTSCALE
 40
1.0
  9
$DISPSILH
 70
     0
  9
$DIMSCALE
 40
1.0
  9
$DIMASZ
 40
0.18
  9
$DIMEXO
 40
0.0625
  9
$DIMDLI
 40
0.38
  9
$DIMRND
 40
0.0
  9
$DIMDLE
 40
0.0
  9
$DIMEXE
 40
0.18
  9
$DIMTP
 40
0.0
  9
$DIMTM
 40
0.0
  9
$DIMTXT
 40
0.18
  9
$DIMCEN
 40
0.09
  9
$DIMTSZ
 40
0.0
  9
$DIMTOL
 70
     0
  9
$DIMLIM
 70
     0
  9
$DIMTIH
 70
     1
  9
$DIMTOH
 70
     1
  9
$DIMSE1
 70
     0
  9
$DIMSE2
 70
     0
  9
$DIMTAD
 70
     0
  9
$DIMZIN
 70
     0
  9
$DIMBLK
  1

  9
$DIMASO
 70
     1
  9
$DIMSHO
 70
     1
  9
$DIMPOST
  1

  9
$DIMAPOST
  1

  9
$DIMALT
 70
     0
  9
$DIMALTD
 70
     2
  9
$DIMALTF
 40
25.4
  9
$DIMLFAC
 40
1.0
  9
$DIMTOFL
 70
     0
  9
$DIMTVP
 40
0.0
  9
$DIMTIX
 70
     0
  9
$DIMSOXD
 70
     0
  9
$DIMSAH
 70
     0
  9
$DIMBLK1
  1

  9
$DIMBLK2
  1

  9
$DIMSTYLE
  2
Standard
  9
$DIMCLRD
 70
     0
  9
$DIMCLRE
 70
     0
  9
$DIMCLRT
 70
     0
  9
$DIMTFAC
 40
1.0
  9
$DIMGAP
 40
0.09
  9
$DIMJUST
 70
     0
  9
$DIMSD1
 70
     0
  9
$DIMSD2
 70
     0
  9
$DIMTOLJ
 70
     1
  9
$DIMTZIN
 70
     0
  9
$DIMALTZ
 70
     0
  9
$DIMALTTZ
 70
     0
  9
$DIMUPT
 70
     0
  9
$DIMDEC
 70
     4
  9
$DIMTDEC
 70
     4
  9
$DIMALTU
 70
     2
  9
$DIMALTTD
 70
     2
  9
$DIMTXSTY
  7
Standard
  9
$DIMAUNIT
 70
     0
  9
$DIMADEC
 70
     0
  9
$DIMALTRND
 40
0.0
  9
$DIMAZIN
 70
     0
  9
$DIMDSEP
 70
    46
  9
$DIMATFIT
 70
     3
  9
$DIMFRAC
 70
     0
  9
$DIMLDRBLK
  1

  9
$DIMLUNIT
 70
     2
  9
$DIMLWD
 70
    -2
  9
$DIMLWE
 70
    -2
  9
$DIMTMOVE
 70
     0
  9
$LUNITS
 70
     2
  9
$LUPREC
 70
     4
  9
$SKETCHINC
 40
0.1
  9
$FILLETRAD
 40
0.0
  9
$AUNITS
 70
     0
  9
$AUPREC
 70
     0
  9
$MENU
  1
.
  9
$ELEVATION
 40
0.0
  9
$PELEVATION
 40
0.0
  9
$THICKNESS
 40
0.0
  9
$LIMCHECK
 70
     0
  9
$CHAMFERA
 40
0.0
  9
$CHAMFERB
 40
0.0
  9
$CHAMFERC
 40
0.0
  9
$CHAMFERD
 40
0.0
  9
$SKPOLY
 70
     0
  9
$TDCREATE
 40
2454750.842011168
  9
$TDUCREATE
 40
2454750.758677835
  9
$TDUPDATE
 40
2454750.851144560
  9
$TDUUPDATE
 40
2454750.767811226
  9
$TDINDWG
 40
0.0091333912
  9
$TDUSRTIMER
 40
0.0091333912
  9
$USRTIMER
 70
     1
  9
$ANGBASE
 50
0.0
  9
$ANGDIR
 70
     0
  9
$PDMODE
 70
     0
  9
$PDSIZE
 40
0.0
  9
$PLINEWID
 40
0.0
  9
$SPLFRAME
 70
     0
  9
$SPLINETYPE
 70
     6
  9
$SPLINESEGS
 70
     8
  9
$HANDSEED
  5
4C5
  9
$SURFTAB1
 70
     6
  9
$SURFTAB2
 70
     6
  9
$SURFTYPE
 70
     6
  9
$SURFU
 70
     6
  9
$SURFV
 70
     6
  9
$UCSBASE
  2

  9
$UCSNAME
  2

  9
$UCSORG
 10
0.0
 20
0.0
 30
0.0
  9
$UCSXDIR
 10
1.0
 20
0.0
 30
0.0
  9
$UCSYDIR
 10
0.0
 20
1.0
 30
0.0
  9
$UCSORTHOREF
  2

  9
$UCSORTHOVIEW
 70
     1
  9
$UCSORGTOP
 10
0.0
 20
0.0
 30
0.0
  9
$UCSORGBOTTOM
 10
0.0
 20
0.0
 30
0.0
  9
$UCSORGLEFT
 10
0.0
 20
0.0
 30
0.0
  9
$UCSORGRIGHT
 10
0.0
 20
0.0
 30
0.0
  9
$UCSORGFRONT
 10
0.0
 20
0.0
 30
0.0
  9
$UCSORGBACK
 10
0.0
 20
0.0
 30
0.0
  9
$PUCSBASE
  2

  9
$PUCSNAME
  2

  9
$PUCSORG
 10
0.0
 20
0.0
 30
0.0
  9
$PUCSXDIR
 10
1.0
 20
0.0
 30
0.0
  9
$PUCSYDIR
 10
0.0
 20
1.0
 30
0.0
  9
$PUCSORTHOREF
  2

  9
$PUCSORTHOVIEW
 70
     0
  9
$PUCSORGTOP
 10
0.0
 20
0.0
 30
0.0
  9
$PUCSORGBOTTOM
 10
0.0
 20
0.0
 30
0.0
  9
$PUCSORGLEFT
 10
0.0
 20
0.0
 30
0.0
  9
$PUCSORGRIGHT
 10
0.0
 20
0.0
 30
0.0
  9
$PUCSORGFRONT
 10
0.0
 20
0.0
 30
0.0
  9
$PUCSORGBACK
 10
0.0
 20
0.0
 30
0.0
  9
$USERI1
 70
     0
  9
$USERI2
 70
     0
  9
$USERI3
 70
     0
  9
$USERI4
 70
     0
  9
$USERI5
 70
     0
  9
$USERR1
 40
0.0
  9
$USERR2
 40
0.0
  9
$USERR3
 40
0.0
  9
$USERR4
 40
0.0
  9
$USERR5
 40
0.0
  9
$WORLDVIEW
 70
     1
  9
$SHADEDGE
 70
     3
  9
$SHADEDIF
 70
    70
  9
$TILEMODE
 70
     1
  9
$MAXACTVP
 70
    64
  9
$PINSBASE
 10
0.0
 20
0.0
 30
0.0
  9
$PLIMCHECK
 70
     0
  9
$PEXTMIN
 10
1.000000000000000E+20
 20
1.000000000000000E+20
 30
1.000000000000000E+20
  9
$PEXTMAX
 10
-1.000000000000000E+20
 20
-1.000000000000000E+20
 30
-1.000000000000000E+20
  9
$PLIMMIN
 10
0.0
 20
0.0
  9
$PLIMMAX
 10
12.0
 20
9.0
  9
$UNITMODE
 70
     0
  9
$VISRETAIN
 70
     1
  9
$PLINEGEN
 70
     0
  9
$PSLTSCALE
 70
     1
  9
$TREEDEPTH
 70
  3020
  9
$CMLSTYLE
  2
Standard
  9
$CMLJUST
 70
     0
  9
$CMLSCALE
 40
1.0
  9
$PROXYGRAPHICS
 70
     1
  9
$MEASUREMENT
 70
     0
  9
$CELWEIGHT
370
    -1
  9
$ENDCAPS
280
     0
  9
$JOINSTYLE
280
     0
  9
$LWDISPLAY
290
     0
  9
$INSUNITS
 70
     0
  9
$HYPERLINKBASE
  1

  9
$STYLESHEET
  1

  9
$XEDIT
290
     1
  9
$CEPSNTYPE
380
     0
  9
$PSTYLEMODE
290
     1
  9
$FINGERPRINTGUID
  2
{86BB78FD-6848-404D-9FC2-EBC79ECB73EE}
  9
$VERSIONGUID
  2
{0C2A05FD-0D6E-4F2B-BF22-10C9C827C735}
  9
$EXTNAMES
290
     1
  9
$PSVPSCALE
 40
0.0
  9
$OLESTARTUP
290
     0
  0
ENDSEC
  0
SECTION
  2
CLASSES
  0
CLASS
  1
ACDBDICTIONARYWDFLT
  2
AcDbDictionaryWithDefault
  3
AutoCAD 2000
 90
        0
280
     0
281
     0
  0
CLASS
  1
ACDBPLACEHOLDER
  2
AcDbPlaceHolder
  3
AutoCAD 2000
 90
        0
280
     0
281
     0
  0
CLASS
  1
LAYOUT
  2
AcDbLayout
  3
AutoCAD 2000
 90
        0
280
     0
281
     0
  0
CLASS
  1
DICTIONARYVAR
  2
AcDbDictionaryVar
  3
AutoCAD 2000
 90
        0
280
     0
281
     0
  0
ENDSEC
  0
SECTION
  2
TABLES
  0
TABLE
  2
VPORT
  5
8
330
0
100
AcDbSymbolTable
 70
     2
  0
VPORT
  5
4C4
330
8
100
AcDbSymbolTableRecord
100
AcDbViewportTableRecord
  2
*Active
 70
     0
 10
0.0
 20
0.0
 11
1.0
 21
1.0
 12
130.0
 22
149.0
 13
0.0
 23
0.0
 14
1.0
 24
1.0
 15
0.0
 25
0.0
 16
0.0
 26
0.0
 36
1.0
 17
0.0
 27
0.0
 37
0.0
 40
300.2864450127877
 41
2.078104993597951
 42
50.0
 43
0.0
 44
0.0
 50
0.0
 51
0.0
 71
     0
 72
   100
 73
     1
 74
     3
 75
     0
 76
     0
 77
     0
 78
     0
281
     0
 65
     1
110
0.0
120
0.0
130
0.0
111
1.0
121
0.0
131
0.0
112
0.0
122
1.0
132
0.0
 79
     1
146
0.0
  0
ENDTAB
  0
TABLE
  2
LTYPE
  5
5
330
0
100
AcDbSymbolTable
 70
     1
  0
LTYPE
  5
13
330
5
100
AcDbSymbolTableRecord
100
AcDbLinetypeTableRecord
  2
ByBlock
 70
     0
  3

 72
    65
 73
     0
 40
0.0
  0
LTYPE
  5
14
330
5
100
AcDbSymbolTableRecord
100
AcDbLinetypeTableRecord
  2
ByLayer
 70
     0
  3

 72
    65
 73
     0
 40
0.0
  0
LTYPE
  5
15
330
5
100
AcDbSymbolTableRecord
100
AcDbLinetypeTableRecord
  2
Continuous
 70
     0
  3
Solid line
 72
    65
 73
     0
 40
0.0
  0
ENDTAB
  0
TABLE
  2
LAYER
  5
2
330
0
100
AcDbSymbolTable
 70
     1
  0
LAYER
  5
10
330
2
100
AcDbSymbolTableRecord
100
AcDbLayerTableRecord
  2
0
 70
     0
 62
     7
  6
Continuous
370
    -3
390
F
  0
ENDTAB
  0
TABLE
  2
STYLE
  5
3
330
0
100
AcDbSymbolTable
 70
     1
  0
STYLE
  5
11
330
3
100
AcDbSymbolTableRecord
100
AcDbTextStyleTableRecord
  2
Standard
 70
     0
 40
0.0
 41
1.0
 50
0.0
 71
     0
 42
0.2
  3
txt
  4

  0
ENDTAB
  0
TABLE
  2
VIEW
  5
6
330
0
100
AcDbSymbolTable
 70
     0
  0
ENDTAB
  0
TABLE
  2
UCS
  5
7
330
0
100
AcDbSymbolTable
 70
     0
  0
ENDTAB
  0
TABLE
  2
APPID
  5
9
330
0
100
AcDbSymbolTable
 70
     1
  0
APPID
  5
12
330
9
100
AcDbSymbolTableRecord
100
AcDbRegAppTableRecord
  2
ACAD
 70
     0
  0
ENDTAB
  0
TABLE
  2
DIMSTYLE
  5
A
330
0
100
AcDbSymbolTable
 70
     1
100
AcDbDimStyleTable
 71
     0
  0
DIMSTYLE
105
4BC
330
A
100
AcDbSymbolTableRecord
100
AcDbDimStyleTableRecord
  2
Standard
 70
     0
340
11
  0
ENDTAB
  0
TABLE
  2
BLOCK_RECORD
  5
1
330
0
100
AcDbSymbolTable
 70
     0
  0
BLOCK_RECORD
  5
1E
330
1
100
AcDbSymbolTableRecord
100
AcDbBlockTableRecord
  2
*Model_Space
340
21
  0
BLOCK_RECORD
  5
1A
330
1
100
AcDbSymbolTableRecord
100
AcDbBlockTableRecord
  2
*Paper_Space
340
1D
  0
ENDTAB
  0
ENDSEC
  0
SECTION
  2
BLOCKS
  0
BLOCK
  5
1F
330
1E
100
AcDbEntity
  8
0
100
AcDbBlockBegin
  2
*Model_Space
 70
     0
 10
0.0
 20
0.0
 30
0.0
  3
*Model_Space
  1

  0
ENDBLK
  5
20
330
1E
100
AcDbEntity
  8
0
100
AcDbBlockEnd
  0
BLOCK
  5
1B
330
1A
100
AcDbEntity
 67
     1
  8
0
100
AcDbBlockBegin
  2
*Paper_Space
 70
     0
 10
0.0
 20
0.0
 30
0.0
  3
*Paper_Space
  1

  0
ENDBLK
  5
1C
330
1A
100
AcDbEntity
 67
     1
  8
0
100
AcDbBlockEnd
  0
ENDSEC
  0
SECTION
  2
ENTITIES
  0
LINE
  5
22
330
1E
100
AcDbEntity
  8
0
100
AcDbLine
 10
191.09325
 20
-0.0000000000000067
 30
0.0
 11
194.4932499999999
 21
-0.0000000000000069
 31
0.0
  0
LINE
  5
23
330
1E
100
AcDbEntity
  8
0
100
AcDbLine
 10
189.7932499999999
 20
-0.0000000000000066
 30
0.0
 11
189.7932499999999
 21
8.999999999999991
 31
0.0
  0
LINE
  5
24
330
1E
100
AcDbEntity
  8
0
100
AcDbLine
 10
189.7932499999999
 20
-0.0000000000000066
 30
0.0
 11
191.09325
 21
-0.0000000000000067
 31
0.0
  0
LINE
  5
25
330
1E
100
AcDbEntity
  8
0
100
AcDbLine
 10
194.4932499999999
 20
-0.0000000000000069
 30
0.0
 11
199.3932499999999
 21
-0.0000000000000072
 31
0.0
  0
LINE
  5
26
330
1E
100
AcDbEntity
  8
0
100
AcDbLine
 10
194.4932499999999
 20
-0.0000000000000069
 30
0.0
 11
200.09325
 21
-0.0000000000000073
 31
0.0
  0
LINE
  5
29
330
1E
100
AcDbEntity
  8
0
100
AcDbLine
 10
152.33525
 20
68.3944
 30
0.0
 11
167.30525
 21
52.8889
 31
0.0
  0
LINE
  5
2A
330
1E
100
AcDbEntity
  8
0
100
AcDbLine
 10
177.00825
 20
42.1026
 30
0.0
 11
178.0952499999999
 21
42.36229999999999
 31
0.0
  0
LINE
  5
2C
330
1E
100
AcDbEntity
  8
0
100
AcDbLine
 10
178.0952499999999
 20
42.36229999999999
 30
0.0
 11
179.38125
 21
40.8302
 31
0.0
  0
LINE
  5
2D
330
1E
100
AcDbEntity
  8
0
100
AcDbLine
 10
178.0952499999999
 20
42.36229999999999
 30
0.0
 11
178.40125
 21
42.6194
 31
0.0
  0
LINE
  5
2E
330
1E
100
AcDbEntity
  8
0
100
AcDbLine
 10
179.38125
 20
40.8302
 30
0.0
 11
181.05025
 21
39.61959999999999
 31
0.0
  0
LINE
  5
2F
330
1E
100
AcDbEntity
  8
0
100
AcDbLine
 10
183.86725
 20
39.373
 30
0.0
 11
184.7862499999999
 21
40.14429999999999
 31
0.0
  0
LINE
  5
30
330
1E
100
AcDbEntity
  8
0
100
AcDbLine
 10
181.05025
 20
39.61959999999999
 30
0.0
 11
182.7802499999999
 21
39.1133
 31
0.0
  0
LINE
  5
31
330
1E
100
AcDbEntity
  8
0
100
AcDbLine
 10
182.7802499999999
 20
39.1133
 30
0.0
 11
183.86725
 21
39.373
 31
0.0
  0
LINE
  5
32
330
1E
100
AcDbEntity
  8
0
100
AcDbLine
 10
184.7862499999999
 20
40.14429999999999
 30
0.0
 11
185.8582499999999
 21
41.0441
 31
0.0
  0
LINE
  5
33
330
1E
100
AcDbEntity
  8
0
100
AcDbLine
 10
185.8582499999999
 20
41.0441
 30
0.0
 11
187.3142499999999
 21
42.2655
 31
0.0
  0
LINE
  5
34
330
1E
100
AcDbEntity
  8
0
100
AcDbLine
 10
187.3142499999999
 20
42.2655
 30
0.0
 11
188.9992499999999
 21
43.6796
 31
0.0
  0
LINE
  5
35
330
1E
100
AcDbEntity
  8
0
100
AcDbLine
 10
185.724249999984
 20
40.93162499998679
 30
0.0
 11
186.0853376132929
 21
41.23459780966779
 31
0.0
  0
LINE
  5
36
330
1E
100
AcDbEntity
  8
0
100
AcDbLine
 10
185.724249999984
 20
40.93162499998679
 30
0.0
 11
185.8582499999999
 21
41.0441
 31
0.0
  0
LINE
  5
37
330
1E
100
AcDbEntity
  8
0
100
AcDbLine
 10
184.63325
 20
40.01579999999999
 30
0.0
 11
191.0510419480569
 21
32.3677270470509
 31
0.0
  0
LINE
  5
38
330
1E
100
AcDbEntity
  8
0
100
AcDbLine
 10
184.63325
 20
40.01579999999999
 30
0.0
 11
184.7020092752339
 21
40.0736598792034
 31
0.0
  0
LINE
  5
39
330
1E
100
AcDbEntity
  8
0
100
AcDbLine
 10
175.72225
 20
43.63459999999999
 30
0.0
 11
175.98225
 21
42.54719999999999
 31
0.0
  0
LINE
  5
3A
330
1E
100
AcDbEntity
  8
0
100
AcDbLine
 10
175.72225
 20
43.63459999999999
 30
0.0
 11
176.1672499999999
 21
44.6605
 31
0.0
  0
LINE
  5
3C
330
1E
100
AcDbEntity
  8
0
100
AcDbLine
 10
176.47325
 20
44.91749999999999
 30
0.0
 11
177.3162499999999
 21
45.6247
 31
0.0
  0
LINE
  5
3D
330
1E
100
AcDbEntity
  8
0
100
AcDbLine
 10
176.1672499999999
 20
44.6605
 30
0.0
 11
176.47325
 21
44.91749999999999
 31
0.0
  0
LINE
  5
3E
330
1E
100
AcDbEntity
  8
0
100
AcDbLine
 10
177.2842499999999
 20
43.6399
 30
0.0
 11
178.8922499999999
 21
44.9896
 31
0.0
  0
LINE
  5
3F
330
1E
100
AcDbEntity
  8
0
100
AcDbLine
 10
176.36525
 20
42.86859999999999
 30
0.0
 11
177.2842499999999
 21
43.6399
 31
0.0
  0
LINE
  5
40
330
1E
100
AcDbEntity
  8
0
100
AcDbLine
 10
179.2442499999999
 20
43.3265
 30
0.0
 11
180.70025
 21
44.54769999999999
 31
0.0
  0
LINE
  5
41
330
1E
100
AcDbEntity
  8
0
100
AcDbLine
 10
178.40125
 20
42.6194
 30
0.0
 11
179.2442499999999
 21
43.3265
 31
0.0
  0
LINE
  5
42
330
1E
100
AcDbEntity
  8
0
100
AcDbLine
 10
177.3162499999999
 20
45.6247
 30
0.0
 11
178.77125
 21
46.8459
 31
0.0
  0
LINE
  5
43
330
1E
100
AcDbEntity
  8
0
100
AcDbLine
 10
178.8922499999999
 20
44.9896
 30
0.0
 11
180.96125
 21
46.7253
 31
0.0
  0
LINE
  5
44
330
1E
100
AcDbEntity
  8
0
100
AcDbLine
 10
180.70025
 20
44.54769999999999
 30
0.0
 11
182.53925
 21
46.09049999999999
 31
0.0
  0
LINE
  5
45
330
1E
100
AcDbEntity
  8
0
100
AcDbLine
 10
178.77125
 20
46.8459
 30
0.0
 11
180.61025
 21
48.3887
 31
0.0
  0
LINE
  5
46
330
1E
100
AcDbEntity
  8
0
100
AcDbLine
 10
180.61025
 20
48.3887
 30
0.0
 11
182.67825
 21
50.1242
 31
0.0
  0
LINE
  5
47
330
1E
100
AcDbEntity
  8
0
100
AcDbLine
 10
180.96125
 20
46.7253
 30
0.0
 11
183.41225
 21
48.7822
 31
0.0
  0
LINE
  5
48
330
1E
100
AcDbEntity
  8
0
100
AcDbLine
 10
182.67825
 20
50.1242
 30
0.0
 11
184.9762499999999
 21
52.0525
 31
0.0
  0
LINE
  5
4A
330
1E
100
AcDbEntity
  8
0
100
AcDbLine
 10
183.41225
 20
48.7822
 30
0.0
 11
185.9402499999999
 21
50.9034
 31
0.0
  0
LINE
  5
4C
330
1E
100
AcDbEntity
  8
0
100
AcDbLine
 10
182.53925
 20
46.09049999999999
 30
0.0
 11
184.60725
 21
47.826
 31
0.0
  0
LINE
  5
4E
330
1E
100
AcDbEntity
  8
0
100
AcDbLine
 10
185.9402499999999
 20
50.9034
 30
0.0
 11
188.4692499999999
 21
53.02459999999999
 31
0.0
  0
LINE
  5
50
330
1E
100
AcDbEntity
  8
0
100
AcDbLine
 10
186.90525
 20
49.7543
 30
0.0
 11
189.20325
 21
51.68269999999999
 31
0.0
  0
LINE
  5
51
330
1E
100
AcDbEntity
  8
0
100
AcDbLine
 10
187.27425
 20
53.98089999999999
 30
0.0
 11
189.3422499999999
 21
55.71629999999999
 31
0.0
  0
LINE
  5
52
330
1E
100
AcDbEntity
  8
0
100
AcDbLine
 10
184.9762499999999
 20
52.0525
 30
0.0
 11
187.27425
 21
53.98089999999999
 31
0.0
  0
LINE
  5
53
330
1E
100
AcDbEntity
  8
0
100
AcDbLine
 10
184.60725
 20
47.826
 30
0.0
 11
186.90525
 21
49.7543
 31
0.0
  0
LINE
  5
54
330
1E
100
AcDbEntity
  8
0
100
AcDbLine
 10
187.6972499999999
 20
42.5869
 30
0.0
 11
187.988249999945
 21
42.83113999995349
 31
0.0
  0
LINE
  5
55
330
1E
100
AcDbEntity
  8
0
100
AcDbLine
 10
187.6972499999999
 20
42.5869
 30
0.0
 11
187.988249999945
 21
42.83113999995349
 31
0.0
  0
LINE
  5
56
330
1E
100
AcDbEntity
  8
0
100
AcDbLine
 10
175.98225
 20
42.54719999999999
 30
0.0
 11
177.00825
 21
42.1026
 31
0.0
  0
LINE
  5
57
330
1E
100
AcDbEntity
  8
0
100
AcDbLine
 10
175.98225
 20
42.54719999999999
 30
0.0
 11
176.36525
 21
42.86859999999999
 31
0.0
  0
LINE
  5
58
330
1E
100
AcDbEntity
  8
0
100
AcDbLine
 10
187.621005759701
 20
42.5229381719844
 30
0.0
 11
187.6972499999999
 21
42.5869
 31
0.0
  0
LINE
  5
59
330
1E
100
AcDbEntity
  8
0
100
AcDbLine
 10
187.621005759701
 20
42.5229381719844
 30
0.0
 11
187.988249999945
 21
42.83113999995349
 31
0.0
  0
LINE
  5
5A
330
1E
100
AcDbEntity
  8
0
100
AcDbLine
 10
167.30525
 20
52.8889
 30
0.0
 11
176.1672499999999
 21
44.6605
 31
0.0
  0
LINE
  5
5B
330
1E
100
AcDbEntity
  8
0
100
AcDbLine
 10
187.22125
 20
69.6012
 30
0.0
 11
193.7862499999999
 21
59.44449999999999
 31
0.0
  0
LINE
  5
5C
330
1E
100
AcDbEntity
  8
0
100
AcDbLine
 10
188.6902499999999
 20
30.02439999999999
 30
0.0
 11
189.5772499999999
 21
30.7682
 31
0.0
  0
LINE
  5
5D
330
1E
100
AcDbEntity
  8
0
100
AcDbLine
 10
188.4692499999999
 20
53.02459999999999
 30
0.0
 11
190.92025
 21
55.0815
 31
0.0
  0
LINE
  5
5E
330
1E
100
AcDbEntity
  8
0
100
AcDbLine
 10
189.20325
 20
51.68269999999999
 30
0.0
 11
191.2712499999999
 21
53.4182
 31
0.0
  0
LINE
  5
5F
330
1E
100
AcDbEntity
  8
0
100
AcDbLine
 10
188.9992499999999
 20
43.6796
 30
0.0
 11
190.7612499999999
 21
45.158
 31
0.0
  0
LINE
  5
60
330
1E
100
AcDbEntity
  8
0
100
AcDbLine
 10
188.67625
 20
30.3749
 30
0.0
 11
189.82525
 21
31.3391
 31
0.0
  0
LINE
  5
61
330
1E
100
AcDbEntity
  8
0
100
AcDbLine
 10
188.3622499999999
 20
29.7489
 30
0.0
 11
188.73425
 21
28.9728
 31
0.0
  0
LINE
  5
62
330
1E
100
AcDbEntity
  8
0
100
AcDbLine
 10
188.3622499999999
 20
29.7489
 30
0.0
 11
188.67625
 21
30.3749
 31
0.0
  0
LINE
  5
63
330
1E
100
AcDbEntity
  8
0
100
AcDbLine
 10
188.3622499999999
 20
29.7489
 30
0.0
 11
188.6902499999999
 21
30.02439999999999
 31
0.0
  0
LINE
  5
64
330
1E
100
AcDbEntity
  8
0
100
AcDbLine
 10
188.73425
 20
28.9728
 30
0.0
 11
194.44725
 21
22.16349999999999
 31
0.0
  0
LINE
  5
65
330
1E
100
AcDbEntity
  8
0
100
AcDbLine
 10
191.09325
 20
8.999999999999991
 30
0.0
 11
194.4932499999999
 21
8.999999999999991
 31
0.0
  0
LINE
  5
66
330
1E
100
AcDbEntity
  8
0
100
AcDbLine
 10
194.4932499999999
 20
8.999999999999991
 30
0.0
 11
200.09325
 21
8.999999999999991
 31
0.0
  0
LINE
  5
67
330
1E
100
AcDbEntity
  8
0
100
AcDbLine
 10
190.79325
 20
9.999999999999991
 30
0.0
 11
191.9932499999999
 21
9.999999999999991
 31
0.0
  0
LINE
  5
68
330
1E
100
AcDbEntity
  8
0
100
AcDbLine
 10
191.9932499999999
 20
9.999999999999991
 30
0.0
 11
195.39325
 21
9.999999999999991
 31
0.0
  0
LINE
  5
69
330
1E
100
AcDbEntity
  8
0
100
AcDbLine
 10
189.7932499999999
 20
8.999999999999991
 30
0.0
 11
190.79325
 21
9.999999999999991
 31
0.0
  0
LINE
  5
6A
330
1E
100
AcDbEntity
  8
0
100
AcDbLine
 10
189.7932499999999
 20
8.999999999999991
 30
0.0
 11
191.09325
 21
8.999999999999991
 31
0.0
  0
LINE
  5
6B
330
1E
100
AcDbEntity
  8
0
100
AcDbLine
 10
189.7932499999999
 20
8.999999999999991
 30
0.0
 11
189.7932499999999
 21
-0.0000000000000062
 31
0.0
  0
LINE
  5
6C
330
1E
100
AcDbEntity
  8
0
100
AcDbLine
 10
195.39325
 20
9.999999999999991
 30
0.0
 11
200.7932499999999
 21
9.999999999999991
 31
0.0
  0
LINE
  5
6D
330
1E
100
AcDbEntity
  8
0
100
AcDbLine
 10
197.79325
 20
9.999999999999991
 30
0.0
 11
200.09325
 21
15.4
 31
0.0
  0
LINE
  5
6E
330
1E
100
AcDbEntity
  8
0
100
AcDbLine
 10
189.82525
 20
31.3391
 30
0.0
 11
192.97725
 21
33.98369999999999
 31
0.0
  0
LINE
  5
6F
330
1E
100
AcDbEntity
  8
0
100
AcDbLine
 10
189.5772499999999
 20
30.7682
 30
0.0
 11
191.02125
 21
31.9803
 31
0.0
  0
LINE
  5
70
330
1E
100
AcDbEntity
  8
0
100
AcDbLine
 10
191.02125
 20
31.9803
 30
0.0
 11
192.8932499999999
 21
33.5505
 31
0.0
  0
LINE
  5
71
330
1E
100
AcDbEntity
  8
0
100
AcDbLine
 10
190.92025
 20
55.0815
 30
0.0
 11
192.9882499999999
 21
56.81689999999999
 31
0.0
  0
LINE
  5
72
330
1E
100
AcDbEntity
  8
0
100
AcDbLine
 10
191.2712499999999
 20
53.4182
 30
0.0
 11
193.11025
 21
54.96100000000001
 31
0.0
  0
LINE
  5
73
330
1E
100
AcDbEntity
  8
0
100
AcDbLine
 10
192.5232499999999
 20
46.63649999999999
 30
0.0
 11
194.2082499999999
 21
48.0506
 31
0.0
  0
LINE
  5
74
330
1E
100
AcDbEntity
  8
0
100
AcDbLine
 10
190.7612499999999
 20
45.158
 30
0.0
 11
192.5232499999999
 21
46.63649999999999
 31
0.0
  0
LINE
  5
75
330
1E
100
AcDbEntity
  8
0
100
AcDbLine
 10
189.3422499999999
 20
55.71629999999999
 30
0.0
 11
191.18125
 21
57.25909999999999
 31
0.0
  0
LINE
  5
76
330
1E
100
AcDbEntity
  8
0
100
AcDbLine
 10
191.18125
 20
57.25909999999999
 30
0.0
 11
192.6362499999999
 21
58.4803
 31
0.0
  0
LINE
  5
77
330
1E
100
AcDbEntity
  8
0
100
AcDbLine
 10
192.9882499999999
 20
56.81689999999999
 30
0.0
 11
194.59725
 21
58.1669
 31
0.0
  0
LINE
  5
78
330
1E
100
AcDbEntity
  8
0
100
AcDbLine
 10
193.11025
 20
54.96100000000001
 30
0.0
 11
194.5652499999999
 21
56.1822
 31
0.0
  0
LINE
  5
79
330
1E
100
AcDbEntity
  8
0
100
AcDbLine
 10
192.6362499999999
 20
58.4803
 30
0.0
 11
193.47925
 21
59.1875
 31
0.0
  0
LINE
  5
7A
330
1E
100
AcDbEntity
  8
0
100
AcDbLine
 10
193.47925
 20
59.1875
 30
0.0
 11
193.7862499999999
 21
59.44449999999999
 31
0.0
  0
LINE
  5
7C
330
1E
100
AcDbEntity
  8
0
100
AcDbLine
 10
194.59725
 20
58.1669
 30
0.0
 11
195.51625
 21
58.9382
 31
0.0
  0
LINE
  5
7D
330
1E
100
AcDbEntity
  8
0
100
AcDbLine
 10
194.5652499999999
 20
56.1822
 30
0.0
 11
195.40825
 21
56.8893
 31
0.0
  0
LINE
  5
7E
330
1E
100
AcDbEntity
  8
0
100
AcDbLine
 10
193.901494240273
 20
47.79316182799401
 30
0.0
 11
194.2082499999999
 21
48.0506
 31
0.0
  0
LINE
  5
7F
330
1E
100
AcDbEntity
  8
0
100
AcDbLine
 10
193.901494240273
 20
47.79316182799401
 30
0.0
 11
195.66425
 21
49.27179999999999
 31
0.0
  0
LINE
  5
80
330
1E
100
AcDbEntity
  8
0
100
AcDbLine
 10
193.7862499999999
 20
59.44449999999999
 30
0.0
 11
194.87325
 21
59.7042
 31
0.0
  0
LINE
  5
81
330
1E
100
AcDbEntity
  8
0
100
AcDbLine
 10
194.87325
 20
59.7042
 30
0.0
 11
195.8992499999999
 21
59.25959999999999
 31
0.0
  0
LINE
  5
82
330
1E
100
AcDbEntity
  8
0
100
AcDbLine
 10
192.97725
 20
33.98369999999999
 30
0.0
 11
195.0122499999999
 21
35.69169999999999
 31
0.0
  0
LINE
  5
83
330
1E
100
AcDbEntity
  8
0
100
AcDbLine
 10
195.0122499999999
 20
35.69169999999999
 30
0.0
 11
197.21225
 21
37.5374
 31
0.0
  0
LINE
  5
84
330
1E
100
AcDbEntity
  8
0
100
AcDbLine
 10
192.8932499999999
 20
33.5505
 30
0.0
 11
195.06025
 21
35.36869999999999
 31
0.0
  0
LINE
  5
85
330
1E
100
AcDbEntity
  8
0
100
AcDbLine
 10
195.66425
 20
49.27179999999999
 30
0.0
 11
196.7372499999999
 21
50.17179999999999
 31
0.0
  0
LINE
  5
86
330
1E
100
AcDbEntity
  8
0
100
AcDbLine
 10
196.7372499999999
 20
50.17179999999999
 30
0.0
 11
197.65625
 21
50.9431
 31
0.0
  0
LINE
  5
87
330
1E
100
AcDbEntity
  8
0
100
AcDbLine
 10
195.40825
 20
56.8893
 30
0.0
 11
195.7142499999999
 21
57.1464
 31
0.0
  0
LINE
  5
88
330
1E
100
AcDbEntity
  8
0
100
AcDbLine
 10
195.51625
 20
58.9382
 30
0.0
 11
195.8992499999999
 21
59.25959999999999
 31
0.0
  0
LINE
  5
8A
330
1E
100
AcDbEntity
  8
0
100
AcDbLine
 10
195.8992499999999
 20
59.25959999999999
 30
0.0
 11
196.1592499999999
 21
58.1721
 31
0.0
  0
LINE
  5
8B
330
1E
100
AcDbEntity
  8
0
100
AcDbLine
 10
195.7142499999999
 20
57.1464
 30
0.0
 11
196.99925
 21
55.6142
 31
0.0
  0
LINE
  5
8C
330
1E
100
AcDbEntity
  8
0
100
AcDbLine
 10
195.7142499999999
 20
57.1464
 30
0.0
 11
196.1592499999999
 21
58.1721
 31
0.0
  0
LINE
  5
8D
330
1E
100
AcDbEntity
  8
0
100
AcDbLine
 10
196.99925
 20
55.6142
 30
0.0
 11
197.90225
 21
53.7608
 31
0.0
  0
LINE
  5
8E
330
1E
100
AcDbEntity
  8
0
100
AcDbLine
 10
196.890279508507
 20
50.300264829783
 30
0.0
 11
203.307483830846
 21
42.65181048435359
 31
0.0
  0
LINE
  5
8F
330
1E
100
AcDbEntity
  8
0
100
AcDbLine
 10
197.90225
 20
53.7608
 30
0.0
 11
198.1002499999999
 21
51.96889999999999
 31
0.0
  0
LINE
  5
90
330
1E
100
AcDbEntity
  8
0
100
AcDbLine
 10
197.65625
 20
50.9431
 30
0.0
 11
198.1002499999999
 21
51.96889999999999
 31
0.0
  0
LINE
  5
91
330
1E
100
AcDbEntity
  8
0
100
AcDbLine
 10
197.21225
 20
37.5374
 30
0.0
 11
201.44725
 21
41.0911
 31
0.0
  0
LINE
  5
92
330
1E
100
AcDbEntity
  8
0
100
AcDbLine
 10
197.39125
 20
37.32459999999999
 30
0.0
 11
199.72225
 21
39.2806
 31
0.0
  0
LINE
  5
93
330
1E
100
AcDbEntity
  8
0
100
AcDbLine
 10
195.06025
 20
35.36869999999999
 30
0.0
 11
197.39125
 21
37.32459999999999
 31
0.0
  0
LINE
  5
94
330
1E
100
AcDbEntity
  8
0
100
AcDbLine
 10
194.44725
 20
22.16349999999999
 30
0.0
 11
200.09325
 21
15.4
 31
0.0
  0
LINE
  5
97
330
1E
100
AcDbEntity
  8
0
100
AcDbLine
 10
207.39325
 20
-0.0000000000000077
 30
0.0
 11
215.79325
 21
-0.0000000000000082
 31
0.0
  0
LINE
  5
98
330
1E
100
AcDbEntity
  8
0
100
AcDbLine
 10
200.09325
 20
-0.0000000000000073
 30
0.0
 11
207.39325
 21
-0.0000000000000077
 31
0.0
  0
LINE
  5
99
330
1E
100
AcDbEntity
  8
0
100
AcDbLine
 10
199.72225
 20
39.2806
 30
0.0
 11
201.88825
 21
41.09869999999999
 31
0.0
  0
LINE
  5
9A
330
1E
100
AcDbEntity
  8
0
100
AcDbLine
 10
200.09325
 20
8.999999999999991
 30
0.0
 11
207.39325
 21
8.999999999999991
 31
0.0
  0
LINE
  5
9B
330
1E
100
AcDbEntity
  8
0
100
AcDbLine
 10
207.39325
 20
8.999999999999991
 30
0.0
 11
215.79325
 21
8.999999999999991
 31
0.0
  0
LINE
  5
9C
330
1E
100
AcDbEntity
  8
0
100
AcDbLine
 10
200.7932499999999
 20
9.999999999999991
 30
0.0
 11
207.89325
 21
9.999999999999991
 31
0.0
  0
LINE
  5
9D
330
1E
100
AcDbEntity
  8
0
100
AcDbLine
 10
207.89325
 20
9.999999999999991
 30
0.0
 11
216.09325
 21
9.999999999999991
 31
0.0
  0
LINE
  5
9E
330
1E
100
AcDbEntity
  8
0
100
AcDbLine
 10
201.44725
 20
41.0911
 30
0.0
 11
203.25325
 21
42.60629999999999
 31
0.0
  0
LINE
  5
9F
330
1E
100
AcDbEntity
  8
0
100
AcDbLine
 10
201.88825
 20
41.09869999999999
 30
0.0
 11
203.76025
 21
42.66899999999999
 31
0.0
  0
LINE
  5
A0
330
1E
100
AcDbEntity
  8
0
100
AcDbLine
 10
203.76025
 20
42.66899999999999
 30
0.0
 11
205.20425
 21
43.8811
 31
0.0
  0
LINE
  5
A1
330
1E
100
AcDbEntity
  8
0
100
AcDbLine
 10
205.20425
 20
43.8811
 30
0.0
 11
206.09125
 21
44.6248
 31
0.0
  0
LINE
  5
A2
330
1E
100
AcDbEntity
  8
0
100
AcDbLine
 10
203.25325
 20
42.60629999999999
 30
0.0
 11
205.74825
 21
44.6999
 31
0.0
  0
LINE
  5
A3
330
1E
100
AcDbEntity
  8
0
100
AcDbLine
 10
206.09125
 20
44.6248
 30
0.0
 11
206.4192499999999
 21
44.90029999999999
 31
0.0
  0
LINE
  5
A4
330
1E
100
AcDbEntity
  8
0
100
AcDbLine
 10
205.74825
 20
44.6999
 30
0.0
 11
206.4192499999999
 21
44.90029999999999
 31
0.0
  0
LINE
  5
A5
330
1E
100
AcDbEntity
  8
0
100
AcDbLine
 10
206.4192499999999
 20
44.90029999999999
 30
0.0
 11
207.1192499999999
 21
44.3997
 31
0.0
  0
LINE
  5
A6
330
1E
100
AcDbEntity
  8
0
100
AcDbLine
 10
207.1192499999999
 20
44.3997
 30
0.0
 11
212.8322499999999
 21
37.5904
 31
0.0
  0
LINE
  5
A7
330
1E
100
AcDbEntity
  8
0
100
AcDbLine
 10
208.09325
 20
19.69999999999999
 30
0.0
 11
210.8932499999999
 21
21.2
 31
0.0
  0
LINE
  5
A8
330
1E
100
AcDbEntity
  8
0
100
AcDbLine
 10
205.49325
 20
18.3
 30
0.0
 11
208.09325
 21
19.69999999999999
 31
0.0
  0
LINE
  5
A9
330
1E
100
AcDbEntity
  8
0
100
AcDbLine
 10
203.1932499999999
 20
17.1
 30
0.0
 11
205.49325
 21
18.3
 31
0.0
  0
LINE
  5
AA
330
1E
100
AcDbEntity
  8
0
100
AcDbLine
 10
201.49325
 20
16.2
 30
0.0
 11
203.1932499999999
 21
17.1
 31
0.0
  0
LINE
  5
AB
330
1E
100
AcDbEntity
  8
0
100
AcDbLine
 10
200.4932499999999
 20
15.6
 30
0.0
 11
201.49325
 21
16.2
 31
0.0
  0
LINE
  5
AC
330
1E
100
AcDbEntity
  8
0
100
AcDbLine
 10
200.09325
 20
15.4
 30
0.0
 11
200.4932499999999
 21
15.6
 31
0.0
  0
LINE
  5
AD
330
1E
100
AcDbEntity
  8
0
100
AcDbLine
 10
206.8932499999999
 20
-0.0000000000000077
 30
0.0
 11
215.49325
 21
-0.0000000000000082
 31
0.0
  0
LINE
  5
AE
330
1E
100
AcDbEntity
  8
0
100
AcDbLine
 10
208.8932499999999
 20
71.5
 30
0.0
 11
210.4932499999999
 21
71.5
 31
0.0
  0
LINE
  5
B0
330
1E
100
AcDbEntity
  8
0
100
AcDbLine
 10
208.29325
 20
71.5
 30
0.0
 11
208.8932499999999
 21
71.5
 31
0.0
  0
LINE
  5
B1
330
1E
100
AcDbEntity
  8
0
100
AcDbLine
 10
208.29325
 20
71.5
 30
0.0
 11
209.2932499999999
 21
71.0
 31
0.0
  0
LINE
  5
B2
330
1E
100
AcDbEntity
  8
0
100
AcDbLine
 10
199.3932499999999
 20
-0.0000000000000072
 30
0.0
 11
206.8932499999999
 21
-0.0000000000000077
 31
0.0
  0
LINE
  5
B3
330
1E
100
AcDbEntity
  8
0
100
AcDbLine
 10
136.26525
 20
87.5455
 30
0.0
 11
143.9172499999999
 21
77.6486
 31
0.0
  0
LINE
  5
B4
330
1E
100
AcDbEntity
  8
0
100
AcDbLine
 10
143.9172499999999
 20
77.6486
 30
0.0
 11
152.33525
 21
68.3944
 31
0.0
  0
LINE
  5
B5
330
1E
100
AcDbEntity
  8
0
100
AcDbLine
 10
158.4812499999999
 20
106.186
 30
0.0
 11
166.89825
 21
96.9322
 31
0.0
  0
LINE
  5
B6
330
1E
100
AcDbEntity
  8
0
100
AcDbLine
 10
123.59525
 20
104.98
 30
0.0
 11
136.26525
 21
87.5455
 31
0.0
  0
LINE
  5
B7
330
1E
100
AcDbEntity
  8
0
100
AcDbLine
 10
166.89825
 20
96.9322
 30
0.0
 11
174.55025
 21
87.0353
 31
0.0
  0
LINE
  5
B8
330
1E
100
AcDbEntity
  8
0
100
AcDbLine
 10
174.55025
 20
87.0353
 30
0.0
 11
187.22125
 21
69.6012
 31
0.0
  0
LINE
  5
B9
330
1E
100
AcDbEntity
  8
0
100
AcDbLine
 10
66.47815
 20
108.486
 30
0.0
 11
67.69944999999999
 21
107.031
 31
0.0
  0
LINE
  5
BA
330
1E
100
AcDbEntity
  8
0
100
AcDbLine
 10
69.55294999999999
 20
107.9329999999999
 30
0.0
 11
70.38065
 21
109.2799999999999
 31
0.0
  0
LINE
  5
BB
330
1E
100
AcDbEntity
  8
0
100
AcDbLine
 10
69.16985
 20
107.612
 30
0.0
 11
69.55294999999999
 21
107.9329999999999
 31
0.0
  0
LINE
  5
BC
330
1E
100
AcDbEntity
  8
0
100
AcDbLine
 10
67.69944999999999
 20
107.031
 30
0.0
 11
69.16985
 21
107.612
 31
0.0
  0
LINE
  5
BD
330
1E
100
AcDbEntity
  8
0
100
AcDbLine
 10
66.35214999999999
 20
107.8579999999999
 30
0.0
 11
67.69944999999999
 21
107.031
 31
0.0
  0
LINE
  5
BE
330
1E
100
AcDbEntity
  8
0
100
AcDbLine
 10
57.73625
 20
118.904
 30
0.0
 11
63.19995
 21
112.3929999999999
 31
0.0
  0
LINE
  5
BF
330
1E
100
AcDbEntity
  8
0
100
AcDbLine
 10
69.15935000000001
 20
110.736
 30
0.0
 11
70.38065
 21
109.2799999999999
 31
0.0
  0
LINE
  5
C0
330
1E
100
AcDbEntity
  8
0
100
AcDbLine
 10
65.44161633954529
 20
108.943336604518
 30
0.0
 11
65.70935
 21
108.6239999999999
 31
0.0
  0
LINE
  5
C1
330
1E
100
AcDbEntity
  8
0
100
AcDbLine
 10
68.64234999999999
 20
112.1299999999999
 30
0.0
 11
69.79944999999999
 21
110.7509999999999
 31
0.0
  0
LINE
  5
C2
330
1E
100
AcDbEntity
  8
0
100
AcDbLine
 10
63.19995
 20
112.3929999999999
 30
0.0
 11
66.47815
 21
108.486
 31
0.0
  0
LINE
  5
C3
330
1E
100
AcDbEntity
  8
0
100
AcDbLine
 10
65.42844999999999
 20
115.9599999999999
 30
0.0
 11
68.64234999999999
 21
112.1299999999999
 31
0.0
  0
LINE
  5
C4
330
1E
100
AcDbEntity
  8
0
100
AcDbLine
 10
72.78075
 20
118.866
 30
0.0
 11
73.93774999999999
 21
117.487
 31
0.0
  0
LINE
  5
C5
330
1E
100
AcDbEntity
  8
0
100
AcDbLine
 10
73.36185
 20
117.396
 30
0.0
 11
74.51885
 21
116.017
 31
0.0
  0
LINE
  5
C6
330
1E
100
AcDbEntity
  8
0
100
AcDbLine
 10
65.88105
 20
114.6429999999999
 30
0.0
 11
69.15935000000001
 21
110.736
 31
0.0
  0
LINE
  5
C7
330
1E
100
AcDbEntity
  8
0
100
AcDbLine
 10
61.98125
 20
113.0679999999999
 30
0.0
 11
66.35214999999999
 21
107.8579999999999
 31
0.0
  0
LINE
  5
C8
330
1E
100
AcDbEntity
  8
0
100
AcDbLine
 10
115.30065
 20
115.6429999999999
 30
0.0
 11
116.21965
 21
116.4139999999999
 31
0.0
  0
LINE
  5
C9
330
1E
100
AcDbEntity
  8
0
100
AcDbLine
 10
115.9434499999999
 20
114.877
 30
0.0
 11
117.0308499999999
 21
115.137
 31
0.0
  0
LINE
  5
CB
330
1E
100
AcDbEntity
  8
0
100
AcDbLine
 10
114.91765
 20
115.321
 30
0.0
 11
115.9434499999999
 21
114.877
 31
0.0
  0
LINE
  5
CC
330
1E
100
AcDbEntity
  8
0
100
AcDbLine
 10
114.91765
 20
115.321
 30
0.0
 11
115.30065
 21
115.6429999999999
 31
0.0
  0
LINE
  5
CD
330
1E
100
AcDbEntity
  8
0
100
AcDbLine
 10
116.21965
 20
116.4139999999999
 30
0.0
 11
117.8277499999999
 21
117.764
 31
0.0
  0
LINE
  5
CE
330
1E
100
AcDbEntity
  8
0
100
AcDbLine
 10
115.10245
 20
117.435
 30
0.0
 11
115.40855
 21
117.692
 31
0.0
  0
LINE
  5
CF
330
1E
100
AcDbEntity
  8
0
100
AcDbLine
 10
114.6578499999999
 20
116.4089999999999
 30
0.0
 11
115.10245
 21
117.435
 31
0.0
  0
LINE
  5
D0
330
1E
100
AcDbEntity
  8
0
100
AcDbLine
 10
114.6578499999999
 20
116.4089999999999
 30
0.0
 11
114.91765
 21
115.321
 31
0.0
  0
LINE
  5
D2
330
1E
100
AcDbEntity
  8
0
100
AcDbLine
 10
118.1798499999999
 20
116.101
 30
0.0
 11
119.6349499999999
 21
117.322
 31
0.0
  0
LINE
  5
D3
330
1E
100
AcDbEntity
  8
0
100
AcDbLine
 10
117.33685
 20
115.3939999999999
 30
0.0
 11
118.1798499999999
 21
116.101
 31
0.0
  0
LINE
  5
D4
330
1E
100
AcDbEntity
  8
0
100
AcDbLine
 10
119.6349499999999
 20
117.322
 30
0.0
 11
121.47295
 21
118.8649999999999
 31
0.0
  0
LINE
  5
D5
330
1E
100
AcDbEntity
  8
0
100
AcDbLine
 10
117.0308499999999
 20
115.137
 30
0.0
 11
123.59525
 21
104.98
 31
0.0
  0
LINE
  5
D6
330
1E
100
AcDbEntity
  8
0
100
AcDbLine
 10
117.0308499999999
 20
115.137
 30
0.0
 11
117.33685
 21
115.3939999999999
 31
0.0
  0
LINE
  5
D7
330
1E
100
AcDbEntity
  8
0
100
AcDbLine
 10
115.40855
 20
117.692
 30
0.0
 11
116.25155
 21
118.399
 31
0.0
  0
LINE
  5
D8
330
1E
100
AcDbEntity
  8
0
100
AcDbLine
 10
116.25155
 20
118.399
 30
0.0
 11
117.7065499999999
 21
119.62
 31
0.0
  0
LINE
  5
D9
330
1E
100
AcDbEntity
  8
0
100
AcDbLine
 10
117.8277499999999
 20
117.764
 30
0.0
 11
119.8967499999999
 21
119.4989999999999
 31
0.0
  0
LINE
  5
DA
330
1E
100
AcDbEntity
  8
0
100
AcDbLine
 10
121.47295
 20
118.8649999999999
 30
0.0
 11
123.54205
 21
120.5999999999999
 31
0.0
  0
LINE
  5
DB
330
1E
100
AcDbEntity
  8
0
100
AcDbLine
 10
113.81695
 20
118.967
 30
0.0
 11
115.10245
 21
117.435
 31
0.0
  0
LINE
  5
DC
330
1E
100
AcDbEntity
  8
0
100
AcDbLine
 10
75.46984999999999
 20
118.7729999999999
 30
0.0
 11
75.91445
 21
119.7989999999999
 31
0.0
  0
LINE
  5
DD
330
1E
100
AcDbEntity
  8
0
100
AcDbLine
 10
73.93774999999999
 20
117.487
 30
0.0
 11
74.51885
 21
116.017
 31
0.0
  0
LINE
  5
DE
330
1E
100
AcDbEntity
  8
0
100
AcDbLine
 10
73.93774999999999
 20
117.487
 30
0.0
 11
75.46984999999999
 21
118.7729999999999
 31
0.0
  0
LINE
  5
DF
330
1E
100
AcDbEntity
  8
0
100
AcDbLine
 10
73.69125
 20
114.67
 30
0.0
 11
74.51885
 21
116.017
 31
0.0
  0
LINE
  5
E0
330
1E
100
AcDbEntity
  8
0
100
AcDbLine
 10
69.79944999999999
 20
110.7509999999999
 30
0.0
 11
70.38065
 21
109.2799999999999
 31
0.0
  0
LINE
  5
E1
330
1E
100
AcDbEntity
  8
0
100
AcDbLine
 10
69.79944999999999
 20
110.7509999999999
 30
0.0
 11
73.69125
 21
114.67
 31
0.0
  0
LINE
  5
E2
330
1E
100
AcDbEntity
  8
0
100
AcDbLine
 10
61.40274999999999
 20
113.7569999999999
 30
0.0
 11
62.81886580640829
 21
112.069584892859
 31
0.0
  0
LINE
  5
E4
330
1E
100
AcDbEntity
  8
0
100
AcDbLine
 10
197.078726570557
 20
117.473344827586
 30
0.0
 11
197.22625
 21
117.2829999999999
 31
0.0
  0
LINE
  5
E5
330
1E
100
AcDbEntity
  8
0
100
AcDbLine
 10
196.66825
 20
117.956
 30
0.0
 11
197.32225
 21
117.187
 31
0.0
  0
LINE
  5
E6
330
1E
100
AcDbEntity
  8
0
100
AcDbLine
 10
119.8967499999999
 20
119.4989999999999
 30
0.0
 11
122.3478499999999
 21
121.5559999999999
 31
0.0
  0
LINE
  5
E7
330
1E
100
AcDbEntity
  8
0
100
AcDbLine
 10
117.7065499999999
 20
119.62
 30
0.0
 11
119.54465
 21
121.1629999999999
 31
0.0
  0
LINE
  5
E8
330
1E
100
AcDbEntity
  8
0
100
AcDbLine
 10
70.21225
 20
121.1489999999999
 30
0.0
 11
73.36185
 21
117.396
 31
0.0
  0
LINE
  5
E9
330
1E
100
AcDbEntity
  8
0
100
AcDbLine
 10
60.41745
 20
121.154
 30
0.0
 11
65.88105
 21
114.6429999999999
 31
0.0
  0
LINE
  5
EA
330
1E
100
AcDbEntity
  8
0
100
AcDbLine
 10
74.82174999999999
 20
121.1009999999999
 30
0.0
 11
75.91445
 21
119.7989999999999
 31
0.0
  0
LINE
  5
EB
330
1E
100
AcDbEntity
  8
0
100
AcDbLine
 10
123.54205
 20
120.5999999999999
 30
0.0
 11
125.84005
 21
122.5289999999999
 31
0.0
  0
LINE
  5
ED
330
1E
100
AcDbEntity
  8
0
100
AcDbLine
 10
122.3478499999999
 20
121.5559999999999
 30
0.0
 11
124.87595
 21
123.6779999999999
 31
0.0
  0
LINE
  5
EE
330
1E
100
AcDbEntity
  8
0
100
AcDbLine
 10
119.54465
 20
121.1629999999999
 30
0.0
 11
121.61365
 21
122.8979999999999
 31
0.0
  0
LINE
  5
EF
330
1E
100
AcDbEntity
  8
0
100
AcDbLine
 10
112.9139499999999
 20
120.8199999999999
 30
0.0
 11
113.81695
 21
118.967
 31
0.0
  0
LINE
  5
F0
330
1E
100
AcDbEntity
  8
0
100
AcDbLine
 10
143.51225
 20
121.692
 30
0.0
 11
158.4812499999999
 21
106.186
 31
0.0
  0
LINE
  5
F1
330
1E
100
AcDbEntity
  8
0
100
AcDbLine
 10
79.30005
 20
121.987
 30
0.0
 11
79.80634999999999
 21
123.717
 31
0.0
  0
LINE
  5
F2
330
1E
100
AcDbEntity
  8
0
100
AcDbLine
 10
78.47235000000001
 20
120.64
 30
0.0
 11
79.30005
 21
121.987
 31
0.0
  0
LINE
  5
F3
330
1E
100
AcDbEntity
  8
0
100
AcDbLine
 10
77.00194999999999
 20
120.0579999999999
 30
0.0
 11
78.47235000000001
 21
120.64
 31
0.0
  0
LINE
  5
F4
330
1E
100
AcDbEntity
  8
0
100
AcDbLine
 10
75.91445
 20
119.7989999999999
 30
0.0
 11
77.00194999999999
 21
120.0579999999999
 31
0.0
  0
LINE
  5
F5
330
1E
100
AcDbEntity
  8
0
100
AcDbLine
 10
56.26045
 20
119.8849999999999
 30
0.0
 11
61.40274999999999
 21
113.7569999999999
 31
0.0
  0
LINE
  5
F6
330
1E
100
AcDbEntity
  8
0
100
AcDbLine
 10
196.14925
 20
119.0709999999999
 30
0.0
 11
196.66825
 21
117.956
 31
0.0
  0
LINE
  5
F7
330
1E
100
AcDbEntity
  8
0
100
AcDbLine
 10
201.133674593967
 20
116.1688445475639
 30
0.0
 11
201.6892499999999
 21
116.1929999999999
 31
0.0
  0
LINE
  5
F8
330
1E
100
AcDbEntity
  8
0
100
AcDbLine
 10
199.91825
 20
116.092
 30
0.0
 11
201.8162499999999
 21
116.212
 31
0.0
  0
LINE
  5
F9
330
1E
100
AcDbEntity
  8
0
100
AcDbLine
 10
199.53325
 20
116.19056
 30
0.0
 11
199.8032499999999
 21
116.111
 31
0.0
  0
LINE
  5
FA
330
1E
100
AcDbEntity
  8
0
100
AcDbLine
 10
199.53325
 20
116.19056
 30
0.0
 11
199.838110627178
 21
116.1125156794429
 31
0.0
  0
LINE
  5
FD
330
1E
100
AcDbEntity
  8
0
100
AcDbLine
 10
198.41825
 20
116.476
 30
0.0
 11
199.91825
 21
116.092
 31
0.0
  0
LINE
  5
FE
330
1E
100
AcDbEntity
  8
0
100
AcDbLine
 10
201.8162499999999
 20
116.212
 30
0.0
 11
205.79125
 21
116.69
 31
0.0
  0
LINE
  5
FF
330
1E
100
AcDbEntity
  8
0
100
AcDbLine
 10
201.6892499999999
 20
116.1929999999999
 30
0.0
 11
202.321345698352
 21
116.272738551902
 31
0.0
  0
LINE
  5
100
330
1E
100
AcDbEntity
  8
0
100
AcDbLine
 10
197.32225
 20
117.187
 30
0.0
 11
198.41825
 21
116.476
 31
0.0
  0
LINE
  5
101
330
1E
100
AcDbEntity
  8
0
100
AcDbLine
 10
69.75964999999999
 20
122.466
 30
0.0
 11
72.78075
 21
118.866
 31
0.0
  0
LINE
  5
102
330
1E
100
AcDbEntity
  8
0
100
AcDbLine
 10
60.15765
 20
122.242
 30
0.0
 11
65.42844999999999
 21
115.9599999999999
 31
0.0
  0
LINE
  5
103
330
1E
100
AcDbEntity
  8
0
100
AcDbLine
 10
77.31535
 20
122.0189999999999
 30
0.0
 11
78.47235000000001
 21
120.64
 31
0.0
  0
LINE
  5
104
330
1E
100
AcDbEntity
  8
0
100
AcDbLine
 10
71.80074999999999
 20
124.701
 30
0.0
 11
74.82174999999999
 21
121.1009999999999
 31
0.0
  0
LINE
  5
105
330
1E
100
AcDbEntity
  8
0
100
AcDbLine
 10
49.89675
 20
127.4689999999999
 30
0.0
 11
56.26045
 21
119.8849999999999
 31
0.0
  0
LINE
  5
106
330
1E
100
AcDbEntity
  8
0
100
AcDbLine
 10
49.89675
 20
127.4689999999999
 30
0.0
 11
56.26045
 21
119.8849999999999
 31
0.0
  0
LINE
  5
109
330
1E
100
AcDbEntity
  8
0
100
AcDbLine
 10
121.61365
 20
122.8979999999999
 30
0.0
 11
123.91175
 21
124.827
 31
0.0
  0
LINE
  5
10A
330
1E
100
AcDbEntity
  8
0
100
AcDbLine
 10
125.84005
 20
122.5289999999999
 30
0.0
 11
128.1381499999999
 21
124.457
 31
0.0
  0
LINE
  5
10B
330
1E
100
AcDbEntity
  8
0
100
AcDbLine
 10
112.7158499999999
 20
122.612
 30
0.0
 11
113.16085
 21
123.638
 31
0.0
  0
LINE
  5
10C
330
1E
100
AcDbEntity
  8
0
100
AcDbLine
 10
112.7158499999999
 20
122.612
 30
0.0
 11
112.9139499999999
 21
120.8199999999999
 31
0.0
  0
LINE
  5
10D
330
1E
100
AcDbEntity
  8
0
100
AcDbLine
 10
113.3898499999999
 20
123.8299999999999
 30
0.0
 11
115.15195
 21
125.309
 31
0.0
  0
LINE
  5
10E
330
1E
100
AcDbEntity
  8
0
100
AcDbLine
 10
114.0956297129859
 20
124.42224665767
 30
0.0
 11
114.335768751717
 21
124.6238371201799
 31
0.0
  0
LINE
  5
10F
330
1E
100
AcDbEntity
  8
0
100
AcDbLine
 10
114.0956297129859
 20
124.42224665767
 30
0.0
 11
114.15585
 21
124.473
 31
0.0
  0
LINE
  5
110
330
1E
100
AcDbEntity
  8
0
100
AcDbLine
 10
124.87595
 20
123.6779999999999
 30
0.0
 11
127.4039499999999
 21
125.7989999999999
 31
0.0
  0
LINE
  5
112
330
1E
100
AcDbEntity
  8
0
100
AcDbLine
 10
123.91175
 20
124.827
 30
0.0
 11
126.20975
 21
126.7549999999999
 31
0.0
  0
LINE
  5
113
330
1E
100
AcDbEntity
  8
0
100
AcDbLine
 10
128.1381499999999
 20
124.457
 30
0.0
 11
130.20625
 21
126.192
 31
0.0
  0
LINE
  5
114
330
1E
100
AcDbEntity
  8
0
100
AcDbLine
 10
114.15585
 20
124.473
 30
0.0
 11
114.335768751717
 21
124.6238371201799
 31
0.0
  0
LINE
  5
115
330
1E
100
AcDbEntity
  8
0
100
AcDbLine
 10
113.16085
 20
123.638
 30
0.0
 11
113.3898499999999
 21
123.8299999999999
 31
0.0
  0
LINE
  5
116
330
1E
100
AcDbEntity
  8
0
100
AcDbLine
 10
79.80634999999999
 20
123.717
 30
0.0
 11
81.40005
 21
125.707
 31
0.0
  0
LINE
  5
117
330
1E
100
AcDbEntity
  8
0
100
AcDbLine
 10
74.23014999999999
 20
125.695
 30
0.0
 11
77.31535
 21
122.0189999999999
 31
0.0
  0
LINE
  5
118
330
1E
100
AcDbEntity
  8
0
100
AcDbLine
 10
127.4039499999999
 20
125.7989999999999
 30
0.0
 11
129.85525
 21
127.856
 31
0.0
  0
LINE
  5
119
330
1E
100
AcDbEntity
  8
0
100
AcDbLine
 10
115.15195
 20
125.309
 30
0.0
 11
116.9909499999999
 21
126.852
 31
0.0
  0
LINE
  5
11A
330
1E
100
AcDbEntity
  8
0
100
AcDbLine
 10
81.40005
 20
125.707
 30
0.0
 11
82.22775
 21
127.054
 31
0.0
  0
LINE
  5
11C
330
1E
100
AcDbEntity
  8
0
100
AcDbLine
 10
65.06995
 20
127.2769999999999
 30
0.0
 11
70.21225
 21
121.1489999999999
 31
0.0
  0
LINE
  5
11D
330
1E
100
AcDbEntity
  8
0
100
AcDbLine
 10
50.72985
 20
127.255
 30
0.0
 11
57.73625
 21
118.904
 31
0.0
  0
LINE
  5
11E
330
1E
100
AcDbEntity
  8
0
100
AcDbLine
 10
126.20975
 20
126.7549999999999
 30
0.0
 11
128.27785
 21
128.49
 31
0.0
  0
LINE
  5
11F
330
1E
100
AcDbEntity
  8
0
100
AcDbLine
 10
116.9909499999999
 20
126.852
 30
0.0
 11
118.4459499999999
 21
128.0729999999999
 31
0.0
  0
LINE
  5
120
330
1E
100
AcDbEntity
  8
0
100
AcDbLine
 10
130.20625
 20
126.192
 30
0.0
 11
132.04525
 21
127.7349999999999
 31
0.0
  0
LINE
  5
121
330
1E
100
AcDbEntity
  8
0
100
AcDbLine
 10
82.22775
 20
127.054
 30
0.0
 11
82.35094999999999
 21
128.4629999999999
 31
0.0
  0
LINE
  5
122
330
1E
100
AcDbEntity
  8
0
100
AcDbLine
 10
196.66825
 20
126.044
 30
0.0
 11
197.32225
 21
126.8129999999999
 31
0.0
  0
LINE
  5
123
330
1E
100
AcDbEntity
  8
0
100
AcDbLine
 10
197.078726570557
 20
126.5266551724139
 30
0.0
 11
197.22625
 21
126.717
 31
0.0
  0
LINE
  5
124
330
1E
100
AcDbEntity
  8
0
100
AcDbLine
 10
197.078726570557
 20
126.5266551724139
 30
0.0
 11
197.2600908208399
 21
126.739910689948
 31
0.0
  0
LINE
  5
125
330
1E
100
AcDbEntity
  8
0
100
AcDbLine
 10
196.14925
 20
124.929
 30
0.0
 11
196.66825
 21
126.044
 31
0.0
  0
LINE
  5
128
330
1E
100
AcDbEntity
  8
0
100
AcDbLine
 10
198.41825
 20
127.5239999999999
 30
0.0
 11
199.91825
 21
127.9079999999999
 31
0.0
  0
LINE
  5
129
330
1E
100
AcDbEntity
  8
0
100
AcDbLine
 10
198.41825
 20
127.5239999999999
 30
0.0
 11
199.8373482723479
 21
127.887289157721
 31
0.0
  0
LINE
  5
12A
330
1E
100
AcDbEntity
  8
0
100
AcDbLine
 10
197.32225
 20
126.8129999999999
 30
0.0
 11
198.41825
 21
127.5239999999999
 31
0.0
  0
LINE
  5
12B
330
1E
100
AcDbEntity
  8
0
100
AcDbLine
 10
195.79325
 20
122.0
 30
0.0
 11
196.14925
 21
119.0709999999999
 31
0.0
  0
LINE
  5
12C
330
1E
100
AcDbEntity
  8
0
100
AcDbLine
 10
195.79325
 20
122.0
 30
0.0
 11
196.14925
 21
124.929
 31
0.0
  0
LINE
  5
12D
330
1E
100
AcDbEntity
  8
0
100
AcDbLine
 10
205.79125
 20
116.69
 30
0.0
 11
209.3352499999999
 21
117.217
 31
0.0
  0
LINE
  5
12E
330
1E
100
AcDbEntity
  8
0
100
AcDbLine
 10
207.589139714679
 20
116.95734985317
 30
0.0
 11
209.65525
 21
117.243
 31
0.0
  0
LINE
  5
12F
330
1E
100
AcDbEntity
  8
0
100
AcDbLine
 10
207.58913971468
 20
127.0426501468289
 30
0.0
 11
209.65525
 21
126.757
 31
0.0
  0
LINE
  5
130
330
1E
100
AcDbEntity
  8
0
100
AcDbLine
 10
205.79125
 20
127.31
 30
0.0
 11
209.3352499999999
 21
126.7829999999999
 31
0.0
  0
LINE
  5
131
330
1E
100
AcDbEntity
  8
0
100
AcDbLine
 10
208.29325
 20
104.4999999999999
 30
0.0
 11
209.79325
 21
105.0
 31
0.0
  0
LINE
  5
132
330
1E
100
AcDbEntity
  8
0
100
AcDbLine
 10
208.29325
 20
104.4999999999999
 30
0.0
 11
208.8932499999999
 21
104.4999999999999
 31
0.0
  0
LINE
  5
133
330
1E
100
AcDbEntity
  8
0
100
AcDbLine
 10
207.79325
 20
103.0
 30
0.0
 11
208.29325
 21
101.5
 31
0.0
  0
LINE
  5
134
330
1E
100
AcDbEntity
  8
0
100
AcDbLine
 10
207.79325
 20
103.0
 30
0.0
 11
208.29325
 21
104.4999999999999
 31
0.0
  0
LINE
  5
136
330
1E
100
AcDbEntity
  8
0
100
AcDbLine
 10
208.29325
 20
101.5
 30
0.0
 11
209.2932499999999
 21
101.0
 31
0.0
  0
LINE
  5
137
330
1E
100
AcDbEntity
  8
0
100
AcDbLine
 10
208.29325
 20
101.5
 30
0.0
 11
208.8932499999999
 21
101.5
 31
0.0
  0
LINE
  5
138
330
1E
100
AcDbEntity
  8
0
100
AcDbLine
 10
202.321345698352
 20
116.272738551902
 30
0.0
 11
205.79125
 21
116.69
 31
0.0
  0
LINE
  5
139
330
1E
100
AcDbEntity
  8
0
100
AcDbLine
 10
4.706250000000019
 20
182.103
 30
0.0
 11
10.16995
 21
175.592
 31
0.0
  0
LINE
  5
13A
330
1E
100
AcDbEntity
  8
0
100
AcDbLine
 10
12.85115
 20
177.842
 30
0.0
 11
19.85756
 21
169.4909999999999
 31
0.0
  0
LINE
  5
13B
330
1E
100
AcDbEntity
  8
0
100
AcDbLine
 10
10.16995
 20
175.592
 30
0.0
 11
17.17635
 21
167.242
 31
0.0
  0
LINE
  5
13C
330
1E
100
AcDbEntity
  8
0
100
AcDbLine
 10
10.42965
 20
174.504
 30
0.0
 11
17.24325
 21
166.384
 31
0.0
  0
LINE
  5
13D
330
1E
100
AcDbEntity
  8
0
100
AcDbLine
 10
8.606050000000019
 20
183.678
 30
0.0
 11
13.87695
 21
177.397
 31
0.0
  0
LINE
  5
13E
330
1E
100
AcDbEntity
  8
0
100
AcDbLine
 10
7.387450000000018
 20
184.3529999999999
 30
0.0
 11
12.85115
 21
177.842
 31
0.0
  0
LINE
  5
13F
330
1E
100
AcDbEntity
  8
0
100
AcDbLine
 10
5.158850000000019
 20
180.7859999999999
 30
0.0
 11
10.42965
 21
174.504
 31
0.0
  0
LINE
  5
140
330
1E
100
AcDbEntity
  8
0
100
AcDbLine
 10
0.206750000000023
 20
187.465
 30
0.0
 11
1.03445000000002
 21
188.812
 31
0.0
  0
LINE
  5
141
330
1E
100
AcDbEntity
  8
0
100
AcDbLine
 10
0.206750000000023
 20
187.465
 30
0.0
 11
0.7879500000000219
 21
185.9949999999999
 31
0.0
  0
LINE
  5
142
330
1E
100
AcDbEntity
  8
0
100
AcDbLine
 10
0.206750000000023
 20
187.465
 30
0.0
 11
1.42795000000002
 21
186.0099999999999
 31
0.0
  0
LINE
  5
143
330
1E
100
AcDbEntity
  8
0
100
AcDbLine
 10
0.7879500000000219
 20
185.9949999999999
 30
0.0
 11
1.944950000000019
 21
184.6159999999999
 31
0.0
  0
LINE
  5
144
330
1E
100
AcDbEntity
  8
0
100
AcDbLine
 10
1.42795000000002
 20
186.0099999999999
 30
0.0
 11
4.706250000000019
 21
182.103
 31
0.0
  0
LINE
  5
145
330
1E
100
AcDbEntity
  8
0
100
AcDbLine
 10
5.392150000000018
 20
187.5079999999999
 30
0.0
 11
8.606050000000019
 21
183.678
 31
0.0
  0
LINE
  5
146
330
1E
100
AcDbEntity
  8
0
100
AcDbLine
 10
4.10915000000002
 20
188.26
 30
0.0
 11
7.387450000000018
 21
184.3529999999999
 31
0.0
  0
LINE
  5
147
330
1E
100
AcDbEntity
  8
0
100
AcDbLine
 10
1.42795000000002
 20
186.0099999999999
 30
0.0
 11
4.706250000000019
 21
182.103
 31
0.0
  0
LINE
  5
148
330
1E
100
AcDbEntity
  8
0
100
AcDbLine
 10
0.7879500000000219
 20
185.9949999999999
 30
0.0
 11
1.944950000000019
 21
184.6159999999999
 31
0.0
  0
LINE
  5
149
330
1E
100
AcDbEntity
  8
0
100
AcDbLine
 10
4.23515000000002
 20
188.887
 30
0.0
 11
8.769750000000019
 21
192.0399999999999
 31
0.0
  0
LINE
  5
14A
330
1E
100
AcDbEntity
  8
0
100
AcDbLine
 10
4.23515000000002
 20
188.887
 30
0.0
 11
5.392150000000018
 21
187.5079999999999
 31
0.0
  0
LINE
  5
14B
330
1E
100
AcDbEntity
  8
0
100
AcDbLine
 10
11.39725
 20
191.242
 30
0.0
 11
14.54674999999999
 21
187.489
 31
0.0
  0
LINE
  5
14C
330
1E
100
AcDbEntity
  8
0
100
AcDbLine
 10
12.74455
 20
190.414
 30
0.0
 11
15.76554999999999
 21
186.814
 31
0.0
  0
LINE
  5
14D
330
1E
100
AcDbEntity
  8
0
100
AcDbLine
 10
11.58745
 20
191.793
 30
0.0
 11
13.11955
 21
193.079
 31
0.0
  0
LINE
  5
14E
330
1E
100
AcDbEntity
  8
0
100
AcDbLine
 10
11.58745
 20
191.793
 30
0.0
 11
12.74455
 21
190.414
 31
0.0
  0
LINE
  5
14F
330
1E
100
AcDbEntity
  8
0
100
AcDbLine
 10
10.24015
 20
192.6209999999999
 30
0.0
 11
11.58745
 21
191.793
 31
0.0
  0
LINE
  5
150
330
1E
100
AcDbEntity
  8
0
100
AcDbLine
 10
10.24015
 20
192.6209999999999
 30
0.0
 11
11.39725
 21
191.242
 31
0.0
  0
LINE
  5
151
330
1E
100
AcDbEntity
  8
0
100
AcDbLine
 10
8.769750000000019
 20
192.0399999999999
 30
0.0
 11
10.24015
 21
192.6209999999999
 31
0.0
  0
LINE
  5
152
330
1E
100
AcDbEntity
  8
0
100
AcDbLine
 10
2.88795000000002
 20
189.715
 30
0.0
 11
4.23515000000002
 21
188.887
 31
0.0
  0
LINE
  5
153
330
1E
100
AcDbEntity
  8
0
100
AcDbLine
 10
2.88795000000002
 20
189.715
 30
0.0
 11
4.10915000000002
 21
188.26
 31
0.0
  0
LINE
  5
154
330
1E
100
AcDbEntity
  8
0
100
AcDbLine
 10
1.417450000000019
 20
189.134
 30
0.0
 11
2.88795000000002
 21
189.715
 31
0.0
  0
LINE
  5
155
330
1E
100
AcDbEntity
  8
0
100
AcDbLine
 10
1.03445000000002
 20
188.812
 30
0.0
 11
1.417450000000019
 21
189.134
 31
0.0
  0
LINE
  5
156
330
1E
100
AcDbEntity
  8
0
100
AcDbLine
 10
0.206750000000023
 20
187.465
 30
0.0
 11
0.7879500000000219
 21
185.9949999999999
 31
0.0
  0
LINE
  5
157
330
1E
100
AcDbEntity
  8
0
100
AcDbLine
 10
0.206750000000023
 20
187.465
 30
0.0
 11
1.42795000000002
 21
186.0099999999999
 31
0.0
  0
LINE
  5
158
330
1E
100
AcDbEntity
  8
0
100
AcDbLine
 10
0.206750000000023
 20
187.465
 30
0.0
 11
1.03445000000002
 21
188.812
 31
0.0
  0
LINE
  5
159
330
1E
100
AcDbEntity
  8
0
100
AcDbLine
 10
1.944950000000019
 20
184.6159999999999
 30
0.0
 11
5.158850000000019
 21
180.7859999999999
 31
0.0
  0
LINE
  5
15A
330
1E
100
AcDbEntity
  8
0
100
AcDbLine
 10
13.87695
 20
177.397
 30
0.0
 11
20.69049
 21
169.277
 31
0.0
  0
LINE
  5
15B
330
1E
100
AcDbEntity
  8
0
100
AcDbLine
 10
14.54674999999999
 20
187.489
 30
0.0
 11
19.68906
 21
181.36
 31
0.0
  0
LINE
  5
15C
330
1E
100
AcDbEntity
  8
0
100
AcDbLine
 10
14.65165
 20
194.364
 30
0.0
 11
15.47925
 21
195.7109999999999
 31
0.0
  0
LINE
  5
15D
330
1E
100
AcDbEntity
  8
0
100
AcDbLine
 10
14.20695
 20
193.3379999999999
 30
0.0
 11
14.65165
 21
194.364
 31
0.0
  0
LINE
  5
15E
330
1E
100
AcDbEntity
  8
0
100
AcDbLine
 10
14.20695
 20
193.3379999999999
 30
0.0
 11
15.29964999999999
 21
192.0359999999999
 31
0.0
  0
LINE
  5
15F
330
1E
100
AcDbEntity
  8
0
100
AcDbLine
 10
13.11955
 20
193.079
 30
0.0
 11
14.20695
 21
193.3379999999999
 31
0.0
  0
LINE
  5
160
330
1E
100
AcDbEntity
  8
0
100
AcDbLine
 10
15.07256279095269
 20
168.970882138292
 30
0.0
 11
17.56455
 21
166.0009999999999
 31
0.0
  0
LINE
  5
161
330
1E
100
AcDbEntity
  8
0
100
AcDbLine
 10
15.29964999999999
 20
192.0359999999999
 30
0.0
 11
18.32065
 21
188.4359999999999
 31
0.0
  0
LINE
  5
162
330
1E
100
AcDbEntity
  8
0
100
AcDbLine
 10
15.76554999999999
 20
186.814
 30
0.0
 11
20.77929999999999
 21
180.839
 31
0.0
  0
LINE
  5
163
330
1E
100
AcDbEntity
  8
0
100
AcDbLine
 10
15.47925
 20
195.7109999999999
 30
0.0
 11
16.94975
 21
196.293
 31
0.0
  0
LINE
  5
164
330
1E
100
AcDbEntity
  8
0
100
AcDbLine
 10
15.47925
 20
195.7109999999999
 30
0.0
 11
16.63635
 21
194.3319999999999
 31
0.0
  0
LINE
  5
165
330
1E
100
AcDbEntity
  8
0
100
AcDbLine
 10
15.07256279095269
 20
168.970882138292
 30
0.0
 11
17.56455
 21
166.0009999999999
 31
0.0
  0
LINE
  5
166
330
1E
100
AcDbEntity
  8
0
100
AcDbLine
 10
16.27035
 20
201.559
 30
0.0
 11
16.58915
 21
200.4869999999999
 31
0.0
  0
LINE
  5
167
330
1E
100
AcDbEntity
  8
0
100
AcDbLine
 10
16.27035
 20
201.559
 30
0.0
 11
16.35725
 21
202.0509999999999
 31
0.0
  0
LINE
  5
168
330
1E
100
AcDbEntity
  8
0
100
AcDbLine
 10
20.69049
 20
169.277
 30
0.0
 11
28.596756
 21
159.8539999999999
 31
0.0
  0
LINE
  5
169
330
1E
100
AcDbEntity
  8
0
100
AcDbLine
 10
20.77929999999999
 20
180.839
 30
0.0
 11
27.27148
 21
173.102
 31
0.0
  0
LINE
  5
16A
330
1E
100
AcDbEntity
  8
0
100
AcDbLine
 10
19.68906
 20
181.36
 30
0.0
 11
26.37411
 21
173.3929999999999
 31
0.0
  0
LINE
  5
16B
330
1E
100
AcDbEntity
  8
0
100
AcDbLine
 10
19.85756
 20
169.4909999999999
 30
0.0
 11
27.956703
 21
159.839
 31
0.0
  0
LINE
  5
16C
330
1E
100
AcDbEntity
  8
0
100
AcDbLine
 10
17.17635
 20
167.242
 30
0.0
 11
25.27554
 21
157.589
 31
0.0
  0
LINE
  5
16D
330
1E
100
AcDbEntity
  8
0
100
AcDbLine
 10
17.56455
 20
166.0009999999999
 30
0.0
 11
25.34234
 21
156.732
 31
0.0
  0
LINE
  5
16E
330
1E
100
AcDbEntity
  8
0
100
AcDbLine
 10
25.27554
 20
157.589
 30
0.0
 11
33.95310999999999
 21
147.248
 31
0.0
  0
LINE
  5
16F
330
1E
100
AcDbEntity
  8
0
100
AcDbLine
 10
24.73546999999999
 20
184.6799999999999
 30
0.0
 11
31.29182
 21
176.867
 31
0.0
  0
LINE
  5
170
330
1E
100
AcDbEntity
  8
0
100
AcDbLine
 10
23.27023
 20
182.537
 30
0.0
 11
29.698064
 21
174.877
 31
0.0
  0
LINE
  5
171
330
1E
100
AcDbEntity
  8
0
100
AcDbLine
 10
18.32065
 20
188.4359999999999
 30
0.0
 11
23.27023
 21
182.537
 31
0.0
  0
LINE
  5
172
330
1E
100
AcDbEntity
  8
0
100
AcDbLine
 10
27.27148
 20
173.102
 30
0.0
 11
34.72784
 21
164.2149999999999
 31
0.0
  0
LINE
  5
173
330
1E
100
AcDbEntity
  8
0
100
AcDbLine
 10
26.37411
 20
173.3929999999999
 30
0.0
 11
34.15186
 21
164.124
 31
0.0
  0
LINE
  5
174
330
1E
100
AcDbEntity
  8
0
100
AcDbLine
 10
28.596756
 20
159.8539999999999
 30
0.0
 11
37.01729
 21
149.8189999999999
 31
0.0
  0
LINE
  5
175
330
1E
100
AcDbEntity
  8
0
100
AcDbLine
 10
27.956703
 20
159.839
 30
0.0
 11
36.63427999999999
 21
149.4979999999999
 31
0.0
  0
LINE
  5
176
330
1E
100
AcDbEntity
  8
0
100
AcDbLine
 10
31.29182
 20
176.867
 30
0.0
 11
38.87665
 21
167.8279999999999
 31
0.0
  0
LINE
  5
177
330
1E
100
AcDbEntity
  8
0
100
AcDbLine
 10
29.698064
 20
174.877
 30
0.0
 11
37.15442
 21
165.9909999999999
 31
0.0
  0
LINE
  5
178
330
1E
100
AcDbEntity
  8
0
100
AcDbLine
 10
34.72784
 20
164.2149999999999
 30
0.0
 11
42.76265
 21
154.64
 31
0.0
  0
LINE
  5
179
330
1E
100
AcDbEntity
  8
0
100
AcDbLine
 10
34.15186
 20
164.124
 30
0.0
 11
42.37955
 21
154.3189999999999
 31
0.0
  0
LINE
  5
17A
330
1E
100
AcDbEntity
  8
0
100
AcDbLine
 10
33.95310999999999
 20
147.248
 30
0.0
 11
42.63065
 21
136.907
 31
0.0
  0
LINE
  5
17B
330
1E
100
AcDbEntity
  8
0
100
AcDbLine
 10
33.57
 20
146.927
 30
0.0
 11
41.99055
 21
136.8909999999999
 31
0.0
  0
LINE
  5
17C
330
1E
100
AcDbEntity
  8
0
100
AcDbLine
 10
25.34234
 20
156.732
 30
0.0
 11
33.57
 21
146.927
 31
0.0
  0
LINE
  5
17D
330
1E
100
AcDbEntity
  8
0
100
AcDbLine
 10
25.34234
 20
156.732
 30
0.0
 11
33.57
 21
146.927
 31
0.0
  0
LINE
  5
17E
330
1E
100
AcDbEntity
  8
0
100
AcDbLine
 10
16.63635
 20
194.3319999999999
 30
0.0
 11
19.72172
 21
190.655
 31
0.0
  0
LINE
  5
17F
330
1E
100
AcDbEntity
  8
0
100
AcDbLine
 10
19.72172
 20
190.655
 30
0.0
 11
24.73546999999999
 21
184.6799999999999
 31
0.0
  0
LINE
  5
180
330
1E
100
AcDbEntity
  8
0
100
AcDbLine
 10
25.20456
 20
197.3449999999999
 30
0.0
 11
37.66401
 21
185.608
 31
0.0
  0
LINE
  5
181
330
1E
100
AcDbEntity
  8
0
100
AcDbLine
 10
20.97805
 20
197.715
 30
0.0
 11
22.44857
 21
198.296
 31
0.0
  0
LINE
  5
182
330
1E
100
AcDbEntity
  8
0
100
AcDbLine
 10
18.74164999999999
 20
196.4909999999999
 30
0.0
 11
20.97805
 21
197.715
 31
0.0
  0
LINE
  5
183
330
1E
100
AcDbEntity
  8
0
100
AcDbLine
 10
16.94975
 20
196.293
 30
0.0
 11
18.74164999999999
 21
196.4909999999999
 31
0.0
  0
LINE
  5
184
330
1E
100
AcDbEntity
  8
0
100
AcDbLine
 10
23.85737999999999
 20
198.1729999999999
 30
0.0
 11
25.20456
 21
197.3449999999999
 31
0.0
  0
LINE
  5
185
330
1E
100
AcDbEntity
  8
0
100
AcDbLine
 10
22.44857
 20
198.296
 30
0.0
 11
23.85737999999999
 21
198.1729999999999
 31
0.0
  0
LINE
  5
186
330
1E
100
AcDbEntity
  8
0
100
AcDbLine
 10
16.99475
 20
199.908
 30
0.0
 11
17.38864999999999
 21
199.838
 31
0.0
  0
LINE
  5
187
330
1E
100
AcDbEntity
  8
0
100
AcDbLine
 10
17.38864999999999
 20
199.838
 30
0.0
 11
18.57045
 21
199.6299999999999
 31
0.0
  0
LINE
  5
188
330
1E
100
AcDbEntity
  8
0
100
AcDbLine
 10
18.57045
 20
199.6299999999999
 30
0.0
 11
20.44154999999999
 21
199.3
 31
0.0
  0
LINE
  5
189
330
1E
100
AcDbEntity
  8
0
100
AcDbLine
 10
20.44154999999999
 20
199.3
 30
0.0
 11
22.90357
 21
198.8659999999999
 31
0.0
  0
LINE
  5
18A
330
1E
100
AcDbEntity
  8
0
100
AcDbLine
 10
22.90357
 20
198.8659999999999
 30
0.0
 11
25.75951
 21
198.3619999999999
 31
0.0
  0
LINE
  5
18B
330
1E
100
AcDbEntity
  8
0
100
AcDbLine
 10
25.75951
 20
198.3619999999999
 30
0.0
 11
28.812414
 21
197.824
 31
0.0
  0
LINE
  5
18C
330
1E
100
AcDbEntity
  8
0
100
AcDbLine
 10
28.812414
 20
197.824
 30
0.0
 11
31.86532
 21
197.2859999999999
 31
0.0
  0
LINE
  5
18D
330
1E
100
AcDbEntity
  8
0
100
AcDbLine
 10
34.72126
 20
196.782
 30
0.0
 11
37.18327999999999
 21
196.3479999999999
 31
0.0
  0
LINE
  5
18E
330
1E
100
AcDbEntity
  8
0
100
AcDbLine
 10
31.86532
 20
197.2859999999999
 30
0.0
 11
34.72126
 21
196.782
 31
0.0
  0
LINE
  5
18F
330
1E
100
AcDbEntity
  8
0
100
AcDbLine
 10
33.6824
 20
190.8429999999999
 30
0.0
 11
36.14442
 21
190.409
 31
0.0
  0
LINE
  5
190
330
1E
100
AcDbEntity
  8
0
100
AcDbLine
 10
31.74356340833819
 20
191.1851548219489
 30
0.0
 11
33.6824
 21
190.8429999999999
 31
0.0
  0
LINE
  5
191
330
1E
100
AcDbEntity
  8
0
100
AcDbLine
 10
33.07010824562119
 20
189.935528493725
 30
0.0
 11
35.2814
 21
189.5459999999999
 31
0.0
  0
LINE
  5
192
330
1E
100
AcDbEntity
  8
0
100
AcDbLine
 10
132.04525
 20
127.7349999999999
 30
0.0
 11
133.5002499999999
 21
128.956
 31
0.0
  0
LINE
  5
193
330
1E
100
AcDbEntity
  8
0
100
AcDbLine
 10
201.6892499999999
 20
127.807
 30
0.0
 11
202.321345698352
 21
127.7272614480979
 31
0.0
  0
LINE
  5
194
330
1E
100
AcDbEntity
  8
0
100
AcDbLine
 10
129.85525
 20
127.856
 30
0.0
 11
131.92325
 21
129.591
 31
0.0
  0
LINE
  5
195
330
1E
100
AcDbEntity
  8
0
100
AcDbLine
 10
64.74594999999999
 20
128.441
 30
0.0
 11
69.75964999999999
 21
122.466
 31
0.0
  0
LINE
  5
196
330
1E
100
AcDbEntity
  8
0
100
AcDbLine
 10
69.21635000000001
 20
131.6699999999999
 30
0.0
 11
74.23014999999999
 21
125.695
 31
0.0
  0
LINE
  5
197
330
1E
100
AcDbEntity
  8
0
100
AcDbLine
 10
66.85115
 20
130.6
 30
0.0
 11
71.80074999999999
 21
124.701
 31
0.0
  0
LINE
  5
198
330
1E
100
AcDbEntity
  8
0
100
AcDbLine
 10
58.38495
 20
135.244
 30
0.0
 11
65.06995
 21
127.2769999999999
 31
0.0
  0
LINE
  5
199
330
1E
100
AcDbEntity
  8
0
100
AcDbLine
 10
53.34405
 20
130.362
 30
0.0
 11
60.15765
 21
122.242
 31
0.0
  0
LINE
  5
19A
330
1E
100
AcDbEntity
  8
0
100
AcDbLine
 10
53.41095
 20
129.5039999999999
 30
0.0
 11
60.41745
 21
121.154
 31
0.0
  0
LINE
  5
19B
330
1E
100
AcDbEntity
  8
0
100
AcDbLine
 10
60.42335
 20
138.2599999999999
 30
0.0
 11
66.85115
 21
130.6
 31
0.0
  0
LINE
  5
19C
330
1E
100
AcDbEntity
  8
0
100
AcDbLine
 10
58.25375
 20
136.179
 30
0.0
 11
64.74594999999999
 21
128.441
 31
0.0
  0
LINE
  5
19D
330
1E
100
AcDbEntity
  8
0
100
AcDbLine
 10
62.65985
 20
139.484
 30
0.0
 11
69.21635000000001
 21
131.6699999999999
 31
0.0
  0
LINE
  5
19E
330
1E
100
AcDbEntity
  8
0
100
AcDbLine
 10
45.43784999999999
 20
139.7839999999999
 30
0.0
 11
53.34405
 21
130.362
 31
0.0
  0
LINE
  5
19F
330
1E
100
AcDbEntity
  8
0
100
AcDbLine
 10
45.31184999999999
 20
139.157
 30
0.0
 11
53.41095
 21
129.5039999999999
 31
0.0
  0
LINE
  5
1A0
330
1E
100
AcDbEntity
  8
0
100
AcDbLine
 10
42.63065
 20
136.907
 30
0.0
 11
50.72985
 21
127.255
 31
0.0
  0
LINE
  5
1A1
330
1E
100
AcDbEntity
  8
0
100
AcDbLine
 10
41.99055
 20
136.8909999999999
 30
0.0
 11
49.89675
 21
127.4689999999999
 31
0.0
  0
LINE
  5
1A2
330
1E
100
AcDbEntity
  8
0
100
AcDbLine
 10
55.07495
 20
148.523
 30
0.0
 11
62.65985
 21
139.484
 31
0.0
  0
LINE
  5
1A3
330
1E
100
AcDbEntity
  8
0
100
AcDbLine
 10
52.96694999999999
 20
147.146
 30
0.0
 11
60.42335
 21
138.2599999999999
 31
0.0
  0
LINE
  5
1A4
330
1E
100
AcDbEntity
  8
0
100
AcDbLine
 10
50.79744999999999
 20
145.0649999999999
 30
0.0
 11
58.25375
 21
136.179
 31
0.0
  0
LINE
  5
1A5
330
1E
100
AcDbEntity
  8
0
100
AcDbLine
 10
50.60715
 20
144.514
 30
0.0
 11
58.38495
 21
135.244
 31
0.0
  0
LINE
  5
1A6
330
1E
100
AcDbEntity
  8
0
100
AcDbLine
 10
45.06065
 20
156.569
 30
0.0
 11
52.96694999999999
 21
147.146
 31
0.0
  0
LINE
  5
1A7
330
1E
100
AcDbEntity
  8
0
100
AcDbLine
 10
42.76265
 20
154.64
 30
0.0
 11
50.79744999999999
 21
145.0649999999999
 31
0.0
  0
LINE
  5
1A8
330
1E
100
AcDbEntity
  8
0
100
AcDbLine
 10
42.37955
 20
154.3189999999999
 30
0.0
 11
50.60715
 21
144.514
 31
0.0
  0
LINE
  5
1A9
330
1E
100
AcDbEntity
  8
0
100
AcDbLine
 10
37.01729
 20
149.8189999999999
 30
0.0
 11
45.43784999999999
 21
139.7839999999999
 31
0.0
  0
LINE
  5
1AA
330
1E
100
AcDbEntity
  8
0
100
AcDbLine
 10
36.63427999999999
 20
149.4979999999999
 30
0.0
 11
45.31184999999999
 21
139.157
 31
0.0
  0
LINE
  5
1AB
330
1E
100
AcDbEntity
  8
0
100
AcDbLine
 10
37.15442
 20
165.9909999999999
 30
0.0
 11
45.06065
 21
156.569
 31
0.0
  0
LINE
  5
1AC
330
1E
100
AcDbEntity
  8
0
100
AcDbLine
 10
38.87665
 20
167.8279999999999
 30
0.0
 11
46.97585
 21
158.175
 31
0.0
  0
LINE
  5
1AD
330
1E
100
AcDbEntity
  8
0
100
AcDbLine
 10
46.97585
 20
158.175
 30
0.0
 11
55.07495
 21
148.523
 31
0.0
  0
LINE
  5
1AE
330
1E
100
AcDbEntity
  8
0
100
AcDbLine
 10
60.10855
 20
174.4169999999999
 30
0.0
 11
61.32985
 21
172.962
 31
0.0
  0
LINE
  5
1AF
330
1E
100
AcDbEntity
  8
0
100
AcDbLine
 10
59.08005
 20
175.6429999999999
 30
0.0
 11
60.10855
 21
174.4169999999999
 31
0.0
  0
LINE
  5
1B0
330
1E
100
AcDbEntity
  8
0
100
AcDbLine
 10
58.37315
 20
176.485
 30
0.0
 11
59.65865
 21
174.953
 31
0.0
  0
LINE
  5
1B1
330
1E
100
AcDbEntity
  8
0
100
AcDbLine
 10
59.65865
 20
174.953
 30
0.0
 11
61.13715
 21
173.1909999999999
 31
0.0
  0
LINE
  5
1B2
330
1E
100
AcDbEntity
  8
0
100
AcDbLine
 10
64.22235
 20
169.5149999999999
 30
0.0
 11
65.70075
 21
167.7529999999999
 31
0.0
  0
LINE
  5
1B3
330
1E
100
AcDbEntity
  8
0
100
AcDbLine
 10
61.32985
 20
172.962
 30
0.0
 11
62.67974999999999
 21
171.3529999999999
 31
0.0
  0
LINE
  5
1B4
330
1E
100
AcDbEntity
  8
0
100
AcDbLine
 10
62.67974999999999
 20
171.3529999999999
 30
0.0
 11
64.22235
 21
169.5149999999999
 31
0.0
  0
LINE
  5
1B5
330
1E
100
AcDbEntity
  8
0
100
AcDbLine
 10
61.13715
 20
173.1909999999999
 30
0.0
 11
62.67974999999999
 21
171.3529999999999
 31
0.0
  0
LINE
  5
1B6
330
1E
100
AcDbEntity
  8
0
100
AcDbLine
 10
58.24445
 20
176.639
 30
0.0
 11
59.08005
 21
175.6429999999999
 31
0.0
  0
LINE
  5
1B7
330
1E
100
AcDbEntity
  8
0
100
AcDbLine
 10
51.07455
 20
176.627
 30
0.0
 11
55.16445
 21
178.7529999999999
 31
0.0
  0
LINE
  5
1B8
330
1E
100
AcDbEntity
  8
0
100
AcDbLine
 10
48.57825
 20
176.49
 30
0.0
 11
51.07455
 21
176.627
 31
0.0
  0
LINE
  5
1B9
330
1E
100
AcDbEntity
  8
0
100
AcDbLine
 10
57.73035
 20
177.2509999999999
 30
0.0
 11
58.24445
 21
176.639
 31
0.0
  0
LINE
  5
1BA
330
1E
100
AcDbEntity
  8
0
100
AcDbLine
 10
57.53745
 20
177.4809999999999
 30
0.0
 11
63.04155
 21
180.9879999999999
 31
0.0
  0
LINE
  5
1BB
330
1E
100
AcDbEntity
  8
0
100
AcDbLine
 10
57.53745
 20
177.4809999999999
 30
0.0
 11
57.73035
 21
177.2509999999999
 31
0.0
  0
LINE
  5
1BC
330
1E
100
AcDbEntity
  8
0
100
AcDbLine
 10
63.04155
 20
180.9879999999999
 30
0.0
 11
69.26585
 21
182.9499999999999
 31
0.0
  0
LINE
  5
1BD
330
1E
100
AcDbEntity
  8
0
100
AcDbLine
 10
56.76615
 20
178.3999999999999
 30
0.0
 11
57.40895
 21
177.634
 31
0.0
  0
LINE
  5
1BE
330
1E
100
AcDbEntity
  8
0
100
AcDbLine
 10
56.57325
 20
178.6299999999999
 30
0.0
 11
56.76615
 21
178.3999999999999
 31
0.0
  0
LINE
  5
1BF
330
1E
100
AcDbEntity
  8
0
100
AcDbLine
 10
57.40895
 20
177.634
 30
0.0
 11
58.37315
 21
176.485
 31
0.0
  0
LINE
  5
1C0
330
1E
100
AcDbEntity
  8
0
100
AcDbLine
 10
55.16445
 20
178.7529999999999
 30
0.0
 11
56.57325
 21
178.6299999999999
 31
0.0
  0
LINE
  5
1C1
330
1E
100
AcDbEntity
  8
0
100
AcDbLine
 10
46.14365
 20
177.0579999999999
 30
0.0
 11
48.57825
 21
176.49
 31
0.0
  0
LINE
  5
1C2
330
1E
100
AcDbEntity
  8
0
100
AcDbLine
 10
37.66401
 20
185.608
 30
0.0
 11
46.14365
 21
177.0579999999999
 31
0.0
  0
LINE
  5
1C3
330
1E
100
AcDbEntity
  8
0
100
AcDbLine
 10
65.29054999999999
 20
156.5729999999999
 30
0.0
 11
65.42715
 21
154.077
 31
0.0
  0
LINE
  5
1C4
330
1E
100
AcDbEntity
  8
0
100
AcDbLine
 10
65.29054999999999
 20
156.5729999999999
 30
0.0
 11
65.85854999999999
 21
159.0079999999999
 31
0.0
  0
LINE
  5
1C5
330
1E
100
AcDbEntity
  8
0
100
AcDbLine
 10
67.82208540899031
 20
165.224086304781
 30
0.0
 11
69.80355
 21
166.487
 31
0.0
  0
LINE
  5
1C6
330
1E
100
AcDbEntity
  8
0
100
AcDbLine
 10
66.98635
 20
166.22
 30
0.0
 11
67.95055000000001
 21
165.071
 31
0.0
  0
LINE
  5
1C7
330
1E
100
AcDbEntity
  8
0
100
AcDbLine
 10
67.95055000000001
 20
165.071
 30
0.0
 11
68.59325
 21
164.305
 31
0.0
  0
LINE
  5
1C8
330
1E
100
AcDbEntity
  8
0
100
AcDbLine
 10
65.70075
 20
167.7529999999999
 30
0.0
 11
66.98635
 21
166.22
 31
0.0
  0
LINE
  5
1C9
330
1E
100
AcDbEntity
  8
0
100
AcDbLine
 10
68.59325
 20
164.305
 30
0.0
 11
68.78615
 21
164.0749999999999
 31
0.0
  0
LINE
  5
1CA
330
1E
100
AcDbEntity
  8
0
100
AcDbLine
 10
81.20874999999999
 20
163.7199999999999
 30
0.0
 11
81.79705
 21
164.214
 31
0.0
  0
LINE
  5
1CB
330
1E
100
AcDbEntity
  8
0
100
AcDbLine
 10
80.98815
 20
163.535
 30
0.0
 11
113.9265481404319
 21
124.2803597439279
 31
0.0
  0
LINE
  5
1CC
330
1E
100
AcDbEntity
  8
0
100
AcDbLine
 10
80.98815
 20
163.535
 30
0.0
 11
81.20874999999999
 21
163.7199999999999
 31
0.0
  0
LINE
  5
1CD
330
1E
100
AcDbEntity
  8
0
100
AcDbLine
 10
81.46665
 20
164.6069999999999
 30
0.0
 11
82.44714999999999
 21
165.43
 31
0.0
  0
LINE
  5
1CE
330
1E
100
AcDbEntity
  8
0
100
AcDbLine
 10
81.19055000000001
 20
164.0409999999999
 30
0.0
 11
81.77885000000001
 21
164.535
 31
0.0
  0
LINE
  5
1CF
330
1E
100
AcDbEntity
  8
0
100
AcDbLine
 10
80.96994999999999
 20
163.856
 30
0.0
 11
80.98815
 21
163.535
 31
0.0
  0
LINE
  5
1D0
330
1E
100
AcDbEntity
  8
0
100
AcDbLine
 10
80.96994999999999
 20
163.856
 30
0.0
 11
81.19055000000001
 21
164.0409999999999
 31
0.0
  0
LINE
  5
1D1
330
1E
100
AcDbEntity
  8
0
100
AcDbLine
 10
80.65775
 20
163.929
 30
0.0
 11
80.96994999999999
 21
163.856
 31
0.0
  0
LINE
  5
1D2
330
1E
100
AcDbEntity
  8
0
100
AcDbLine
 10
76.68524999999999
 20
166.787
 30
0.0
 11
78.76945
 21
165.7019999999999
 31
0.0
  0
LINE
  5
1D3
330
1E
100
AcDbEntity
  8
0
100
AcDbLine
 10
78.76945
 20
165.7019999999999
 30
0.0
 11
80.65775
 21
163.929
 31
0.0
  0
LINE
  5
1D4
330
1E
100
AcDbEntity
  8
0
100
AcDbLine
 10
69.80355
 20
166.487
 30
0.0
 11
72.04425
 21
167.194
 31
0.0
  0
LINE
  5
1D5
330
1E
100
AcDbEntity
  8
0
100
AcDbLine
 10
74.39154999999999
 20
167.2959999999999
 30
0.0
 11
76.68524999999999
 21
166.787
 31
0.0
  0
LINE
  5
1D6
330
1E
100
AcDbEntity
  8
0
100
AcDbLine
 10
75.78594999999999
 20
183.235
 30
0.0
 11
82.15765000000001
 21
181.822
 31
0.0
  0
LINE
  5
1D7
330
1E
100
AcDbEntity
  8
0
100
AcDbLine
 10
69.26585
 20
182.9499999999999
 30
0.0
 11
75.78594999999999
 21
183.235
 31
0.0
  0
LINE
  5
1D8
330
1E
100
AcDbEntity
  8
0
100
AcDbLine
 10
72.04425
 20
167.194
 30
0.0
 11
74.39154999999999
 21
167.2959999999999
 31
0.0
  0
LINE
  5
1D9
330
1E
100
AcDbEntity
  8
0
100
AcDbLine
 10
68.66295
 20
162.667
 30
0.0
 11
68.78615
 21
164.0749999999999
 31
0.0
  0
LINE
  5
1DA
330
1E
100
AcDbEntity
  8
0
100
AcDbLine
 10
65.85854999999999
 20
159.0079999999999
 30
0.0
 11
68.66295
 21
162.667
 31
0.0
  0
LINE
  5
1DB
330
1E
100
AcDbEntity
  8
0
100
AcDbLine
 10
65.42715
 20
154.077
 30
0.0
 11
72.37465
 21
144.241
 31
0.0
  0
LINE
  5
1DC
330
1E
100
AcDbEntity
  8
0
100
AcDbLine
 10
72.37465
 20
144.241
 30
0.0
 11
81.76985
 21
129.9329999999999
 31
0.0
  0
LINE
  5
1DD
330
1E
100
AcDbEntity
  8
0
100
AcDbLine
 10
128.27785
 20
128.49
 30
0.0
 11
130.11725
 21
130.0329999999999
 31
0.0
  0
LINE
  5
1DE
330
1E
100
AcDbEntity
  8
0
100
AcDbLine
 10
120.05505
 20
129.4229999999999
 30
0.0
 11
121.66405
 21
130.773
 31
0.0
  0
LINE
  5
1DF
330
1E
100
AcDbEntity
  8
0
100
AcDbLine
 10
131.92325
 20
129.591
 30
0.0
 11
133.5322499999999
 21
130.9409999999999
 31
0.0
  0
LINE
  5
1E0
330
1E
100
AcDbEntity
  8
0
100
AcDbLine
 10
133.5002499999999
 20
128.956
 30
0.0
 11
134.34325
 21
129.6639999999999
 31
0.0
  0
LINE
  5
1E1
330
1E
100
AcDbEntity
  8
0
100
AcDbLine
 10
134.34325
 20
129.6639999999999
 30
0.0
 11
134.6492499999999
 21
129.9209999999999
 31
0.0
  0
LINE
  5
1E2
330
1E
100
AcDbEntity
  8
0
100
AcDbLine
 10
118.4459499999999
 20
128.0729999999999
 30
0.0
 11
120.05505
 21
129.4229999999999
 31
0.0
  0
LINE
  5
1E3
330
1E
100
AcDbEntity
  8
0
100
AcDbLine
 10
121.66405
 20
130.773
 30
0.0
 11
123.1191499999999
 21
131.994
 31
0.0
  0
LINE
  5
1E4
330
1E
100
AcDbEntity
  8
0
100
AcDbLine
 10
81.77885000000001
 20
164.535
 30
0.0
 11
82.73484999999999
 21
165.337
 31
0.0
  0
LINE
  5
1E5
330
1E
100
AcDbEntity
  8
0
100
AcDbLine
 10
81.79705
 20
164.214
 30
0.0
 11
82.77765
 21
165.037
 31
0.0
  0
LINE
  5
1E6
330
1E
100
AcDbEntity
  8
0
100
AcDbLine
 10
82.77765
 20
165.037
 30
0.0
 11
84.07684999999998
 21
166.127
 31
0.0
  0
LINE
  5
1E7
330
1E
100
AcDbEntity
  8
0
100
AcDbLine
 10
82.73484999999999
 20
165.337
 30
0.0
 11
83.98505
 21
166.3859999999999
 31
0.0
  0
LINE
  5
1E8
330
1E
100
AcDbEntity
  8
0
100
AcDbLine
 10
82.44714999999999
 20
165.43
 30
0.0
 11
83.74635000000001
 21
166.52
 31
0.0
  0
LINE
  5
1E9
330
1E
100
AcDbEntity
  8
0
100
AcDbLine
 10
84.07684999999998
 20
166.127
 30
0.0
 11
85.54765000000001
 21
167.361
 31
0.0
  0
LINE
  5
1EA
330
1E
100
AcDbEntity
  8
0
100
AcDbLine
 10
83.98505
 20
166.3859999999999
 30
0.0
 11
85.40685000000001
 21
167.579
 31
0.0
  0
LINE
  5
1EB
330
1E
100
AcDbEntity
  8
0
100
AcDbLine
 10
85.54765000000001
 20
167.361
 30
0.0
 11
87.11655
 21
168.677
 31
0.0
  0
LINE
  5
1EC
330
1E
100
AcDbEntity
  8
0
100
AcDbLine
 10
85.40685000000001
 20
167.579
 30
0.0
 11
86.95114999999999
 21
168.8749999999999
 31
0.0
  0
LINE
  5
1ED
330
1E
100
AcDbEntity
  8
0
100
AcDbLine
 10
83.74635000000001
 20
166.52
 30
0.0
 11
85.21725000000001
 21
167.755
 31
0.0
  0
LINE
  5
1EE
330
1E
100
AcDbEntity
  8
0
100
AcDbLine
 10
86.78605000000001
 20
169.0709999999999
 30
0.0
 11
88.35485
 21
170.387
 31
0.0
  0
LINE
  5
1EF
330
1E
100
AcDbEntity
  8
0
100
AcDbLine
 10
85.21725000000001
 20
167.755
 30
0.0
 11
86.78605000000001
 21
169.0709999999999
 31
0.0
  0
LINE
  5
1F0
330
1E
100
AcDbEntity
  8
0
100
AcDbLine
 10
88.35485
 20
170.387
 30
0.0
 11
89.82575
 21
171.622
 31
0.0
  0
LINE
  5
1F1
330
1E
100
AcDbEntity
  8
0
100
AcDbLine
 10
88.68534999999999
 20
169.994
 30
0.0
 11
90.15615
 21
171.2279999999999
 31
0.0
  0
LINE
  5
1F2
330
1E
100
AcDbEntity
  8
0
100
AcDbLine
 10
88.49555
 20
170.171
 30
0.0
 11
89.91735
 21
171.364
 31
0.0
  0
LINE
  5
1F3
330
1E
100
AcDbEntity
  8
0
100
AcDbLine
 10
87.11655
 20
168.677
 30
0.0
 11
88.68534999999999
 21
169.994
 31
0.0
  0
LINE
  5
1F4
330
1E
100
AcDbEntity
  8
0
100
AcDbLine
 10
86.95114999999999
 20
168.8749999999999
 30
0.0
 11
88.49555
 21
170.171
 31
0.0
  0
LINE
  5
1F5
330
1E
100
AcDbEntity
  8
0
100
AcDbLine
 10
89.82575
 20
171.622
 30
0.0
 11
91.12484999999999
 21
172.712
 31
0.0
  0
LINE
  5
1F6
330
1E
100
AcDbEntity
  8
0
100
AcDbLine
 10
91.12484999999999
 20
172.712
 30
0.0
 11
92.10545000000001
 21
173.5349999999999
 31
0.0
  0
LINE
  5
1F7
330
1E
100
AcDbEntity
  8
0
100
AcDbLine
 10
91.16744999999999
 20
172.4129999999999
 30
0.0
 11
92.12355
 21
173.215
 31
0.0
  0
LINE
  5
1F8
330
1E
100
AcDbEntity
  8
0
100
AcDbLine
 10
92.10545000000001
 20
173.5349999999999
 30
0.0
 11
92.69384999999999
 21
174.028
 31
0.0
  0
LINE
  5
1F9
330
1E
100
AcDbEntity
  8
0
100
AcDbLine
 10
92.69384999999999
 20
174.028
 30
0.0
 11
92.91445000000001
 21
174.2129999999999
 31
0.0
  0
LINE
  5
1FA
330
1E
100
AcDbEntity
  8
0
100
AcDbLine
 10
92.71185
 20
173.7079999999999
 30
0.0
 11
92.93255
 21
173.894
 31
0.0
  0
LINE
  5
1FB
330
1E
100
AcDbEntity
  8
0
100
AcDbLine
 10
92.12355
 20
173.215
 30
0.0
 11
92.71185
 21
173.7079999999999
 31
0.0
  0
LINE
  5
1FC
330
1E
100
AcDbEntity
  8
0
100
AcDbLine
 10
92.43595
 20
173.1409999999999
 30
0.0
 11
93.02424999999999
 21
173.6349999999999
 31
0.0
  0
LINE
  5
1FD
330
1E
100
AcDbEntity
  8
0
100
AcDbLine
 10
91.45545
 20
172.3179999999999
 30
0.0
 11
92.43595
 21
173.1409999999999
 31
0.0
  0
LINE
  5
1FE
330
1E
100
AcDbEntity
  8
0
100
AcDbLine
 10
90.15615
 20
171.2279999999999
 30
0.0
 11
91.45545
 21
172.3179999999999
 31
0.0
  0
LINE
  5
1FF
330
1E
100
AcDbEntity
  8
0
100
AcDbLine
 10
89.91735
 20
171.364
 30
0.0
 11
91.16744999999999
 21
172.4129999999999
 31
0.0
  0
LINE
  5
200
330
1E
100
AcDbEntity
  8
0
100
AcDbLine
 10
93.02424999999999
 20
173.6349999999999
 30
0.0
 11
93.24485000000001
 21
173.8199999999999
 31
0.0
  0
LINE
  5
201
330
1E
100
AcDbEntity
  8
0
100
AcDbLine
 10
93.24485000000001
 20
173.8199999999999
 30
0.0
 11
126.1831499999999
 21
134.565
 31
0.0
  0
LINE
  5
202
330
1E
100
AcDbEntity
  8
0
100
AcDbLine
 10
92.93255
 20
173.894
 30
0.0
 11
93.24485000000001
 21
173.8199999999999
 31
0.0
  0
LINE
  5
203
330
1E
100
AcDbEntity
  8
0
100
AcDbLine
 10
92.91445000000001
 20
174.2129999999999
 30
0.0
 11
92.93255
 21
173.894
 31
0.0
  0
LINE
  5
204
330
1E
100
AcDbEntity
  8
0
100
AcDbLine
 10
87.94655
 20
178.8079999999999
 30
0.0
 11
92.91445000000001
 21
174.2129999999999
 31
0.0
  0
LINE
  5
205
330
1E
100
AcDbEntity
  8
0
100
AcDbLine
 10
82.15765000000001
 20
181.822
 30
0.0
 11
87.94655
 21
178.8079999999999
 31
0.0
  0
LINE
  5
206
330
1E
100
AcDbEntity
  8
0
100
AcDbLine
 10
123.5021499999999
 20
132.315
 30
0.0
 11
123.7169012437989
 21
132.495213930364
 31
0.0
  0
LINE
  5
207
330
1E
100
AcDbEntity
  8
0
100
AcDbLine
 10
123.5021499999999
 20
132.315
 30
0.0
 11
124.95715
 21
133.536
 31
0.0
  0
LINE
  5
208
330
1E
100
AcDbEntity
  8
0
100
AcDbLine
 10
125.34015
 20
133.858
 30
0.0
 11
125.95315
 21
134.372
 31
0.0
  0
LINE
  5
209
330
1E
100
AcDbEntity
  8
0
100
AcDbLine
 10
124.759230808069
 20
133.369911111101
 30
0.0
 11
124.95715
 21
133.536
 31
0.0
  0
LINE
  5
20A
330
1E
100
AcDbEntity
  8
0
100
AcDbLine
 10
124.759230808069
 20
133.369911111101
 30
0.0
 11
125.34015
 21
133.858
 31
0.0
  0
LINE
  5
20B
330
1E
100
AcDbEntity
  8
0
100
AcDbLine
 10
123.1191499999999
 20
131.994
 30
0.0
 11
123.7169012437989
 21
132.495213930364
 31
0.0
  0
LINE
  5
20C
330
1E
100
AcDbEntity
  8
0
100
AcDbLine
 10
126.7192499999999
 20
135.0149999999999
 30
0.0
 11
126.94925
 21
135.2079999999999
 31
0.0
  0
LINE
  5
20D
330
1E
100
AcDbEntity
  8
0
100
AcDbLine
 10
130.11725
 20
130.0329999999999
 30
0.0
 11
131.5722499999999
 21
131.254
 31
0.0
  0
LINE
  5
20E
330
1E
100
AcDbEntity
  8
0
100
AcDbLine
 10
131.5722499999999
 20
131.254
 30
0.0
 11
132.4152499999999
 21
131.962
 31
0.0
  0
LINE
  5
20F
330
1E
100
AcDbEntity
  8
0
100
AcDbLine
 10
132.4152499999999
 20
131.962
 30
0.0
 11
132.7212499999999
 21
132.2189999999999
 31
0.0
  0
LINE
  5
210
330
1E
100
AcDbEntity
  8
0
100
AcDbLine
 10
133.5322499999999
 20
130.9409999999999
 30
0.0
 11
134.4512499999999
 21
131.712
 31
0.0
  0
LINE
  5
212
330
1E
100
AcDbEntity
  8
0
100
AcDbLine
 10
134.4512499999999
 20
131.712
 30
0.0
 11
134.8342499999999
 21
132.0339999999999
 31
0.0
  0
LINE
  5
214
330
1E
100
AcDbEntity
  8
0
100
AcDbLine
 10
134.8342499999999
 20
132.0339999999999
 30
0.0
 11
135.0942499999999
 21
130.946
 31
0.0
  0
LINE
  5
215
330
1E
100
AcDbEntity
  8
0
100
AcDbLine
 10
133.8082499999999
 20
132.4779999999999
 30
0.0
 11
134.8342499999999
 21
132.0339999999999
 31
0.0
  0
LINE
  5
216
330
1E
100
AcDbEntity
  8
0
100
AcDbLine
 10
132.7212499999999
 20
132.2189999999999
 30
0.0
 11
133.8082499999999
 21
132.4779999999999
 31
0.0
  0
LINE
  5
217
330
1E
100
AcDbEntity
  8
0
100
AcDbLine
 10
131.43525
 20
133.7509999999999
 30
0.0
 11
132.7212499999999
 21
132.2189999999999
 31
0.0
  0
LINE
  5
218
330
1E
100
AcDbEntity
  8
0
100
AcDbLine
 10
129.76725
 20
134.961
 30
0.0
 11
131.43525
 21
133.7509999999999
 31
0.0
  0
LINE
  5
219
330
1E
100
AcDbEntity
  8
0
100
AcDbLine
 10
128.03665
 20
135.4679999999999
 30
0.0
 11
129.76725
 21
134.961
 31
0.0
  0
LINE
  5
21A
330
1E
100
AcDbEntity
  8
0
100
AcDbLine
 10
126.94925
 20
135.2079999999999
 30
0.0
 11
128.03665
 21
135.4679999999999
 31
0.0
  0
LINE
  5
21B
330
1E
100
AcDbEntity
  8
0
100
AcDbLine
 10
125.95315
 20
134.372
 30
0.0
 11
126.7192499999999
 21
135.0149999999999
 31
0.0
  0
LINE
  5
21C
330
1E
100
AcDbEntity
  8
0
100
AcDbLine
 10
134.6492499999999
 20
129.9209999999999
 30
0.0
 11
143.51225
 21
121.692
 31
0.0
  0
LINE
  5
21D
330
1E
100
AcDbEntity
  8
0
100
AcDbLine
 10
134.6492499999999
 20
129.9209999999999
 30
0.0
 11
135.0942499999999
 21
130.946
 31
0.0
  0
LINE
  5
21E
330
1E
100
AcDbEntity
  8
0
100
AcDbLine
 10
81.76985
 20
129.9329999999999
 30
0.0
 11
82.35094999999999
 21
128.4629999999999
 31
0.0
  0
LINE
  5
21F
330
1E
100
AcDbEntity
  8
0
100
AcDbLine
 10
201.133674593967
 20
127.831155452436
 30
0.0
 11
201.6892499999999
 21
127.807
 31
0.0
  0
LINE
  5
220
330
1E
100
AcDbEntity
  8
0
100
AcDbLine
 10
199.91825
 20
127.9079999999999
 30
0.0
 11
201.8162499999999
 21
127.7879999999999
 31
0.0
  0
LINE
  5
221
330
1E
100
AcDbEntity
  8
0
100
AcDbLine
 10
199.53325
 20
127.80944
 30
0.0
 11
199.8032499999999
 21
127.889
 31
0.0
  0
LINE
  5
222
330
1E
100
AcDbEntity
  8
0
100
AcDbLine
 10
201.8162499999999
 20
127.7879999999999
 30
0.0
 11
205.79125
 21
127.31
 31
0.0
  0
LINE
  5
223
330
1E
100
AcDbEntity
  8
0
100
AcDbLine
 10
38.03887
 20
189.059
 30
0.0
 11
38.43279
 21
188.99
 31
0.0
  0
LINE
  5
224
330
1E
100
AcDbEntity
  8
0
100
AcDbLine
 10
39.19735
 20
189.8709999999999
 30
0.0
 11
39.59125
 21
189.801
 31
0.0
  0
LINE
  5
225
330
1E
100
AcDbEntity
  8
0
100
AcDbLine
 10
39.05445
 20
196.018
 30
0.0
 11
40.23615
 21
195.81
 31
0.0
  0
LINE
  5
226
330
1E
100
AcDbEntity
  8
0
100
AcDbLine
 10
37.18327999999999
 20
196.3479999999999
 30
0.0
 11
39.05445
 21
196.018
 31
0.0
  0
LINE
  5
227
330
1E
100
AcDbEntity
  8
0
100
AcDbLine
 10
38.01555
 20
190.079
 30
0.0
 11
39.19735
 21
189.8709999999999
 31
0.0
  0
LINE
  5
228
330
1E
100
AcDbEntity
  8
0
100
AcDbLine
 10
36.14442
 20
190.409
 30
0.0
 11
38.01555
 21
190.079
 31
0.0
  0
LINE
  5
229
330
1E
100
AcDbEntity
  8
0
100
AcDbLine
 10
36.95558
 20
189.25
 30
0.0
 11
38.03887
 21
189.059
 31
0.0
  0
LINE
  5
22A
330
1E
100
AcDbEntity
  8
0
100
AcDbLine
 10
40.23615
 20
195.81
 30
0.0
 11
40.63015
 21
195.7399999999999
 31
0.0
  0
LINE
  5
22B
330
1E
100
AcDbEntity
  8
0
100
AcDbLine
 10
41.73024999999999
 20
199.0999999999999
 30
0.0
 11
41.96225
 21
197.5359999999999
 31
0.0
  0
LINE
  5
22C
330
1E
100
AcDbEntity
  8
0
100
AcDbLine
 10
41.87534999999999
 20
197.044
 30
0.0
 11
41.96225
 21
197.5359999999999
 31
0.0
  0
LINE
  5
22D
330
1E
100
AcDbEntity
  8
0
100
AcDbLine
 10
41.20935
 20
196.1459999999999
 30
0.0
 11
41.87534999999999
 21
197.044
 31
0.0
  0
LINE
  5
22E
330
1E
100
AcDbEntity
  8
0
100
AcDbLine
 10
40.63015
 20
195.7399999999999
 30
0.0
 11
41.20935
 21
196.1459999999999
 31
0.0
  0
LINE
  5
22F
330
1E
100
AcDbEntity
  8
0
100
AcDbLine
 10
39.59125
 20
189.801
 30
0.0
 11
40.63015
 21
195.7399999999999
 31
0.0
  0
LINE
  5
230
330
1E
100
AcDbEntity
  8
0
100
AcDbLine
 10
38.43279
 20
188.99
 30
0.0
 11
39.59125
 21
189.801
 31
0.0
  0
LINE
  5
231
330
1E
100
AcDbEntity
  8
0
100
AcDbLine
 10
35.2814
 20
189.5459999999999
 30
0.0
 11
36.95558
 21
189.25
 31
0.0
  0
LINE
  5
232
330
1E
100
AcDbEntity
  8
0
100
AcDbLine
 10
39.62724999999999
 20
200.994
 30
0.0
 11
40.02114999999999
 21
200.925
 31
0.0
  0
LINE
  5
233
330
1E
100
AcDbEntity
  8
0
100
AcDbLine
 10
38.64240999999999
 20
201.168
 30
0.0
 11
39.62724999999999
 21
200.994
 31
0.0
  0
LINE
  5
234
330
1E
100
AcDbEntity
  8
0
100
AcDbLine
 10
36.96823
 20
201.4629999999999
 30
0.0
 11
38.64240999999999
 21
201.168
 31
0.0
  0
LINE
  5
235
330
1E
100
AcDbEntity
  8
0
100
AcDbLine
 10
34.80166
 20
201.845
 30
0.0
 11
36.96823
 21
201.4629999999999
 31
0.0
  0
LINE
  5
236
330
1E
100
AcDbEntity
  8
0
100
AcDbLine
 10
32.33964
 20
202.279
 30
0.0
 11
34.80166
 21
201.845
 31
0.0
  0
LINE
  5
237
330
1E
100
AcDbEntity
  8
0
100
AcDbLine
 10
29.68065499999999
 20
202.7479999999999
 30
0.0
 11
32.33964
 21
202.279
 31
0.0
  0
LINE
  5
238
330
1E
100
AcDbEntity
  8
0
100
AcDbLine
 10
27.02167
 20
203.217
 30
0.0
 11
29.68065499999999
 21
202.7479999999999
 31
0.0
  0
LINE
  5
239
330
1E
100
AcDbEntity
  8
0
100
AcDbLine
 10
40.02114999999999
 20
200.925
 30
0.0
 11
41.73024999999999
 21
199.0999999999999
 31
0.0
  0
LINE
  5
23A
330
1E
100
AcDbEntity
  8
0
100
AcDbLine
 10
40.02114999999999
 20
200.925
 30
0.0
 11
42.27475
 21
212.147
 31
0.0
  0
LINE
  5
23B
330
1E
100
AcDbEntity
  8
0
100
AcDbLine
 10
19.7341
 20
204.502
 30
0.0
 11
20.71891
 21
204.328
 31
0.0
  0
LINE
  5
23C
330
1E
100
AcDbEntity
  8
0
100
AcDbLine
 10
20.71891
 20
204.328
 30
0.0
 11
22.39307999999999
 21
204.0329999999999
 31
0.0
  0
LINE
  5
23D
330
1E
100
AcDbEntity
  8
0
100
AcDbLine
 10
22.39307999999999
 20
204.0329999999999
 30
0.0
 11
24.55966
 21
203.6509999999999
 31
0.0
  0
LINE
  5
23E
330
1E
100
AcDbEntity
  8
0
100
AcDbLine
 10
24.55966
 20
203.6509999999999
 30
0.0
 11
27.02167
 21
203.217
 31
0.0
  0
LINE
  5
23F
330
1E
100
AcDbEntity
  8
0
100
AcDbLine
 10
19.34017
 20
204.571
 30
0.0
 11
21.9903
 21
217.5819999999999
 31
0.0
  0
LINE
  5
240
330
1E
100
AcDbEntity
  8
0
100
AcDbLine
 10
19.34017
 20
204.571
 30
0.0
 11
19.7341
 21
204.502
 31
0.0
  0
LINE
  5
241
330
1E
100
AcDbEntity
  8
0
100
AcDbLine
 10
32.82949
 20
243.75
 30
0.0
 11
40.71444999999999
 21
255.5509999999999
 31
0.0
  0
LINE
  5
242
330
1E
100
AcDbEntity
  8
0
100
AcDbLine
 10
26.55232
 20
231.021
 30
0.0
 11
32.82949
 21
243.75
 31
0.0
  0
LINE
  5
243
330
1E
100
AcDbEntity
  8
0
100
AcDbLine
 10
21.9903
 20
217.5819999999999
 30
0.0
 11
26.55232
 21
231.021
 31
0.0
  0
LINE
  5
244
330
1E
100
AcDbEntity
  8
0
100
AcDbLine
 10
51.01605
 20
233.25
 30
0.0
 11
57.37485
 21
242.7669999999999
 31
0.0
  0
LINE
  5
245
330
1E
100
AcDbEntity
  8
0
100
AcDbLine
 10
57.37485
 20
242.7669999999999
 30
0.0
 11
64.92144999999999
 21
251.372
 31
0.0
  0
LINE
  5
246
330
1E
100
AcDbEntity
  8
0
100
AcDbLine
 10
45.95374999999999
 20
222.985
 30
0.0
 11
51.01605
 21
233.25
 31
0.0
  0
LINE
  5
247
330
1E
100
AcDbEntity
  8
0
100
AcDbLine
 10
42.27475
 20
212.147
 30
0.0
 11
45.95374999999999
 21
222.985
 31
0.0
  0
LINE
  5
248
330
1E
100
AcDbEntity
  8
0
100
AcDbLine
 10
40.71444999999999
 20
255.5509999999999
 30
0.0
 11
50.07215
 21
266.2209999999999
 31
0.0
  0
LINE
  5
249
330
1E
100
AcDbEntity
  8
0
100
AcDbLine
 10
60.74265
 20
275.579
 30
0.0
 11
72.54325
 21
283.4639999999999
 31
0.0
  0
LINE
  5
24A
330
1E
100
AcDbEntity
  8
0
100
AcDbLine
 10
50.07215
 20
266.2209999999999
 30
0.0
 11
60.74265
 21
275.579
 31
0.0
  0
LINE
  5
24B
330
1E
100
AcDbEntity
  8
0
100
AcDbLine
 10
180.06025
 20
258.918
 30
0.0
 11
188.6652499999999
 21
251.372
 31
0.0
  0
LINE
  5
24C
330
1E
100
AcDbEntity
  8
0
100
AcDbLine
 10
188.6652499999999
 20
251.372
 30
0.0
 11
196.21125
 21
242.7669999999999
 31
0.0
  0
LINE
  5
24D
330
1E
100
AcDbEntity
  8
0
100
AcDbLine
 10
207.6322499999999
 20
222.985
 30
0.0
 11
211.31225
 21
212.147
 31
0.0
  0
LINE
  5
24E
330
1E
100
AcDbEntity
  8
0
100
AcDbLine
 10
202.5702499999999
 20
233.25
 30
0.0
 11
207.6322499999999
 21
222.985
 31
0.0
  0
LINE
  5
24F
330
1E
100
AcDbEntity
  8
0
100
AcDbLine
 10
196.21125
 20
242.7669999999999
 30
0.0
 11
202.5702499999999
 21
233.25
 31
0.0
  0
LINE
  5
250
330
1E
100
AcDbEntity
  8
0
100
AcDbLine
 10
93.30845
 20
270.339
 30
0.0
 11
104.14655
 21
274.019
 31
0.0
  0
LINE
  5
251
330
1E
100
AcDbEntity
  8
0
100
AcDbLine
 10
83.04325
 20
265.2769999999999
 30
0.0
 11
93.30845
 21
270.339
 31
0.0
  0
LINE
  5
252
330
1E
100
AcDbEntity
  8
0
100
AcDbLine
 10
72.54325
 20
283.4639999999999
 30
0.0
 11
85.27205
 21
289.7409999999999
 31
0.0
  0
LINE
  5
253
330
1E
100
AcDbEntity
  8
0
100
AcDbLine
 10
85.27205
 20
289.7409999999999
 30
0.0
 11
98.71135
 21
294.3029999999999
 31
0.0
  0
LINE
  5
254
330
1E
100
AcDbEntity
  8
0
100
AcDbLine
 10
98.71135
 20
294.3029999999999
 30
0.0
 11
112.63115
 21
297.072
 31
0.0
  0
LINE
  5
255
330
1E
100
AcDbEntity
  8
0
100
AcDbLine
 10
112.63115
 20
297.072
 30
0.0
 11
126.79325
 21
298.0
 31
0.0
  0
LINE
  5
256
330
1E
100
AcDbEntity
  8
0
100
AcDbLine
 10
104.14655
 20
274.019
 30
0.0
 11
115.3722499999999
 21
276.2509999999999
 31
0.0
  0
LINE
  5
257
330
1E
100
AcDbEntity
  8
0
100
AcDbLine
 10
170.54325
 20
265.2769999999999
 30
0.0
 11
180.06025
 21
258.918
 31
0.0
  0
LINE
  5
258
330
1E
100
AcDbEntity
  8
0
100
AcDbLine
 10
160.27825
 20
270.339
 30
0.0
 11
170.54325
 21
265.2769999999999
 31
0.0
  0
LINE
  5
259
330
1E
100
AcDbEntity
  8
0
100
AcDbLine
 10
149.4402499999999
 20
274.019
 30
0.0
 11
160.27825
 21
270.339
 31
0.0
  0
LINE
  5
25A
330
1E
100
AcDbEntity
  8
0
100
AcDbLine
 10
138.21425
 20
276.2509999999999
 30
0.0
 11
149.4402499999999
 21
274.019
 31
0.0
  0
LINE
  5
25B
330
1E
100
AcDbEntity
  8
0
100
AcDbLine
 10
126.79325
 20
298.0
 30
0.0
 11
140.95525
 21
297.072
 31
0.0
  0
LINE
  5
25C
330
1E
100
AcDbEntity
  8
0
100
AcDbLine
 10
140.95525
 20
297.072
 30
0.0
 11
154.8752499999999
 21
294.3029999999999
 31
0.0
  0
LINE
  5
25D
330
1E
100
AcDbEntity
  8
0
100
AcDbLine
 10
181.04325
 20
283.4639999999999
 30
0.0
 11
192.8442499999999
 21
275.579
 31
0.0
  0
LINE
  5
25E
330
1E
100
AcDbEntity
  8
0
100
AcDbLine
 10
168.3142499999999
 20
289.7409999999999
 30
0.0
 11
181.04325
 21
283.4639999999999
 31
0.0
  0
LINE
  5
25F
330
1E
100
AcDbEntity
  8
0
100
AcDbLine
 10
154.8752499999999
 20
294.3029999999999
 30
0.0
 11
168.3142499999999
 21
289.7409999999999
 31
0.0
  0
LINE
  5
260
330
1E
100
AcDbEntity
  8
0
100
AcDbLine
 10
126.79325
 20
277.0
 30
0.0
 11
138.21425
 21
276.2509999999999
 31
0.0
  0
LINE
  5
261
330
1E
100
AcDbEntity
  8
0
100
AcDbLine
 10
192.8442499999999
 20
275.579
 30
0.0
 11
203.51425
 21
266.2209999999999
 31
0.0
  0
LINE
  5
262
330
1E
100
AcDbEntity
  8
0
100
AcDbLine
 10
203.51425
 20
266.2209999999999
 30
0.0
 11
212.87225
 21
255.5509999999999
 31
0.0
  0
LINE
  5
263
330
1E
100
AcDbEntity
  8
0
100
AcDbLine
 10
115.3722499999999
 20
276.2509999999999
 30
0.0
 11
126.79325
 21
277.0
 31
0.0
  0
LINE
  5
264
330
1E
100
AcDbEntity
  8
0
100
AcDbLine
 10
73.52665
 20
258.918
 30
0.0
 11
83.04325
 21
265.2769999999999
 31
0.0
  0
LINE
  5
265
330
1E
100
AcDbEntity
  8
0
100
AcDbLine
 10
64.92144999999999
 20
251.372
 30
0.0
 11
73.52665
 21
258.918
 31
0.0
  0
LINE
  5
266
330
1E
100
AcDbEntity
  8
0
100
AcDbLine
 10
17.11005
 20
203.4419999999999
 30
0.0
 11
19.34017
 21
204.571
 31
0.0
  0
LINE
  5
267
330
1E
100
AcDbEntity
  8
0
100
AcDbLine
 10
16.35725
 20
202.0509999999999
 30
0.0
 11
17.11005
 21
203.4419999999999
 31
0.0
  0
LINE
  5
268
330
1E
100
AcDbEntity
  8
0
100
AcDbLine
 10
16.58915
 20
200.4869999999999
 30
0.0
 11
16.99475
 21
199.908
 31
0.0
  0
LINE
  5
269
330
1E
100
AcDbEntity
  8
0
100
AcDbLine
 10
16.31869321221859
 20
196.0432379799459
 30
0.0
 11
16.99475
 21
199.908
 31
0.0
  0
LINE
  5
26A
330
1E
100
AcDbEntity
  8
0
100
AcDbLine
 10
202.321345698352
 20
127.7272614480979
 30
0.0
 11
205.79125
 21
127.31
 31
0.0
  0
LINE
  5
26B
330
1E
100
AcDbEntity
  8
0
100
AcDbLine
 10
208.8932499999999
 20
74.5
 30
0.0
 11
210.4932499999999
 21
74.5
 31
0.0
  0
LINE
  5
26C
330
1E
100
AcDbEntity
  8
0
100
AcDbLine
 10
208.8932499999999
 20
104.4999999999999
 30
0.0
 11
210.4932499999999
 21
104.4999999999999
 31
0.0
  0
LINE
  5
26E
330
1E
100
AcDbEntity
  8
0
100
AcDbLine
 10
208.8932499999999
 20
101.5
 30
0.0
 11
210.4932499999999
 21
101.5
 31
0.0
  0
LINE
  5
26F
330
1E
100
AcDbEntity
  8
0
100
AcDbLine
 10
209.2932499999999
 20
101.0
 30
0.0
 11
209.79325
 21
99.50000000000001
 31
0.0
  0
LINE
  5
270
330
1E
100
AcDbEntity
  8
0
100
AcDbLine
 10
209.2932499999999
 20
101.0
 30
0.0
 11
209.89325
 21
101.0
 31
0.0
  0
LINE
  5
271
330
1E
100
AcDbEntity
  8
0
100
AcDbLine
 10
209.2932499999999
 20
81.0
 30
0.0
 11
209.2932499999999
 21
75.0
 31
0.0
  0
LINE
  5
272
330
1E
100
AcDbEntity
  8
0
100
AcDbLine
 10
209.2932499999999
 20
81.0
 30
0.0
 11
213.45225
 21
81.0
 31
0.0
  0
LINE
  5
273
330
1E
100
AcDbEntity
  8
0
100
AcDbLine
 10
209.2932499999999
 20
75.0
 30
0.0
 11
209.79325
 21
75.0
 31
0.0
  0
LINE
  5
274
330
1E
100
AcDbEntity
  8
0
100
AcDbLine
 10
209.2932499999999
 20
75.0
 30
0.0
 11
209.2932499999999
 21
81.0
 31
0.0
  0
LINE
  5
275
330
1E
100
AcDbEntity
  8
0
100
AcDbLine
 10
208.29325
 20
74.5
 30
0.0
 11
209.79325
 21
75.0
 31
0.0
  0
LINE
  5
276
330
1E
100
AcDbEntity
  8
0
100
AcDbLine
 10
208.29325
 20
74.5
 30
0.0
 11
208.8932499999999
 21
74.5
 31
0.0
  0
LINE
  5
277
330
1E
100
AcDbEntity
  8
0
100
AcDbLine
 10
207.79325
 20
73.0
 30
0.0
 11
208.29325
 21
71.5
 31
0.0
  0
LINE
  5
279
330
1E
100
AcDbEntity
  8
0
100
AcDbLine
 10
207.79325
 20
73.0
 30
0.0
 11
208.29325
 21
74.5
 31
0.0
  0
LINE
  5
27A
330
1E
100
AcDbEntity
  8
0
100
AcDbLine
 10
215.79325
 20
8.999999999999991
 30
0.0
 11
224.79325
 21
8.999999999999991
 31
0.0
  0
LINE
  5
27B
330
1E
100
AcDbEntity
  8
0
100
AcDbLine
 10
215.79325
 20
-0.0000000000000082
 30
0.0
 11
224.79325
 21
-0.0000000000000088
 31
0.0
  0
LINE
  5
27C
330
1E
100
AcDbEntity
  8
0
100
AcDbLine
 10
213.6932499999999
 20
22.7
 30
0.0
 11
216.19325
 21
24.1
 31
0.0
  0
LINE
  5
27D
330
1E
100
AcDbEntity
  8
0
100
AcDbLine
 10
210.8932499999999
 20
21.2
 30
0.0
 11
213.6932499999999
 21
22.7
 31
0.0
  0
LINE
  5
27E
330
1E
100
AcDbEntity
  8
0
100
AcDbLine
 10
212.8322499999999
 20
37.5904
 30
0.0
 11
221.6932499999999
 21
27.0
 31
0.0
  0
LINE
  5
27F
330
1E
100
AcDbEntity
  8
0
100
AcDbLine
 10
216.09325
 20
9.999999999999991
 30
0.0
 11
224.79325
 21
9.999999999999991
 31
0.0
  0
LINE
  5
280
330
1E
100
AcDbEntity
  8
0
100
AcDbLine
 10
216.19325
 20
24.1
 30
0.0
 11
218.4932499999999
 21
25.3
 31
0.0
  0
LINE
  5
281
330
1E
100
AcDbEntity
  8
0
100
AcDbLine
 10
221.2932499999999
 20
26.8
 30
0.0
 11
221.6932499999999
 21
27.0
 31
0.0
  0
LINE
  5
282
330
1E
100
AcDbEntity
  8
0
100
AcDbLine
 10
220.19325
 20
26.2
 30
0.0
 11
221.2932499999999
 21
26.8
 31
0.0
  0
LINE
  5
283
330
1E
100
AcDbEntity
  8
0
100
AcDbLine
 10
218.4932499999999
 20
25.3
 30
0.0
 11
220.19325
 21
26.2
 31
0.0
  0
LINE
  5
284
330
1E
100
AcDbEntity
  8
0
100
AcDbLine
 10
224.79325
 20
-0.0000000000000088
 30
0.0
 11
233.7932499999999
 21
-0.0000000000000093
 31
0.0
  0
LINE
  5
285
330
1E
100
AcDbEntity
  8
0
100
AcDbLine
 10
224.79325
 20
8.999999999999991
 30
0.0
 11
233.7932499999999
 21
8.999999999999991
 31
0.0
  0
LINE
  5
286
330
1E
100
AcDbEntity
  8
0
100
AcDbLine
 10
224.79325
 20
9.999999999999991
 30
0.0
 11
233.4932499999999
 21
9.999999999999991
 31
0.0
  0
LINE
  5
287
330
1E
100
AcDbEntity
  8
0
100
AcDbLine
 10
221.6932499999999
 20
27.0
 30
0.0
 11
224.79325
 21
27.0
 31
0.0
  0
LINE
  5
288
330
1E
100
AcDbEntity
  8
0
100
AcDbLine
 10
224.79325
 20
27.0
 30
0.0
 11
231.7932499999999
 21
26.5
 31
0.0
  0
LINE
  5
289
330
1E
100
AcDbEntity
  8
0
100
AcDbLine
 10
233.7932499999999
 20
8.999999999999991
 30
0.0
 11
242.19325
 21
8.999999999999991
 31
0.0
  0
LINE
  5
28A
330
1E
100
AcDbEntity
  8
0
100
AcDbLine
 10
233.4932499999999
 20
9.999999999999991
 30
0.0
 11
241.69325
 21
9.999999999999991
 31
0.0
  0
LINE
  5
28B
330
1E
100
AcDbEntity
  8
0
100
AcDbLine
 10
233.7932499999999
 20
-0.0000000000000093
 30
0.0
 11
242.19325
 21
-0.0000000000000098
 31
0.0
  0
LINE
  5
28C
330
1E
100
AcDbEntity
  8
0
100
AcDbLine
 10
231.7932499999999
 20
26.5
 30
0.0
 11
243.79325
 21
21.0
 31
0.0
  0
LINE
  5
28D
330
1E
100
AcDbEntity
  8
0
100
AcDbLine
 10
239.4932499999999
 20
32.0
 30
0.0
 11
241.19325
 21
32.0
 31
0.0
  0
LINE
  5
28E
330
1E
100
AcDbEntity
  8
0
100
AcDbLine
 10
229.19325
 20
32.0
 30
0.0
 11
239.4932499999999
 21
32.0
 31
0.0
  0
LINE
  5
28F
330
1E
100
AcDbEntity
  8
0
100
AcDbLine
 10
224.79325
 20
32.0
 30
0.0
 11
229.19325
 21
32.0
 31
0.0
  0
LINE
  5
290
330
1E
100
AcDbEntity
  8
0
100
AcDbLine
 10
217.5097441834109
 20
32.0
 30
0.0
 11
220.39325
 21
32.0
 31
0.0
  0
LINE
  5
291
330
1E
100
AcDbEntity
  8
0
100
AcDbLine
 10
216.673043020094
 20
33.0
 30
0.0
 11
217.09325
 21
33.0
 31
0.0
  0
LINE
  5
292
330
1E
100
AcDbEntity
  8
0
100
AcDbLine
 10
216.673043020094
 20
33.0
 30
0.0
 11
217.09325
 21
33.0
 31
0.0
  0
LINE
  5
293
330
1E
100
AcDbEntity
  8
0
100
AcDbLine
 10
235.69325
 20
33.0
 30
0.0
 11
238.19325
 21
33.0
 31
0.0
  0
LINE
  5
294
330
1E
100
AcDbEntity
  8
0
100
AcDbLine
 10
238.19325
 20
33.0
 30
0.0
 11
240.2932499999999
 21
33.0
 31
0.0
  0
LINE
  5
295
330
1E
100
AcDbEntity
  8
0
100
AcDbLine
 10
232.49325
 20
33.0
 30
0.0
 11
235.69325
 21
33.0
 31
0.0
  0
LINE
  5
296
330
1E
100
AcDbEntity
  8
0
100
AcDbLine
 10
220.79325
 20
33.0
 30
0.0
 11
232.49325
 21
33.0
 31
0.0
  0
LINE
  5
297
330
1E
100
AcDbEntity
  8
0
100
AcDbLine
 10
239.79325
 20
35.0
 30
0.0
 11
240.2932499999999
 21
33.0
 31
0.0
  0
LINE
  5
298
330
1E
100
AcDbEntity
  8
0
100
AcDbLine
 10
239.79325
 20
35.0
 30
0.0
 11
239.79325
 21
69.5
 31
0.0
  0
LINE
  5
299
330
1E
100
AcDbEntity
  8
0
100
AcDbLine
 10
217.09325
 20
33.0
 30
0.0
 11
220.79325
 21
33.0
 31
0.0
  0
LINE
  5
29A
330
1E
100
AcDbEntity
  8
0
100
AcDbLine
 10
220.39325
 20
32.0
 30
0.0
 11
224.79325
 21
32.0
 31
0.0
  0
LINE
  5
29B
330
1E
100
AcDbEntity
  8
0
100
AcDbLine
 10
215.79325
 20
-0.0000000000000082
 30
0.0
 11
224.79325
 21
-0.0000000000000088
 31
0.0
  0
LINE
  5
29C
330
1E
100
AcDbEntity
  8
0
100
AcDbLine
 10
209.79325
 20
41.2125709609662
 30
0.0
 11
209.79325
 21
69.5
 31
0.0
  0
LINE
  5
29D
330
1E
100
AcDbEntity
  8
0
100
AcDbLine
 10
239.79325
 20
41.7056608695652
 30
0.0
 11
240.28825
 21
42.1224
 31
0.0
  0
LINE
  5
2A0
330
1E
100
AcDbEntity
  8
0
100
AcDbLine
 10
241.19325
 20
32.0
 30
0.0
 11
241.79325
 21
32.0
 31
0.0
  0
LINE
  5
2A1
330
1E
100
AcDbEntity
  8
0
100
AcDbLine
 10
240.2932499999999
 20
33.0
 30
0.0
 11
240.79325
 21
32.5
 31
0.0
  0
LINE
  5
2A2
330
1E
100
AcDbEntity
  8
0
100
AcDbLine
 10
240.79325
 20
32.5
 30
0.0
 11
241.79325
 21
32.0
 31
0.0
  0
LINE
  5
2A3
330
1E
100
AcDbEntity
  8
0
100
AcDbLine
 10
241.69325
 20
9.999999999999991
 30
0.0
 11
248.7932499999999
 21
9.999999999999991
 31
0.0
  0
LINE
  5
2A4
330
1E
100
AcDbEntity
  8
0
100
AcDbLine
 10
241.59325
 20
28.39999999999999
 30
0.0
 11
241.79325
 21
29.5
 31
0.0
  0
LINE
  5
2A5
330
1E
100
AcDbEntity
  8
0
100
AcDbLine
 10
241.59325
 20
28.39999999999999
 30
0.0
 11
241.79325
 21
27.0
 31
0.0
  0
LINE
  5
2A6
330
1E
100
AcDbEntity
  8
0
100
AcDbLine
 10
240.2453814447429
 20
33.1914742210263
 30
0.0
 11
240.2932499999999
 21
33.0
 31
0.0
  0
LINE
  5
2A8
330
1E
100
AcDbEntity
  8
0
100
AcDbLine
 10
240.257837067953
 20
33.1416517281892
 30
0.0
 11
243.07525
 21
38.0337
 31
0.0
  0
LINE
  5
2A9
330
1E
100
AcDbEntity
  8
0
100
AcDbLine
 10
240.257837067953
 20
33.1416517281892
 30
0.0
 11
240.2932499999999
 21
33.0
 31
0.0
  0
LINE
  5
2AA
330
1E
100
AcDbEntity
  8
0
100
AcDbLine
 10
241.79325
 20
32.0
 30
0.0
 11
242.2932499999999
 21
31.0
 31
0.0
  0
LINE
  5
2AB
330
1E
100
AcDbEntity
  8
0
100
AcDbLine
 10
241.79325
 20
29.5
 30
0.0
 11
242.2932499999999
 21
30.5
 31
0.0
  0
LINE
  5
2AC
330
1E
100
AcDbEntity
  8
0
100
AcDbLine
 10
242.19325
 20
-0.0000000000000098
 30
0.0
 11
249.4932499999999
 21
-0.0000000000000103
 31
0.0
  0
LINE
  5
2AD
330
1E
100
AcDbEntity
  8
0
100
AcDbLine
 10
242.19325
 20
8.999999999999991
 30
0.0
 11
249.4932499999999
 21
8.999999999999991
 31
0.0
  0
LINE
  5
2AE
330
1E
100
AcDbEntity
  8
0
100
AcDbLine
 10
242.2932499999999
 20
30.5
 30
0.0
 11
242.2932499999999
 21
31.0
 31
0.0
  0
LINE
  5
2AF
330
1E
100
AcDbEntity
  8
0
100
AcDbLine
 10
242.2932499999999
 20
31.0
 30
0.0
 11
242.2932499999999
 21
30.5
 31
0.0
  0
LINE
  5
2B0
330
1E
100
AcDbEntity
  8
0
100
AcDbLine
 10
242.79325
 20
24.0
 30
0.0
 11
244.7932499999999
 21
21.0
 31
0.0
  0
LINE
  5
2B1
330
1E
100
AcDbEntity
  8
0
100
AcDbLine
 10
241.79325
 20
27.0
 30
0.0
 11
242.79325
 21
24.0
 31
0.0
  0
LINE
  5
2B4
330
1E
100
AcDbEntity
  8
0
100
AcDbLine
 10
249.4932499999999
 20
-0.0000000000000103
 30
0.0
 11
255.09325
 21
-0.0000000000000106
 31
0.0
  0
LINE
  5
2B5
330
1E
100
AcDbEntity
  8
0
100
AcDbLine
 10
249.4932499999999
 20
8.999999999999991
 30
0.0
 11
255.09325
 21
8.999999999999991
 31
0.0
  0
LINE
  5
2B6
330
1E
100
AcDbEntity
  8
0
100
AcDbLine
 10
254.19325
 20
9.999999999999991
 30
0.0
 11
257.5932499999999
 21
9.999999999999991
 31
0.0
  0
LINE
  5
2B7
330
1E
100
AcDbEntity
  8
0
100
AcDbLine
 10
248.7932499999999
 20
9.999999999999991
 30
0.0
 11
254.19325
 21
9.999999999999991
 31
0.0
  0
LINE
  5
2B8
330
1E
100
AcDbEntity
  8
0
100
AcDbLine
 10
249.79325
 20
15.0
 30
0.0
 11
251.79325
 21
9.999999999999991
 31
0.0
  0
LINE
  5
2B9
330
1E
100
AcDbEntity
  8
0
100
AcDbLine
 10
255.09325
 20
8.999999999999991
 30
0.0
 11
258.4932499999999
 21
8.999999999999991
 31
0.0
  0
LINE
  5
2BA
330
1E
100
AcDbEntity
  8
0
100
AcDbLine
 10
255.09325
 20
-0.0000000000000106
 30
0.0
 11
255.9932499999999
 21
-0.0000000000000107
 31
0.0
  0
LINE
  5
2BB
330
1E
100
AcDbEntity
  8
0
100
AcDbLine
 10
255.09325
 20
-0.0000000000000106
 30
0.0
 11
258.4932499999999
 21
-0.0000000000000108
 31
0.0
  0
LINE
  5
2BC
330
1E
100
AcDbEntity
  8
0
100
AcDbLine
 10
247.79325
 20
17.0
 30
0.0
 11
248.89325
 21
17.0
 31
0.0
  0
LINE
  5
2BD
330
1E
100
AcDbEntity
  8
0
100
AcDbLine
 10
248.89325
 20
17.0
 30
0.0
 11
249.79325
 21
17.0
 31
0.0
  0
LINE
  5
2BE
330
1E
100
AcDbEntity
  8
0
100
AcDbLine
 10
243.79325
 20
21.0
 30
0.0
 11
249.79325
 21
15.0
 31
0.0
  0
LINE
  5
2BF
330
1E
100
AcDbEntity
  8
0
100
AcDbLine
 10
244.7932499999999
 20
21.0
 30
0.0
 11
248.2932499999999
 21
19.5
 31
0.0
  0
LINE
  5
2C0
330
1E
100
AcDbEntity
  8
0
100
AcDbLine
 10
248.2932499999999
 20
19.5
 30
0.0
 11
249.29325
 21
18.5
 31
0.0
  0
LINE
  5
2C1
330
1E
100
AcDbEntity
  8
0
100
AcDbLine
 10
249.29325
 20
18.5
 30
0.0
 11
249.79325
 21
17.0
 31
0.0
  0
LINE
  5
2C2
330
1E
100
AcDbEntity
  8
0
100
AcDbLine
 10
249.29325
 20
15.5
 30
0.0
 11
249.79325
 21
17.0
 31
0.0
  0
LINE
  5
2C3
330
1E
100
AcDbEntity
  8
0
100
AcDbLine
 10
257.5932499999999
 20
9.999999999999991
 30
0.0
 11
258.7932499999999
 21
9.999999999999991
 31
0.0
  0
LINE
  5
2C4
330
1E
100
AcDbEntity
  8
0
100
AcDbLine
 10
255.9932499999999
 20
-0.0000000000000107
 30
0.0
 11
259.49325
 21
-0.0000000000000109
 31
0.0
  0
LINE
  5
2C5
330
1E
100
AcDbEntity
  8
0
100
AcDbLine
 10
243.09025
 20
38.0222
 30
0.0
 11
257.98325
 21
38.0221
 31
0.0
  0
LINE
  5
2C6
330
1E
100
AcDbEntity
  8
0
100
AcDbLine
 10
259.79325
 20
-0.0000000000000109
 30
0.0
 11
259.79325
 21
8.999999999999991
 31
0.0
  0
LINE
  5
2C7
330
1E
100
AcDbEntity
  8
0
100
AcDbLine
 10
258.4932499999999
 20
8.999999999999991
 30
0.0
 11
259.79325
 21
8.999999999999991
 31
0.0
  0
LINE
  5
2C8
330
1E
100
AcDbEntity
  8
0
100
AcDbLine
 10
259.79325
 20
8.999999999999991
 30
0.0
 11
259.79325
 21
-0.0000000000000114
 31
0.0
  0
LINE
  5
2C9
330
1E
100
AcDbEntity
  8
0
100
AcDbLine
 10
258.7932499999999
 20
9.999999999999991
 30
0.0
 11
259.79325
 21
8.999999999999991
 31
0.0
  0
LINE
  5
2CD
330
1E
100
AcDbEntity
  8
0
100
AcDbLine
 10
258.4932499999999
 20
-0.0000000000000108
 30
0.0
 11
259.49325
 21
-0.0000000000000109
 31
0.0
  0
LINE
  5
2CE
330
1E
100
AcDbEntity
  8
0
100
AcDbLine
 10
258.4932499999999
 20
-0.0000000000000108
 30
0.0
 11
259.79325
 21
-0.0000000000000109
 31
0.0
  0
LINE
  5
2D0
330
1E
100
AcDbEntity
  8
0
100
AcDbLine
 10
257.98325
 20
38.0221
 30
0.0
 11
257.9842499999999
 21
38.2096
 31
0.0
  0
LINE
  5
2D1
330
1E
100
AcDbEntity
  8
0
100
AcDbLine
 10
257.98225
 20
38.2127
 30
0.0
 11
257.98325
 21
38.0221
 31
0.0
  0
LINE
  5
2D2
330
1E
100
AcDbEntity
  8
0
100
AcDbLine
 10
257.98225
 20
38.2127
 30
0.0
 11
257.98225
 21
38.75249999999999
 31
0.0
  0
LINE
  5
2D3
330
1E
100
AcDbEntity
  8
0
100
AcDbLine
 10
257.9842499999999
 20
38.2096
 30
0.0
 11
257.98525
 21
38.7468
 31
0.0
  0
LINE
  5
2D5
330
1E
100
AcDbEntity
  8
0
100
AcDbLine
 10
257.98225
 20
38.75249999999999
 30
0.0
 11
257.98225
 21
38.2127
 31
0.0
  0
LINE
  5
2D6
330
1E
100
AcDbEntity
  8
0
100
AcDbLine
 10
257.98525
 20
38.7468
 30
0.0
 11
257.98525
 21
39.5519
 31
0.0
  0
LINE
  5
2DA
330
1E
100
AcDbEntity
  8
0
100
AcDbLine
 10
257.98125
 20
39.5591
 30
0.0
 11
257.98225
 21
38.75249999999999
 31
0.0
  0
LINE
  5
2DB
330
1E
100
AcDbEntity
  8
0
100
AcDbLine
 10
257.98125
 20
39.5591
 30
0.0
 11
257.98125
 21
40.5101
 31
0.0
  0
LINE
  5
2DC
330
1E
100
AcDbEntity
  8
0
100
AcDbLine
 10
257.98525
 20
39.5519
 30
0.0
 11
257.98525
 21
38.7468
 31
0.0
  0
LINE
  5
2DD
330
1E
100
AcDbEntity
  8
0
100
AcDbLine
 10
257.98525
 20
39.5519
 30
0.0
 11
257.98525
 21
40.50209999999999
 31
0.0
  0
LINE
  5
2DE
330
1E
100
AcDbEntity
  8
0
100
AcDbLine
 10
257.98125
 20
40.5101
 30
0.0
 11
257.98125
 21
41.4604
 31
0.0
  0
LINE
  5
2DF
330
1E
100
AcDbEntity
  8
0
100
AcDbLine
 10
257.98125
 20
40.5101
 30
0.0
 11
257.98125
 21
39.5591
 31
0.0
  0
LINE
  5
2E0
330
1E
100
AcDbEntity
  8
0
100
AcDbLine
 10
257.98525
 20
40.50209999999999
 30
0.0
 11
257.98525
 21
39.5519
 31
0.0
  0
LINE
  5
2E1
330
1E
100
AcDbEntity
  8
0
100
AcDbLine
 10
257.98525
 20
40.50209999999999
 30
0.0
 11
257.98525
 21
41.4531
 31
0.0
  0
LINE
  5
2E2
330
1E
100
AcDbEntity
  8
0
100
AcDbLine
 10
257.98225
 20
42.26539999999999
 30
0.0
 11
257.98225
 21
42.8026
 31
0.0
  0
LINE
  5
2E3
330
1E
100
AcDbEntity
  8
0
100
AcDbLine
 10
257.98125
 20
41.4604
 30
0.0
 11
257.98225
 21
42.26539999999999
 31
0.0
  0
LINE
  5
2E4
330
1E
100
AcDbEntity
  8
0
100
AcDbLine
 10
257.98125
 20
41.4604
 30
0.0
 11
257.98125
 21
40.5101
 31
0.0
  0
LINE
  5
2E5
330
1E
100
AcDbEntity
  8
0
100
AcDbLine
 10
257.98525
 20
41.4531
 30
0.0
 11
257.98525
 21
40.50209999999999
 31
0.0
  0
LINE
  5
2E6
330
1E
100
AcDbEntity
  8
0
100
AcDbLine
 10
257.98525
 20
41.4531
 30
0.0
 11
257.98525
 21
42.2597
 31
0.0
  0
LINE
  5
2E7
330
1E
100
AcDbEntity
  8
0
100
AcDbLine
 10
257.98525
 20
42.2597
 30
0.0
 11
257.98525
 21
41.4531
 31
0.0
  0
LINE
  5
2E8
330
1E
100
AcDbEntity
  8
0
100
AcDbLine
 10
257.98225
 20
42.8026
 30
0.0
 11
257.98325
 21
42.99009999999999
 31
0.0
  0
LINE
  5
2E9
330
1E
100
AcDbEntity
  8
0
100
AcDbLine
 10
257.98225
 20
42.8026
 30
0.0
 11
257.98225
 21
42.26539999999999
 31
0.0
  0
LINE
  5
2EA
330
1E
100
AcDbEntity
  8
0
100
AcDbLine
 10
257.9842499999999
 20
42.7995
 30
0.0
 11
257.98525
 21
42.2597
 31
0.0
  0
LINE
  5
2EB
330
1E
100
AcDbEntity
  8
0
100
AcDbLine
 10
257.98325
 20
42.99009999999999
 30
0.0
 11
257.9842499999999
 21
42.7995
 31
0.0
  0
LINE
  5
2EC
330
1E
100
AcDbEntity
  8
0
100
AcDbLine
 10
243.09025
 20
42.99009999999999
 30
0.0
 11
257.98325
 21
42.99009999999999
 31
0.0
  0
LINE
  5
2ED
330
1E
100
AcDbEntity
  8
0
100
AcDbLine
 10
242.10525
 20
42.89109999999999
 30
0.0
 11
243.09025
 21
42.99009999999999
 31
0.0
  0
LINE
  5
2EE
330
1E
100
AcDbEntity
  8
0
100
AcDbLine
 10
241.15725
 20
42.598
 30
0.0
 11
242.10525
 21
42.89109999999999
 31
0.0
  0
LINE
  5
2EF
330
1E
100
AcDbEntity
  8
0
100
AcDbLine
 10
240.28825
 20
42.1224
 30
0.0
 11
241.15725
 21
42.598
 31
0.0
  0
LINE
  5
2F3
330
1E
100
AcDbEntity
  8
0
100
AcDbLine
 10
239.79325
 20
69.5
 30
0.0
 11
240.2932499999999
 21
71.0
 31
0.0
  0
LINE
  5
2F4
330
1E
100
AcDbEntity
  8
0
100
AcDbLine
 10
239.79325
 20
69.5
 30
0.0
 11
239.79325
 21
35.0
 31
0.0
  0
LINE
  5
2F5
330
1E
100
AcDbEntity
  8
0
100
AcDbLine
 10
213.89325
 20
71.0
 30
0.0
 11
217.09325
 21
71.0
 31
0.0
  0
LINE
  5
2F6
330
1E
100
AcDbEntity
  8
0
100
AcDbLine
 10
224.79325
 20
71.0
 30
0.0
 11
228.79325
 21
71.0
 31
0.0
  0
LINE
  5
2F7
330
1E
100
AcDbEntity
  8
0
100
AcDbLine
 10
217.09325
 20
71.0
 30
0.0
 11
220.79325
 21
71.0
 31
0.0
  0
LINE
  5
2F8
330
1E
100
AcDbEntity
  8
0
100
AcDbLine
 10
220.79325
 20
71.0
 30
0.0
 11
224.79325
 21
71.0
 31
0.0
  0
LINE
  5
2F9
330
1E
100
AcDbEntity
  8
0
100
AcDbLine
 10
211.3932499999999
 20
71.0
 30
0.0
 11
213.89325
 21
71.0
 31
0.0
  0
LINE
  5
2FA
330
1E
100
AcDbEntity
  8
0
100
AcDbLine
 10
210.29325
 20
75.0
 30
0.0
 11
211.79325
 21
75.0
 31
0.0
  0
LINE
  5
2FB
330
1E
100
AcDbEntity
  8
0
100
AcDbLine
 10
209.79325
 20
75.0
 30
0.0
 11
210.29325
 21
75.0
 31
0.0
  0
LINE
  5
2FC
330
1E
100
AcDbEntity
  8
0
100
AcDbLine
 10
210.4932499999999
 20
74.5
 30
0.0
 11
213.09325
 21
74.5
 31
0.0
  0
LINE
  5
2FD
330
1E
100
AcDbEntity
  8
0
100
AcDbLine
 10
213.09325
 20
71.5
 30
0.0
 11
216.59325
 21
71.5
 31
0.0
  0
LINE
  5
2FE
330
1E
100
AcDbEntity
  8
0
100
AcDbLine
 10
214.19325
 20
75.0
 30
0.0
 11
217.2932499999999
 21
75.0
 31
0.0
  0
LINE
  5
2FF
330
1E
100
AcDbEntity
  8
0
100
AcDbLine
 10
213.09325
 20
74.5
 30
0.0
 11
216.59325
 21
74.5
 31
0.0
  0
LINE
  5
300
330
1E
100
AcDbEntity
  8
0
100
AcDbLine
 10
217.2932499999999
 20
75.0
 30
0.0
 11
220.8932499999999
 21
75.0
 31
0.0
  0
LINE
  5
301
330
1E
100
AcDbEntity
  8
0
100
AcDbLine
 10
216.59325
 20
74.5
 30
0.0
 11
220.59325
 21
74.5
 31
0.0
  0
LINE
  5
303
330
1E
100
AcDbEntity
  8
0
100
AcDbLine
 10
220.59325
 20
74.5
 30
0.0
 11
224.79325
 21
74.5
 31
0.0
  0
LINE
  5
305
330
1E
100
AcDbEntity
  8
0
100
AcDbLine
 10
216.59325
 20
71.5
 30
0.0
 11
220.59325
 21
71.5
 31
0.0
  0
LINE
  5
306
330
1E
100
AcDbEntity
  8
0
100
AcDbLine
 10
224.79325
 20
74.5
 30
0.0
 11
228.9932499999999
 21
74.5
 31
0.0
  0
LINE
  5
308
330
1E
100
AcDbEntity
  8
0
100
AcDbLine
 10
224.79325
 20
71.5
 30
0.0
 11
228.9932499999999
 21
71.5
 31
0.0
  0
LINE
  5
309
330
1E
100
AcDbEntity
  8
0
100
AcDbLine
 10
220.8932499999999
 20
75.0
 30
0.0
 11
224.79325
 21
75.0
 31
0.0
  0
LINE
  5
30A
330
1E
100
AcDbEntity
  8
0
100
AcDbLine
 10
220.59325
 20
71.5
 30
0.0
 11
224.79325
 21
71.5
 31
0.0
  0
LINE
  5
30B
330
1E
100
AcDbEntity
  8
0
100
AcDbLine
 10
211.79325
 20
75.0
 30
0.0
 11
214.19325
 21
75.0
 31
0.0
  0
LINE
  5
30C
330
1E
100
AcDbEntity
  8
0
100
AcDbLine
 10
210.4932499999999
 20
71.5
 30
0.0
 11
213.09325
 21
71.5
 31
0.0
  0
LINE
  5
30D
330
1E
100
AcDbEntity
  8
0
100
AcDbLine
 10
209.89325
 20
71.0
 30
0.0
 11
211.3932499999999
 21
71.0
 31
0.0
  0
LINE
  5
30E
330
1E
100
AcDbEntity
  8
0
100
AcDbLine
 10
228.69325
 20
75.0
 30
0.0
 11
232.2932499999999
 21
75.0
 31
0.0
  0
LINE
  5
30F
330
1E
100
AcDbEntity
  8
0
100
AcDbLine
 10
228.79325
 20
71.0
 30
0.0
 11
232.49325
 21
71.0
 31
0.0
  0
LINE
  5
310
330
1E
100
AcDbEntity
  8
0
100
AcDbLine
 10
224.79325
 20
75.0
 30
0.0
 11
228.9512499999999
 21
75.0
 31
0.0
  0
LINE
  5
311
330
1E
100
AcDbEntity
  8
0
100
AcDbLine
 10
224.79325
 20
75.0
 30
0.0
 11
228.69325
 21
75.0
 31
0.0
  0
LINE
  5
313
330
1E
100
AcDbEntity
  8
0
100
AcDbLine
 10
213.45225
 20
75.0
 30
0.0
 11
217.2932499999999
 21
75.0
 31
0.0
  0
LINE
  5
314
330
1E
100
AcDbEntity
  8
0
100
AcDbLine
 10
228.9932499999999
 20
74.5
 30
0.0
 11
232.9932499999999
 21
74.5
 31
0.0
  0
LINE
  5
315
330
1E
100
AcDbEntity
  8
0
100
AcDbLine
 10
232.2932499999999
 20
75.0
 30
0.0
 11
235.3932499999999
 21
75.0
 31
0.0
  0
LINE
  5
317
330
1E
100
AcDbEntity
  8
0
100
AcDbLine
 10
228.9932499999999
 20
71.5
 30
0.0
 11
232.9932499999999
 21
71.5
 31
0.0
  0
LINE
  5
318
330
1E
100
AcDbEntity
  8
0
100
AcDbLine
 10
235.69325
 20
71.0
 30
0.0
 11
238.19325
 21
71.0
 31
0.0
  0
LINE
  5
319
330
1E
100
AcDbEntity
  8
0
100
AcDbLine
 10
236.49325
 20
71.5
 30
0.0
 11
239.09325
 21
71.5
 31
0.0
  0
LINE
  5
31A
330
1E
100
AcDbEntity
  8
0
100
AcDbLine
 10
239.09325
 20
71.5
 30
0.0
 11
240.6932499999999
 21
71.5
 31
0.0
  0
LINE
  5
31B
330
1E
100
AcDbEntity
  8
0
100
AcDbLine
 10
238.19325
 20
71.0
 30
0.0
 11
239.69325
 21
71.0
 31
0.0
  0
LINE
  5
31C
330
1E
100
AcDbEntity
  8
0
100
AcDbLine
 10
239.69325
 20
71.0
 30
0.0
 11
240.2932499999999
 21
71.0
 31
0.0
  0
LINE
  5
31D
330
1E
100
AcDbEntity
  8
0
100
AcDbLine
 10
235.3932499999999
 20
75.0
 30
0.0
 11
237.79325
 21
75.0
 31
0.0
  0
LINE
  5
31E
330
1E
100
AcDbEntity
  8
0
100
AcDbLine
 10
236.49325
 20
74.5
 30
0.0
 11
239.09325
 21
74.5
 31
0.0
  0
LINE
  5
31F
330
1E
100
AcDbEntity
  8
0
100
AcDbLine
 10
239.09325
 20
74.5
 30
0.0
 11
240.6932499999999
 21
74.5
 31
0.0
  0
LINE
  5
321
330
1E
100
AcDbEntity
  8
0
100
AcDbLine
 10
232.9932499999999
 20
74.5
 30
0.0
 11
236.49325
 21
74.5
 31
0.0
  0
LINE
  5
322
330
1E
100
AcDbEntity
  8
0
100
AcDbLine
 10
232.9932499999999
 20
71.5
 30
0.0
 11
236.49325
 21
71.5
 31
0.0
  0
LINE
  5
323
330
1E
100
AcDbEntity
  8
0
100
AcDbLine
 10
232.49325
 20
71.0
 30
0.0
 11
235.69325
 21
71.0
 31
0.0
  0
LINE
  5
324
330
1E
100
AcDbEntity
  8
0
100
AcDbLine
 10
239.29325
 20
75.0
 30
0.0
 11
240.2932499999999
 21
75.0
 31
0.0
  0
LINE
  5
325
330
1E
100
AcDbEntity
  8
0
100
AcDbLine
 10
239.29325
 20
75.0
 30
0.0
 11
239.79325
 21
75.0
 31
0.0
  0
LINE
  5
326
330
1E
100
AcDbEntity
  8
0
100
AcDbLine
 10
240.2932499999999
 20
75.0
 30
0.0
 11
240.2932499999999
 21
81.0
 31
0.0
  0
LINE
  5
327
330
1E
100
AcDbEntity
  8
0
100
AcDbLine
 10
237.79325
 20
75.0
 30
0.0
 11
240.2932499999999
 21
75.0
 31
0.0
  0
LINE
  5
328
330
1E
100
AcDbEntity
  8
0
100
AcDbLine
 10
237.79325
 20
75.0
 30
0.0
 11
239.29325
 21
75.0
 31
0.0
  0
LINE
  5
32A
330
1E
100
AcDbEntity
  8
0
100
AcDbLine
 10
228.9512499999999
 20
75.0
 30
0.0
 11
232.2932499999999
 21
75.0
 31
0.0
  0
LINE
  5
32B
330
1E
100
AcDbEntity
  8
0
100
AcDbLine
 10
209.79325
 20
81.0
 30
0.0
 11
209.79325
 21
99.50000000000001
 31
0.0
  0
LINE
  5
32C
330
1E
100
AcDbEntity
  8
0
100
AcDbLine
 10
209.79325
 20
99.50000000000001
 30
0.0
 11
209.79325
 21
81.0
 31
0.0
  0
LINE
  5
32D
330
1E
100
AcDbEntity
  8
0
100
AcDbLine
 10
209.3352499999999
 20
117.217
 30
0.0
 11
212.08925
 21
117.552
 31
0.0
  0
LINE
  5
32E
330
1E
100
AcDbEntity
  8
0
100
AcDbLine
 10
209.3352499999999
 20
117.217
 30
0.0
 11
209.65525
 21
117.243
 31
0.0
  0
LINE
  5
32F
330
1E
100
AcDbEntity
  8
0
100
AcDbLine
 10
209.65525
 20
117.243
 30
0.0
 11
210.408466207196
 21
117.347547359989
 31
0.0
  0
LINE
  5
330
330
1E
100
AcDbEntity
  8
0
100
AcDbLine
 10
209.65525
 20
126.757
 30
0.0
 11
210.408466207196
 21
126.652452640011
 31
0.0
  0
LINE
  5
331
330
1E
100
AcDbEntity
  8
0
100
AcDbLine
 10
209.3352499999999
 20
126.7829999999999
 30
0.0
 11
212.08925
 21
126.448
 31
0.0
  0
LINE
  5
332
330
1E
100
AcDbEntity
  8
0
100
AcDbLine
 10
209.3352499999999
 20
126.7829999999999
 30
0.0
 11
209.65525
 21
126.757
 31
0.0
  0
LINE
  5
333
330
1E
100
AcDbEntity
  8
0
100
AcDbLine
 10
209.89325
 20
101.0
 30
0.0
 11
211.3932499999999
 21
101.0
 31
0.0
  0
LINE
  5
334
330
1E
100
AcDbEntity
  8
0
100
AcDbLine
 10
212.79325
 20
81.0
 30
0.0
 11
212.79325
 21
93.0
 31
0.0
  0
LINE
  5
335
330
1E
100
AcDbEntity
  8
0
100
AcDbLine
 10
212.79325
 20
95.5
 30
0.0
 11
213.19325
 21
95.5
 31
0.0
  0
LINE
  5
336
330
1E
100
AcDbEntity
  8
0
100
AcDbLine
 10
212.79325
 20
95.5
 30
0.0
 11
213.2932499999999
 21
96.0
 31
0.0
  0
LINE
  5
337
330
1E
100
AcDbEntity
  8
0
100
AcDbLine
 10
212.79325
 20
95.5
 30
0.0
 11
212.79325
 21
94.0
 31
0.0
  0
LINE
  5
338
330
1E
100
AcDbEntity
  8
0
100
AcDbLine
 10
212.79325
 20
94.0
 30
0.0
 11
213.19325
 21
94.0
 31
0.0
  0
LINE
  5
339
330
1E
100
AcDbEntity
  8
0
100
AcDbLine
 10
212.79325
 20
94.0
 30
0.0
 11
213.2932499999999
 21
93.49999999999999
 31
0.0
  0
LINE
  5
33A
330
1E
100
AcDbEntity
  8
0
100
AcDbLine
 10
212.79325
 20
94.0
 30
0.0
 11
212.79325
 21
95.5
 31
0.0
  0
LINE
  5
33B
330
1E
100
AcDbEntity
  8
0
100
AcDbLine
 10
216.29325
 20
93.0
 30
0.0
 11
218.79325
 21
93.0
 31
0.0
  0
LINE
  5
33C
330
1E
100
AcDbEntity
  8
0
100
AcDbLine
 10
214.39325
 20
93.0
 30
0.0
 11
216.29325
 21
93.0
 31
0.0
  0
LINE
  5
33D
330
1E
100
AcDbEntity
  8
0
100
AcDbLine
 10
213.2932499999999
 20
96.0
 30
0.0
 11
213.6932499999999
 21
96.0
 31
0.0
  0
LINE
  5
33E
330
1E
100
AcDbEntity
  8
0
100
AcDbLine
 10
213.19325
 20
95.5
 30
0.0
 11
214.39325
 21
95.5
 31
0.0
  0
LINE
  5
33F
330
1E
100
AcDbEntity
  8
0
100
AcDbLine
 10
213.19325
 20
94.0
 30
0.0
 11
214.39325
 21
94.0
 31
0.0
  0
LINE
  5
340
330
1E
100
AcDbEntity
  8
0
100
AcDbLine
 10
216.69325
 20
93.49999999999999
 30
0.0
 11
219.09325
 21
93.49999999999999
 31
0.0
  0
LINE
  5
341
330
1E
100
AcDbEntity
  8
0
100
AcDbLine
 10
214.79325
 20
93.49999999999999
 30
0.0
 11
216.69325
 21
93.49999999999999
 31
0.0
  0
LINE
  5
342
330
1E
100
AcDbEntity
  8
0
100
AcDbLine
 10
213.6932499999999
 20
96.0
 30
0.0
 11
214.79325
 21
96.0
 31
0.0
  0
LINE
  5
343
330
1E
100
AcDbEntity
  8
0
100
AcDbLine
 10
214.39325
 20
95.5
 30
0.0
 11
216.29325
 21
95.5
 31
0.0
  0
LINE
  5
344
330
1E
100
AcDbEntity
  8
0
100
AcDbLine
 10
216.29325
 20
95.5
 30
0.0
 11
218.79325
 21
95.5
 31
0.0
  0
LINE
  5
345
330
1E
100
AcDbEntity
  8
0
100
AcDbLine
 10
216.69325
 20
96.0
 30
0.0
 11
219.09325
 21
96.0
 31
0.0
  0
LINE
  5
346
330
1E
100
AcDbEntity
  8
0
100
AcDbLine
 10
216.29325
 20
94.0
 30
0.0
 11
218.79325
 21
94.0
 31
0.0
  0
LINE
  5
347
330
1E
100
AcDbEntity
  8
0
100
AcDbLine
 10
214.79325
 20
96.0
 30
0.0
 11
216.69325
 21
96.0
 31
0.0
  0
LINE
  5
348
330
1E
100
AcDbEntity
  8
0
100
AcDbLine
 10
214.39325
 20
94.0
 30
0.0
 11
216.29325
 21
94.0
 31
0.0
  0
LINE
  5
349
330
1E
100
AcDbEntity
  8
0
100
AcDbLine
 10
213.6932499999999
 20
93.49999999999999
 30
0.0
 11
214.79325
 21
93.49999999999999
 31
0.0
  0
LINE
  5
34A
330
1E
100
AcDbEntity
  8
0
100
AcDbLine
 10
213.2932499999999
 20
93.49999999999999
 30
0.0
 11
213.6932499999999
 21
93.49999999999999
 31
0.0
  0
LINE
  5
34B
330
1E
100
AcDbEntity
  8
0
100
AcDbLine
 10
213.19325
 20
93.0
 30
0.0
 11
214.39325
 21
93.0
 31
0.0
  0
LINE
  5
34C
330
1E
100
AcDbEntity
  8
0
100
AcDbLine
 10
212.79325
 20
93.0
 30
0.0
 11
213.19325
 21
93.0
 31
0.0
  0
LINE
  5
34D
330
1E
100
AcDbEntity
  8
0
100
AcDbLine
 10
212.79325
 20
93.0
 30
0.0
 11
213.2932499999999
 21
93.49999999999999
 31
0.0
  0
LINE
  5
34E
330
1E
100
AcDbEntity
  8
0
100
AcDbLine
 10
212.79325
 20
93.0
 30
0.0
 11
212.79325
 21
81.0
 31
0.0
  0
LINE
  5
350
330
1E
100
AcDbEntity
  8
0
100
AcDbLine
 10
213.45225
 20
81.0
 30
0.0
 11
228.9512499999999
 21
81.0
 31
0.0
  0
LINE
  5
351
330
1E
100
AcDbEntity
  8
0
100
AcDbLine
 10
211.3932499999999
 20
101.0
 30
0.0
 11
213.89325
 21
101.0
 31
0.0
  0
LINE
  5
352
330
1E
100
AcDbEntity
  8
0
100
AcDbLine
 10
210.4932499999999
 20
101.5
 30
0.0
 11
213.09325
 21
101.5
 31
0.0
  0
LINE
  5
353
330
1E
100
AcDbEntity
  8
0
100
AcDbLine
 10
210.4932499999999
 20
104.4999999999999
 30
0.0
 11
213.09325
 21
104.4999999999999
 31
0.0
  0
LINE
  5
354
330
1E
100
AcDbEntity
  8
0
100
AcDbLine
 10
213.09325
 20
104.4999999999999
 30
0.0
 11
216.59325
 21
104.4999999999999
 31
0.0
  0
LINE
  5
355
330
1E
100
AcDbEntity
  8
0
100
AcDbLine
 10
216.59325
 20
104.4999999999999
 30
0.0
 11
218.79325
 21
104.4999999999999
 31
0.0
  0
LINE
  5
357
330
1E
100
AcDbEntity
  8
0
100
AcDbLine
 10
213.09325
 20
101.5
 30
0.0
 11
216.59325
 21
101.5
 31
0.0
  0
LINE
  5
358
330
1E
100
AcDbEntity
  8
0
100
AcDbLine
 10
216.59325
 20
101.5
 30
0.0
 11
218.79325
 21
101.5
 31
0.0
  0
LINE
  5
359
330
1E
100
AcDbEntity
  8
0
100
AcDbLine
 10
213.89325
 20
101.0
 30
0.0
 11
217.09325
 21
101.0
 31
0.0
  0
LINE
  5
35A
330
1E
100
AcDbEntity
  8
0
100
AcDbLine
 10
218.79325
 20
95.5
 30
0.0
 11
221.6932499999999
 21
95.5
 31
0.0
  0
LINE
  5
35B
330
1E
100
AcDbEntity
  8
0
100
AcDbLine
 10
218.79325
 20
94.0
 30
0.0
 11
221.6932499999999
 21
94.0
 31
0.0
  0
LINE
  5
35C
330
1E
100
AcDbEntity
  8
0
100
AcDbLine
 10
218.79325
 20
93.0
 30
0.0
 11
221.6932499999999
 21
93.0
 31
0.0
  0
LINE
  5
35D
330
1E
100
AcDbEntity
  8
0
100
AcDbLine
 10
219.09325
 20
96.0
 30
0.0
 11
221.7932499999999
 21
96.0
 31
0.0
  0
LINE
  5
35E
330
1E
100
AcDbEntity
  8
0
100
AcDbLine
 10
221.6932499999999
 20
95.5
 30
0.0
 11
224.79325
 21
95.5
 31
0.0
  0
LINE
  5
35F
330
1E
100
AcDbEntity
  8
0
100
AcDbLine
 10
221.6932499999999
 20
94.0
 30
0.0
 11
224.79325
 21
94.0
 31
0.0
  0
LINE
  5
360
330
1E
100
AcDbEntity
  8
0
100
AcDbLine
 10
219.09325
 20
93.49999999999999
 30
0.0
 11
221.7932499999999
 21
93.49999999999999
 31
0.0
  0
LINE
  5
361
330
1E
100
AcDbEntity
  8
0
100
AcDbLine
 10
224.79325
 20
93.49999999999999
 30
0.0
 11
227.7932499999999
 21
93.49999999999999
 31
0.0
  0
LINE
  5
362
330
1E
100
AcDbEntity
  8
0
100
AcDbLine
 10
230.79325
 20
93.0
 30
0.0
 11
233.29325
 21
93.0
 31
0.0
  0
LINE
  5
363
330
1E
100
AcDbEntity
  8
0
100
AcDbLine
 10
230.49325
 20
93.49999999999999
 30
0.0
 11
232.89325
 21
93.49999999999999
 31
0.0
  0
LINE
  5
364
330
1E
100
AcDbEntity
  8
0
100
AcDbLine
 10
227.7932499999999
 20
93.49999999999999
 30
0.0
 11
230.49325
 21
93.49999999999999
 31
0.0
  0
LINE
  5
365
330
1E
100
AcDbEntity
  8
0
100
AcDbLine
 10
227.8932499999999
 20
93.0
 30
0.0
 11
230.79325
 21
93.0
 31
0.0
  0
LINE
  5
366
330
1E
100
AcDbEntity
  8
0
100
AcDbLine
 10
224.79325
 20
93.0
 30
0.0
 11
227.8932499999999
 21
93.0
 31
0.0
  0
LINE
  5
367
330
1E
100
AcDbEntity
  8
0
100
AcDbLine
 10
230.79325
 20
94.0
 30
0.0
 11
233.29325
 21
94.0
 31
0.0
  0
LINE
  5
368
330
1E
100
AcDbEntity
  8
0
100
AcDbLine
 10
227.8932499999999
 20
94.0
 30
0.0
 11
230.79325
 21
94.0
 31
0.0
  0
LINE
  5
369
330
1E
100
AcDbEntity
  8
0
100
AcDbLine
 10
224.79325
 20
96.0
 30
0.0
 11
227.7932499999999
 21
96.0
 31
0.0
  0
LINE
  5
36A
330
1E
100
AcDbEntity
  8
0
100
AcDbLine
 10
230.79325
 20
95.5
 30
0.0
 11
233.29325
 21
95.5
 31
0.0
  0
LINE
  5
36B
330
1E
100
AcDbEntity
  8
0
100
AcDbLine
 10
230.49325
 20
96.0
 30
0.0
 11
232.89325
 21
96.0
 31
0.0
  0
LINE
  5
36C
330
1E
100
AcDbEntity
  8
0
100
AcDbLine
 10
227.7932499999999
 20
96.0
 30
0.0
 11
230.49325
 21
96.0
 31
0.0
  0
LINE
  5
36D
330
1E
100
AcDbEntity
  8
0
100
AcDbLine
 10
227.8932499999999
 20
95.5
 30
0.0
 11
230.79325
 21
95.5
 31
0.0
  0
LINE
  5
36E
330
1E
100
AcDbEntity
  8
0
100
AcDbLine
 10
224.79325
 20
95.5
 30
0.0
 11
227.8932499999999
 21
95.5
 31
0.0
  0
LINE
  5
36F
330
1E
100
AcDbEntity
  8
0
100
AcDbLine
 10
224.79325
 20
94.0
 30
0.0
 11
227.8932499999999
 21
94.0
 31
0.0
  0
LINE
  5
370
330
1E
100
AcDbEntity
  8
0
100
AcDbLine
 10
221.7932499999999
 20
96.0
 30
0.0
 11
224.79325
 21
96.0
 31
0.0
  0
LINE
  5
371
330
1E
100
AcDbEntity
  8
0
100
AcDbLine
 10
221.7932499999999
 20
93.49999999999999
 30
0.0
 11
224.79325
 21
93.49999999999999
 31
0.0
  0
LINE
  5
372
330
1E
100
AcDbEntity
  8
0
100
AcDbLine
 10
221.6932499999999
 20
93.0
 30
0.0
 11
224.79325
 21
93.0
 31
0.0
  0
LINE
  5
373
330
1E
100
AcDbEntity
  8
0
100
AcDbLine
 10
230.79325
 20
96.0
 30
0.0
 11
230.79325
 21
107.0
 31
0.0
  0
LINE
  5
374
330
1E
100
AcDbEntity
  8
0
100
AcDbLine
 10
218.79325
 20
96.0
 30
0.0
 11
218.79325
 21
107.0
 31
0.0
  0
LINE
  5
375
330
1E
100
AcDbEntity
  8
0
100
AcDbLine
 10
228.9512499999999
 20
81.0
 30
0.0
 11
240.2932499999999
 21
81.0
 31
0.0
  0
LINE
  5
377
330
1E
100
AcDbEntity
  8
0
100
AcDbLine
 10
233.29325
 20
93.0
 30
0.0
 11
235.19325
 21
93.0
 31
0.0
  0
LINE
  5
378
330
1E
100
AcDbEntity
  8
0
100
AcDbLine
 10
232.89325
 20
96.0
 30
0.0
 11
234.79325
 21
96.0
 31
0.0
  0
LINE
  5
379
330
1E
100
AcDbEntity
  8
0
100
AcDbLine
 10
233.29325
 20
95.5
 30
0.0
 11
235.19325
 21
95.5
 31
0.0
  0
LINE
  5
37A
330
1E
100
AcDbEntity
  8
0
100
AcDbLine
 10
234.79325
 20
96.0
 30
0.0
 11
235.8932499999999
 21
96.0
 31
0.0
  0
LINE
  5
37B
330
1E
100
AcDbEntity
  8
0
100
AcDbLine
 10
233.29325
 20
94.0
 30
0.0
 11
235.19325
 21
94.0
 31
0.0
  0
LINE
  5
37C
330
1E
100
AcDbEntity
  8
0
100
AcDbLine
 10
232.89325
 20
93.49999999999999
 30
0.0
 11
234.79325
 21
93.49999999999999
 31
0.0
  0
LINE
  5
37D
330
1E
100
AcDbEntity
  8
0
100
AcDbLine
 10
235.19325
 20
95.5
 30
0.0
 11
236.39325
 21
95.5
 31
0.0
  0
LINE
  5
37E
330
1E
100
AcDbEntity
  8
0
100
AcDbLine
 10
235.19325
 20
94.0
 30
0.0
 11
236.39325
 21
94.0
 31
0.0
  0
LINE
  5
37F
330
1E
100
AcDbEntity
  8
0
100
AcDbLine
 10
234.79325
 20
93.49999999999999
 30
0.0
 11
235.8932499999999
 21
93.49999999999999
 31
0.0
  0
LINE
  5
380
330
1E
100
AcDbEntity
  8
0
100
AcDbLine
 10
235.19325
 20
93.0
 30
0.0
 11
236.39325
 21
93.0
 31
0.0
  0
LINE
  5
381
330
1E
100
AcDbEntity
  8
0
100
AcDbLine
 10
232.49325
 20
101.0
 30
0.0
 11
235.69325
 21
101.0
 31
0.0
  0
LINE
  5
382
330
1E
100
AcDbEntity
  8
0
100
AcDbLine
 10
230.79325
 20
104.4999999999999
 30
0.0
 11
232.9932499999999
 21
104.4999999999999
 31
0.0
  0
LINE
  5
384
330
1E
100
AcDbEntity
  8
0
100
AcDbLine
 10
232.9932499999999
 20
104.4999999999999
 30
0.0
 11
236.49325
 21
104.4999999999999
 31
0.0
  0
LINE
  5
385
330
1E
100
AcDbEntity
  8
0
100
AcDbLine
 10
232.9932499999999
 20
101.5
 30
0.0
 11
236.49325
 21
101.5
 31
0.0
  0
LINE
  5
386
330
1E
100
AcDbEntity
  8
0
100
AcDbLine
 10
230.79325
 20
101.5
 30
0.0
 11
232.9932499999999
 21
101.5
 31
0.0
  0
LINE
  5
387
330
1E
100
AcDbEntity
  8
0
100
AcDbLine
 10
230.79325
 20
101.0
 30
0.0
 11
232.49325
 21
101.0
 31
0.0
  0
LINE
  5
388
330
1E
100
AcDbEntity
  8
0
100
AcDbLine
 10
217.09325
 20
101.0
 30
0.0
 11
218.79325
 21
101.0
 31
0.0
  0
LINE
  5
389
330
1E
100
AcDbEntity
  8
0
100
AcDbLine
 10
212.08925
 20
117.552
 30
0.0
 11
214.3712499999999
 21
117.857
 31
0.0
  0
LINE
  5
38A
330
1E
100
AcDbEntity
  8
0
100
AcDbLine
 10
233.2022499999999
 20
106.4999999999999
 30
0.0
 11
235.13425
 21
106.4999999999999
 31
0.0
  0
LINE
  5
38B
330
1E
100
AcDbEntity
  8
0
100
AcDbLine
 10
235.13425
 20
106.4999999999999
 30
0.0
 11
236.27025
 21
106.4999999999999
 31
0.0
  0
LINE
  5
38C
330
1E
100
AcDbEntity
  8
0
100
AcDbLine
 10
230.79325
 20
106.4999999999999
 30
0.0
 11
233.2022499999999
 21
106.4999999999999
 31
0.0
  0
LINE
  5
38D
330
1E
100
AcDbEntity
  8
0
100
AcDbLine
 10
216.38425
 20
106.4999999999999
 30
0.0
 11
218.79325
 21
106.4999999999999
 31
0.0
  0
LINE
  5
38E
330
1E
100
AcDbEntity
  8
0
100
AcDbLine
 10
214.4522499999999
 20
106.4999999999999
 30
0.0
 11
216.38425
 21
106.4999999999999
 31
0.0
  0
LINE
  5
38F
330
1E
100
AcDbEntity
  8
0
100
AcDbLine
 10
218.4932499999999
 20
107.0
 30
0.0
 11
219.19325
 21
107.0
 31
0.0
  0
LINE
  5
390
330
1E
100
AcDbEntity
  8
0
100
AcDbLine
 10
218.4932499999999
 20
107.0
 30
0.0
 11
218.79325
 21
107.0
 31
0.0
  0
LINE
  5
391
330
1E
100
AcDbEntity
  8
0
100
AcDbLine
 10
218.29325
 20
107.0
 30
0.0
 11
218.4932499999999
 21
107.0
 31
0.0
  0
LINE
  5
392
330
1E
100
AcDbEntity
  8
0
100
AcDbLine
 10
218.29325
 20
107.0
 30
0.0
 11
218.29325
 21
115.0
 31
0.0
  0
LINE
  5
393
330
1E
100
AcDbEntity
  8
0
100
AcDbLine
 10
219.19325
 20
107.0
 30
0.0
 11
220.19325
 21
107.0
 31
0.0
  0
LINE
  5
394
330
1E
100
AcDbEntity
  8
0
100
AcDbLine
 10
219.59325
 20
107.0
 30
0.0
 11
220.59325
 21
107.0
 31
0.0
  0
LINE
  5
395
330
1E
100
AcDbEntity
  8
0
100
AcDbLine
 10
218.9932499999999
 20
107.0
 30
0.0
 11
219.59325
 21
107.0
 31
0.0
  0
LINE
  5
396
330
1E
100
AcDbEntity
  8
0
100
AcDbLine
 10
218.79325
 20
107.0
 30
0.0
 11
218.79325
 21
96.0
 31
0.0
  0
LINE
  5
397
330
1E
100
AcDbEntity
  8
0
100
AcDbLine
 10
218.79325
 20
107.0
 30
0.0
 11
218.9932499999999
 21
107.0
 31
0.0
  0
LINE
  5
398
330
1E
100
AcDbEntity
  8
0
100
AcDbLine
 10
220.19325
 20
107.0
 30
0.0
 11
221.59325
 21
107.0
 31
0.0
  0
LINE
  5
399
330
1E
100
AcDbEntity
  8
0
100
AcDbLine
 10
221.59325
 20
107.0
 30
0.0
 11
223.09325
 21
107.0
 31
0.0
  0
LINE
  5
39A
330
1E
100
AcDbEntity
  8
0
100
AcDbLine
 10
219.19325
 20
115.0
 30
0.0
 11
220.19325
 21
115.0
 31
0.0
  0
LINE
  5
39B
330
1E
100
AcDbEntity
  8
0
100
AcDbLine
 10
218.4932499999999
 20
115.0
 30
0.0
 11
219.19325
 21
115.0
 31
0.0
  0
LINE
  5
39C
330
1E
100
AcDbEntity
  8
0
100
AcDbLine
 10
218.29325
 20
115.0
 30
0.0
 11
218.29325
 21
107.0
 31
0.0
  0
LINE
  5
39D
330
1E
100
AcDbEntity
  8
0
100
AcDbLine
 10
218.29325
 20
115.0
 30
0.0
 11
218.4932499999999
 21
115.0
 31
0.0
  0
LINE
  5
39E
330
1E
100
AcDbEntity
  8
0
100
AcDbLine
 10
217.89325
 20
117.0
 30
0.0
 11
219.19325
 21
117.0
 31
0.0
  0
LINE
  5
39F
330
1E
100
AcDbEntity
  8
0
100
AcDbLine
 10
217.09325
 20
117.0
 30
0.0
 11
217.89325
 21
117.0
 31
0.0
  0
LINE
  5
3A0
330
1E
100
AcDbEntity
  8
0
100
AcDbLine
 10
216.79325
 20
117.0
 30
0.0
 11
218.29325
 21
115.0
 31
0.0
  0
LINE
  5
3A1
330
1E
100
AcDbEntity
  8
0
100
AcDbLine
 10
216.79325
 20
117.0
 30
0.0
 11
217.09325
 21
117.0
 31
0.0
  0
LINE
  5
3A2
330
1E
100
AcDbEntity
  8
0
100
AcDbLine
 10
219.19325
 20
117.0
 30
0.0
 11
220.79325
 21
117.0
 31
0.0
  0
LINE
  5
3A3
330
1E
100
AcDbEntity
  8
0
100
AcDbLine
 10
220.79325
 20
117.0
 30
0.0
 11
222.69325
 21
117.0
 31
0.0
  0
LINE
  5
3A4
330
1E
100
AcDbEntity
  8
0
100
AcDbLine
 10
220.19325
 20
115.0
 30
0.0
 11
221.59325
 21
115.0
 31
0.0
  0
LINE
  5
3A5
330
1E
100
AcDbEntity
  8
0
100
AcDbLine
 10
221.59325
 20
115.0
 30
0.0
 11
223.09325
 21
115.0
 31
0.0
  0
LINE
  5
3A6
330
1E
100
AcDbEntity
  8
0
100
AcDbLine
 10
220.59325
 20
107.0
 30
0.0
 11
221.7932499999999
 21
107.0
 31
0.0
  0
LINE
  5
3A7
330
1E
100
AcDbEntity
  8
0
100
AcDbLine
 10
222.69325
 20
117.0
 30
0.0
 11
223.077955882353
 21
117.0
 31
0.0
  0
LINE
  5
3A8
330
1E
100
AcDbEntity
  8
0
100
AcDbLine
 10
223.09325
 20
115.0
 30
0.0
 11
224.79325
 21
115.0
 31
0.0
  0
LINE
  5
3A9
330
1E
100
AcDbEntity
  8
0
100
AcDbLine
 10
223.09325
 20
107.0
 30
0.0
 11
224.79325
 21
107.0
 31
0.0
  0
LINE
  5
3AA
330
1E
100
AcDbEntity
  8
0
100
AcDbLine
 10
221.7932499999999
 20
107.0
 30
0.0
 11
223.2932499999999
 21
107.0
 31
0.0
  0
LINE
  5
3AB
330
1E
100
AcDbEntity
  8
0
100
AcDbLine
 10
213.6583911947439
 20
117.761723078176
 30
0.0
 11
214.9660627644789
 21
117.9012550599999
 31
0.0
  0
LINE
  5
3AC
330
1E
100
AcDbEntity
  8
0
100
AcDbLine
 10
220.8032499999999
 20
117.552
 30
0.0
 11
222.64725
 21
117.217
 31
0.0
  0
LINE
  5
3AD
330
1E
100
AcDbEntity
  8
0
100
AcDbLine
 10
222.64725
 20
117.217
 30
0.0
 11
223.41802482407
 21
116.828665074297
 31
0.0
  0
LINE
  5
3AE
330
1E
100
AcDbEntity
  8
0
100
AcDbLine
 10
223.2932499999999
 20
107.0
 30
0.0
 11
224.79325
 21
107.0
 31
0.0
  0
LINE
  5
3B0
330
1E
100
AcDbEntity
  8
0
100
AcDbLine
 10
223.4932499999999
 20
116.591
 30
0.0
 11
223.99325
 21
116.092
 31
0.0
  0
LINE
  5
3B3
330
1E
100
AcDbEntity
  8
0
100
AcDbLine
 10
223.99325
 20
116.092
 30
0.0
 11
223.99325
 21
116.476
 31
0.0
  0
LINE
  5
3B4
330
1E
100
AcDbEntity
  8
0
100
AcDbLine
 10
223.99325
 20
116.092
 30
0.0
 11
224.79325
 21
116.111
 31
0.0
  0
LINE
  5
3B5
330
1E
100
AcDbEntity
  8
0
100
AcDbLine
 10
224.79325
 20
115.0
 30
0.0
 11
226.49325
 21
115.0
 31
0.0
  0
LINE
  5
3B6
330
1E
100
AcDbEntity
  8
0
100
AcDbLine
 10
224.79325
 20
107.0
 30
0.0
 11
226.29325
 21
107.0
 31
0.0
  0
LINE
  5
3B7
330
1E
100
AcDbEntity
  8
0
100
AcDbLine
 10
224.79325
 20
107.0
 30
0.0
 11
226.49325
 21
107.0
 31
0.0
  0
LINE
  5
3B8
330
1E
100
AcDbEntity
  8
0
100
AcDbLine
 10
226.49325
 20
107.0
 30
0.0
 11
227.99325
 21
107.0
 31
0.0
  0
LINE
  5
3B9
330
1E
100
AcDbEntity
  8
0
100
AcDbLine
 10
227.99325
 20
107.0
 30
0.0
 11
229.3932499999999
 21
107.0
 31
0.0
  0
LINE
  5
3BA
330
1E
100
AcDbEntity
  8
0
100
AcDbLine
 10
227.7932499999999
 20
107.0
 30
0.0
 11
228.9932499999999
 21
107.0
 31
0.0
  0
LINE
  5
3BB
330
1E
100
AcDbEntity
  8
0
100
AcDbLine
 10
226.29325
 20
107.0
 30
0.0
 11
227.7932499999999
 21
107.0
 31
0.0
  0
LINE
  5
3BC
330
1E
100
AcDbEntity
  8
0
100
AcDbLine
 10
229.3932499999999
 20
107.0
 30
0.0
 11
230.39325
 21
107.0
 31
0.0
  0
LINE
  5
3BD
330
1E
100
AcDbEntity
  8
0
100
AcDbLine
 10
228.9932499999999
 20
107.0
 30
0.0
 11
229.99325
 21
107.0
 31
0.0
  0
LINE
  5
3BE
330
1E
100
AcDbEntity
  8
0
100
AcDbLine
 10
230.39325
 20
107.0
 30
0.0
 11
231.09325
 21
107.0
 31
0.0
  0
LINE
  5
3BF
330
1E
100
AcDbEntity
  8
0
100
AcDbLine
 10
229.99325
 20
107.0
 30
0.0
 11
230.59325
 21
107.0
 31
0.0
  0
LINE
  5
3C0
330
1E
100
AcDbEntity
  8
0
100
AcDbLine
 10
230.59325
 20
107.0
 30
0.0
 11
230.79325
 21
107.0
 31
0.0
  0
LINE
  5
3C1
330
1E
100
AcDbEntity
  8
0
100
AcDbLine
 10
231.29325
 20
107.0
 30
0.0
 11
231.29325
 21
115.0
 31
0.0
  0
LINE
  5
3C2
330
1E
100
AcDbEntity
  8
0
100
AcDbLine
 10
231.09325
 20
107.0
 30
0.0
 11
231.29325
 21
107.0
 31
0.0
  0
LINE
  5
3C3
330
1E
100
AcDbEntity
  8
0
100
AcDbLine
 10
227.99325
 20
115.0
 30
0.0
 11
229.3932499999999
 21
115.0
 31
0.0
  0
LINE
  5
3C4
330
1E
100
AcDbEntity
  8
0
100
AcDbLine
 10
226.49325
 20
115.0
 30
0.0
 11
227.99325
 21
115.0
 31
0.0
  0
LINE
  5
3C5
330
1E
100
AcDbEntity
  8
0
100
AcDbLine
 10
229.3932499999999
 20
115.0
 30
0.0
 11
230.39325
 21
115.0
 31
0.0
  0
LINE
  5
3C6
330
1E
100
AcDbEntity
  8
0
100
AcDbLine
 10
230.39325
 20
115.0
 30
0.0
 11
231.09325
 21
115.0
 31
0.0
  0
LINE
  5
3C7
330
1E
100
AcDbEntity
  8
0
100
AcDbLine
 10
231.09325
 20
115.0
 30
0.0
 11
231.29325
 21
115.0
 31
0.0
  0
LINE
  5
3C8
330
1E
100
AcDbEntity
  8
0
100
AcDbLine
 10
231.29325
 20
115.0
 30
0.0
 11
231.29325
 21
107.0
 31
0.0
  0
LINE
  5
3C9
330
1E
100
AcDbEntity
  8
0
100
AcDbLine
 10
231.29325
 20
115.0
 30
0.0
 11
232.79325
 21
117.0
 31
0.0
  0
LINE
  5
3CA
330
1E
100
AcDbEntity
  8
0
100
AcDbLine
 10
230.79325
 20
107.0
 30
0.0
 11
230.79325
 21
96.0
 31
0.0
  0
LINE
  5
3CB
330
1E
100
AcDbEntity
  8
0
100
AcDbLine
 10
230.79325
 20
107.0
 30
0.0
 11
231.09325
 21
107.0
 31
0.0
  0
LINE
  5
3CC
330
1E
100
AcDbEntity
  8
0
100
AcDbLine
 10
225.59325
 20
116.092
 30
0.0
 11
225.59325
 21
116.476
 31
0.0
  0
LINE
  5
3CD
330
1E
100
AcDbEntity
  8
0
100
AcDbLine
 10
225.59325
 20
116.092
 30
0.0
 11
226.09325
 21
116.591
 31
0.0
  0
LINE
  5
3CF
330
1E
100
AcDbEntity
  8
0
100
AcDbLine
 10
226.09325
 20
116.591
 30
0.0
 11
226.59325
 21
119.0509999999999
 31
0.0
  0
LINE
  5
3D0
330
1E
100
AcDbEntity
  8
0
100
AcDbLine
 10
225.59325
 20
116.476
 30
0.0
 11
225.59325
 21
116.092
 31
0.0
  0
LINE
  5
3D1
330
1E
100
AcDbEntity
  8
0
100
AcDbLine
 10
225.59325
 20
116.476
 30
0.0
 11
225.59325
 21
117.187
 31
0.0
  0
LINE
  5
3D2
330
1E
100
AcDbEntity
  8
0
100
AcDbLine
 10
224.79325
 20
116.111
 30
0.0
 11
225.59325
 21
116.092
 31
0.0
  0
LINE
  5
3D5
330
1E
100
AcDbEntity
  8
0
100
AcDbLine
 10
225.59325
 20
117.187
 30
0.0
 11
225.59325
 21
116.476
 31
0.0
  0
LINE
  5
3D6
330
1E
100
AcDbEntity
  8
0
100
AcDbLine
 10
225.59325
 20
117.187
 30
0.0
 11
225.59325
 21
117.956
 31
0.0
  0
LINE
  5
3D7
330
1E
100
AcDbEntity
  8
0
100
AcDbLine
 10
231.69325
 20
117.0
 30
0.0
 11
232.49325
 21
117.0
 31
0.0
  0
LINE
  5
3D8
330
1E
100
AcDbEntity
  8
0
100
AcDbLine
 10
232.49325
 20
117.0
 30
0.0
 11
232.79325
 21
117.0
 31
0.0
  0
LINE
  5
3D9
330
1E
100
AcDbEntity
  8
0
100
AcDbLine
 10
228.79325
 20
117.0
 30
0.0
 11
230.39325
 21
117.0
 31
0.0
  0
LINE
  5
3DA
330
1E
100
AcDbEntity
  8
0
100
AcDbLine
 10
226.89325
 20
117.0
 30
0.0
 11
228.79325
 21
117.0
 31
0.0
  0
LINE
  5
3DB
330
1E
100
AcDbEntity
  8
0
100
AcDbLine
 10
226.508544117647
 20
117.0
 30
0.0
 11
226.89325
 21
117.0
 31
0.0
  0
LINE
  5
3DC
330
1E
100
AcDbEntity
  8
0
100
AcDbLine
 10
230.39325
 20
117.0
 30
0.0
 11
231.69325
 21
117.0
 31
0.0
  0
LINE
  5
3DD
330
1E
100
AcDbEntity
  8
0
100
AcDbLine
 10
232.79325
 20
117.0
 30
0.0
 11
235.2596751278309
 21
117.822141709277
 31
0.0
  0
LINE
  5
3DE
330
1E
100
AcDbEntity
  8
0
100
AcDbLine
 10
226.1684751759299
 20
116.828665074297
 30
0.0
 11
226.9392499999999
 21
117.217
 31
0.0
  0
LINE
  5
3E0
330
1E
100
AcDbEntity
  8
0
100
AcDbLine
 10
223.99325
 20
116.476
 30
0.0
 11
223.99325
 21
117.187
 31
0.0
  0
LINE
  5
3E1
330
1E
100
AcDbEntity
  8
0
100
AcDbLine
 10
223.99325
 20
116.476
 30
0.0
 11
223.99325
 21
116.092
 31
0.0
  0
LINE
  5
3E2
330
1E
100
AcDbEntity
  8
0
100
AcDbLine
 10
228.7832499999999
 20
117.552
 30
0.0
 11
230.79325
 21
117.857
 31
0.0
  0
LINE
  5
3E5
330
1E
100
AcDbEntity
  8
0
100
AcDbLine
 10
226.9392499999999
 20
117.217
 30
0.0
 11
228.7832499999999
 21
117.552
 31
0.0
  0
LINE
  5
3E8
330
1E
100
AcDbEntity
  8
0
100
AcDbLine
 10
223.99325
 20
117.187
 30
0.0
 11
223.99325
 21
117.956
 31
0.0
  0
LINE
  5
3E9
330
1E
100
AcDbEntity
  8
0
100
AcDbLine
 10
223.99325
 20
117.187
 30
0.0
 11
223.99325
 21
116.476
 31
0.0
  0
LINE
  5
3EB
330
1E
100
AcDbEntity
  8
0
100
AcDbLine
 10
214.29325
 20
106.919941348974
 30
0.0
 11
214.29325
 21
117.818088225539
 31
0.0
  0
LINE
  5
3EC
330
1E
100
AcDbEntity
  8
0
100
AcDbLine
 10
235.29325
 20
117.818088225539
 30
0.0
 11
235.29325
 21
106.919941348974
 31
0.0
  0
LINE
  5
3ED
330
1E
100
AcDbEntity
  8
0
100
AcDbLine
 10
235.291223322011
 20
106.920535682695
 30
0.0
 11
236.7252499999999
 21
106.4999999999999
 31
0.0
  0
LINE
  5
3EE
330
1E
100
AcDbEntity
  8
0
100
AcDbLine
 10
213.31625
 20
106.4999999999999
 30
0.0
 11
214.4522499999999
 21
106.4999999999999
 31
0.0
  0
LINE
  5
3EF
330
1E
100
AcDbEntity
  8
0
100
AcDbLine
 10
212.86125
 20
106.4999999999999
 30
0.0
 11
214.29325
 21
106.919941348974
 31
0.0
  0
LINE
  5
3F0
330
1E
100
AcDbEntity
  8
0
100
AcDbLine
 10
212.86125
 20
106.4999999999999
 30
0.0
 11
213.31625
 21
106.4999999999999
 31
0.0
  0
LINE
  5
3F1
330
1E
100
AcDbEntity
  8
0
100
AcDbLine
 10
212.29325
 20
105.0
 30
0.0
 11
212.86125
 21
106.4999999999999
 31
0.0
  0
LINE
  5
3F2
330
1E
100
AcDbEntity
  8
0
100
AcDbLine
 10
235.8932499999999
 20
96.0
 30
0.0
 11
236.2932499999999
 21
96.0
 31
0.0
  0
LINE
  5
3F3
330
1E
100
AcDbEntity
  8
0
100
AcDbLine
 10
235.8932499999999
 20
93.49999999999999
 30
0.0
 11
236.2932499999999
 21
93.49999999999999
 31
0.0
  0
LINE
  5
3F4
330
1E
100
AcDbEntity
  8
0
100
AcDbLine
 10
235.69325
 20
101.0
 30
0.0
 11
238.19325
 21
101.0
 31
0.0
  0
LINE
  5
3F5
330
1E
100
AcDbEntity
  8
0
100
AcDbLine
 10
236.79325
 20
81.0
 30
0.0
 11
236.79325
 21
93.0
 31
0.0
  0
LINE
  5
3F6
330
1E
100
AcDbEntity
  8
0
100
AcDbLine
 10
236.2932499999999
 20
96.0
 30
0.0
 11
236.79325
 21
95.5
 31
0.0
  0
LINE
  5
3F7
330
1E
100
AcDbEntity
  8
0
100
AcDbLine
 10
236.79325
 20
94.0
 30
0.0
 11
236.79325
 21
95.5
 31
0.0
  0
LINE
  5
3F8
330
1E
100
AcDbEntity
  8
0
100
AcDbLine
 10
236.39325
 20
95.5
 30
0.0
 11
236.79325
 21
95.5
 31
0.0
  0
LINE
  5
3F9
330
1E
100
AcDbEntity
  8
0
100
AcDbLine
 10
236.79325
 20
95.5
 30
0.0
 11
236.79325
 21
94.0
 31
0.0
  0
LINE
  5
3FA
330
1E
100
AcDbEntity
  8
0
100
AcDbLine
 10
236.39325
 20
94.0
 30
0.0
 11
236.79325
 21
94.0
 31
0.0
  0
LINE
  5
3FB
330
1E
100
AcDbEntity
  8
0
100
AcDbLine
 10
236.2932499999999
 20
93.49999999999999
 30
0.0
 11
236.79325
 21
93.0
 31
0.0
  0
LINE
  5
3FC
330
1E
100
AcDbEntity
  8
0
100
AcDbLine
 10
236.2932499999999
 20
93.49999999999999
 30
0.0
 11
236.79325
 21
94.0
 31
0.0
  0
LINE
  5
3FD
330
1E
100
AcDbEntity
  8
0
100
AcDbLine
 10
236.39325
 20
93.0
 30
0.0
 11
236.79325
 21
93.0
 31
0.0
  0
LINE
  5
3FE
330
1E
100
AcDbEntity
  8
0
100
AcDbLine
 10
236.79325
 20
93.0
 30
0.0
 11
236.79325
 21
81.0
 31
0.0
  0
LINE
  5
3FF
330
1E
100
AcDbEntity
  8
0
100
AcDbLine
 10
236.49325
 20
104.4999999999999
 30
0.0
 11
239.09325
 21
104.4999999999999
 31
0.0
  0
LINE
  5
400
330
1E
100
AcDbEntity
  8
0
100
AcDbLine
 10
236.49325
 20
101.5
 30
0.0
 11
239.09325
 21
101.5
 31
0.0
  0
LINE
  5
401
330
1E
100
AcDbEntity
  8
0
100
AcDbLine
 10
236.27025
 20
106.4999999999999
 30
0.0
 11
236.7252499999999
 21
106.4999999999999
 31
0.0
  0
LINE
  5
402
330
1E
100
AcDbEntity
  8
0
100
AcDbLine
 10
236.7252499999999
 20
106.4999999999999
 30
0.0
 11
237.29325
 21
105.0
 31
0.0
  0
LINE
  5
403
330
1E
100
AcDbEntity
  8
0
100
AcDbLine
 10
235.29325
 20
106.919941348974
 30
0.0
 11
235.29325
 21
117.818088225539
 31
0.0
  0
LINE
  5
404
330
1E
100
AcDbEntity
  8
0
100
AcDbLine
 10
214.3268248721689
 20
117.822141709277
 30
0.0
 11
216.79325
 21
117.0
 31
0.0
  0
LINE
  5
405
330
1E
100
AcDbEntity
  8
0
100
AcDbLine
 10
214.3712499999999
 20
117.857
 30
0.0
 11
216.29325
 21
118.0
 31
0.0
  0
LINE
  5
406
330
1E
100
AcDbEntity
  8
0
100
AcDbLine
 10
216.29325
 20
118.0
 30
0.0
 11
218.79325
 21
117.857
 31
0.0
  0
LINE
  5
407
330
1E
100
AcDbEntity
  8
0
100
AcDbLine
 10
218.79325
 20
117.857
 30
0.0
 11
220.8032499999999
 21
117.552
 31
0.0
  0
LINE
  5
408
330
1E
100
AcDbEntity
  8
0
100
AcDbLine
 10
222.9932499999999
 20
119.0509999999999
 30
0.0
 11
223.4932499999999
 21
116.591
 31
0.0
  0
LINE
  5
40A
330
1E
100
AcDbEntity
  8
0
100
AcDbLine
 10
223.99325
 20
117.956
 30
0.0
 11
223.99325
 21
119.0709999999999
 31
0.0
  0
LINE
  5
40B
330
1E
100
AcDbEntity
  8
0
100
AcDbLine
 10
223.99325
 20
117.956
 30
0.0
 11
223.99325
 21
117.187
 31
0.0
  0
LINE
  5
40C
330
1E
100
AcDbEntity
  8
0
100
AcDbLine
 10
223.99325
 20
119.0709999999999
 30
0.0
 11
223.99325
 21
122.0
 31
0.0
  0
LINE
  5
40D
330
1E
100
AcDbEntity
  8
0
100
AcDbLine
 10
223.99325
 20
119.0709999999999
 30
0.0
 11
223.99325
 21
117.956
 31
0.0
  0
LINE
  5
40E
330
1E
100
AcDbEntity
  8
0
100
AcDbLine
 10
222.79325
 20
122.0
 30
0.0
 11
222.9932499999999
 21
124.9489999999999
 31
0.0
  0
LINE
  5
40F
330
1E
100
AcDbEntity
  8
0
100
AcDbLine
 10
222.79325
 20
122.0
 30
0.0
 11
222.9932499999999
 21
119.0509999999999
 31
0.0
  0
LINE
  5
410
330
1E
100
AcDbEntity
  8
0
100
AcDbLine
 10
222.9932499999999
 20
124.9489999999999
 30
0.0
 11
223.4932499999999
 21
127.4089999999999
 31
0.0
  0
LINE
  5
411
330
1E
100
AcDbEntity
  8
0
100
AcDbLine
 10
214.3712499999999
 20
126.1429999999999
 30
0.0
 11
216.29325
 21
126.0
 31
0.0
  0
LINE
  5
412
330
1E
100
AcDbEntity
  8
0
100
AcDbLine
 10
216.29325
 20
126.0
 30
0.0
 11
218.79325
 21
126.1429999999999
 31
0.0
  0
LINE
  5
413
330
1E
100
AcDbEntity
  8
0
100
AcDbLine
 10
218.79325
 20
126.1429999999999
 30
0.0
 11
220.8032499999999
 21
126.448
 31
0.0
  0
LINE
  5
415
330
1E
100
AcDbEntity
  8
0
100
AcDbLine
 10
223.99325
 20
126.044
 30
0.0
 11
223.99325
 21
126.8129999999999
 31
0.0
  0
LINE
  5
416
330
1E
100
AcDbEntity
  8
0
100
AcDbLine
 10
223.99325
 20
126.044
 30
0.0
 11
223.99325
 21
124.929
 31
0.0
  0
LINE
  5
417
330
1E
100
AcDbEntity
  8
0
100
AcDbLine
 10
223.99325
 20
124.929
 30
0.0
 11
223.99325
 21
126.044
 31
0.0
  0
LINE
  5
418
330
1E
100
AcDbEntity
  8
0
100
AcDbLine
 10
223.99325
 20
124.929
 30
0.0
 11
223.99325
 21
122.0
 31
0.0
  0
LINE
  5
419
330
1E
100
AcDbEntity
  8
0
100
AcDbLine
 10
225.59325
 20
117.956
 30
0.0
 11
225.59325
 21
117.187
 31
0.0
  0
LINE
  5
41A
330
1E
100
AcDbEntity
  8
0
100
AcDbLine
 10
225.59325
 20
117.956
 30
0.0
 11
225.59325
 21
119.0709999999999
 31
0.0
  0
LINE
  5
41B
330
1E
100
AcDbEntity
  8
0
100
AcDbLine
 10
230.79325
 20
117.857
 30
0.0
 11
233.29325
 21
118.0
 31
0.0
  0
LINE
  5
41C
330
1E
100
AcDbEntity
  8
0
100
AcDbLine
 10
233.29325
 20
118.0
 30
0.0
 11
235.2152499999999
 21
117.857
 31
0.0
  0
LINE
  5
41D
330
1E
100
AcDbEntity
  8
0
100
AcDbLine
 10
235.2152499999999
 20
117.857
 30
0.0
 11
237.49725
 21
117.552
 31
0.0
  0
LINE
  5
41E
330
1E
100
AcDbEntity
  8
0
100
AcDbLine
 10
226.59325
 20
119.0509999999999
 30
0.0
 11
226.79325
 21
122.0
 31
0.0
  0
LINE
  5
420
330
1E
100
AcDbEntity
  8
0
100
AcDbLine
 10
225.59325
 20
119.0709999999999
 30
0.0
 11
225.59325
 21
117.956
 31
0.0
  0
LINE
  5
421
330
1E
100
AcDbEntity
  8
0
100
AcDbLine
 10
225.59325
 20
119.0709999999999
 30
0.0
 11
225.59325
 21
122.0
 31
0.0
  0
LINE
  5
422
330
1E
100
AcDbEntity
  8
0
100
AcDbLine
 10
225.59325
 20
126.044
 30
0.0
 11
225.59325
 21
124.929
 31
0.0
  0
LINE
  5
423
330
1E
100
AcDbEntity
  8
0
100
AcDbLine
 10
225.59325
 20
126.044
 30
0.0
 11
225.59325
 21
126.8129999999999
 31
0.0
  0
LINE
  5
424
330
1E
100
AcDbEntity
  8
0
100
AcDbLine
 10
226.59325
 20
124.9489999999999
 30
0.0
 11
226.79325
 21
122.0
 31
0.0
  0
LINE
  5
425
330
1E
100
AcDbEntity
  8
0
100
AcDbLine
 10
233.29325
 20
126.0
 30
0.0
 11
235.2152499999999
 21
126.1429999999999
 31
0.0
  0
LINE
  5
426
330
1E
100
AcDbEntity
  8
0
100
AcDbLine
 10
230.79325
 20
126.1429999999999
 30
0.0
 11
233.29325
 21
126.0
 31
0.0
  0
LINE
  5
427
330
1E
100
AcDbEntity
  8
0
100
AcDbLine
 10
235.2152499999999
 20
126.1429999999999
 30
0.0
 11
237.49725
 21
126.448
 31
0.0
  0
LINE
  5
429
330
1E
100
AcDbEntity
  8
0
100
AcDbLine
 10
225.59325
 20
124.929
 30
0.0
 11
225.59325
 21
122.0
 31
0.0
  0
LINE
  5
42A
330
1E
100
AcDbEntity
  8
0
100
AcDbLine
 10
225.59325
 20
124.929
 30
0.0
 11
225.59325
 21
126.044
 31
0.0
  0
LINE
  5
42B
330
1E
100
AcDbEntity
  8
0
100
AcDbLine
 10
225.59325
 20
122.0
 30
0.0
 11
225.59325
 21
119.0709999999999
 31
0.0
  0
LINE
  5
42C
330
1E
100
AcDbEntity
  8
0
100
AcDbLine
 10
225.59325
 20
122.0
 30
0.0
 11
225.59325
 21
124.929
 31
0.0
  0
LINE
  5
42D
330
1E
100
AcDbEntity
  8
0
100
AcDbLine
 10
223.99325
 20
122.0
 30
0.0
 11
223.99325
 21
124.929
 31
0.0
  0
LINE
  5
42E
330
1E
100
AcDbEntity
  8
0
100
AcDbLine
 10
223.99325
 20
122.0
 30
0.0
 11
223.99325
 21
119.0709999999999
 31
0.0
  0
LINE
  5
42F
330
1E
100
AcDbEntity
  8
0
100
AcDbLine
 10
214.29325
 20
117.818088225539
 30
0.0
 11
214.29325
 21
106.919941348974
 31
0.0
  0
LINE
  5
430
330
1E
100
AcDbEntity
  8
0
100
AcDbLine
 10
240.2932499999999
 20
81.0
 30
0.0
 11
240.2932499999999
 21
75.0
 31
0.0
  0
LINE
  5
431
330
1E
100
AcDbEntity
  8
0
100
AcDbLine
 10
239.79325
 20
81.0
 30
0.0
 11
239.79325
 21
99.50000000000001
 31
0.0
  0
LINE
  5
432
330
1E
100
AcDbEntity
  8
0
100
AcDbLine
 10
239.09325
 20
104.4999999999999
 30
0.0
 11
240.6932499999999
 21
104.4999999999999
 31
0.0
  0
LINE
  5
433
330
1E
100
AcDbEntity
  8
0
100
AcDbLine
 10
239.178033792804
 20
117.347547359989
 30
0.0
 11
239.93125
 21
117.243
 31
0.0
  0
LINE
  5
435
330
1E
100
AcDbEntity
  8
0
100
AcDbLine
 10
239.09325
 20
101.5
 30
0.0
 11
240.6932499999999
 21
101.5
 31
0.0
  0
LINE
  5
436
330
1E
100
AcDbEntity
  8
0
100
AcDbLine
 10
238.19325
 20
101.0
 30
0.0
 11
239.69325
 21
101.0
 31
0.0
  0
LINE
  5
437
330
1E
100
AcDbEntity
  8
0
100
AcDbLine
 10
239.93125
 20
117.243
 30
0.0
 11
240.2512499999999
 21
117.217
 31
0.0
  0
LINE
  5
438
330
1E
100
AcDbEntity
  8
0
100
AcDbLine
 10
240.2512499999999
 20
117.217
 30
0.0
 11
243.79525
 21
116.69
 31
0.0
  0
LINE
  5
439
330
1E
100
AcDbEntity
  8
0
100
AcDbLine
 10
239.79325
 20
105.0
 30
0.0
 11
241.29325
 21
104.4999999999999
 31
0.0
  0
LINE
  5
43A
330
1E
100
AcDbEntity
  8
0
100
AcDbLine
 10
240.2932499999999
 20
101.0
 30
0.0
 11
241.29325
 21
101.5
 31
0.0
  0
LINE
  5
43B
330
1E
100
AcDbEntity
  8
0
100
AcDbLine
 10
239.69325
 20
101.0
 30
0.0
 11
240.2932499999999
 21
101.0
 31
0.0
  0
LINE
  5
43C
330
1E
100
AcDbEntity
  8
0
100
AcDbLine
 10
239.79325
 20
99.50000000000001
 30
0.0
 11
240.2932499999999
 21
101.0
 31
0.0
  0
LINE
  5
43D
330
1E
100
AcDbEntity
  8
0
100
AcDbLine
 10
239.79325
 20
99.50000000000001
 30
0.0
 11
239.79325
 21
81.0
 31
0.0
  0
LINE
  5
43E
330
1E
100
AcDbEntity
  8
0
100
AcDbLine
 10
237.49725
 20
117.552
 30
0.0
 11
239.178033792804
 21
117.347547359989
 31
0.0
  0
LINE
  5
43F
330
1E
100
AcDbEntity
  8
0
100
AcDbLine
 10
237.49725
 20
117.552
 30
0.0
 11
240.2512499999999
 21
117.217
 31
0.0
  0
LINE
  5
440
330
1E
100
AcDbEntity
  8
0
100
AcDbLine
 10
212.08925
 20
126.448
 30
0.0
 11
214.3712499999999
 21
126.1429999999999
 31
0.0
  0
LINE
  5
441
330
1E
100
AcDbEntity
  8
0
100
AcDbLine
 10
213.6583911947439
 20
126.2382769218239
 30
0.0
 11
214.9660627644789
 21
126.0987449399999
 31
0.0
  0
LINE
  5
442
330
1E
100
AcDbEntity
  8
0
100
AcDbLine
 10
220.8032499999999
 20
126.448
 30
0.0
 11
222.64725
 21
126.7829999999999
 31
0.0
  0
LINE
  5
443
330
1E
100
AcDbEntity
  8
0
100
AcDbLine
 10
222.64725
 20
126.7829999999999
 30
0.0
 11
223.41802482407
 21
127.171334925703
 31
0.0
  0
LINE
  5
445
330
1E
100
AcDbEntity
  8
0
100
AcDbLine
 10
228.7832499999999
 20
126.448
 30
0.0
 11
230.79325
 21
126.1429999999999
 31
0.0
  0
LINE
  5
448
330
1E
100
AcDbEntity
  8
0
100
AcDbLine
 10
225.59325
 20
126.8129999999999
 30
0.0
 11
225.59325
 21
126.044
 31
0.0
  0
LINE
  5
449
330
1E
100
AcDbEntity
  8
0
100
AcDbLine
 10
225.59325
 20
126.8129999999999
 30
0.0
 11
225.59325
 21
127.5239999999999
 31
0.0
  0
LINE
  5
44A
330
1E
100
AcDbEntity
  8
0
100
AcDbLine
 10
226.9392499999999
 20
126.7829999999999
 30
0.0
 11
228.7832499999999
 21
126.448
 31
0.0
  0
LINE
  5
44D
330
1E
100
AcDbEntity
  8
0
100
AcDbLine
 10
215.6932499999999
 20
127.5
 30
0.0
 11
217.3932499999999
 21
127.5
 31
0.0
  0
LINE
  5
44E
330
1E
100
AcDbEntity
  8
0
100
AcDbLine
 10
214.69325
 20
127.5
 30
0.0
 11
215.6932499999999
 21
127.5
 31
0.0
  0
LINE
  5
44F
330
1E
100
AcDbEntity
  8
0
100
AcDbLine
 10
217.3932499999999
 20
127.5
 30
0.0
 11
219.59325
 21
127.5
 31
0.0
  0
LINE
  5
450
330
1E
100
AcDbEntity
  8
0
100
AcDbLine
 10
219.59325
 20
127.5
 30
0.0
 11
222.0932499999999
 21
127.5
 31
0.0
  0
LINE
  5
451
330
1E
100
AcDbEntity
  8
0
100
AcDbLine
 10
222.0932499999999
 20
127.5
 30
0.0
 11
223.584432364729
 21
127.5
 31
0.0
  0
LINE
  5
456
330
1E
100
AcDbEntity
  8
0
100
AcDbLine
 10
226.1684751759299
 20
127.171334925703
 30
0.0
 11
226.9392499999999
 21
126.7829999999999
 31
0.0
  0
LINE
  5
457
330
1E
100
AcDbEntity
  8
0
100
AcDbLine
 10
226.002067635271
 20
127.5
 30
0.0
 11
227.4932499999999
 21
127.5
 31
0.0
  0
LINE
  5
458
330
1E
100
AcDbEntity
  8
0
100
AcDbLine
 10
229.99325
 20
127.5
 30
0.0
 11
232.1932499999999
 21
127.5
 31
0.0
  0
LINE
  5
459
330
1E
100
AcDbEntity
  8
0
100
AcDbLine
 10
227.4932499999999
 20
127.5
 30
0.0
 11
229.99325
 21
127.5
 31
0.0
  0
LINE
  5
45A
330
1E
100
AcDbEntity
  8
0
100
AcDbLine
 10
232.1932499999999
 20
127.5
 30
0.0
 11
233.8932499999999
 21
127.5
 31
0.0
  0
LINE
  5
45B
330
1E
100
AcDbEntity
  8
0
100
AcDbLine
 10
233.8932499999999
 20
127.5
 30
0.0
 11
234.89325
 21
127.5
 31
0.0
  0
LINE
  5
45C
330
1E
100
AcDbEntity
  8
0
100
AcDbLine
 10
234.89325
 20
127.5
 30
0.0
 11
235.29325
 21
127.5
 31
0.0
  0
LINE
  5
45E
330
1E
100
AcDbEntity
  8
0
100
AcDbLine
 10
226.09325
 20
127.4089999999999
 30
0.0
 11
226.59325
 21
124.9489999999999
 31
0.0
  0
LINE
  5
460
330
1E
100
AcDbEntity
  8
0
100
AcDbLine
 10
223.4932499999999
 20
127.4089999999999
 30
0.0
 11
223.99325
 21
127.9079999999999
 31
0.0
  0
LINE
  5
462
330
1E
100
AcDbEntity
  8
0
100
AcDbLine
 10
223.99325
 20
126.8129999999999
 30
0.0
 11
223.99325
 21
127.5239999999999
 31
0.0
  0
LINE
  5
463
330
1E
100
AcDbEntity
  8
0
100
AcDbLine
 10
223.99325
 20
126.8129999999999
 30
0.0
 11
223.99325
 21
126.044
 31
0.0
  0
LINE
  5
464
330
1E
100
AcDbEntity
  8
0
100
AcDbLine
 10
214.29325
 20
127.5
 30
0.0
 11
214.29325
 21
189.4999999999999
 31
0.0
  0
LINE
  5
465
330
1E
100
AcDbEntity
  8
0
100
AcDbLine
 10
214.29325
 20
127.5
 30
0.0
 11
214.69325
 21
127.5
 31
0.0
  0
LINE
  5
466
330
1E
100
AcDbEntity
  8
0
100
AcDbLine
 10
214.29325
 20
127.5
 30
0.0
 11
215.79325
 21
128.0
 31
0.0
  0
LINE
  5
467
330
1E
100
AcDbEntity
  8
0
100
AcDbLine
 10
212.87225
 20
255.5509999999999
 30
0.0
 11
220.7572499999999
 21
243.75
 31
0.0
  0
LINE
  5
468
330
1E
100
AcDbEntity
  8
0
100
AcDbLine
 10
211.31225
 20
212.147
 30
0.0
 11
213.5442499999999
 21
200.9209999999999
 31
0.0
  0
LINE
  5
469
330
1E
100
AcDbEntity
  8
0
100
AcDbLine
 10
213.5442499999999
 20
200.9209999999999
 30
0.0
 11
214.29325
 21
189.4999999999999
 31
0.0
  0
LINE
  5
46A
330
1E
100
AcDbEntity
  8
0
100
AcDbLine
 10
216.9932499999999
 20
128.0
 30
0.0
 11
218.39325
 21
128.0
 31
0.0
  0
LINE
  5
46B
330
1E
100
AcDbEntity
  8
0
100
AcDbLine
 10
218.39325
 20
128.0
 30
0.0
 11
220.29325
 21
128.0
 31
0.0
  0
LINE
  5
46C
330
1E
100
AcDbEntity
  8
0
100
AcDbLine
 10
216.09325
 20
128.0
 30
0.0
 11
216.9932499999999
 21
128.0
 31
0.0
  0
LINE
  5
46D
330
1E
100
AcDbEntity
  8
0
100
AcDbLine
 10
215.79325
 20
128.0
 30
0.0
 11
216.09325
 21
128.0
 31
0.0
  0
LINE
  5
46E
330
1E
100
AcDbEntity
  8
0
100
AcDbLine
 10
220.29325
 20
128.0
 30
0.0
 11
222.4932499999999
 21
128.0
 31
0.0
  0
LINE
  5
46F
330
1E
100
AcDbEntity
  8
0
100
AcDbLine
 10
222.4932499999999
 20
128.0
 30
0.0
 11
224.79325
 21
128.0
 31
0.0
  0
LINE
  5
470
330
1E
100
AcDbEntity
  8
0
100
AcDbLine
 10
223.99325
 20
127.5239999999999
 30
0.0
 11
223.99325
 21
127.9079999999999
 31
0.0
  0
LINE
  5
471
330
1E
100
AcDbEntity
  8
0
100
AcDbLine
 10
223.99325
 20
127.5239999999999
 30
0.0
 11
223.99325
 21
126.8129999999999
 31
0.0
  0
LINE
  5
472
330
1E
100
AcDbEntity
  8
0
100
AcDbLine
 10
224.79325
 20
128.0
 30
0.0
 11
227.09325
 21
128.0
 31
0.0
  0
LINE
  5
473
330
1E
100
AcDbEntity
  8
0
100
AcDbLine
 10
224.79325
 20
127.889
 30
0.0
 11
225.59325
 21
127.9079999999999
 31
0.0
  0
LINE
  5
474
330
1E
100
AcDbEntity
  8
0
100
AcDbLine
 10
229.29325
 20
128.0
 30
0.0
 11
231.19325
 21
128.0
 31
0.0
  0
LINE
  5
475
330
1E
100
AcDbEntity
  8
0
100
AcDbLine
 10
227.09325
 20
128.0
 30
0.0
 11
229.29325
 21
128.0
 31
0.0
  0
LINE
  5
476
330
1E
100
AcDbEntity
  8
0
100
AcDbLine
 10
231.19325
 20
128.0
 30
0.0
 11
232.5932499999999
 21
128.0
 31
0.0
  0
LINE
  5
477
330
1E
100
AcDbEntity
  8
0
100
AcDbLine
 10
232.5932499999999
 20
128.0
 30
0.0
 11
233.4932499999999
 21
128.0
 31
0.0
  0
LINE
  5
478
330
1E
100
AcDbEntity
  8
0
100
AcDbLine
 10
233.4932499999999
 20
128.0
 30
0.0
 11
233.7932499999999
 21
128.0
 31
0.0
  0
LINE
  5
479
330
1E
100
AcDbEntity
  8
0
100
AcDbLine
 10
233.7932499999999
 20
128.0
 30
0.0
 11
235.29325
 21
127.5
 31
0.0
  0
LINE
  5
47A
330
1E
100
AcDbEntity
  8
0
100
AcDbLine
 10
225.59325
 20
127.9079999999999
 30
0.0
 11
225.59325
 21
127.5239999999999
 31
0.0
  0
LINE
  5
47B
330
1E
100
AcDbEntity
  8
0
100
AcDbLine
 10
225.59325
 20
127.9079999999999
 30
0.0
 11
226.09325
 21
127.4089999999999
 31
0.0
  0
LINE
  5
47C
330
1E
100
AcDbEntity
  8
0
100
AcDbLine
 10
225.59325
 20
127.5239999999999
 30
0.0
 11
225.59325
 21
126.8129999999999
 31
0.0
  0
LINE
  5
47D
330
1E
100
AcDbEntity
  8
0
100
AcDbLine
 10
225.59325
 20
127.5239999999999
 30
0.0
 11
225.59325
 21
127.9079999999999
 31
0.0
  0
LINE
  5
47E
330
1E
100
AcDbEntity
  8
0
100
AcDbLine
 10
223.99325
 20
127.9079999999999
 30
0.0
 11
224.79325
 21
127.889
 31
0.0
  0
LINE
  5
47F
330
1E
100
AcDbEntity
  8
0
100
AcDbLine
 10
223.99325
 20
127.9079999999999
 30
0.0
 11
223.99325
 21
127.5239999999999
 31
0.0
  0
LINE
  5
480
330
1E
100
AcDbEntity
  8
0
100
AcDbLine
 10
227.0342499999999
 20
231.021
 30
0.0
 11
231.5962499999999
 21
217.5819999999999
 31
0.0
  0
LINE
  5
481
330
1E
100
AcDbEntity
  8
0
100
AcDbLine
 10
231.5962499999999
 20
217.5819999999999
 30
0.0
 11
234.36525
 21
203.662
 31
0.0
  0
LINE
  5
482
330
1E
100
AcDbEntity
  8
0
100
AcDbLine
 10
235.29325
 20
189.4999999999999
 30
0.0
 11
235.29325
 21
127.5
 31
0.0
  0
LINE
  5
483
330
1E
100
AcDbEntity
  8
0
100
AcDbLine
 10
234.36525
 20
203.662
 30
0.0
 11
235.29325
 21
189.4999999999999
 31
0.0
  0
LINE
  5
484
330
1E
100
AcDbEntity
  8
0
100
AcDbLine
 10
220.7572499999999
 20
243.75
 30
0.0
 11
227.0342499999999
 21
231.021
 31
0.0
  0
LINE
  5
485
330
1E
100
AcDbEntity
  8
0
100
AcDbLine
 10
214.29325
 20
189.4999999999999
 30
0.0
 11
214.29325
 21
127.5
 31
0.0
  0
LINE
  5
486
330
1E
100
AcDbEntity
  8
0
100
AcDbLine
 10
235.29325
 20
127.5
 30
0.0
 11
235.715615394835
 21
126.232903815496
 31
0.0
  0
LINE
  5
487
330
1E
100
AcDbEntity
  8
0
100
AcDbLine
 10
235.29325
 20
127.5
 30
0.0
 11
235.29325
 21
189.4999999999999
 31
0.0
  0
LINE
  5
488
330
1E
100
AcDbEntity
  8
0
100
AcDbLine
 10
239.93125
 20
126.757
 30
0.0
 11
240.2512499999999
 21
126.7829999999999
 31
0.0
  0
LINE
  5
489
330
1E
100
AcDbEntity
  8
0
100
AcDbLine
 10
240.2512499999999
 20
126.7829999999999
 30
0.0
 11
243.79525
 21
127.31
 31
0.0
  0
LINE
  5
48A
330
1E
100
AcDbEntity
  8
0
100
AcDbLine
 10
239.178033792804
 20
126.652452640011
 30
0.0
 11
239.93125
 21
126.757
 31
0.0
  0
LINE
  5
48B
330
1E
100
AcDbEntity
  8
0
100
AcDbLine
 10
237.49725
 20
126.448
 30
0.0
 11
239.178033792804
 21
126.652452640011
 31
0.0
  0
LINE
  5
48C
330
1E
100
AcDbEntity
  8
0
100
AcDbLine
 10
237.49725
 20
126.448
 30
0.0
 11
240.2512499999999
 21
126.7829999999999
 31
0.0
  0
LINE
  5
48D
330
1E
100
AcDbEntity
  8
0
100
AcDbLine
 10
213.8708846051649
 20
126.232903815496
 30
0.0
 11
214.29325
 21
127.5
 31
0.0
  0
LINE
  5
48E
330
1E
100
AcDbEntity
  8
0
100
AcDbLine
 10
210.408466207196
 20
126.652452640011
 30
0.0
 11
212.08925
 21
126.448
 31
0.0
  0
LINE
  5
48F
330
1E
100
AcDbEntity
  8
0
100
AcDbLine
 10
239.79325
 20
75.0
 30
0.0
 11
240.2932499999999
 21
75.0
 31
0.0
  0
LINE
  5
490
330
1E
100
AcDbEntity
  8
0
100
AcDbLine
 10
239.79325
 20
75.0
 30
0.0
 11
241.29325
 21
74.5
 31
0.0
  0
LINE
  5
491
330
1E
100
AcDbEntity
  8
0
100
AcDbLine
 10
240.6932499999999
 20
71.5
 30
0.0
 11
241.29325
 21
71.5
 31
0.0
  0
LINE
  5
492
330
1E
100
AcDbEntity
  8
0
100
AcDbLine
 10
240.6932499999999
 20
74.5
 30
0.0
 11
241.29325
 21
74.5
 31
0.0
  0
LINE
  5
494
330
1E
100
AcDbEntity
  8
0
100
AcDbLine
 10
241.29325
 20
74.5
 30
0.0
 11
241.79325
 21
73.0
 31
0.0
  0
LINE
  5
495
330
1E
100
AcDbEntity
  8
0
100
AcDbLine
 10
241.29325
 20
101.5
 30
0.0
 11
241.79325
 21
103.0
 31
0.0
  0
LINE
  5
496
330
1E
100
AcDbEntity
  8
0
100
AcDbLine
 10
240.6932499999999
 20
104.4999999999999
 30
0.0
 11
241.29325
 21
104.4999999999999
 31
0.0
  0
LINE
  5
497
330
1E
100
AcDbEntity
  8
0
100
AcDbLine
 10
243.79525
 20
127.31
 30
0.0
 11
247.7702499999999
 21
127.7879999999999
 31
0.0
  0
LINE
  5
498
330
1E
100
AcDbEntity
  8
0
100
AcDbLine
 10
241.29325
 20
104.4999999999999
 30
0.0
 11
241.79325
 21
103.0
 31
0.0
  0
LINE
  5
49A
330
1E
100
AcDbEntity
  8
0
100
AcDbLine
 10
240.6932499999999
 20
101.5
 30
0.0
 11
241.29325
 21
101.5
 31
0.0
  0
LINE
  5
49B
330
1E
100
AcDbEntity
  8
0
100
AcDbLine
 10
249.6682499999999
 20
116.092
 30
0.0
 11
251.16825
 21
116.476
 31
0.0
  0
LINE
  5
49C
330
1E
100
AcDbEntity
  8
0
100
AcDbLine
 10
247.7702499999999
 20
116.212
 30
0.0
 11
249.6682499999999
 21
116.092
 31
0.0
  0
LINE
  5
49D
330
1E
100
AcDbEntity
  8
0
100
AcDbLine
 10
247.89725
 20
116.1929999999999
 30
0.0
 11
248.4528254060329
 21
116.1688445475639
 31
0.0
  0
LINE
  5
49E
330
1E
100
AcDbEntity
  8
0
100
AcDbLine
 10
249.78325
 20
116.111
 30
0.0
 11
250.0532499999999
 21
116.19056
 31
0.0
  0
LINE
  5
4A1
330
1E
100
AcDbEntity
  8
0
100
AcDbLine
 10
251.16825
 20
116.476
 30
0.0
 11
252.2642499999999
 21
117.187
 31
0.0
  0
LINE
  5
4A2
330
1E
100
AcDbEntity
  8
0
100
AcDbLine
 10
252.2642499999999
 20
117.187
 30
0.0
 11
252.91825
 21
117.956
 31
0.0
  0
LINE
  5
4A5
330
1E
100
AcDbEntity
  8
0
100
AcDbLine
 10
247.7702499999999
 20
127.7879999999999
 30
0.0
 11
249.6682499999999
 21
127.9079999999999
 31
0.0
  0
LINE
  5
4A7
330
1E
100
AcDbEntity
  8
0
100
AcDbLine
 10
247.89725
 20
127.807
 30
0.0
 11
248.4528254060329
 21
127.831155452436
 31
0.0
  0
LINE
  5
4A8
330
1E
100
AcDbEntity
  8
0
100
AcDbLine
 10
249.6682499999999
 20
127.9079999999999
 30
0.0
 11
251.16825
 21
127.5239999999999
 31
0.0
  0
LINE
  5
4AA
330
1E
100
AcDbEntity
  8
0
100
AcDbLine
 10
251.16825
 20
127.5239999999999
 30
0.0
 11
252.2642499999999
 21
126.8129999999999
 31
0.0
  0
LINE
  5
4AB
330
1E
100
AcDbEntity
  8
0
100
AcDbLine
 10
252.2642499999999
 20
126.8129999999999
 30
0.0
 11
252.91825
 21
126.044
 31
0.0
  0
LINE
  5
4AC
330
1E
100
AcDbEntity
  8
0
100
AcDbLine
 10
249.78325
 20
127.889
 30
0.0
 11
250.0532499999999
 21
127.80944
 31
0.0
  0
LINE
  5
4AD
330
1E
100
AcDbEntity
  8
0
100
AcDbLine
 10
252.91825
 20
117.956
 30
0.0
 11
253.4372499999999
 21
119.0709999999999
 31
0.0
  0
LINE
  5
4AE
330
1E
100
AcDbEntity
  8
0
100
AcDbLine
 10
253.4372499999999
 20
119.0709999999999
 30
0.0
 11
253.79325
 21
122.0
 31
0.0
  0
LINE
  5
4AF
330
1E
100
AcDbEntity
  8
0
100
AcDbLine
 10
252.91825
 20
126.044
 30
0.0
 11
253.4372499999999
 21
124.929
 31
0.0
  0
LINE
  5
4B0
330
1E
100
AcDbEntity
  8
0
100
AcDbLine
 10
253.4372499999999
 20
124.929
 30
0.0
 11
253.79325
 21
122.0
 31
0.0
  0
LINE
  5
4B1
330
1E
100
AcDbEntity
  8
0
100
AcDbLine
 10
252.3602499999999
 20
126.717
 30
0.0
 11
252.507773429443
 21
126.5266551724129
 31
0.0
  0
LINE
  5
4B2
330
1E
100
AcDbEntity
  8
0
100
AcDbLine
 10
252.3602499999999
 20
117.2829999999999
 30
0.0
 11
252.507773429443
 21
117.473344827587
 31
0.0
  0
LINE
  5
4B3
330
1E
100
AcDbEntity
  8
0
100
AcDbLine
 10
247.2651543016479
 20
127.727261448097
 30
0.0
 11
247.89725
 21
127.807
 31
0.0
  0
LINE
  5
4B4
330
1E
100
AcDbEntity
  8
0
100
AcDbLine
 10
247.2651543016479
 20
116.272738551902
 30
0.0
 11
247.89725
 21
116.1929999999999
 31
0.0
  0
LINE
  5
4B5
330
1E
100
AcDbEntity
  8
0
100
AcDbLine
 10
243.79525
 20
116.69
 30
0.0
 11
247.2651543016479
 21
116.272738551902
 31
0.0
  0
LINE
  5
4B6
330
1E
100
AcDbEntity
  8
0
100
AcDbLine
 10
243.79525
 20
116.69
 30
0.0
 11
247.7702499999999
 21
116.212
 31
0.0
  0
LINE
  5
4B7
330
1E
100
AcDbEntity
  8
0
100
AcDbLine
 10
241.29325
 20
71.5
 30
0.0
 11
241.79325
 21
73.0
 31
0.0
  0
LINE
  5
4B8
330
1E
100
AcDbEntity
  8
0
100
AcDbLine
 10
240.2932499999999
 20
71.0
 30
0.0
 11
241.29325
 21
71.5
 31
0.0
  0
LINE
  5
4B9
330
1E
100
AcDbEntity
  8
0
100
AcDbLine
 10
209.79325
 20
69.5
 30
0.0
 11
209.79325
 21
41.2125709609662
 31
0.0
  0
LINE
  5
4BA
330
1E
100
AcDbEntity
  8
0
100
AcDbLine
 10
209.2932499999999
 20
71.0
 30
0.0
 11
209.79325
 21
69.5
 31
0.0
  0
LINE
  5
4BB
330
1E
100
AcDbEntity
  8
0
100
AcDbLine
 10
209.2932499999999
 20
71.0
 30
0.0
 11
209.89325
 21
71.0
 31
0.0
  0
LINE
  5
4C0
330
1E
100
AcDbEntity
  8
0
100
AcDbLine
 10
209.79325
 20
105.0
 30
0.0
 11
218.79325
 21
105.0
 31
0.0
  0
LINE
  5
4C1
330
1E
100
AcDbEntity
  8
0
100
AcDbLine
 10
239.79325
 20
105.0
 30
0.0
 11
230.79325
 21
105.0
 31
0.0
  0
ENDSEC
  0
SECTION
  2
OBJECTS
  0
DICTIONARY
  5
C
330
0
100
AcDbDictionary
281
     1
  3
ACAD_GROUP
350
D
  3
ACAD_LAYOUT
350
19
  3
ACAD_MLINESTYLE
350
16
  3
ACAD_PLOTSETTINGS
350
18
  3
ACAD_PLOTSTYLENAME
350
E
  3
AcDbVariableDictionary
350
4C2
  0
DICTIONARY
  5
D
102
{ACAD_REACTORS
330
C
102
}
330
C
100
AcDbDictionary
281
     1
  0
DICTIONARY
  5
19
102
{ACAD_REACTORS
330
C
102
}
330
C
100
AcDbDictionary
281
     1
  3
Layout1
350
1D
  3
Model
350
21
  0
DICTIONARY
  5
16
102
{ACAD_REACTORS
330
C
102
}
330
C
100
AcDbDictionary
281
     1
  3
Standard
350
17
  0
DICTIONARY
  5
18
102
{ACAD_REACTORS
330
C
102
}
330
C
100
AcDbDictionary
281
     1
  0
ACDBDICTIONARYWDFLT
  5
E
102
{ACAD_REACTORS
330
C
102
}
330
C
100
AcDbDictionary
281
     1
  3
Normal
350
F
100
AcDbDictionaryWithDefault
340
F
  0
DICTIONARY
  5
4C2
102
{ACAD_REACTORS
330
C
102
}
330
C
100
AcDbDictionary
281
     1
  3
DIMASSOC
350
4C3
  0
LAYOUT
  5
1D
102
{ACAD_REACTORS
330
19
102
}
330
19
100
AcDbPlotSettings
  1

  2
hp deskjet 980c series
  4

  6

 40
0.0
 41
0.0
 42
0.0
 43
0.0
 44
0.0
 45
0.0
 46
0.0
 47
0.0
 48
0.0
 49
0.0
140
0.0
141
0.0
142
1.0
143
1.0
 70
   688
 72
     0
 73
     0
 74
     5
  7

 75
    16
147
1.0
148
0.0
149
0.0
100
AcDbLayout
  1
Layout1
 70
     1
 71
     1
 10
0.0
 20
0.0
 11
12.0
 21
9.0
 12
0.0
 22
0.0
 32
0.0
 14
1.000000000000000E+20
 24
1.000000000000000E+20
 34
1.000000000000000E+20
 15
-1.000000000000000E+20
 25
-1.000000000000000E+20
 35
-1.000000000000000E+20
146
0.0
 13
0.0
 23
0.0
 33
0.0
 16
1.0
 26
0.0
 36
0.0
 17
0.0
 27
1.0
 37
0.0
 76
     0
330
1A
  0
LAYOUT
  5
21
102
{ACAD_REACTORS
330
19
102
}
330
19
100
AcDbPlotSettings
  1

  2
hp deskjet 980c series
  4

  6

 40
0.0
 41
0.0
 42
0.0
 43
0.0
 44
0.0
 45
0.0
 46
0.0
 47
0.0
 48
0.0
 49
0.0
140
0.0
141
0.0
142
1.0
143
1.0
 70
  1712
 72
     0
 73
     0
 74
     0
  7

 75
     0
147
1.0
148
0.0
149
0.0
100
AcDbLayout
  1
Model
 70
     1
 71
     0
 10
0.0
 20
0.0
 11
12.0
 21
9.0
 12
0.0
 22
0.0
 32
0.0
 14
0.0
 24
0.0
 34
0.0
 15
0.0
 25
0.0
 35
0.0
146
0.0
 13
0.0
 23
0.0
 33
0.0
 16
1.0
 26
0.0
 36
0.0
 17
0.0
 27
1.0
 37
0.0
 76
     0
330
1E
  0
MLINESTYLE
  5
17
102
{ACAD_REACTORS
330
16
102
}
330
16
100
AcDbMlineStyle
  2
STANDARD
 70
     0
  3

 62
   256
 51
90.0
 52
90.0
 71
     2
 49
0.5
 62
   256
  6
BYLAYER
 49
-0.5
 62
   256
  6
BYLAYER
  0
ACDBPLACEHOLDER
  5
F
102
{ACAD_REACTORS
330
E
102
}
330
E
  0
DICTIONARYVAR
  5
4C3
102
{ACAD_REACTORS
330
4C2
102
}
330
4C2
100
DictionaryVariables
280
     0
  1
1
  0
ENDSEC
  0
EOF
