  0
SECTION
  2
HEADER
  9
$ACADVER
  1
AC1015
  9
$ACADMAINTVER
 70
    13
  9
$DWGCODEPAGE
  3
ANSI_1252
  9
$INSBASE
 10
0.0
 20
0.0
 30
0.0
  9
$EXTMIN
 10
0.187573500000038
 20
312.037
 30
0.0
  9
$EXTMAX
 10
278.3124265
 20
886.167
 30
0.0
  9
$LIMMIN
 10
0.0
 20
0.0
  9
$LIMMAX
 10
12.0
 20
9.0
  9
$ORTHOMODE
 70
     0
  9
$REGENMODE
 70
     1
  9
$FILLMODE
 70
     1
  9
$QTEXTMODE
 70
     0
  9
$MIRRTEXT
 70
     1
  9
$LTSCALE
 40
1.0
  9
$ATTMODE
 70
     1
  9
$TEXTSIZE
 40
0.2
  9
$TRACEWID
 40
0.05
  9
$TEXTSTYLE
  7
Standard
  9
$CLAYER
  8
0
  9
$CELTYPE
  6
Continuous
  9
$CECOLOR
 62
   256
  9
$CELTSCALE
 40
1.0
  9
$DISPSILH
 70
     0
  9
$DIMSCALE
 40
1.0
  9
$DIMASZ
 40
0.18
  9
$DIMEXO
 40
0.0625
  9
$DIMDLI
 40
0.38
  9
$DIMRND
 40
0.0
  9
$DIMDLE
 40
0.0
  9
$DIMEXE
 40
0.18
  9
$DIMTP
 40
0.0
  9
$DIMTM
 40
0.0
  9
$DIMTXT
 40
0.18
  9
$DIMCEN
 40
0.09
  9
$DIMTSZ
 40
0.0
  9
$DIMTOL
 70
     0
  9
$DIMLIM
 70
     0
  9
$DIMTIH
 70
     1
  9
$DIMTOH
 70
     1
  9
$DIMSE1
 70
     0
  9
$DIMSE2
 70
     0
  9
$DIMTAD
 70
     0
  9
$DIMZIN
 70
     0
  9
$DIMBLK
  1

  9
$DIMASO
 70
     1
  9
$DIMSHO
 70
     1
  9
$DIMPOST
  1

  9
$DIMAPOST
  1

  9
$DIMALT
 70
     0
  9
$DIMALTD
 70
     2
  9
$DIMALTF
 40
25.4
  9
$DIMLFAC
 40
1.0
  9
$DIMTOFL
 70
     0
  9
$DIMTVP
 40
0.0
  9
$DIMTIX
 70
     0
  9
$DIMSOXD
 70
     0
  9
$DIMSAH
 70
     0
  9
$DIMBLK1
  1

  9
$DIMBLK2
  1

  9
$DIMSTYLE
  2
Standard
  9
$DIMCLRD
 70
     0
  9
$DIMCLRE
 70
     0
  9
$DIMCLRT
 70
     0
  9
$DIMTFAC
 40
1.0
  9
$DIMGAP
 40
0.09
  9
$DIMJUST
 70
     0
  9
$DIMSD1
 70
     0
  9
$DIMSD2
 70
     0
  9
$DIMTOLJ
 70
     1
  9
$DIMTZIN
 70
     0
  9
$DIMALTZ
 70
     0
  9
$DIMALTTZ
 70
     0
  9
$DIMUPT
 70
     0
  9
$DIMDEC
 70
     4
  9
$DIMTDEC
 70
     4
  9
$DIMALTU
 70
     2
  9
$DIMALTTD
 70
     2
  9
$DIMTXSTY
  7
Standard
  9
$DIMAUNIT
 70
     0
  9
$DIMADEC
 70
     0
  9
$DIMALTRND
 40
0.0
  9
$DIMAZIN
 70
     0
  9
$DIMDSEP
 70
    46
  9
$DIMATFIT
 70
     3
  9
$DIMFRAC
 70
     0
  9
$DIMLDRBLK
  1

  9
$DIMLUNIT
 70
     2
  9
$DIMLWD
 70
    -2
  9
$DIMLWE
 70
    -2
  9
$DIMTMOVE
 70
     0
  9
$LUNITS
 70
     2
  9
$LUPREC
 70
     4
  9
$SKETCHINC
 40
0.1
  9
$FILLETRAD
 40
0.0
  9
$AUNITS
 70
     0
  9
$AUPREC
 70
     0
  9
$MENU
  1
.
  9
$ELEVATION
 40
0.0
  9
$PELEVATION
 40
0.0
  9
$THICKNESS
 40
0.0
  9
$LIMCHECK
 70
     0
  9
$CHAMFERA
 40
0.0
  9
$CHAMFERB
 40
0.0
  9
$CHAMFERC
 40
0.0
  9
$CHAMFERD
 40
0.0
  9
$SKPOLY
 70
     0
  9
$TDCREATE
 40
2454751.911549108
  9
$TDUCREATE
 40
2454751.828215775
  9
$TDUPDATE
 40
2454751.931984583
  9
$TDUUPDATE
 40
2454751.848651250
  9
$TDINDWG
 40
0.0041961458
  9
$TDUSRTIMER
 40
0.0041957870
  9
$USRTIMER
 70
     1
  9
$ANGBASE
 50
0.0
  9
$ANGDIR
 70
     0
  9
$PDMODE
 70
     0
  9
$PDSIZE
 40
0.0
  9
$PLINEWID
 40
0.0
  9
$SPLFRAME
 70
     0
  9
$SPLINETYPE
 70
     6
  9
$SPLINESEGS
 70
     8
  9
$HANDSEED
  5
792
  9
$SURFTAB1
 70
     6
  9
$SURFTAB2
 70
     6
  9
$SURFTYPE
 70
     6
  9
$SURFU
 70
     6
  9
$SURFV
 70
     6
  9
$UCSBASE
  2

  9
$UCSNAME
  2

  9
$UCSORG
 10
0.0
 20
0.0
 30
0.0
  9
$UCSXDIR
 10
1.0
 20
0.0
 30
0.0
  9
$UCSYDIR
 10
0.0
 20
1.0
 30
0.0
  9
$UCSORTHOREF
  2

  9
$UCSORTHOVIEW
 70
     1
  9
$UCSORGTOP
 10
0.0
 20
0.0
 30
0.0
  9
$UCSORGBOTTOM
 10
0.0
 20
0.0
 30
0.0
  9
$UCSORGLEFT
 10
0.0
 20
0.0
 30
0.0
  9
$UCSORGRIGHT
 10
0.0
 20
0.0
 30
0.0
  9
$UCSORGFRONT
 10
0.0
 20
0.0
 30
0.0
  9
$UCSORGBACK
 10
0.0
 20
0.0
 30
0.0
  9
$PUCSBASE
  2

  9
$PUCSNAME
  2

  9
$PUCSORG
 10
0.0
 20
0.0
 30
0.0
  9
$PUCSXDIR
 10
1.0
 20
0.0
 30
0.0
  9
$PUCSYDIR
 10
0.0
 20
1.0
 30
0.0
  9
$PUCSORTHOREF
  2

  9
$PUCSORTHOVIEW
 70
     0
  9
$PUCSORGTOP
 10
0.0
 20
0.0
 30
0.0
  9
$PUCSORGBOTTOM
 10
0.0
 20
0.0
 30
0.0
  9
$PUCSORGLEFT
 10
0.0
 20
0.0
 30
0.0
  9
$PUCSORGRIGHT
 10
0.0
 20
0.0
 30
0.0
  9
$PUCSORGFRONT
 10
0.0
 20
0.0
 30
0.0
  9
$PUCSORGBACK
 10
0.0
 20
0.0
 30
0.0
  9
$USERI1
 70
     0
  9
$USERI2
 70
     0
  9
$USERI3
 70
     0
  9
$USERI4
 70
     0
  9
$USERI5
 70
     0
  9
$USERR1
 40
0.0
  9
$USERR2
 40
0.0
  9
$USERR3
 40
0.0
  9
$USERR4
 40
0.0
  9
$USERR5
 40
0.0
  9
$WORLDVIEW
 70
     1
  9
$SHADEDGE
 70
     3
  9
$SHADEDIF
 70
    70
  9
$TILEMODE
 70
     1
  9
$MAXACTVP
 70
    64
  9
$PINSBASE
 10
0.0
 20
0.0
 30
0.0
  9
$PLIMCHECK
 70
     0
  9
$PEXTMIN
 10
1.000000000000000E+20
 20
1.000000000000000E+20
 30
1.000000000000000E+20
  9
$PEXTMAX
 10
-1.000000000000000E+20
 20
-1.000000000000000E+20
 30
-1.000000000000000E+20
  9
$PLIMMIN
 10
0.0
 20
0.0
  9
$PLIMMAX
 10
12.0
 20
9.0
  9
$UNITMODE
 70
     0
  9
$VISRETAIN
 70
     1
  9
$PLINEGEN
 70
     0
  9
$PSLTSCALE
 70
     1
  9
$TREEDEPTH
 70
  3020
  9
$CMLSTYLE
  2
Standard
  9
$CMLJUST
 70
     0
  9
$CMLSCALE
 40
1.0
  9
$PROXYGRAPHICS
 70
     1
  9
$MEASUREMENT
 70
     0
  9
$CELWEIGHT
370
    -1
  9
$ENDCAPS
280
     0
  9
$JOINSTYLE
280
     0
  9
$LWDISPLAY
290
     0
  9
$INSUNITS
 70
     0
  9
$HYPERLINKBASE
  1

  9
$STYLESHEET
  1

  9
$XEDIT
290
     1
  9
$CEPSNTYPE
380
     0
  9
$PSTYLEMODE
290
     1
  9
$FINGERPRINTGUID
  2
{AEA16307-D5CF-4C5E-8E22-95BA31519C2A}
  9
$VERSIONGUID
  2
{B788C96C-0CD4-4038-B6DE-E074310CD14B}
  9
$EXTNAMES
290
     1
  9
$PSVPSCALE
 40
0.0
  9
$OLESTARTUP
290
     0
  0
ENDSEC
  0
SECTION
  2
CLASSES
  0
CLASS
  1
ACDBDICTIONARYWDFLT
  2
AcDbDictionaryWithDefault
  3
AutoCAD 2000
 90
        0
280
     0
281
     0
  0
CLASS
  1
ACDBPLACEHOLDER
  2
AcDbPlaceHolder
  3
AutoCAD 2000
 90
        0
280
     0
281
     0
  0
CLASS
  1
LAYOUT
  2
AcDbLayout
  3
AutoCAD 2000
 90
        0
280
     0
281
     0
  0
CLASS
  1
DICTIONARYVAR
  2
AcDbDictionaryVar
  3
AutoCAD 2000
 90
        0
280
     0
281
     0
  0
ENDSEC
  0
SECTION
  2
TABLES
  0
TABLE
  2
VPORT
  5
8
330
0
100
AcDbSymbolTable
 70
     2
  0
VPORT
  5
791
330
8
100
AcDbSymbolTableRecord
100
AcDbViewportTableRecord
  2
*Active
 70
     0
 10
0.0
 20
0.0
 11
1.0
 21
1.0
 12
139.25
 22
599.1019999999999
 13
0.0
 23
0.0
 14
1.0
 24
1.0
 15
0.0
 25
0.0
 16
0.0
 26
0.0
 36
1.0
 17
0.0
 27
0.0
 37
0.0
 40
578.5350895140664
 41
2.078104993597951
 42
50.0
 43
0.0
 44
0.0
 50
0.0
 51
0.0
 71
     0
 72
   100
 73
     1
 74
     3
 75
     0
 76
     0
 77
     0
 78
     0
281
     0
 65
     1
110
0.0
120
0.0
130
0.0
111
1.0
121
0.0
131
0.0
112
0.0
122
1.0
132
0.0
 79
     1
146
0.0
  0
ENDTAB
  0
TABLE
  2
LTYPE
  5
5
330
0
100
AcDbSymbolTable
 70
     1
  0
LTYPE
  5
13
330
5
100
AcDbSymbolTableRecord
100
AcDbLinetypeTableRecord
  2
ByBlock
 70
     0
  3

 72
    65
 73
     0
 40
0.0
  0
LTYPE
  5
14
330
5
100
AcDbSymbolTableRecord
100
AcDbLinetypeTableRecord
  2
ByLayer
 70
     0
  3

 72
    65
 73
     0
 40
0.0
  0
LTYPE
  5
15
330
5
100
AcDbSymbolTableRecord
100
AcDbLinetypeTableRecord
  2
Continuous
 70
     0
  3
Solid line
 72
    65
 73
     0
 40
0.0
  0
ENDTAB
  0
TABLE
  2
LAYER
  5
2
330
0
100
AcDbSymbolTable
 70
     1
  0
LAYER
  5
10
330
2
100
AcDbSymbolTableRecord
100
AcDbLayerTableRecord
  2
0
 70
     0
 62
     7
  6
Continuous
370
    -3
390
F
  0
ENDTAB
  0
TABLE
  2
STYLE
  5
3
330
0
100
AcDbSymbolTable
 70
     1
  0
STYLE
  5
11
330
3
100
AcDbSymbolTableRecord
100
AcDbTextStyleTableRecord
  2
Standard
 70
     0
 40
0.0
 41
1.0
 50
0.0
 71
     0
 42
0.2
  3
txt
  4

  0
ENDTAB
  0
TABLE
  2
VIEW
  5
6
330
0
100
AcDbSymbolTable
 70
     0
  0
ENDTAB
  0
TABLE
  2
UCS
  5
7
330
0
100
AcDbSymbolTable
 70
     0
  0
ENDTAB
  0
TABLE
  2
APPID
  5
9
330
0
100
AcDbSymbolTable
 70
     1
  0
APPID
  5
12
330
9
100
AcDbSymbolTableRecord
100
AcDbRegAppTableRecord
  2
ACAD
 70
     0
  0
ENDTAB
  0
TABLE
  2
DIMSTYLE
  5
A
330
0
100
AcDbSymbolTable
 70
     1
100
AcDbDimStyleTable
 71
     0
  0
DIMSTYLE
105
784
330
A
100
AcDbSymbolTableRecord
100
AcDbDimStyleTableRecord
  2
Standard
 70
     0
340
11
  0
ENDTAB
  0
TABLE
  2
BLOCK_RECORD
  5
1
330
0
100
AcDbSymbolTable
 70
     0
  0
BLOCK_RECORD
  5
1E
330
1
100
AcDbSymbolTableRecord
100
AcDbBlockTableRecord
  2
*Model_Space
340
21
  0
BLOCK_RECORD
  5
1A
330
1
100
AcDbSymbolTableRecord
100
AcDbBlockTableRecord
  2
*Paper_Space
340
1D
  0
ENDTAB
  0
ENDSEC
  0
SECTION
  2
BLOCKS
  0
BLOCK
  5
1F
330
1E
100
AcDbEntity
  8
0
100
AcDbBlockBegin
  2
*Model_Space
 70
     0
 10
0.0
 20
0.0
 30
0.0
  3
*Model_Space
  1

  0
ENDBLK
  5
20
330
1E
100
AcDbEntity
  8
0
100
AcDbBlockEnd
  0
BLOCK
  5
1B
330
1A
100
AcDbEntity
 67
     1
  8
0
100
AcDbBlockBegin
  2
*Paper_Space
 70
     0
 10
0.0
 20
0.0
 30
0.0
  3
*Paper_Space
  1

  0
ENDBLK
  5
1C
330
1A
100
AcDbEntity
 67
     1
  8
0
100
AcDbBlockEnd
  0
ENDSEC
  0
SECTION
  2
ENTITIES
  0
LINE
  5
22
330
1E
100
AcDbEntity
  8
0
100
AcDbLine
 10
10.6808265
 20
714.9839999999998
 30
0.0
 11
12.0444265
 21
714.743
 31
0.0
  0
LINE
  5
23
330
1E
100
AcDbEntity
  8
0
100
AcDbLine
 10
11.18942649999999
 20
713.8810000000002
 30
0.0
 11
11.64392649999999
 21
713.801
 31
0.0
  0
LINE
  5
24
330
1E
100
AcDbEntity
  8
0
100
AcDbLine
 10
10.2263265
 20
715.064
 30
0.0
 11
11.18942649999999
 21
713.8810000000002
 31
0.0
  0
LINE
  5
25
330
1E
100
AcDbEntity
  8
0
100
AcDbLine
 10
10.2263265
 20
715.064
 30
0.0
 11
11.78232649999999
 21
723.9429999999998
 31
0.0
  0
LINE
  5
26
330
1E
100
AcDbEntity
  8
0
100
AcDbLine
 10
10.2263265
 20
715.064
 30
0.0
 11
10.6808265
 21
714.9839999999998
 31
0.0
  0
LINE
  5
27
330
1E
100
AcDbEntity
  8
0
100
AcDbLine
 10
12.0444265
 20
714.743
 30
0.0
 11
14.2034265
 21
714.3619999999998
 31
0.0
  0
LINE
  5
28
330
1E
100
AcDbEntity
  8
0
100
AcDbLine
 10
14.2034265
 20
714.3619999999998
 30
0.0
 11
17.0442265
 21
713.8619999999998
 31
0.0
  0
LINE
  5
29
330
1E
100
AcDbEntity
  8
0
100
AcDbLine
 10
11.64392649999999
 20
713.801
 30
0.0
 11
12.89392649999999
 21
713.58
 31
0.0
  0
LINE
  5
2A
330
1E
100
AcDbEntity
  8
0
100
AcDbLine
 10
12.89392649999999
 20
713.58
 30
0.0
 11
14.8256265
 21
713.24
 31
0.0
  0
LINE
  5
2B
330
1E
100
AcDbEntity
  8
0
100
AcDbLine
 10
17.0442265
 20
713.8619999999998
 30
0.0
 11
20.3395265
 21
713.281
 31
0.0
  0
LINE
  5
2C
330
1E
100
AcDbEntity
  8
0
100
AcDbLine
 10
20.3395265
 20
713.281
 30
0.0
 11
23.8621265
 21
712.659
 31
0.0
  0
LINE
  5
2D
330
1E
100
AcDbEntity
  8
0
100
AcDbLine
 10
14.8256265
 20
713.24
 30
0.0
 11
17.4392265
 21
712.779
 31
0.0
  0
LINE
  5
2E
330
1E
100
AcDbEntity
  8
0
100
AcDbLine
 10
17.4392265
 20
712.779
 30
0.0
 11
20.5640265
 21
712.228
 31
0.0
  0
LINE
  5
2F
330
1E
100
AcDbEntity
  8
0
100
AcDbLine
 10
36.1883265
 20
709.4730000000001
 30
0.0
 11
37.49792649999999
 21
710.2549999999999
 31
0.0
  0
LINE
  5
30
330
1E
100
AcDbEntity
  8
0
100
AcDbLine
 10
35.7339265
 20
709.553
 30
0.0
 11
36.1883265
 21
709.4730000000001
 31
0.0
  0
LINE
  5
31
330
1E
100
AcDbEntity
  8
0
100
AcDbLine
 10
34.4839265
 20
709.7739999999999
 30
0.0
 11
35.7339265
 21
709.553
 31
0.0
  0
LINE
  5
32
330
1E
100
AcDbEntity
  8
0
100
AcDbLine
 10
37.0434265
 20
710.335
 30
0.0
 11
37.49792649999999
 21
710.2549999999999
 31
0.0
  0
LINE
  5
33
330
1E
100
AcDbEntity
  8
0
100
AcDbLine
 10
35.6798265
 20
710.576
 30
0.0
 11
37.0434265
 21
710.335
 31
0.0
  0
LINE
  5
34
330
1E
100
AcDbEntity
  8
0
100
AcDbLine
 10
33.52082649999999
 20
710.956
 30
0.0
 11
35.6798265
 21
710.576
 31
0.0
  0
LINE
  5
35
330
1E
100
AcDbEntity
  8
0
100
AcDbLine
 10
30.6800265
 20
711.457
 30
0.0
 11
33.52082649999999
 21
710.956
 31
0.0
  0
LINE
  5
36
330
1E
100
AcDbEntity
  8
0
100
AcDbLine
 10
29.9387265
 20
710.575
 30
0.0
 11
32.5521265
 21
710.1139999999998
 31
0.0
  0
LINE
  5
37
330
1E
100
AcDbEntity
  8
0
100
AcDbLine
 10
37.49792649999999
 20
710.2549999999999
 30
0.0
 11
39.0540265
 21
719.1339999999999
 31
0.0
  0
LINE
  5
38
330
1E
100
AcDbEntity
  8
0
100
AcDbLine
 10
32.5521265
 20
710.1139999999998
 30
0.0
 11
34.4839265
 21
709.7739999999999
 31
0.0
  0
LINE
  5
39
330
1E
100
AcDbEntity
  8
0
100
AcDbLine
 10
26.8138265
 20
711.1260000000002
 30
0.0
 11
29.9387265
 21
710.575
 31
0.0
  0
LINE
  5
3A
330
1E
100
AcDbEntity
  8
0
100
AcDbLine
 10
27.3847265
 20
712.0379999999999
 30
0.0
 11
30.6800265
 21
711.457
 31
0.0
  0
LINE
  5
3B
330
1E
100
AcDbEntity
  8
0
100
AcDbLine
 10
38.5994265
 20
719.215
 30
0.0
 11
39.0540265
 21
719.1339999999999
 31
0.0
  0
LINE
  5
3C
330
1E
100
AcDbEntity
  8
0
100
AcDbLine
 10
37.2358265
 20
719.455
 30
0.0
 11
38.5994265
 21
719.215
 31
0.0
  0
LINE
  5
3D
330
1E
100
AcDbEntity
  8
0
100
AcDbLine
 10
35.0768265
 20
719.836
 30
0.0
 11
37.2358265
 21
719.455
 31
0.0
  0
LINE
  5
3E
330
1E
100
AcDbEntity
  8
0
100
AcDbLine
 10
32.2360265
 20
720.3369999999998
 30
0.0
 11
35.0768265
 21
719.836
 31
0.0
  0
LINE
  5
3F
330
1E
100
AcDbEntity
  8
0
100
AcDbLine
 10
28.9407265
 20
720.9179999999999
 30
0.0
 11
32.2360265
 21
720.3369999999998
 31
0.0
  0
LINE
  5
40
330
1E
100
AcDbEntity
  8
0
100
AcDbLine
 10
23.8621265
 20
712.659
 30
0.0
 11
27.3847265
 21
712.0379999999999
 31
0.0
  0
LINE
  5
41
330
1E
100
AcDbEntity
  8
0
100
AcDbLine
 10
40.4501265
 20
720.408
 30
0.0
 11
40.5367265
 21
720.8989999999999
 31
0.0
  0
LINE
  5
42
330
1E
100
AcDbEntity
  8
0
100
AcDbLine
 10
39.7087265
 20
719.5249999999998
 30
0.0
 11
40.4501265
 21
720.408
 31
0.0
  0
LINE
  5
43
330
1E
100
AcDbEntity
  8
0
100
AcDbLine
 10
39.0540265
 20
719.1339999999999
 30
0.0
 11
39.7087265
 21
719.5249999999998
 31
0.0
  0
LINE
  5
44
330
1E
100
AcDbEntity
  8
0
100
AcDbLine
 10
23.6889265
 20
711.677
 30
0.0
 11
26.8138265
 21
711.1260000000002
 31
0.0
  0
LINE
  5
45
330
1E
100
AcDbEntity
  8
0
100
AcDbLine
 10
20.5640265
 20
712.228
 30
0.0
 11
23.6889265
 21
711.677
 31
0.0
  0
LINE
  5
46
330
1E
100
AcDbEntity
  8
0
100
AcDbLine
 10
11.78232649999999
 20
723.9429999999998
 30
0.0
 11
12.23682649999999
 21
723.863
 31
0.0
  0
LINE
  5
47
330
1E
100
AcDbEntity
  8
0
100
AcDbLine
 10
12.23682649999999
 20
723.863
 30
0.0
 11
13.6004265
 21
723.623
 31
0.0
  0
LINE
  5
48
330
1E
100
AcDbEntity
  8
0
100
AcDbLine
 10
13.6004265
 20
723.623
 30
0.0
 11
15.7594265
 21
723.2419999999998
 31
0.0
  0
LINE
  5
49
330
1E
100
AcDbEntity
  8
0
100
AcDbLine
 10
15.7594265
 20
723.2419999999998
 30
0.0
 11
18.6002265
 21
722.741
 31
0.0
  0
LINE
  5
4A
330
1E
100
AcDbEntity
  8
0
100
AcDbLine
 10
18.6002265
 20
722.741
 30
0.0
 11
21.8955265
 21
722.1599999999998
 31
0.0
  0
LINE
  5
4B
330
1E
100
AcDbEntity
  8
0
100
AcDbLine
 10
25.4181265
 20
721.539
 30
0.0
 11
28.9407265
 21
720.9179999999999
 31
0.0
  0
LINE
  5
4C
330
1E
100
AcDbEntity
  8
0
100
AcDbLine
 10
21.8955265
 20
722.1599999999998
 30
0.0
 11
25.4181265
 21
721.539
 31
0.0
  0
LINE
  5
4D
330
1E
100
AcDbEntity
  8
0
100
AcDbLine
 10
38.5027265
 20
724.127
 30
0.0
 11
38.9490265
 21
724.061
 31
0.0
  0
LINE
  5
4E
330
1E
100
AcDbEntity
  8
0
100
AcDbLine
 10
37.32862649999999
 20
724.425
 30
0.0
 11
38.5027265
 21
724.127
 31
0.0
  0
LINE
  5
4F
330
1E
100
AcDbEntity
  8
0
100
AcDbLine
 10
38.9490265
 20
724.061
 30
0.0
 11
40.2284265
 21
722.473
 31
0.0
  0
LINE
  5
50
330
1E
100
AcDbEntity
  8
0
100
AcDbLine
 10
38.9490265
 20
724.061
 30
0.0
 11
40.19292649999999
 21
726.5830000000002
 31
0.0
  0
LINE
  5
51
330
1E
100
AcDbEntity
  8
0
100
AcDbLine
 10
40.2284265
 20
722.473
 30
0.0
 11
40.5367265
 21
720.8989999999999
 31
0.0
  0
LINE
  5
52
330
1E
100
AcDbEntity
  8
0
100
AcDbLine
 10
86.90442649999999
 20
724.958
 30
0.0
 11
87.2884265
 21
723.4580000000002
 31
0.0
  0
LINE
  5
53
330
1E
100
AcDbEntity
  8
0
100
AcDbLine
 10
86.90442649999999
 20
724.958
 30
0.0
 11
87.0244265
 21
726.856
 31
0.0
  0
LINE
  5
54
330
1E
100
AcDbEntity
  8
0
100
AcDbLine
 10
86.9234265
 20
724.843
 30
0.0
 11
87.0029865
 21
724.573
 31
0.0
  0
LINE
  5
55
330
1E
100
AcDbEntity
  8
0
100
AcDbLine
 10
35.3609265
 20
724.8219999999998
 30
0.0
 11
37.32862649999999
 21
724.425
 31
0.0
  0
LINE
  5
56
330
1E
100
AcDbEntity
  8
0
100
AcDbLine
 10
32.7647265
 20
725.319
 30
0.0
 11
35.3609265
 21
724.8219999999998
 31
0.0
  0
LINE
  5
57
330
1E
100
AcDbEntity
  8
0
100
AcDbLine
 10
29.7901265
 20
725.815
 30
0.0
 11
32.7647265
 21
725.319
 31
0.0
  0
LINE
  5
58
330
1E
100
AcDbEntity
  8
0
100
AcDbLine
 10
26.6153265
 20
726.377
 30
0.0
 11
29.7901265
 21
725.815
 31
0.0
  0
LINE
  5
59
330
1E
100
AcDbEntity
  8
0
100
AcDbLine
 10
23.46532649999998
 20
726.9569999999998
 30
0.0
 11
26.6153265
 21
726.377
 31
0.0
  0
LINE
  5
5A
330
1E
100
AcDbEntity
  8
0
100
AcDbLine
 10
87.0054265
 20
726.7289999999998
 30
0.0
 11
87.0851650519023
 21
727.3610956983508
 31
0.0
  0
LINE
  5
5B
330
1E
100
AcDbEntity
  8
0
100
AcDbLine
 10
86.98127104756393
 20
726.173424593968
 30
0.0
 11
87.0054265
 21
726.7289999999998
 31
0.0
  0
LINE
  5
5C
330
1E
100
AcDbEntity
  8
0
100
AcDbLine
 10
86.98127104756393
 20
726.173424593968
 30
0.0
 11
87.0244265
 21
726.856
 31
0.0
  0
LINE
  5
5D
330
1E
100
AcDbEntity
  8
0
100
AcDbLine
 10
87.0244265
 20
726.856
 30
0.0
 11
87.5024265
 21
730.831
 31
0.0
  0
LINE
  5
5E
330
1E
100
AcDbEntity
  8
0
100
AcDbLine
 10
40.19292649999999
 20
726.5830000000002
 30
0.0
 11
41.7553265
 21
728.921
 31
0.0
  0
LINE
  5
5F
330
1E
100
AcDbEntity
  8
0
100
AcDbLine
 10
10.9924265
 20
726.108
 30
0.0
 11
11.8204265
 21
727.482
 31
0.0
  0
LINE
  5
60
330
1E
100
AcDbEntity
  8
0
100
AcDbLine
 10
10.90582649999999
 20
725.617
 30
0.0
 11
11.3008265
 21
724.535
 31
0.0
  0
LINE
  5
61
330
1E
100
AcDbEntity
  8
0
100
AcDbLine
 10
10.90582649999999
 20
725.617
 30
0.0
 11
10.9924265
 21
726.108
 31
0.0
  0
LINE
  5
62
330
1E
100
AcDbEntity
  8
0
100
AcDbLine
 10
11.3008265
 20
724.535
 30
0.0
 11
11.78232649999999
 21
723.9429999999998
 31
0.0
  0
LINE
  5
66
330
1E
100
AcDbEntity
  8
0
100
AcDbLine
 10
88.0954265
 20
722.2660000000002
 30
0.0
 11
88.28577132758708
 21
722.1184765705569
 31
0.0
  0
LINE
  5
67
330
1E
100
AcDbEntity
  8
0
100
AcDbLine
 10
87.9994265
 20
722.3619999999998
 30
0.0
 11
88.7684265
 21
721.7080000000001
 31
0.0
  0
LINE
  5
68
330
1E
100
AcDbEntity
  8
0
100
AcDbLine
 10
88.7684265
 20
721.7080000000001
 30
0.0
 11
89.88342649999998
 21
721.1889999999998
 31
0.0
  0
LINE
  5
69
330
1E
100
AcDbEntity
  8
0
100
AcDbLine
 10
87.2884265
 20
723.4580000000002
 30
0.0
 11
87.9994265
 21
722.3619999999998
 31
0.0
  0
LINE
  5
6A
330
1E
100
AcDbEntity
  8
0
100
AcDbLine
 10
89.88342649999998
 20
721.1889999999998
 30
0.0
 11
92.81242650000001
 21
720.8330000000001
 31
0.0
  0
LINE
  5
6E
330
1E
100
AcDbEntity
  8
0
100
AcDbLine
 10
98.33642650000001
 20
723.4580000000002
 30
0.0
 11
98.7204265
 21
724.958
 31
0.0
  0
LINE
  5
6F
330
1E
100
AcDbEntity
  8
0
100
AcDbLine
 10
98.6004265
 20
726.856
 30
0.0
 11
98.7204265
 21
724.958
 31
0.0
  0
LINE
  5
70
330
1E
100
AcDbEntity
  8
0
100
AcDbLine
 10
98.6004265
 20
726.856
 30
0.0
 11
98.64358195243619
 21
726.173424593967
 31
0.0
  0
LINE
  5
71
330
1E
100
AcDbEntity
  8
0
100
AcDbLine
 10
98.61942650000001
 20
726.7289999999998
 30
0.0
 11
98.64358195243619
 21
726.173424593967
 31
0.0
  0
LINE
  5
72
330
1E
100
AcDbEntity
  8
0
100
AcDbLine
 10
98.6218665000001
 20
724.573
 30
0.0
 11
98.7014265
 21
724.843
 31
0.0
  0
LINE
  5
73
330
1E
100
AcDbEntity
  8
0
100
AcDbLine
 10
97.6254265
 20
722.3619999999998
 30
0.0
 11
98.33642650000001
 21
723.4580000000002
 31
0.0
  0
LINE
  5
74
330
1E
100
AcDbEntity
  8
0
100
AcDbLine
 10
97.33908167241301
 20
722.1184765705569
 30
0.0
 11
97.52942650000001
 21
722.2660000000002
 31
0.0
  0
LINE
  5
75
330
1E
100
AcDbEntity
  8
0
100
AcDbLine
 10
96.8564265
 20
721.7080000000001
 30
0.0
 11
97.6254265
 21
722.3619999999998
 31
0.0
  0
LINE
  5
76
330
1E
100
AcDbEntity
  8
0
100
AcDbLine
 10
95.7414265
 20
721.1889999999998
 30
0.0
 11
96.8564265
 21
721.7080000000001
 31
0.0
  0
LINE
  5
77
330
1E
100
AcDbEntity
  8
0
100
AcDbLine
 10
92.81242650000001
 20
720.8330000000001
 30
0.0
 11
95.7414265
 21
721.1889999999998
 31
0.0
  0
LINE
  5
78
330
1E
100
AcDbEntity
  8
0
100
AcDbLine
 10
20.4888265
 20
727.4689999999998
 30
0.0
 11
23.46532649999998
 21
726.9569999999998
 31
0.0
  0
LINE
  5
79
330
1E
100
AcDbEntity
  8
0
100
AcDbLine
 10
14.7674265
 20
728.5119999999998
 30
0.0
 11
15.8929265
 21
728.286
 31
0.0
  0
LINE
  5
7A
330
1E
100
AcDbEntity
  8
0
100
AcDbLine
 10
15.8929265
 20
728.286
 30
0.0
 11
17.8762265
 21
727.9329999999998
 31
0.0
  0
LINE
  5
7B
330
1E
100
AcDbEntity
  8
0
100
AcDbLine
 10
17.8762265
 20
727.9329999999998
 30
0.0
 11
20.4888265
 21
727.4689999999998
 31
0.0
  0
LINE
  5
7C
330
1E
100
AcDbEntity
  8
0
100
AcDbLine
 10
14.3529265
 20
728.5549999999998
 30
0.0
 11
15.8520265
 21
733.628
 31
0.0
  0
LINE
  5
7D
330
1E
100
AcDbEntity
  8
0
100
AcDbLine
 10
14.3529265
 20
728.5549999999998
 30
0.0
 11
14.7674265
 21
728.5119999999998
 31
0.0
  0
LINE
  5
7E
330
1E
100
AcDbEntity
  8
0
100
AcDbLine
 10
41.7553265
 20
728.921
 30
0.0
 11
43.6096265
 21
731.0360000000001
 31
0.0
  0
LINE
  5
7F
330
1E
100
AcDbEntity
  8
0
100
AcDbLine
 10
15.8520265
 20
733.628
 30
0.0
 11
18.5422265
 21
739.0830000000002
 31
0.0
  0
LINE
  5
80
330
1E
100
AcDbEntity
  8
0
100
AcDbLine
 10
43.6096265
 20
731.0360000000001
 30
0.0
 11
45.72402649999999
 21
732.8899999999999
 31
0.0
  0
LINE
  5
81
330
1E
100
AcDbEntity
  8
0
100
AcDbLine
 10
48.0624265
 20
734.4529999999998
 30
0.0
 11
50.5847265
 21
735.696
 31
0.0
  0
LINE
  5
82
330
1E
100
AcDbEntity
  8
0
100
AcDbLine
 10
45.72402649999999
 20
732.8899999999999
 30
0.0
 11
48.0624265
 21
734.4529999999998
 31
0.0
  0
LINE
  5
83
330
1E
100
AcDbEntity
  8
0
100
AcDbLine
 10
11.8204265
 20
727.482
 30
0.0
 11
14.3529265
 21
728.5549999999998
 31
0.0
  0
LINE
  5
85
330
1E
100
AcDbEntity
  8
0
100
AcDbLine
 10
98.5396879480975
 20
727.361095698352
 30
0.0
 11
98.61942650000001
 21
726.7289999999998
 31
0.0
  0
LINE
  5
86
330
1E
100
AcDbEntity
  8
0
100
AcDbLine
 10
98.12242650000001
 20
730.831
 30
0.0
 11
98.6004265
 21
726.856
 31
0.0
  0
LINE
  5
87
330
1E
100
AcDbEntity
  8
0
100
AcDbLine
 10
88.0294265
 20
734.375
 30
0.0
 11
88.3644265
 21
737.1289999999998
 31
0.0
  0
LINE
  5
88
330
1E
100
AcDbEntity
  8
0
100
AcDbLine
 10
88.0294265
 20
734.375
 30
0.0
 11
88.0554265000001
 21
734.695
 31
0.0
  0
LINE
  5
89
330
1E
100
AcDbEntity
  8
0
100
AcDbLine
 10
97.5954265
 20
734.375
 30
0.0
 11
98.12242650000001
 21
730.831
 31
0.0
  0
LINE
  5
8A
330
1E
100
AcDbEntity
  8
0
100
AcDbLine
 10
97.85507664682942
 20
732.6288897146809
 30
0.0
 11
98.12242650000001
 21
730.831
 31
0.0
  0
LINE
  5
8B
330
1E
100
AcDbEntity
  8
0
100
AcDbLine
 10
97.5694265
 20
734.695
 30
0.0
 11
97.85507664682942
 21
732.6288897146809
 31
0.0
  0
LINE
  5
8C
330
1E
100
AcDbEntity
  8
0
100
AcDbLine
 10
97.5694265
 20
734.695
 30
0.0
 11
97.5954265
 21
734.375
 31
0.0
  0
LINE
  5
8D
330
1E
100
AcDbEntity
  8
0
100
AcDbLine
 10
87.7697763531705
 20
732.62888971468
 30
0.0
 11
88.0554265000001
 21
734.695
 31
0.0
  0
LINE
  5
8E
330
1E
100
AcDbEntity
  8
0
100
AcDbLine
 10
87.5024265
 20
730.831
 30
0.0
 11
87.7697763531705
 21
732.62888971468
 31
0.0
  0
LINE
  5
8F
330
1E
100
AcDbEntity
  8
0
100
AcDbLine
 10
87.5024265
 20
730.831
 30
0.0
 11
88.0294265
 21
734.375
 31
0.0
  0
LINE
  5
90
330
1E
100
AcDbEntity
  8
0
100
AcDbLine
 10
87.0851650519023
 20
727.3610956983508
 30
0.0
 11
87.5024265
 21
730.831
 31
0.0
  0
LINE
  5
91
330
1E
100
AcDbEntity
  8
0
100
AcDbLine
 10
140.3124264999999
 20
733.933
 30
0.0
 11
140.3124264999999
 21
733.3330000000001
 31
0.0
  0
LINE
  5
92
330
1E
100
AcDbEntity
  8
0
100
AcDbLine
 10
140.3124264999999
 20
733.933
 30
0.0
 11
140.3124264999999
 21
735.533
 31
0.0
  0
LINE
  5
95
330
1E
100
AcDbEntity
  8
0
100
AcDbLine
 10
140.3124264999999
 20
733.3330000000001
 30
0.0
 11
141.8124264999998
 21
732.8330000000002
 31
0.0
  0
LINE
  5
96
330
1E
100
AcDbEntity
  8
0
100
AcDbLine
 10
140.3124264999999
 20
733.3330000000001
 30
0.0
 11
140.3124264999999
 21
733.933
 31
0.0
  0
LINE
  5
97
330
1E
100
AcDbEntity
  8
0
100
AcDbLine
 10
143.3124264999999
 20
733.933
 30
0.0
 11
143.3124264999999
 21
733.3330000000001
 31
0.0
  0
LINE
  5
98
330
1E
100
AcDbEntity
  8
0
100
AcDbLine
 10
143.3124264999999
 20
733.933
 30
0.0
 11
143.3124264999999
 21
735.533
 31
0.0
  0
LINE
  5
99
330
1E
100
AcDbEntity
  8
0
100
AcDbLine
 10
141.8124264999998
 20
732.8330000000002
 30
0.0
 11
143.3124264999999
 21
733.3330000000001
 31
0.0
  0
LINE
  5
9B
330
1E
100
AcDbEntity
  8
0
100
AcDbLine
 10
139.8124264999998
 20
734.333
 30
0.0
 11
139.8124264999998
 21
738.492
 31
0.0
  0
LINE
  5
9C
330
1E
100
AcDbEntity
  8
0
100
AcDbLine
 10
133.8124264999999
 20
734.333
 30
0.0
 11
139.8124264999998
 21
734.333
 31
0.0
  0
LINE
  5
9D
330
1E
100
AcDbEntity
  8
0
100
AcDbLine
 10
133.8124264999999
 20
734.333
 30
0.0
 11
133.8124264999999
 21
737.3330000000001
 31
0.0
  0
LINE
  5
9E
330
1E
100
AcDbEntity
  8
0
100
AcDbLine
 10
133.8124264999999
 20
734.333
 30
0.0
 11
133.8124264999999
 21
738.492
 31
0.0
  0
LINE
  5
9F
330
1E
100
AcDbEntity
  8
0
100
AcDbLine
 10
133.8124264999999
 20
734.333
 30
0.0
 11
133.8124264999999
 21
737.833
 31
0.0
  0
LINE
  5
A0
330
1E
100
AcDbEntity
  8
0
100
AcDbLine
 10
50.5847265
 20
735.696
 30
0.0
 11
53.2478265
 21
736.6
 31
0.0
  0
LINE
  5
A1
330
1E
100
AcDbEntity
  8
0
100
AcDbLine
 10
56.0061265
 20
737.1489999999996
 30
0.0
 11
58.8124265
 21
737.3330000000001
 31
0.0
  0
LINE
  5
A2
330
1E
100
AcDbEntity
  8
0
100
AcDbLine
 10
53.2478265
 20
736.6
 30
0.0
 11
56.0061265
 21
737.1489999999996
 31
0.0
  0
LINE
  5
A3
330
1E
100
AcDbEntity
  8
0
100
AcDbLine
 10
139.8124264999998
 20
735.333
 30
0.0
 11
139.8124264999998
 21
734.833
 31
0.0
  0
LINE
  5
A4
330
1E
100
AcDbEntity
  8
0
100
AcDbLine
 10
139.8124264999998
 20
735.333
 30
0.0
 11
139.8124264999998
 21
736.8330000000002
 31
0.0
  0
LINE
  5
A5
330
1E
100
AcDbEntity
  8
0
100
AcDbLine
 10
88.3644265
 20
737.1289999999998
 30
0.0
 11
88.6694265
 21
739.411
 31
0.0
  0
LINE
  5
A6
330
1E
100
AcDbEntity
  8
0
100
AcDbLine
 10
139.8124264999998
 20
736.8330000000002
 30
0.0
 11
139.8124264999998
 21
735.333
 31
0.0
  0
LINE
  5
A7
330
1E
100
AcDbEntity
  8
0
100
AcDbLine
 10
139.8124264999998
 20
736.8330000000002
 30
0.0
 11
139.8124264999998
 21
738.492
 31
0.0
  0
LINE
  5
A8
330
1E
100
AcDbEntity
  8
0
100
AcDbLine
 10
97.2604265
 20
737.1289999999998
 30
0.0
 11
97.5954265
 21
734.375
 31
0.0
  0
LINE
  5
A9
330
1E
100
AcDbEntity
  8
0
100
AcDbLine
 10
86.2624265
 20
736.583
 30
0.0
 11
88.25940402183011
 21
736.3017355603059
 31
0.0
  0
LINE
  5
AB
330
1E
100
AcDbEntity
  8
0
100
AcDbLine
 10
97.23316094347072
 20
737.3330000000001
 30
0.0
 11
133.8124264999999
 21
737.3330000000001
 31
0.0
  0
LINE
  5
AC
330
1E
100
AcDbEntity
  8
0
100
AcDbLine
 10
58.8124265
 20
737.3330000000001
 30
0.0
 11
83.73094501851829
 21
737.3330000000001
 31
0.0
  0
LINE
  5
AD
330
1E
100
AcDbEntity
  8
0
100
AcDbLine
 10
22.43181413989089
 20
750.3128079314668
 30
0.0
 11
22.4758265
 21
750.286
 31
0.0
  0
LINE
  5
AF
330
1E
100
AcDbEntity
  8
0
100
AcDbLine
 10
22.18482649999999
 20
750.41
 30
0.0
 11
22.4758265
 21
750.286
 31
0.0
  0
LINE
  5
B0
330
1E
100
AcDbEntity
  8
0
100
AcDbLine
 10
22.4758265
 20
750.286
 30
0.0
 11
26.1037344088998
 21
748.8636902369501
 31
0.0
  0
LINE
  5
B2
330
1E
100
AcDbEntity
  8
0
100
AcDbLine
 10
21.9215265
 20
744.1399999999998
 30
0.0
 11
25.9319265
 21
748.713
 31
0.0
  0
LINE
  5
B3
330
1E
100
AcDbEntity
  8
0
100
AcDbLine
 10
18.5422265
 20
739.0830000000002
 30
0.0
 11
21.9215265
 21
744.1399999999998
 31
0.0
  0
LINE
  5
B4
330
1E
100
AcDbEntity
  8
0
100
AcDbLine
 10
27.4650265
 20
748.33
 30
0.0
 11
33.8932265
 21
746.983
 31
0.0
  0
LINE
  5
B5
330
1E
100
AcDbEntity
  8
0
100
AcDbLine
 10
33.8932265
 20
746.983
 30
0.0
 11
40.2916981325966
 21
746.8781844861799
 31
0.0
  0
LINE
  5
B9
330
1E
100
AcDbEntity
  8
0
100
AcDbLine
 10
40.2916981325966
 20
746.8781844861799
 30
0.0
 11
50.0091265
 21
746.861
 31
0.0
  0
LINE
  5
BA
330
1E
100
AcDbEntity
  8
0
100
AcDbLine
 10
50.0091265
 20
746.861
 30
0.0
 11
60.02042649999999
 21
746.983
 31
0.0
  0
LINE
  5
BC
330
1E
100
AcDbEntity
  8
0
100
AcDbLine
 10
41.2612265
 20
751.7789999999998
 30
0.0
 11
49.5553265
 21
751.987
 31
0.0
  0
LINE
  5
BD
330
1E
100
AcDbEntity
  8
0
100
AcDbLine
 10
34.7296265
 20
752.1939999999998
 30
0.0
 11
41.2612265
 21
751.7789999999998
 31
0.0
  0
LINE
  5
BE
330
1E
100
AcDbEntity
  8
0
100
AcDbLine
 10
49.5553265
 20
751.987
 30
0.0
 11
60.13022649999999
 21
752.4019999999998
 31
0.0
  0
LINE
  5
BF
330
1E
100
AcDbEntity
  8
0
100
AcDbLine
 10
25.9319265
 20
748.713
 30
0.0
 11
26.1037344088998
 21
748.8636902369501
 31
0.0
  0
LINE
  5
C0
330
1E
100
AcDbEntity
  8
0
100
AcDbLine
 10
14.8979265
 20
755.821
 30
0.0
 11
15.92589155068059
 21
755.544898966741
 31
0.0
  0
LINE
  5
C1
330
1E
100
AcDbEntity
  8
0
100
AcDbLine
 10
17.8099265
 20
753.128
 30
0.0
 11
22.18482649999999
 21
750.41
 31
0.0
  0
LINE
  5
C2
330
1E
100
AcDbEntity
  8
0
100
AcDbLine
 10
16.18013344622869
 20
755.2187495102908
 30
0.0
 11
17.8099265
 21
753.128
 31
0.0
  0
LINE
  5
C3
330
1E
100
AcDbEntity
  8
0
100
AcDbLine
 10
23.1179265
 20
754.4760000000001
 30
0.0
 11
27.7833265
 21
753.128
 31
0.0
  0
LINE
  5
C4
330
1E
100
AcDbEntity
  8
0
100
AcDbLine
 10
27.7833265
 20
753.128
 30
0.0
 11
30.5524230836669
 21
752.7556670732408
 31
0.0
  0
LINE
  5
C5
330
1E
100
AcDbEntity
  8
0
100
AcDbLine
 10
27.7833265
 20
753.128
 30
0.0
 11
34.7296265
 21
752.1939999999998
 31
0.0
  0
LINE
  5
C6
330
1E
100
AcDbEntity
  8
0
100
AcDbLine
 10
9.518326500000039
 20
757.003
 30
0.0
 11
16.18013344622869
 21
755.2187495102908
 31
0.0
  0
LINE
  5
C7
330
1E
100
AcDbEntity
  8
0
100
AcDbLine
 10
10.8013265
 20
756.8459999999999
 30
0.0
 11
12.0846265
 21
756.9989999999997
 31
0.0
  0
LINE
  5
C8
330
1E
100
AcDbEntity
  8
0
100
AcDbLine
 10
18.9708265
 20
756.862
 30
0.0
 11
23.1179265
 21
754.4760000000001
 31
0.0
  0
LINE
  5
C9
330
1E
100
AcDbEntity
  8
0
100
AcDbLine
 10
14.4522265
 20
756.7169999999999
 30
0.0
 11
15.1600572877576
 21
756.5273351149778
 31
0.0
  0
LINE
  5
CA
330
1E
100
AcDbEntity
  8
0
100
AcDbLine
 10
19.71810078496
 20
756.432061863974
 30
0.0
 11
21.4373265
 21
762.848
 31
0.0
  0
LINE
  5
CB
330
1E
100
AcDbEntity
  8
0
100
AcDbLine
 10
13.3148265
 20
756.245
 30
0.0
 11
14.8979265
 21
755.821
 31
0.0
  0
LINE
  5
CC
330
1E
100
AcDbEntity
  8
0
100
AcDbLine
 10
11.5054265
 20
756.73
 30
0.0
 11
13.3148265
 21
756.245
 31
0.0
  0
LINE
  5
CD
330
1E
100
AcDbEntity
  8
0
100
AcDbLine
 10
8.328536500000041
 20
757.5089999999999
 30
0.0
 11
9.518326500000039
 21
757.003
 31
0.0
  0
LINE
  5
CE
330
1E
100
AcDbEntity
  8
0
100
AcDbLine
 10
9.518326500000039
 20
757.003
 30
0.0
 11
10.8013265
 21
756.8459999999999
 31
0.0
  0
LINE
  5
CF
330
1E
100
AcDbEntity
  8
0
100
AcDbLine
 10
12.0846265
 20
756.9989999999997
 30
0.0
 11
13.3156265
 21
757.4969999999998
 31
0.0
  0
LINE
  5
D0
330
1E
100
AcDbEntity
  8
0
100
AcDbLine
 10
12.6080900491972
 20
757.210766732332
 30
0.0
 11
14.4522265
 21
756.7169999999999
 31
0.0
  0
LINE
  5
D1
330
1E
100
AcDbEntity
  8
0
100
AcDbLine
 10
13.3156265
 20
757.4969999999998
 30
0.0
 11
13.9924675203958
 21
758.025155791465
 31
0.0
  0
LINE
  5
D2
330
1E
100
AcDbEntity
  8
0
100
AcDbLine
 10
13.02294338528518
 20
757.378595295591
 30
0.0
 11
14.6378265
 21
756.946
 31
0.0
  0
LINE
  5
D3
330
1E
100
AcDbEntity
  8
0
100
AcDbLine
 10
14.6378265
 20
756.946
 30
0.0
 11
14.8854460170572
 21
756.8796150430389
 31
0.0
  0
LINE
  5
D4
330
1E
100
AcDbEntity
  8
0
100
AcDbLine
 10
13.6220265
 20
756.9389999999998
 30
0.0
 11
15.1602268197593
 21
756.5271176340228
 31
0.0
  0
LINE
  5
D5
330
1E
100
AcDbEntity
  8
0
100
AcDbLine
 10
12.6080242100981
 20
757.21074009718
 30
0.0
 11
13.6220265
 21
756.9389999999998
 31
0.0
  0
LINE
  5
D6
330
1E
100
AcDbEntity
  8
0
100
AcDbLine
 10
10.9889309584854
 20
756.8683669306848
 30
0.0
 11
11.5054265
 21
756.73
 31
0.0
  0
LINE
  5
D7
330
1E
100
AcDbEntity
  8
0
100
AcDbLine
 10
7.70898650000004
 20
757.488
 30
0.0
 11
9.518326500000039
 21
757.003
 31
0.0
  0
LINE
  5
D8
330
1E
100
AcDbEntity
  8
0
100
AcDbLine
 10
1.624736500000039
 20
760.1539999999999
 30
0.0
 11
3.131576500000038
 21
759.75
 31
0.0
  0
LINE
  5
D9
330
1E
100
AcDbEntity
  8
0
100
AcDbLine
 10
1.46259650000004
 20
760.4760000000001
 30
0.0
 11
3.00807650000004
 21
760.062
 31
0.0
  0
LINE
  5
DA
330
1E
100
AcDbEntity
  8
0
100
AcDbLine
 10
0.6974475000000381
 20
760.4019999999998
 30
0.0
 11
1.624736500000039
 21
760.1539999999999
 31
0.0
  0
LINE
  5
DB
330
1E
100
AcDbEntity
  8
0
100
AcDbLine
 10
0.5353075000000382
 20
760.7239999999998
 30
0.0
 11
1.46259650000004
 21
760.4760000000001
 31
0.0
  0
LINE
  5
DC
330
1E
100
AcDbEntity
  8
0
100
AcDbLine
 10
0.349714500000038
 20
760.495
 30
0.0
 11
0.6974475000000381
 21
760.4019999999998
 31
0.0
  0
LINE
  5
DD
330
1E
100
AcDbEntity
  8
0
100
AcDbLine
 10
0.187573500000038
 20
760.8179999999999
 30
0.0
 11
0.5353075000000382
 21
760.7239999999998
 31
0.0
  0
LINE
  5
DE
330
1E
100
AcDbEntity
  8
0
100
AcDbLine
 10
0.187573500000038
 20
760.8179999999999
 30
0.0
 11
0.349714500000038
 21
760.495
 31
0.0
  0
LINE
  5
DF
330
1E
100
AcDbEntity
  8
0
100
AcDbLine
 10
0.187573500000038
 20
760.8179999999999
 30
0.0
 11
2.118766500000039
 21
768.025
 31
0.0
  0
LINE
  5
E0
330
1E
100
AcDbEntity
  8
0
100
AcDbLine
 10
2.808686500000039
 20
758.801
 30
0.0
 11
3.487186500000038
 21
758.6189999999998
 31
0.0
  0
LINE
  5
E1
330
1E
100
AcDbEntity
  8
0
100
AcDbLine
 10
2.54481650000004
 20
758.8719999999998
 30
0.0
 11
2.808686500000039
 21
758.801
 31
0.0
  0
LINE
  5
E2
330
1E
100
AcDbEntity
  8
0
100
AcDbLine
 10
5.10206650000004
 20
759.222
 30
0.0
 11
6.946317615965599
 21
758.728213583713
 31
0.0
  0
LINE
  5
E3
330
1E
100
AcDbEntity
  8
0
100
AcDbLine
 10
5.10206650000004
 20
759.222
 30
0.0
 11
6.946317615965599
 21
758.728213583713
 31
0.0
  0
LINE
  5
E4
330
1E
100
AcDbEntity
  8
0
100
AcDbLine
 10
5.055836500000038
 20
759.513
 30
0.0
 11
6.67176558389817
 21
759.080130111723
 31
0.0
  0
LINE
  5
E5
330
1E
100
AcDbEntity
  8
0
100
AcDbLine
 10
3.131576500000038
 20
759.75
 30
0.0
 11
5.10206650000004
 21
759.222
 31
0.0
  0
LINE
  5
E6
330
1E
100
AcDbEntity
  8
0
100
AcDbLine
 10
3.131576500000038
 20
759.75
 30
0.0
 11
3.745167508325129
 21
759.58558604591
 31
0.0
  0
LINE
  5
E7
330
1E
100
AcDbEntity
  8
0
100
AcDbLine
 10
3.067496500000038
 20
759.7669999999998
 30
0.0
 11
3.745167508325129
 21
759.58558604591
 31
0.0
  0
LINE
  5
E8
330
1E
100
AcDbEntity
  8
0
100
AcDbLine
 10
3.061856500000038
 20
758.9919999999998
 30
0.0
 11
4.268086500000038
 21
758.6689999999999
 31
0.0
  0
LINE
  5
E9
330
1E
100
AcDbEntity
  8
0
100
AcDbLine
 10
2.31360650000004
 20
759.9689999999998
 30
0.0
 11
3.067496500000038
 21
759.7669999999998
 31
0.0
  0
LINE
  5
EA
330
1E
100
AcDbEntity
  8
0
100
AcDbLine
 10
2.307966500000039
 20
759.194
 30
0.0
 11
3.061856500000038
 21
758.9919999999998
 31
0.0
  0
LINE
  5
EB
330
1E
100
AcDbEntity
  8
0
100
AcDbLine
 10
5.82537650000004
 20
761.8439999999998
 30
0.0
 11
5.98279650000004
 21
763.1269999999998
 31
0.0
  0
LINE
  5
EC
330
1E
100
AcDbEntity
  8
0
100
AcDbLine
 10
5.82537650000004
 20
761.8439999999998
 30
0.0
 11
5.97843650000004
 21
760.561
 31
0.0
  0
LINE
  5
ED
330
1E
100
AcDbEntity
  8
0
100
AcDbLine
 10
3.00807650000004
 20
760.062
 30
0.0
 11
5.055836500000038
 21
759.513
 31
0.0
  0
LINE
  5
EE
330
1E
100
AcDbEntity
  8
0
100
AcDbLine
 10
2.049746500000038
 20
760.0399999999998
 30
0.0
 11
2.31360650000004
 21
759.9689999999998
 31
0.0
  0
LINE
  5
EF
330
1E
100
AcDbEntity
  8
0
100
AcDbLine
 10
2.044096500000038
 20
759.2649999999999
 30
0.0
 11
2.307966500000039
 21
759.194
 31
0.0
  0
LINE
  5
F0
330
1E
100
AcDbEntity
  8
0
100
AcDbLine
 10
2.044096500000038
 20
759.2649999999999
 30
0.0
 11
2.049746500000038
 21
760.0399999999998
 31
0.0
  0
LINE
  5
F1
330
1E
100
AcDbEntity
  8
0
100
AcDbLine
 10
2.044096500000038
 20
759.2649999999999
 30
0.0
 11
2.54481650000004
 21
758.8719999999998
 31
0.0
  0
LINE
  5
F2
330
1E
100
AcDbEntity
  8
0
100
AcDbLine
 10
4.268086500000038
 20
758.6689999999999
 30
0.0
 11
5.85126650000004
 21
758.245
 31
0.0
  0
LINE
  5
F3
330
1E
100
AcDbEntity
  8
0
100
AcDbLine
 10
10.8046265
 20
757.84
 30
0.0
 11
11.8342265
 21
757.9739999999998
 31
0.0
  0
LINE
  5
F4
330
1E
100
AcDbEntity
  8
0
100
AcDbLine
 10
9.777146500000039
 20
757.9689999999998
 30
0.0
 11
10.8046265
 21
757.84
 31
0.0
  0
LINE
  5
F5
330
1E
100
AcDbEntity
  8
0
100
AcDbLine
 10
7.29365650000004
 20
758.283
 30
0.0
 11
8.328536500000041
 21
757.5089999999999
 31
0.0
  0
LINE
  5
F6
330
1E
100
AcDbEntity
  8
0
100
AcDbLine
 10
11.8342265
 20
757.9739999999998
 30
0.0
 11
12.8089265
 21
758.375
 31
0.0
  0
LINE
  5
F8
330
1E
100
AcDbEntity
  8
0
100
AcDbLine
 10
13.9924675203958
 20
758.025155791465
 30
0.0
 11
17.8099265
 21
753.128
 31
0.0
  0
LINE
  5
F9
330
1E
100
AcDbEntity
  8
0
100
AcDbLine
 10
8.82274650000004
 20
758.371
 30
0.0
 11
9.777146500000039
 21
757.9689999999998
 31
0.0
  0
LINE
  5
FA
330
1E
100
AcDbEntity
  8
0
100
AcDbLine
 10
6.47682650000004
 20
759.33
 30
0.0
 11
7.29365650000004
 21
758.283
 31
0.0
  0
LINE
  5
FB
330
1E
100
AcDbEntity
  8
0
100
AcDbLine
 10
7.99776650000004
 20
759.0010000000002
 30
0.0
 11
8.82274650000004
 21
758.371
 31
0.0
  0
LINE
  5
FC
330
1E
100
AcDbEntity
  8
0
100
AcDbLine
 10
7.35432650000004
 20
759.836
 30
0.0
 11
7.99776650000004
 21
759.0010000000002
 31
0.0
  0
LINE
  5
FD
330
1E
100
AcDbEntity
  8
0
100
AcDbLine
 10
12.8089265
 20
758.375
 30
0.0
 11
13.6439265
 21
759.018
 31
0.0
  0
LINE
  5
FE
330
1E
100
AcDbEntity
  8
0
100
AcDbLine
 10
13.6439265
 20
759.018
 30
0.0
 11
14.2742265
 21
759.843
 31
0.0
  0
LINE
  5
FF
330
1E
100
AcDbEntity
  8
0
100
AcDbLine
 10
5.97843650000004
 20
760.561
 30
0.0
 11
6.47682650000004
 21
759.33
 31
0.0
  0
LINE
  5
100
330
1E
100
AcDbEntity
  8
0
100
AcDbLine
 10
6.95292650000004
 20
760.811
 30
0.0
 11
7.35432650000004
 21
759.836
 31
0.0
  0
LINE
  5
101
330
1E
100
AcDbEntity
  8
0
100
AcDbLine
 10
6.81957650000004
 20
761.8409999999999
 30
0.0
 11
6.94872650000004
 21
762.8680000000001
 31
0.0
  0
LINE
  5
102
330
1E
100
AcDbEntity
  8
0
100
AcDbLine
 10
6.81957650000004
 20
761.8409999999999
 30
0.0
 11
6.95292650000004
 21
760.811
 31
0.0
  0
LINE
  5
103
330
1E
100
AcDbEntity
  8
0
100
AcDbLine
 10
14.2742265
 20
759.843
 30
0.0
 11
14.6761265
 21
760.798
 31
0.0
  0
LINE
  5
104
330
1E
100
AcDbEntity
  8
0
100
AcDbLine
 10
15.50475045889549
 20
760.2155818869244
 30
0.0
 11
15.6420265
 21
760.5389999999998
 31
0.0
  0
LINE
  5
105
330
1E
100
AcDbEntity
  8
0
100
AcDbLine
 10
14.6761265
 20
760.798
 30
0.0
 11
14.8052265
 21
761.825
 31
0.0
  0
LINE
  5
108
330
1E
100
AcDbEntity
  8
0
100
AcDbLine
 10
15.6420265
 20
760.5389999999998
 30
0.0
 11
15.7995265
 21
761.8219999999999
 31
0.0
  0
LINE
  5
109
330
1E
100
AcDbEntity
  8
0
100
AcDbLine
 10
15.50475045889549
 20
760.2155818869244
 30
0.0
 11
18.9708265
 21
756.862
 31
0.0
  0
LINE
  5
10A
330
1E
100
AcDbEntity
  8
0
100
AcDbLine
 10
3.487186500000038
 20
758.6189999999998
 30
0.0
 11
7.70898650000004
 21
757.488
 31
0.0
  0
LINE
  5
10B
330
1E
100
AcDbEntity
  8
0
100
AcDbLine
 10
5.85126650000004
 20
758.245
 30
0.0
 11
7.66061650000004
 21
757.76
 31
0.0
  0
LINE
  5
10C
330
1E
100
AcDbEntity
  8
0
100
AcDbLine
 10
7.66061650000004
 20
757.76
 30
0.0
 11
8.17839753112913
 21
757.6212908568201
 31
0.0
  0
LINE
  5
10D
330
1E
100
AcDbEntity
  8
0
100
AcDbLine
 10
41.0176265
 20
758.793
 30
0.0
 11
46.7773265
 21
760.7489999999998
 31
0.0
  0
LINE
  5
10E
330
1E
100
AcDbEntity
  8
0
100
AcDbLine
 10
35.5624265
 20
756.103
 30
0.0
 11
41.0176265
 21
758.793
 31
0.0
  0
LINE
  5
10F
330
1E
100
AcDbEntity
  8
0
100
AcDbLine
 10
52.7429265
 20
761.9349999999998
 30
0.0
 11
58.8124265
 21
762.3330000000001
 31
0.0
  0
LINE
  5
110
330
1E
100
AcDbEntity
  8
0
100
AcDbLine
 10
46.7773265
 20
760.7489999999998
 30
0.0
 11
52.7429265
 21
761.9349999999998
 31
0.0
  0
LINE
  5
111
330
1E
100
AcDbEntity
  8
0
100
AcDbLine
 10
30.5524230836669
 20
752.7556670732408
 30
0.0
 11
35.5624265
 21
756.103
 31
0.0
  0
LINE
  5
112
330
1E
100
AcDbEntity
  8
0
100
AcDbLine
 10
60.02042649999999
 20
746.983
 30
0.0
 11
76.05750958434871
 21
748.06840179269
 31
0.0
  0
LINE
  5
114
330
1E
100
AcDbEntity
  8
0
100
AcDbLine
 10
77.9124265
 20
742.983
 30
0.0
 11
80.11242649999998
 21
740.133
 31
0.0
  0
LINE
  5
115
330
1E
100
AcDbEntity
  8
0
100
AcDbLine
 10
76.5624265
 20
746.283
 30
0.0
 11
77.9124265
 21
742.983
 31
0.0
  0
LINE
  5
118
330
1E
100
AcDbEntity
  8
0
100
AcDbLine
 10
76.0624265
 20
749.8330000000001
 30
0.0
 11
76.5624265
 21
746.283
 31
0.0
  0
LINE
  5
119
330
1E
100
AcDbEntity
  8
0
100
AcDbLine
 10
76.0624265
 20
749.8330000000001
 30
0.0
 11
76.5624265
 21
753.383
 31
0.0
  0
LINE
  5
11D
330
1E
100
AcDbEntity
  8
0
100
AcDbLine
 10
80.11242649999998
 20
740.133
 30
0.0
 11
82.96242650000001
 21
737.933
 31
0.0
  0
LINE
  5
11F
330
1E
100
AcDbEntity
  8
0
100
AcDbLine
 10
82.96242650000001
 20
737.933
 30
0.0
 11
86.2624265
 21
736.583
 31
0.0
  0
LINE
  5
121
330
1E
100
AcDbEntity
  8
0
100
AcDbLine
 10
81.3246265
 20
741.345
 30
0.0
 11
83.84172650000001
 21
739.414
 31
0.0
  0
LINE
  5
122
330
1E
100
AcDbEntity
  8
0
100
AcDbLine
 10
82.73922650000001
 20
742.7599999999999
 30
0.0
 11
84.8368265
 21
741.15
 31
0.0
  0
LINE
  5
123
330
1E
100
AcDbEntity
  8
0
100
AcDbLine
 10
82.93442650000001
 20
742.955
 30
0.0
 11
84.9831265
 21
741.3939999999999
 31
0.0
  0
LINE
  5
124
330
1E
100
AcDbEntity
  8
0
100
AcDbLine
 10
81.5587265
 20
741.5789999999998
 30
0.0
 11
84.01732649999997
 21
739.706
 31
0.0
  0
LINE
  5
125
330
1E
100
AcDbEntity
  8
0
100
AcDbLine
 10
79.3929265
 20
743.862
 30
0.0
 11
81.3246265
 21
741.345
 31
0.0
  0
LINE
  5
126
330
1E
100
AcDbEntity
  8
0
100
AcDbLine
 10
81.1295265
 20
744.857
 30
0.0
 11
82.73922650000001
 21
742.7599999999999
 31
0.0
  0
LINE
  5
127
330
1E
100
AcDbEntity
  8
0
100
AcDbLine
 10
81.37342650000009
 20
745.0039999999997
 30
0.0
 11
82.93442650000001
 21
742.955
 31
0.0
  0
LINE
  5
128
330
1E
100
AcDbEntity
  8
0
100
AcDbLine
 10
79.68562649999999
 20
744.038
 30
0.0
 11
81.5587265
 21
741.5789999999998
 31
0.0
  0
LINE
  5
129
330
1E
100
AcDbEntity
  8
0
100
AcDbLine
 10
78.2222265
 20
746.7310000000001
 30
0.0
 11
79.3929265
 21
743.862
 31
0.0
  0
LINE
  5
12A
330
1E
100
AcDbEntity
  8
0
100
AcDbLine
 10
80.1539265
 20
747.248
 30
0.0
 11
81.1295265
 21
744.857
 31
0.0
  0
LINE
  5
12B
330
1E
100
AcDbEntity
  8
0
100
AcDbLine
 10
80.39782650000002
 20
747.345
 30
0.0
 11
81.37342650000009
 21
745.0039999999997
 31
0.0
  0
LINE
  5
12C
330
1E
100
AcDbEntity
  8
0
100
AcDbLine
 10
80.0563265
 20
749.8330000000001
 30
0.0
 11
80.39782650000002
 21
747.345
 31
0.0
  0
LINE
  5
12D
330
1E
100
AcDbEntity
  8
0
100
AcDbLine
 10
80.0563265
 20
749.8330000000001
 30
0.0
 11
80.39782650000002
 21
752.321
 31
0.0
  0
LINE
  5
12E
330
1E
100
AcDbEntity
  8
0
100
AcDbLine
 10
79.8124265
 20
749.8330000000001
 30
0.0
 11
80.1539265
 21
747.248
 31
0.0
  0
LINE
  5
12F
330
1E
100
AcDbEntity
  8
0
100
AcDbLine
 10
79.8124265
 20
749.8330000000001
 30
0.0
 11
80.1539265
 21
752.418
 31
0.0
  0
LINE
  5
130
330
1E
100
AcDbEntity
  8
0
100
AcDbLine
 10
78.5148265
 20
746.848
 30
0.0
 11
79.68562649999999
 21
744.038
 31
0.0
  0
LINE
  5
131
330
1E
100
AcDbEntity
  8
0
100
AcDbLine
 10
78.10512649999998
 20
749.8330000000001
 30
0.0
 11
78.5148265
 21
746.848
 31
0.0
  0
LINE
  5
132
330
1E
100
AcDbEntity
  8
0
100
AcDbLine
 10
78.10512649999998
 20
749.8330000000001
 30
0.0
 11
78.5148265
 21
752.8179999999998
 31
0.0
  0
LINE
  5
133
330
1E
100
AcDbEntity
  8
0
100
AcDbLine
 10
80.39782650000002
 20
752.321
 30
0.0
 11
81.37342650000009
 21
754.6619999999997
 31
0.0
  0
LINE
  5
134
330
1E
100
AcDbEntity
  8
0
100
AcDbLine
 10
77.8124265
 20
749.8330000000001
 30
0.0
 11
78.2222265
 21
746.7310000000001
 31
0.0
  0
LINE
  5
135
330
1E
100
AcDbEntity
  8
0
100
AcDbLine
 10
77.8124265
 20
749.8330000000001
 30
0.0
 11
78.2222265
 21
752.9349999999998
 31
0.0
  0
LINE
  5
137
330
1E
100
AcDbEntity
  8
0
100
AcDbLine
 10
76.5624265
 20
753.383
 30
0.0
 11
77.9124265
 21
756.683
 31
0.0
  0
LINE
  5
139
330
1E
100
AcDbEntity
  8
0
100
AcDbLine
 10
77.9124265
 20
756.683
 30
0.0
 11
80.11242649999998
 21
759.533
 31
0.0
  0
LINE
  5
13D
330
1E
100
AcDbEntity
  8
0
100
AcDbLine
 10
78.2222265
 20
752.9349999999998
 30
0.0
 11
79.3929265
 21
755.804
 31
0.0
  0
LINE
  5
13E
330
1E
100
AcDbEntity
  8
0
100
AcDbLine
 10
81.1295265
 20
754.809
 30
0.0
 11
82.73922650000001
 21
756.906
 31
0.0
  0
LINE
  5
13F
330
1E
100
AcDbEntity
  8
0
100
AcDbLine
 10
81.37342650000009
 20
754.6619999999997
 30
0.0
 11
82.93442650000001
 21
756.711
 31
0.0
  0
LINE
  5
140
330
1E
100
AcDbEntity
  8
0
100
AcDbLine
 10
80.1539265
 20
752.418
 30
0.0
 11
81.1295265
 21
754.809
 31
0.0
  0
LINE
  5
141
330
1E
100
AcDbEntity
  8
0
100
AcDbLine
 10
79.3929265
 20
755.804
 30
0.0
 11
81.3246265
 21
758.321
 31
0.0
  0
LINE
  5
142
330
1E
100
AcDbEntity
  8
0
100
AcDbLine
 10
79.68562649999999
 20
755.628
 30
0.0
 11
81.5587265
 21
758.0869999999999
 31
0.0
  0
LINE
  5
143
330
1E
100
AcDbEntity
  8
0
100
AcDbLine
 10
78.5148265
 20
752.8179999999998
 30
0.0
 11
79.68562649999999
 21
755.628
 31
0.0
  0
LINE
  5
145
330
1E
100
AcDbEntity
  8
0
100
AcDbLine
 10
80.11242649999998
 20
759.533
 30
0.0
 11
82.96242650000001
 21
761.733
 31
0.0
  0
LINE
  5
147
330
1E
100
AcDbEntity
  8
0
100
AcDbLine
 10
81.3246265
 20
758.321
 30
0.0
 11
83.84172650000001
 21
760.2519999999998
 31
0.0
  0
LINE
  5
148
330
1E
100
AcDbEntity
  8
0
100
AcDbLine
 10
82.96242650000001
 20
761.733
 30
0.0
 11
86.2624265
 21
763.0830000000002
 31
0.0
  0
LINE
  5
14A
330
1E
100
AcDbEntity
  8
0
100
AcDbLine
 10
82.73922650000001
 20
756.906
 30
0.0
 11
84.8368265
 21
758.5160000000001
 31
0.0
  0
LINE
  5
14B
330
1E
100
AcDbEntity
  8
0
100
AcDbLine
 10
82.93442650000001
 20
756.711
 30
0.0
 11
84.9831265
 21
758.2719999999998
 31
0.0
  0
LINE
  5
14C
330
1E
100
AcDbEntity
  8
0
100
AcDbLine
 10
81.5587265
 20
758.0869999999999
 30
0.0
 11
84.0173265000001
 21
759.96
 31
0.0
  0
LINE
  5
14D
330
1E
100
AcDbEntity
  8
0
100
AcDbLine
 10
60.13022649999999
 20
752.4019999999998
 30
0.0
 11
76.55976634987358
 21
753.3641129341019
 31
0.0
  0
LINE
  5
14F
330
1E
100
AcDbEntity
  8
0
100
AcDbLine
 10
97.1070911689061
 20
738.276249919857
 30
0.0
 11
99.51242650000001
 21
740.133
 31
0.0
  0
LINE
  5
150
330
1E
100
AcDbEntity
  8
0
100
AcDbLine
 10
86.7100265000001
 20
738.243
 30
0.0
 11
88.4820187073825
 21
738.0088210401538
 31
0.0
  0
LINE
  5
151
330
1E
100
AcDbEntity
  8
0
100
AcDbLine
 10
83.84172650000001
 20
739.414
 30
0.0
 11
86.7100265000001
 21
738.243
 31
0.0
  0
LINE
  5
152
330
1E
100
AcDbEntity
  8
0
100
AcDbLine
 10
86.81242649999999
 20
741.133
 30
0.0
 11
86.81242649999999
 21
740.8330000000002
 31
0.0
  0
LINE
  5
153
330
1E
100
AcDbEntity
  8
0
100
AcDbLine
 10
86.81242649999999
 20
741.133
 30
0.0
 11
86.81242649999999
 21
742.0329999999998
 31
0.0
  0
LINE
  5
154
330
1E
100
AcDbEntity
  8
0
100
AcDbLine
 10
86.81242649999999
 20
740.8330000000002
 30
0.0
 11
87.3124265
 21
739.333
 31
0.0
  0
LINE
  5
155
330
1E
100
AcDbEntity
  8
0
100
AcDbLine
 10
86.81242649999999
 20
740.8330000000002
 30
0.0
 11
86.81242649999999
 21
741.133
 31
0.0
  0
LINE
  5
156
330
1E
100
AcDbEntity
  8
0
100
AcDbLine
 10
87.3124265
 20
740.733
 30
0.0
 11
87.3124265
 21
739.7330000000001
 31
0.0
  0
LINE
  5
157
330
1E
100
AcDbEntity
  8
0
100
AcDbLine
 10
87.3124265
 20
740.733
 30
0.0
 11
87.3124265
 21
742.433
 31
0.0
  0
LINE
  5
158
330
1E
100
AcDbEntity
  8
0
100
AcDbLine
 10
87.3124265
 20
739.7330000000001
 30
0.0
 11
87.3124265
 21
739.333
 31
0.0
  0
LINE
  5
159
330
1E
100
AcDbEntity
  8
0
100
AcDbLine
 10
87.3124265
 20
739.7330000000001
 30
0.0
 11
87.3124265
 21
740.733
 31
0.0
  0
LINE
  5
15A
330
1E
100
AcDbEntity
  8
0
100
AcDbLine
 10
87.3124265
 20
739.333
 30
0.0
 11
88.5962289798512
 21
738.90506584005
 31
0.0
  0
LINE
  5
15B
330
1E
100
AcDbEntity
  8
0
100
AcDbLine
 10
87.3124265
 20
739.333
 30
0.0
 11
87.3124265
 21
739.7330000000001
 31
0.0
  0
LINE
  5
15C
330
1E
100
AcDbEntity
  8
0
100
AcDbLine
 10
96.98202410723672
 20
739.3417928217099
 30
0.0
 11
97.81242650000001
 21
741.833
 31
0.0
  0
LINE
  5
15D
330
1E
100
AcDbEntity
  8
0
100
AcDbLine
 10
88.6694265
 20
739.411
 30
0.0
 11
88.8124265
 21
741.3330000000001
 31
0.0
  0
LINE
  5
15E
330
1E
100
AcDbEntity
  8
0
100
AcDbLine
 10
96.9554265
 20
739.411
 30
0.0
 11
97.2604265
 21
737.1289999999998
 31
0.0
  0
LINE
  5
15F
330
1E
100
AcDbEntity
  8
0
100
AcDbLine
 10
88.5741495781758
 20
738.698141194745
 30
0.0
 11
88.71368156000022
 21
740.005812764478
 31
0.0
  0
LINE
  5
160
330
1E
100
AcDbEntity
  8
0
100
AcDbLine
 10
88.5741495781758
 20
738.698141194745
 30
0.0
 11
88.5962289798512
 21
738.90506584005
 31
0.0
  0
LINE
  5
161
330
1E
100
AcDbEntity
  8
0
100
AcDbLine
 10
84.8368265
 20
741.15
 30
0.0
 11
87.00138013703881
 21
740.2661390888838
 31
0.0
  0
LINE
  5
162
330
1E
100
AcDbEntity
  8
0
100
AcDbLine
 10
84.01732649999997
 20
739.706
 30
0.0
 11
86.8270265000001
 21
738.5349999999998
 31
0.0
  0
LINE
  5
163
330
1E
100
AcDbEntity
  8
0
100
AcDbLine
 10
86.8270265000001
 20
738.5349999999998
 30
0.0
 11
88.52132126710657
 21
738.302881503401
 31
0.0
  0
LINE
  5
164
330
1E
100
AcDbEntity
  8
0
100
AcDbLine
 10
97.42627512018039
 20
740.6745458605407
 30
0.0
 11
98.3002265
 21
741.345
 31
0.0
  0
LINE
  5
165
330
1E
100
AcDbEntity
  8
0
100
AcDbLine
 10
96.81242650000001
 20
741.3330000000001
 30
0.0
 11
96.9554265
 21
743.833
 31
0.0
  0
LINE
  5
166
330
1E
100
AcDbEntity
  8
0
100
AcDbLine
 10
96.81242650000001
 20
741.3330000000001
 30
0.0
 11
96.9554265
 21
739.411
 31
0.0
  0
LINE
  5
167
330
1E
100
AcDbEntity
  8
0
100
AcDbLine
 10
84.9831265
 20
741.3939999999999
 30
0.0
 11
86.89043184016702
 21
740.598983979499
 31
0.0
  0
LINE
  5
168
330
1E
100
AcDbEntity
  8
0
100
AcDbLine
 10
97.6125892353348
 20
741.233488206004
 30
0.0
 11
98.06612649999999
 21
741.5789999999998
 31
0.0
  0
LINE
  5
169
330
1E
100
AcDbEntity
  8
0
100
AcDbLine
 10
119.3124264999999
 20
737.833
 30
0.0
 11
120.8124264999999
 21
737.833
 31
0.0
  0
LINE
  5
16A
330
1E
100
AcDbEntity
  8
0
100
AcDbLine
 10
119.3124264999999
 20
737.833
 30
0.0
 11
119.3124264999999
 21
738.233
 31
0.0
  0
LINE
  5
16B
330
1E
100
AcDbEntity
  8
0
100
AcDbLine
 10
120.8124264999999
 20
737.833
 30
0.0
 11
121.3124264999999
 21
738.333
 31
0.0
  0
LINE
  5
16C
330
1E
100
AcDbEntity
  8
0
100
AcDbLine
 10
120.8124264999999
 20
737.833
 30
0.0
 11
120.8124264999999
 21
738.233
 31
0.0
  0
LINE
  5
16D
330
1E
100
AcDbEntity
  8
0
100
AcDbLine
 10
119.3124264999999
 20
738.233
 30
0.0
 11
119.3124264999999
 21
737.833
 31
0.0
  0
LINE
  5
16E
330
1E
100
AcDbEntity
  8
0
100
AcDbLine
 10
119.3124264999999
 20
738.233
 30
0.0
 11
119.3124264999999
 21
739.433
 31
0.0
  0
LINE
  5
16F
330
1E
100
AcDbEntity
  8
0
100
AcDbLine
 10
120.8124264999999
 20
738.233
 30
0.0
 11
120.8124264999999
 21
737.833
 31
0.0
  0
LINE
  5
170
330
1E
100
AcDbEntity
  8
0
100
AcDbLine
 10
120.8124264999999
 20
738.233
 30
0.0
 11
120.8124264999999
 21
739.433
 31
0.0
  0
LINE
  5
171
330
1E
100
AcDbEntity
  8
0
100
AcDbLine
 10
118.8124264999999
 20
738.333
 30
0.0
 11
118.8124264999999
 21
738.733
 31
0.0
  0
LINE
  5
172
330
1E
100
AcDbEntity
  8
0
100
AcDbLine
 10
118.8124264999999
 20
738.333
 30
0.0
 11
119.3124264999999
 21
737.833
 31
0.0
  0
LINE
  5
173
330
1E
100
AcDbEntity
  8
0
100
AcDbLine
 10
133.8124264999999
 20
738.233
 30
0.0
 11
133.8124264999999
 21
739.433
 31
0.0
  0
LINE
  5
174
330
1E
100
AcDbEntity
  8
0
100
AcDbLine
 10
121.8124264999999
 20
738.233
 30
0.0
 11
121.8124264999999
 21
737.833
 31
0.0
  0
LINE
  5
175
330
1E
100
AcDbEntity
  8
0
100
AcDbLine
 10
121.8124264999999
 20
738.233
 30
0.0
 11
121.8124264999999
 21
739.433
 31
0.0
  0
LINE
  5
176
330
1E
100
AcDbEntity
  8
0
100
AcDbLine
 10
121.3124264999999
 20
738.333
 30
0.0
 11
121.8124264999999
 21
737.833
 31
0.0
  0
LINE
  5
177
330
1E
100
AcDbEntity
  8
0
100
AcDbLine
 10
121.3124264999999
 20
738.333
 30
0.0
 11
121.3124264999999
 21
738.733
 31
0.0
  0
LINE
  5
178
330
1E
100
AcDbEntity
  8
0
100
AcDbLine
 10
121.8124264999999
 20
737.833
 30
0.0
 11
133.8124264999999
 21
737.833
 31
0.0
  0
LINE
  5
179
330
1E
100
AcDbEntity
  8
0
100
AcDbLine
 10
121.8124264999999
 20
737.833
 30
0.0
 11
121.8124264999999
 21
738.233
 31
0.0
  0
LINE
  5
17A
330
1E
100
AcDbEntity
  8
0
100
AcDbLine
 10
133.8124264999999
 20
737.833
 30
0.0
 11
133.8124264999999
 21
734.333
 31
0.0
  0
LINE
  5
17B
330
1E
100
AcDbEntity
  8
0
100
AcDbLine
 10
133.8124264999999
 20
737.833
 30
0.0
 11
133.8124264999999
 21
738.233
 31
0.0
  0
LINE
  5
17C
330
1E
100
AcDbEntity
  8
0
100
AcDbLine
 10
118.8124264999999
 20
739.8330000000002
 30
0.0
 11
118.8124264999999
 21
741.733
 31
0.0
  0
LINE
  5
17D
330
1E
100
AcDbEntity
  8
0
100
AcDbLine
 10
118.8124264999999
 20
739.8330000000002
 30
0.0
 11
118.8124264999999
 21
738.733
 31
0.0
  0
LINE
  5
17E
330
1E
100
AcDbEntity
  8
0
100
AcDbLine
 10
119.3124264999999
 20
739.433
 30
0.0
 11
119.3124264999999
 21
738.233
 31
0.0
  0
LINE
  5
17F
330
1E
100
AcDbEntity
  8
0
100
AcDbLine
 10
119.3124264999999
 20
739.433
 30
0.0
 11
119.3124264999999
 21
741.3330000000001
 31
0.0
  0
LINE
  5
180
330
1E
100
AcDbEntity
  8
0
100
AcDbLine
 10
120.8124264999999
 20
739.433
 30
0.0
 11
120.8124264999999
 21
738.233
 31
0.0
  0
LINE
  5
181
330
1E
100
AcDbEntity
  8
0
100
AcDbLine
 10
120.8124264999999
 20
739.433
 30
0.0
 11
120.8124264999999
 21
741.3330000000001
 31
0.0
  0
LINE
  5
182
330
1E
100
AcDbEntity
  8
0
100
AcDbLine
 10
121.3124264999999
 20
738.733
 30
0.0
 11
121.3124264999999
 21
738.333
 31
0.0
  0
LINE
  5
183
330
1E
100
AcDbEntity
  8
0
100
AcDbLine
 10
121.3124264999999
 20
738.733
 30
0.0
 11
121.3124264999999
 21
739.8330000000002
 31
0.0
  0
LINE
  5
184
330
1E
100
AcDbEntity
  8
0
100
AcDbLine
 10
133.8124264999999
 20
739.433
 30
0.0
 11
133.8124264999999
 21
741.3330000000001
 31
0.0
  0
LINE
  5
185
330
1E
100
AcDbEntity
  8
0
100
AcDbLine
 10
121.3124264999999
 20
739.8330000000002
 30
0.0
 11
121.3124264999999
 21
738.733
 31
0.0
  0
LINE
  5
186
330
1E
100
AcDbEntity
  8
0
100
AcDbLine
 10
121.3124264999999
 20
739.8330000000002
 30
0.0
 11
121.3124264999999
 21
741.733
 31
0.0
  0
LINE
  5
187
330
1E
100
AcDbEntity
  8
0
100
AcDbLine
 10
121.8124264999999
 20
739.433
 30
0.0
 11
121.8124264999999
 21
738.233
 31
0.0
  0
LINE
  5
188
330
1E
100
AcDbEntity
  8
0
100
AcDbLine
 10
121.8124264999999
 20
739.433
 30
0.0
 11
121.8124264999999
 21
741.3330000000001
 31
0.0
  0
LINE
  5
189
330
1E
100
AcDbEntity
  8
0
100
AcDbLine
 10
118.8124264999999
 20
738.733
 30
0.0
 11
118.8124264999999
 21
739.8330000000002
 31
0.0
  0
LINE
  5
18A
330
1E
100
AcDbEntity
  8
0
100
AcDbLine
 10
118.8124264999999
 20
738.733
 30
0.0
 11
118.8124264999999
 21
738.333
 31
0.0
  0
LINE
  5
18C
330
1E
100
AcDbEntity
  8
0
100
AcDbLine
 10
133.8124264999999
 20
738.492
 30
0.0
 11
133.8124264999999
 21
753.9919999999998
 31
0.0
  0
LINE
  5
18D
330
1E
100
AcDbEntity
  8
0
100
AcDbLine
 10
133.8124264999999
 20
738.492
 30
0.0
 11
133.8124264999999
 21
734.333
 31
0.0
  0
LINE
  5
18F
330
1E
100
AcDbEntity
  8
0
100
AcDbLine
 10
119.3124264999999
 20
741.3330000000001
 30
0.0
 11
119.3124264999999
 21
743.833
 31
0.0
  0
LINE
  5
190
330
1E
100
AcDbEntity
  8
0
100
AcDbLine
 10
119.3124264999999
 20
741.3330000000001
 30
0.0
 11
119.3124264999999
 21
739.433
 31
0.0
  0
LINE
  5
191
330
1E
100
AcDbEntity
  8
0
100
AcDbLine
 10
120.8124264999999
 20
741.3330000000001
 30
0.0
 11
120.8124264999999
 21
743.833
 31
0.0
  0
LINE
  5
192
330
1E
100
AcDbEntity
  8
0
100
AcDbLine
 10
120.8124264999999
 20
741.3330000000001
 30
0.0
 11
120.8124264999999
 21
739.433
 31
0.0
  0
LINE
  5
193
330
1E
100
AcDbEntity
  8
0
100
AcDbLine
 10
121.8124264999999
 20
741.3330000000001
 30
0.0
 11
121.8124264999999
 21
743.833
 31
0.0
  0
LINE
  5
194
330
1E
100
AcDbEntity
  8
0
100
AcDbLine
 10
121.8124264999999
 20
741.3330000000001
 30
0.0
 11
121.8124264999999
 21
739.433
 31
0.0
  0
LINE
  5
195
330
1E
100
AcDbEntity
  8
0
100
AcDbLine
 10
133.8124264999999
 20
741.3330000000001
 30
0.0
 11
133.8124264999999
 21
743.833
 31
0.0
  0
LINE
  5
196
330
1E
100
AcDbEntity
  8
0
100
AcDbLine
 10
99.51242650000001
 20
740.133
 30
0.0
 11
101.7124265
 21
742.983
 31
0.0
  0
LINE
  5
198
330
1E
100
AcDbEntity
  8
0
100
AcDbLine
 10
98.3002265
 20
741.345
 30
0.0
 11
99.82633440623761
 21
743.333
 31
0.0
  0
LINE
  5
199
330
1E
100
AcDbEntity
  8
0
100
AcDbLine
 10
83.84172650000001
 20
760.2519999999998
 30
0.0
 11
86.7100265000001
 21
761.423
 31
0.0
  0
LINE
  5
19A
330
1E
100
AcDbEntity
  8
0
100
AcDbLine
 10
86.81242649999999
 20
742.0329999999998
 30
0.0
 11
86.81242649999999
 21
741.133
 31
0.0
  0
LINE
  5
19B
330
1E
100
AcDbEntity
  8
0
100
AcDbLine
 10
86.81242649999999
 20
742.0329999999998
 30
0.0
 11
86.81242649999999
 21
743.433
 31
0.0
  0
LINE
  5
19C
330
1E
100
AcDbEntity
  8
0
100
AcDbLine
 10
86.81242649999999
 20
743.433
 30
0.0
 11
86.81242649999999
 21
745.3330000000002
 31
0.0
  0
LINE
  5
19D
330
1E
100
AcDbEntity
  8
0
100
AcDbLine
 10
86.81242649999999
 20
743.433
 30
0.0
 11
86.81242649999999
 21
742.0329999999998
 31
0.0
  0
LINE
  5
19E
330
1E
100
AcDbEntity
  8
0
100
AcDbLine
 10
86.81242649999999
 20
745.3330000000002
 30
0.0
 11
86.81242649999999
 21
743.433
 31
0.0
  0
LINE
  5
19F
330
1E
100
AcDbEntity
  8
0
100
AcDbLine
 10
86.81242649999999
 20
745.3330000000002
 30
0.0
 11
86.81242649999999
 21
747.533
 31
0.0
  0
LINE
  5
1A0
330
1E
100
AcDbEntity
  8
0
100
AcDbLine
 10
86.81242649999999
 20
747.533
 30
0.0
 11
86.81242649999999
 21
745.3330000000002
 31
0.0
  0
LINE
  5
1A1
330
1E
100
AcDbEntity
  8
0
100
AcDbLine
 10
86.81242649999999
 20
747.533
 30
0.0
 11
86.81242649999999
 21
749.8330000000001
 31
0.0
  0
LINE
  5
1A2
330
1E
100
AcDbEntity
  8
0
100
AcDbLine
 10
86.90442649999999
 20
749.033
 30
0.0
 11
86.9234265
 21
749.8330000000001
 31
0.0
  0
LINE
  5
1A3
330
1E
100
AcDbEntity
  8
0
100
AcDbLine
 10
86.90442649999999
 20
749.033
 30
0.0
 11
87.2884265
 21
749.033
 31
0.0
  0
LINE
  5
1A4
330
1E
100
AcDbEntity
  8
0
100
AcDbLine
 10
86.90442649999999
 20
749.033
 30
0.0
 11
87.4034265
 21
748.533
 31
0.0
  0
LINE
  5
1A5
330
1E
100
AcDbEntity
  8
0
100
AcDbLine
 10
87.3124265
 20
742.433
 30
0.0
 11
87.3124265
 21
744.633
 31
0.0
  0
LINE
  5
1A6
330
1E
100
AcDbEntity
  8
0
100
AcDbLine
 10
87.3124265
 20
742.433
 30
0.0
 11
87.3124265
 21
740.733
 31
0.0
  0
LINE
  5
1A7
330
1E
100
AcDbEntity
  8
0
100
AcDbLine
 10
87.3124265
 20
744.633
 30
0.0
 11
87.3124265
 21
742.433
 31
0.0
  0
LINE
  5
1A8
330
1E
100
AcDbEntity
  8
0
100
AcDbLine
 10
87.3124265
 20
744.633
 30
0.0
 11
87.3124265
 21
747.133
 31
0.0
  0
LINE
  5
1A9
330
1E
100
AcDbEntity
  8
0
100
AcDbLine
 10
87.3124265
 20
747.133
 30
0.0
 11
87.3124265
 21
744.633
 31
0.0
  0
LINE
  5
1AA
330
1E
100
AcDbEntity
  8
0
100
AcDbLine
 10
87.3124265
 20
747.133
 30
0.0
 11
87.3124265
 21
748.624182364729
 31
0.0
  0
LINE
  5
1AB
330
1E
100
AcDbEntity
  8
0
100
AcDbLine
 10
87.64109157429729
 20
748.4577748240698
 30
0.0
 11
88.0294265
 21
747.6869999999999
 31
0.0
  0
LINE
  5
1AE
330
1E
100
AcDbEntity
  8
0
100
AcDbLine
 10
87.4034265
 20
748.533
 30
0.0
 11
89.8634265
 21
748.033
 31
0.0
  0
LINE
  5
1AF
330
1E
100
AcDbEntity
  8
0
100
AcDbLine
 10
88.6694265
 20
743.833
 30
0.0
 11
88.8124265
 21
741.3330000000001
 31
0.0
  0
LINE
  5
1B0
330
1E
100
AcDbEntity
  8
0
100
AcDbLine
 10
88.3644265
 20
745.843
 30
0.0
 11
88.6694265
 21
743.833
 31
0.0
  0
LINE
  5
1B1
330
1E
100
AcDbEntity
  8
0
100
AcDbLine
 10
88.0294265
 20
747.6869999999999
 30
0.0
 11
88.3644265
 21
745.843
 31
0.0
  0
LINE
  5
1B4
330
1E
100
AcDbEntity
  8
0
100
AcDbLine
 10
87.3124265
 20
748.624182364729
 30
0.0
 11
87.3124265
 21
747.133
 31
0.0
  0
LINE
  5
1B6
330
1E
100
AcDbEntity
  8
0
100
AcDbLine
 10
87.2884265
 20
749.033
 30
0.0
 11
87.9994265
 21
749.033
 31
0.0
  0
LINE
  5
1B7
330
1E
100
AcDbEntity
  8
0
100
AcDbLine
 10
87.9994265
 20
749.033
 30
0.0
 11
88.7684265
 21
749.033
 31
0.0
  0
LINE
  5
1B8
330
1E
100
AcDbEntity
  8
0
100
AcDbLine
 10
96.9554265
 20
743.833
 30
0.0
 11
97.2604265
 21
745.843
 31
0.0
  0
LINE
  5
1B9
330
1E
100
AcDbEntity
  8
0
100
AcDbLine
 10
97.2604265
 20
745.843
 30
0.0
 11
97.5954265
 21
747.6869999999999
 31
0.0
  0
LINE
  5
1BA
330
1E
100
AcDbEntity
  8
0
100
AcDbLine
 10
97.81242650000001
 20
742.933
 30
0.0
 11
97.81242650000001
 21
742.133
 31
0.0
  0
LINE
  5
1BB
330
1E
100
AcDbEntity
  8
0
100
AcDbLine
 10
97.81242650000001
 20
742.933
 30
0.0
 11
97.81242650000001
 21
744.2330000000001
 31
0.0
  0
LINE
  5
1BC
330
1E
100
AcDbEntity
  8
0
100
AcDbLine
 10
97.81242650000001
 20
741.833
 30
0.0
 11
99.8124265
 21
743.333
 31
0.0
  0
LINE
  5
1BD
330
1E
100
AcDbEntity
  8
0
100
AcDbLine
 10
97.81242650000001
 20
741.833
 30
0.0
 11
97.81242650000001
 21
742.133
 31
0.0
  0
LINE
  5
1BE
330
1E
100
AcDbEntity
  8
0
100
AcDbLine
 10
97.81242650000001
 20
742.133
 30
0.0
 11
97.81242650000001
 21
741.833
 31
0.0
  0
LINE
  5
1BF
330
1E
100
AcDbEntity
  8
0
100
AcDbLine
 10
97.81242650000001
 20
742.133
 30
0.0
 11
97.81242650000001
 21
742.933
 31
0.0
  0
LINE
  5
1C0
330
1E
100
AcDbEntity
  8
0
100
AcDbLine
 10
97.81242650000001
 20
744.2330000000001
 30
0.0
 11
97.81242650000001
 21
745.8330000000001
 31
0.0
  0
LINE
  5
1C1
330
1E
100
AcDbEntity
  8
0
100
AcDbLine
 10
97.81242650000001
 20
744.2330000000001
 30
0.0
 11
97.81242650000001
 21
742.933
 31
0.0
  0
LINE
  5
1C2
330
1E
100
AcDbEntity
  8
0
100
AcDbLine
 10
97.81242650000001
 20
745.8330000000001
 30
0.0
 11
97.81242650000001
 21
744.2330000000001
 31
0.0
  0
LINE
  5
1C3
330
1E
100
AcDbEntity
  8
0
100
AcDbLine
 10
97.81242650000001
 20
745.8330000000001
 30
0.0
 11
97.81242650000001
 21
747.7330000000002
 31
0.0
  0
LINE
  5
1C4
330
1E
100
AcDbEntity
  8
0
100
AcDbLine
 10
97.81242650000001
 20
747.7330000000002
 30
0.0
 11
97.81242650000001
 21
745.8330000000001
 31
0.0
  0
LINE
  5
1C5
330
1E
100
AcDbEntity
  8
0
100
AcDbLine
 10
97.81242650000001
 20
747.7330000000002
 30
0.0
 11
97.81242650000001
 21
748.1177058823531
 31
0.0
  0
LINE
  5
1C6
330
1E
100
AcDbEntity
  8
0
100
AcDbLine
 10
97.5954265
 20
747.6869999999999
 30
0.0
 11
97.98376142570273
 21
748.4577748240698
 31
0.0
  0
LINE
  5
1C7
330
1E
100
AcDbEntity
  8
0
100
AcDbLine
 10
95.76142649999999
 20
748.033
 30
0.0
 11
98.22142650000001
 21
748.533
 31
0.0
  0
LINE
  5
1C9
330
1E
100
AcDbEntity
  8
0
100
AcDbLine
 10
92.81242650000001
 20
747.833
 30
0.0
 11
95.76142649999999
 21
748.033
 31
0.0
  0
LINE
  5
1CD
330
1E
100
AcDbEntity
  8
0
100
AcDbLine
 10
96.8564265
 20
749.033
 30
0.0
 11
97.6254265
 21
749.033
 31
0.0
  0
LINE
  5
1CE
330
1E
100
AcDbEntity
  8
0
100
AcDbLine
 10
95.7414265
 20
749.033
 30
0.0
 11
96.8564265
 21
749.033
 31
0.0
  0
LINE
  5
1CF
330
1E
100
AcDbEntity
  8
0
100
AcDbLine
 10
92.81242650000001
 20
749.033
 30
0.0
 11
95.7414265
 21
749.033
 31
0.0
  0
LINE
  5
1D0
330
1E
100
AcDbEntity
  8
0
100
AcDbLine
 10
97.81242650000001
 20
748.1177058823531
 30
0.0
 11
97.81242650000001
 21
747.7330000000002
 31
0.0
  0
LINE
  5
1D2
330
1E
100
AcDbEntity
  8
0
100
AcDbLine
 10
97.6254265
 20
749.033
 30
0.0
 11
98.33642650000001
 21
749.033
 31
0.0
  0
LINE
  5
1D5
330
1E
100
AcDbEntity
  8
0
100
AcDbLine
 10
89.8634265
 20
748.033
 30
0.0
 11
92.81242650000001
 21
747.833
 31
0.0
  0
LINE
  5
1D6
330
1E
100
AcDbEntity
  8
0
100
AcDbLine
 10
88.7684265
 20
749.033
 30
0.0
 11
89.88342649999998
 21
749.033
 31
0.0
  0
LINE
  5
1D7
330
1E
100
AcDbEntity
  8
0
100
AcDbLine
 10
86.81242649999999
 20
754.333
 30
0.0
 11
86.81242649999999
 21
752.133
 31
0.0
  0
LINE
  5
1D8
330
1E
100
AcDbEntity
  8
0
100
AcDbLine
 10
86.81242649999999
 20
754.333
 30
0.0
 11
86.81242649999999
 21
756.2330000000001
 31
0.0
  0
LINE
  5
1D9
330
1E
100
AcDbEntity
  8
0
100
AcDbLine
 10
86.81242649999999
 20
752.133
 30
0.0
 11
86.81242649999999
 21
749.8330000000001
 31
0.0
  0
LINE
  5
1DA
330
1E
100
AcDbEntity
  8
0
100
AcDbLine
 10
86.81242649999999
 20
752.133
 30
0.0
 11
86.81242649999999
 21
754.333
 31
0.0
  0
LINE
  5
1DB
330
1E
100
AcDbEntity
  8
0
100
AcDbLine
 10
86.81242649999999
 20
756.2330000000001
 30
0.0
 11
86.81242649999999
 21
757.633
 31
0.0
  0
LINE
  5
1DC
330
1E
100
AcDbEntity
  8
0
100
AcDbLine
 10
86.81242649999999
 20
756.2330000000001
 30
0.0
 11
86.81242649999999
 21
754.333
 31
0.0
  0
LINE
  5
1DD
330
1E
100
AcDbEntity
  8
0
100
AcDbLine
 10
86.81242649999999
 20
757.633
 30
0.0
 11
86.81242649999999
 21
756.2330000000001
 31
0.0
  0
LINE
  5
1DE
330
1E
100
AcDbEntity
  8
0
100
AcDbLine
 10
86.81242649999999
 20
757.633
 30
0.0
 11
86.81242649999999
 21
758.5329999999999
 31
0.0
  0
LINE
  5
1DF
330
1E
100
AcDbEntity
  8
0
100
AcDbLine
 10
86.90442649999999
 20
750.633
 30
0.0
 11
86.9234265
 21
749.8330000000001
 31
0.0
  0
LINE
  5
1E0
330
1E
100
AcDbEntity
  8
0
100
AcDbLine
 10
86.90442649999999
 20
750.633
 30
0.0
 11
87.2884265
 21
750.633
 31
0.0
  0
LINE
  5
1E1
330
1E
100
AcDbEntity
  8
0
100
AcDbLine
 10
86.90442649999999
 20
750.633
 30
0.0
 11
87.4034265
 21
751.133
 31
0.0
  0
LINE
  5
1E2
330
1E
100
AcDbEntity
  8
0
100
AcDbLine
 10
87.3124265
 20
751.04181763527
 30
0.0
 11
87.3124265
 21
752.533
 31
0.0
  0
LINE
  5
1E4
330
1E
100
AcDbEntity
  8
0
100
AcDbLine
 10
87.4034265
 20
751.133
 30
0.0
 11
89.8634265
 21
751.633
 31
0.0
  0
LINE
  5
1E5
330
1E
100
AcDbEntity
  8
0
100
AcDbLine
 10
87.2884265
 20
750.633
 30
0.0
 11
87.9994265
 21
750.633
 31
0.0
  0
LINE
  5
1E6
330
1E
100
AcDbEntity
  8
0
100
AcDbLine
 10
87.9994265
 20
750.633
 30
0.0
 11
88.7684265
 21
750.633
 31
0.0
  0
LINE
  5
1E7
330
1E
100
AcDbEntity
  8
0
100
AcDbLine
 10
88.7684265
 20
750.633
 30
0.0
 11
89.88342649999998
 21
750.633
 31
0.0
  0
LINE
  5
1E8
330
1E
100
AcDbEntity
  8
0
100
AcDbLine
 10
89.88342649999998
 20
750.633
 30
0.0
 11
92.81242650000001
 21
750.633
 31
0.0
  0
LINE
  5
1E9
330
1E
100
AcDbEntity
  8
0
100
AcDbLine
 10
97.6254265
 20
750.633
 30
0.0
 11
98.33642650000001
 21
750.633
 31
0.0
  0
LINE
  5
1EA
330
1E
100
AcDbEntity
  8
0
100
AcDbLine
 10
96.8564265
 20
750.633
 30
0.0
 11
97.6254265
 21
750.633
 31
0.0
  0
LINE
  5
1EB
330
1E
100
AcDbEntity
  8
0
100
AcDbLine
 10
95.7414265
 20
750.633
 30
0.0
 11
96.8564265
 21
750.633
 31
0.0
  0
LINE
  5
1F1
330
1E
100
AcDbEntity
  8
0
100
AcDbLine
 10
92.81242650000001
 20
750.633
 30
0.0
 11
95.7414265
 21
750.633
 31
0.0
  0
LINE
  5
1F2
330
1E
100
AcDbEntity
  8
0
100
AcDbLine
 10
87.64109157429741
 20
751.20822517593
 30
0.0
 11
88.0294265
 21
751.9789999999998
 31
0.0
  0
LINE
  5
1F3
330
1E
100
AcDbEntity
  8
0
100
AcDbLine
 10
89.8634265
 20
751.633
 30
0.0
 11
92.81242650000001
 21
751.833
 31
0.0
  0
LINE
  5
1F4
330
1E
100
AcDbEntity
  8
0
100
AcDbLine
 10
95.76142649999999
 20
751.633
 30
0.0
 11
98.22142650000001
 21
751.133
 31
0.0
  0
LINE
  5
1F5
330
1E
100
AcDbEntity
  8
0
100
AcDbLine
 10
97.81242650000001
 20
751.5482941176469
 30
0.0
 11
97.81242650000001
 21
751.933
 31
0.0
  0
LINE
  5
1FA
330
1E
100
AcDbEntity
  8
0
100
AcDbLine
 10
87.3124265
 20
755.033
 30
0.0
 11
87.3124265
 21
752.533
 31
0.0
  0
LINE
  5
1FB
330
1E
100
AcDbEntity
  8
0
100
AcDbLine
 10
87.3124265
 20
755.033
 30
0.0
 11
87.3124265
 21
757.233
 31
0.0
  0
LINE
  5
1FC
330
1E
100
AcDbEntity
  8
0
100
AcDbLine
 10
87.3124265
 20
752.533
 30
0.0
 11
87.3124265
 21
751.04181763527
 31
0.0
  0
LINE
  5
1FD
330
1E
100
AcDbEntity
  8
0
100
AcDbLine
 10
87.3124265
 20
752.533
 30
0.0
 11
87.3124265
 21
755.033
 31
0.0
  0
LINE
  5
1FE
330
1E
100
AcDbEntity
  8
0
100
AcDbLine
 10
87.3124265
 20
757.233
 30
0.0
 11
87.3124265
 21
758.933
 31
0.0
  0
LINE
  5
1FF
330
1E
100
AcDbEntity
  8
0
100
AcDbLine
 10
87.3124265
 20
757.233
 30
0.0
 11
87.3124265
 21
755.033
 31
0.0
  0
LINE
  5
200
330
1E
100
AcDbEntity
  8
0
100
AcDbLine
 10
88.3644265
 20
753.8229999999998
 30
0.0
 11
88.6694265
 21
755.833
 31
0.0
  0
LINE
  5
201
330
1E
100
AcDbEntity
  8
0
100
AcDbLine
 10
88.6694265
 20
755.833
 30
0.0
 11
88.8124265
 21
758.3330000000001
 31
0.0
  0
LINE
  5
202
330
1E
100
AcDbEntity
  8
0
100
AcDbLine
 10
96.81242650000001
 20
758.3330000000001
 30
0.0
 11
96.9554265
 21
760.2549999999999
 31
0.0
  0
LINE
  5
203
330
1E
100
AcDbEntity
  8
0
100
AcDbLine
 10
96.81242650000001
 20
758.3330000000001
 30
0.0
 11
96.9554265
 21
755.833
 31
0.0
  0
LINE
  5
204
330
1E
100
AcDbEntity
  8
0
100
AcDbLine
 10
96.9554265
 20
755.833
 30
0.0
 11
97.2604265
 21
753.8229999999998
 31
0.0
  0
LINE
  5
205
330
1E
100
AcDbEntity
  8
0
100
AcDbLine
 10
97.2604265
 20
753.8229999999998
 30
0.0
 11
97.5954265
 21
751.9789999999998
 31
0.0
  0
LINE
  5
206
330
1E
100
AcDbEntity
  8
0
100
AcDbLine
 10
97.81242650000001
 20
753.8330000000001
 30
0.0
 11
97.81242650000001
 21
751.933
 31
0.0
  0
LINE
  5
207
330
1E
100
AcDbEntity
  8
0
100
AcDbLine
 10
97.81242650000001
 20
753.8330000000001
 30
0.0
 11
97.81242650000001
 21
755.433
 31
0.0
  0
LINE
  5
208
330
1E
100
AcDbEntity
  8
0
100
AcDbLine
 10
97.81242650000001
 20
751.933
 30
0.0
 11
97.81242650000001
 21
751.5482941176469
 31
0.0
  0
LINE
  5
209
330
1E
100
AcDbEntity
  8
0
100
AcDbLine
 10
97.81242650000001
 20
751.933
 30
0.0
 11
97.81242650000001
 21
753.8330000000001
 31
0.0
  0
LINE
  5
20A
330
1E
100
AcDbEntity
  8
0
100
AcDbLine
 10
97.81242650000001
 20
755.433
 30
0.0
 11
97.81242650000001
 21
756.7330000000001
 31
0.0
  0
LINE
  5
20B
330
1E
100
AcDbEntity
  8
0
100
AcDbLine
 10
97.81242650000001
 20
755.433
 30
0.0
 11
97.81242650000001
 21
753.8330000000001
 31
0.0
  0
LINE
  5
20C
330
1E
100
AcDbEntity
  8
0
100
AcDbLine
 10
97.81242650000001
 20
756.7330000000001
 30
0.0
 11
97.81242650000001
 21
755.433
 31
0.0
  0
LINE
  5
20D
330
1E
100
AcDbEntity
  8
0
100
AcDbLine
 10
97.81242650000001
 20
756.7330000000001
 30
0.0
 11
97.81242650000001
 21
757.533
 31
0.0
  0
LINE
  5
20E
330
1E
100
AcDbEntity
  8
0
100
AcDbLine
 10
97.81242650000001
 20
757.533
 30
0.0
 11
97.81242650000001
 21
756.7330000000001
 31
0.0
  0
LINE
  5
20F
330
1E
100
AcDbEntity
  8
0
100
AcDbLine
 10
97.81242650000001
 20
757.533
 30
0.0
 11
97.81242650000001
 21
757.8330000000002
 31
0.0
  0
LINE
  5
210
330
1E
100
AcDbEntity
  8
0
100
AcDbLine
 10
97.81242650000001
 20
757.8330000000002
 30
0.0
 11
99.8124265
 21
756.333
 31
0.0
  0
LINE
  5
211
330
1E
100
AcDbEntity
  8
0
100
AcDbLine
 10
97.81242650000001
 20
757.8330000000002
 30
0.0
 11
97.81242650000001
 21
757.533
 31
0.0
  0
LINE
  5
212
330
1E
100
AcDbEntity
  8
0
100
AcDbLine
 10
97.5954265
 20
751.9789999999998
 30
0.0
 11
97.98376142570273
 21
751.20822517593
 31
0.0
  0
LINE
  5
214
330
1E
100
AcDbEntity
  8
0
100
AcDbLine
 10
92.81242650000001
 20
751.833
 30
0.0
 11
95.76142649999999
 21
751.633
 31
0.0
  0
LINE
  5
215
330
1E
100
AcDbEntity
  8
0
100
AcDbLine
 10
88.0294265
 20
751.9789999999998
 30
0.0
 11
88.3644265
 21
753.8229999999998
 31
0.0
  0
LINE
  5
217
330
1E
100
AcDbEntity
  8
0
100
AcDbLine
 10
86.81242649999999
 20
749.8330000000001
 30
0.0
 11
86.81242649999999
 21
747.533
 31
0.0
  0
LINE
  5
218
330
1E
100
AcDbEntity
  8
0
100
AcDbLine
 10
86.81242649999999
 20
749.8330000000001
 30
0.0
 11
86.81242649999999
 21
752.133
 31
0.0
  0
LINE
  5
219
330
1E
100
AcDbEntity
  8
0
100
AcDbLine
 10
89.88342649999998
 20
749.033
 30
0.0
 11
92.81242650000001
 21
749.033
 31
0.0
  0
LINE
  5
21A
330
1E
100
AcDbEntity
  8
0
100
AcDbLine
 10
84.9831265
 20
758.2719999999998
 30
0.0
 11
86.89043184016702
 21
759.067016020501
 31
0.0
  0
LINE
  5
21B
330
1E
100
AcDbEntity
  8
0
100
AcDbLine
 10
86.81242649999999
 20
758.5329999999999
 30
0.0
 11
86.81242649999999
 21
757.633
 31
0.0
  0
LINE
  5
21C
330
1E
100
AcDbEntity
  8
0
100
AcDbLine
 10
86.81242649999999
 20
758.5329999999999
 30
0.0
 11
86.81242649999999
 21
758.833
 31
0.0
  0
LINE
  5
21D
330
1E
100
AcDbEntity
  8
0
100
AcDbLine
 10
87.3124265
 20
758.933
 30
0.0
 11
87.3124265
 21
757.233
 31
0.0
  0
LINE
  5
21E
330
1E
100
AcDbEntity
  8
0
100
AcDbLine
 10
87.3124265
 20
758.933
 30
0.0
 11
87.3124265
 21
759.933
 31
0.0
  0
LINE
  5
21F
330
1E
100
AcDbEntity
  8
0
100
AcDbLine
 10
87.3124265
 20
759.933
 30
0.0
 11
87.3124265
 21
758.933
 31
0.0
  0
LINE
  5
220
330
1E
100
AcDbEntity
  8
0
100
AcDbLine
 10
87.3124265
 20
759.933
 30
0.0
 11
87.3124265
 21
760.333
 31
0.0
  0
LINE
  5
221
330
1E
100
AcDbEntity
  8
0
100
AcDbLine
 10
86.81242649999999
 20
758.833
 30
0.0
 11
87.3124265
 21
760.333
 31
0.0
  0
LINE
  5
222
330
1E
100
AcDbEntity
  8
0
100
AcDbLine
 10
86.81242649999999
 20
758.833
 30
0.0
 11
86.81242649999999
 21
758.5329999999999
 31
0.0
  0
LINE
  5
223
330
1E
100
AcDbEntity
  8
0
100
AcDbLine
 10
88.6694265
 20
760.2549999999999
 30
0.0
 11
88.8124265
 21
758.3330000000001
 31
0.0
  0
LINE
  5
224
330
1E
100
AcDbEntity
  8
0
100
AcDbLine
 10
96.98202410723672
 20
760.3242071782901
 30
0.0
 11
97.81242650000001
 21
757.8330000000002
 31
0.0
  0
LINE
  5
225
330
1E
100
AcDbEntity
  8
0
100
AcDbLine
 10
96.9554265
 20
760.2549999999999
 30
0.0
 11
97.2604265
 21
762.5369999999998
 31
0.0
  0
LINE
  5
226
330
1E
100
AcDbEntity
  8
0
100
AcDbLine
 10
87.3124265
 20
760.333
 30
0.0
 11
88.5962289798512
 21
760.7609341599498
 31
0.0
  0
LINE
  5
227
330
1E
100
AcDbEntity
  8
0
100
AcDbLine
 10
87.3124265
 20
760.333
 30
0.0
 11
87.3124265
 21
759.933
 31
0.0
  0
LINE
  5
228
330
1E
100
AcDbEntity
  8
0
100
AcDbLine
 10
84.8368265
 20
758.5160000000001
 30
0.0
 11
87.00138013703881
 21
759.3998609111158
 31
0.0
  0
LINE
  5
229
330
1E
100
AcDbEntity
  8
0
100
AcDbLine
 10
97.42627512018039
 20
758.991454139459
 30
0.0
 11
98.3002265
 21
758.321
 31
0.0
  0
LINE
  5
22A
330
1E
100
AcDbEntity
  8
0
100
AcDbLine
 10
97.6125892353348
 20
758.432511793996
 30
0.0
 11
98.06612649999999
 21
758.0869999999999
 31
0.0
  0
LINE
  5
22B
330
1E
100
AcDbEntity
  8
0
100
AcDbLine
 10
84.0173265000001
 20
759.96
 30
0.0
 11
86.8270265000001
 21
761.1310000000002
 31
0.0
  0
LINE
  5
22C
330
1E
100
AcDbEntity
  8
0
100
AcDbLine
 10
97.1070911689061
 20
761.389750080143
 30
0.0
 11
99.51242650000001
 21
759.533
 31
0.0
  0
LINE
  5
22F
330
1E
100
AcDbEntity
  8
0
100
AcDbLine
 10
86.7100265000001
 20
761.423
 30
0.0
 11
88.48201870738261
 21
761.657178959846
 31
0.0
  0
LINE
  5
230
330
1E
100
AcDbEntity
  8
0
100
AcDbLine
 10
86.8270265000001
 20
761.1310000000002
 30
0.0
 11
88.52132126710657
 21
761.3631184965989
 31
0.0
  0
LINE
  5
231
330
1E
100
AcDbEntity
  8
0
100
AcDbLine
 10
98.22142650000001
 20
751.133
 30
0.0
 11
98.7204265
 21
750.633
 31
0.0
  0
LINE
  5
232
330
1E
100
AcDbEntity
  8
0
100
AcDbLine
 10
98.33642650000001
 20
750.633
 30
0.0
 11
98.7204265
 21
750.633
 31
0.0
  0
LINE
  5
233
330
1E
100
AcDbEntity
  8
0
100
AcDbLine
 10
98.22142650000001
 20
748.533
 30
0.0
 11
98.7204265
 21
749.033
 31
0.0
  0
LINE
  5
234
330
1E
100
AcDbEntity
  8
0
100
AcDbLine
 10
99.8124265
 20
744.2330000000001
 30
0.0
 11
99.8124265
 21
743.533
 31
0.0
  0
LINE
  5
235
330
1E
100
AcDbEntity
  8
0
100
AcDbLine
 10
99.8124265
 20
744.2330000000001
 30
0.0
 11
99.8124265
 21
745.233
 31
0.0
  0
LINE
  5
236
330
1E
100
AcDbEntity
  8
0
100
AcDbLine
 10
99.8124265
 20
743.333
 30
0.0
 11
107.8124264999999
 21
743.333
 31
0.0
  0
LINE
  5
237
330
1E
100
AcDbEntity
  8
0
100
AcDbLine
 10
99.8124265
 20
743.333
 30
0.0
 11
99.8124265
 21
743.533
 31
0.0
  0
LINE
  5
238
330
1E
100
AcDbEntity
  8
0
100
AcDbLine
 10
99.8124265
 20
743.533
 30
0.0
 11
99.8124265
 21
743.333
 31
0.0
  0
LINE
  5
239
330
1E
100
AcDbEntity
  8
0
100
AcDbLine
 10
99.8124265
 20
743.533
 30
0.0
 11
99.8124265
 21
744.2330000000001
 31
0.0
  0
LINE
  5
23A
330
1E
100
AcDbEntity
  8
0
100
AcDbLine
 10
99.8124265
 20
745.233
 30
0.0
 11
99.8124265
 21
746.633
 31
0.0
  0
LINE
  5
23B
330
1E
100
AcDbEntity
  8
0
100
AcDbLine
 10
99.8124265
 20
745.233
 30
0.0
 11
99.8124265
 21
744.2330000000001
 31
0.0
  0
LINE
  5
23C
330
1E
100
AcDbEntity
  8
0
100
AcDbLine
 10
99.8124265
 20
746.633
 30
0.0
 11
99.8124265
 21
745.233
 31
0.0
  0
LINE
  5
23D
330
1E
100
AcDbEntity
  8
0
100
AcDbLine
 10
99.8124265
 20
746.633
 30
0.0
 11
99.8124265
 21
748.133
 31
0.0
  0
LINE
  5
23E
330
1E
100
AcDbEntity
  8
0
100
AcDbLine
 10
99.8124265
 20
748.133
 30
0.0
 11
99.8124265
 21
746.633
 31
0.0
  0
LINE
  5
23F
330
1E
100
AcDbEntity
  8
0
100
AcDbLine
 10
99.8124265
 20
748.133
 30
0.0
 11
99.8124265
 21
749.8330000000001
 31
0.0
  0
LINE
  5
240
330
1E
100
AcDbEntity
  8
0
100
AcDbLine
 10
99.8124265
 20
749.8330000000001
 30
0.0
 11
99.8124265
 21
748.133
 31
0.0
  0
LINE
  5
241
330
1E
100
AcDbEntity
  8
0
100
AcDbLine
 10
99.8124265
 20
749.8330000000001
 30
0.0
 11
99.8124265
 21
751.533
 31
0.0
  0
LINE
  5
242
330
1E
100
AcDbEntity
  8
0
100
AcDbLine
 10
99.8124265
 20
753.033
 30
0.0
 11
99.8124265
 21
751.533
 31
0.0
  0
LINE
  5
243
330
1E
100
AcDbEntity
  8
0
100
AcDbLine
 10
99.8124265
 20
753.033
 30
0.0
 11
99.8124265
 21
754.433
 31
0.0
  0
LINE
  5
244
330
1E
100
AcDbEntity
  8
0
100
AcDbLine
 10
99.8124265
 20
751.533
 30
0.0
 11
99.8124265
 21
749.8330000000001
 31
0.0
  0
LINE
  5
245
330
1E
100
AcDbEntity
  8
0
100
AcDbLine
 10
99.8124265
 20
751.533
 30
0.0
 11
99.8124265
 21
753.033
 31
0.0
  0
LINE
  5
246
330
1E
100
AcDbEntity
  8
0
100
AcDbLine
 10
99.8124265
 20
754.433
 30
0.0
 11
99.8124265
 21
755.433
 31
0.0
  0
LINE
  5
247
330
1E
100
AcDbEntity
  8
0
100
AcDbLine
 10
99.8124265
 20
754.433
 30
0.0
 11
99.8124265
 21
753.033
 31
0.0
  0
LINE
  5
248
330
1E
100
AcDbEntity
  8
0
100
AcDbLine
 10
99.8124265
 20
755.433
 30
0.0
 11
99.8124265
 21
754.433
 31
0.0
  0
LINE
  5
249
330
1E
100
AcDbEntity
  8
0
100
AcDbLine
 10
99.8124265
 20
755.433
 30
0.0
 11
99.8124265
 21
756.133
 31
0.0
  0
LINE
  5
24A
330
1E
100
AcDbEntity
  8
0
100
AcDbLine
 10
99.8124265
 20
756.133
 30
0.0
 11
99.8124265
 21
755.433
 31
0.0
  0
LINE
  5
24B
330
1E
100
AcDbEntity
  8
0
100
AcDbLine
 10
99.8124265
 20
756.133
 30
0.0
 11
99.8124265
 21
756.333
 31
0.0
  0
LINE
  5
24C
330
1E
100
AcDbEntity
  8
0
100
AcDbLine
 10
99.8124265
 20
756.333
 30
0.0
 11
107.8124264999999
 21
756.333
 31
0.0
  0
LINE
  5
24D
330
1E
100
AcDbEntity
  8
0
100
AcDbLine
 10
99.8124265
 20
756.333
 30
0.0
 11
99.8124265
 21
756.133
 31
0.0
  0
LINE
  5
24E
330
1E
100
AcDbEntity
  8
0
100
AcDbLine
 10
98.7014265
 20
749.8330000000001
 30
0.0
 11
98.7204265
 21
749.033
 31
0.0
  0
LINE
  5
24F
330
1E
100
AcDbEntity
  8
0
100
AcDbLine
 10
98.7014265
 20
749.8330000000001
 30
0.0
 11
98.7204265
 21
750.633
 31
0.0
  0
LINE
  5
250
330
1E
100
AcDbEntity
  8
0
100
AcDbLine
 10
98.33642650000001
 20
749.033
 30
0.0
 11
98.7204265
 21
749.033
 31
0.0
  0
LINE
  5
251
330
1E
100
AcDbEntity
  8
0
100
AcDbLine
 10
101.7124265
 20
756.683
 30
0.0
 11
101.8556083181819
 21
756.333
 31
0.0
  0
LINE
  5
253
330
1E
100
AcDbEntity
  8
0
100
AcDbLine
 10
101.7124265
 20
742.983
 30
0.0
 11
101.8556083181819
 21
743.333
 31
0.0
  0
LINE
  5
254
330
1E
100
AcDbEntity
  8
0
100
AcDbLine
 10
107.8124264999999
 20
743.333
 30
0.0
 11
107.8124264999999
 21
743.533
 31
0.0
  0
LINE
  5
255
330
1E
100
AcDbEntity
  8
0
100
AcDbLine
 10
107.8124264999999
 20
743.533
 30
0.0
 11
107.8124264999999
 21
743.333
 31
0.0
  0
LINE
  5
256
330
1E
100
AcDbEntity
  8
0
100
AcDbLine
 10
107.8124264999999
 20
743.533
 30
0.0
 11
107.8124264999999
 21
744.2330000000001
 31
0.0
  0
LINE
  5
257
330
1E
100
AcDbEntity
  8
0
100
AcDbLine
 10
107.8124264999999
 20
743.833
 30
0.0
 11
118.8124264999999
 21
743.833
 31
0.0
  0
LINE
  5
258
330
1E
100
AcDbEntity
  8
0
100
AcDbLine
 10
107.8124264999999
 20
744.2330000000001
 30
0.0
 11
107.8124264999999
 21
743.533
 31
0.0
  0
LINE
  5
259
330
1E
100
AcDbEntity
  8
0
100
AcDbLine
 10
107.8124264999999
 20
744.2330000000001
 30
0.0
 11
107.8124264999999
 21
745.233
 31
0.0
  0
LINE
  5
25A
330
1E
100
AcDbEntity
  8
0
100
AcDbLine
 10
118.8124264999999
 20
744.133
 30
0.0
 11
118.8124264999999
 21
741.733
 31
0.0
  0
LINE
  5
25B
330
1E
100
AcDbEntity
  8
0
100
AcDbLine
 10
118.8124264999999
 20
744.133
 30
0.0
 11
118.8124264999999
 21
746.833
 31
0.0
  0
LINE
  5
25C
330
1E
100
AcDbEntity
  8
0
100
AcDbLine
 10
118.8124264999999
 20
744.633
 30
0.0
 11
118.8124264999999
 21
745.633
 31
0.0
  0
LINE
  5
25D
330
1E
100
AcDbEntity
  8
0
100
AcDbLine
 10
118.8124264999999
 20
744.033
 30
0.0
 11
118.8124264999999
 21
744.633
 31
0.0
  0
LINE
  5
25E
330
1E
100
AcDbEntity
  8
0
100
AcDbLine
 10
107.8124264999999
 20
745.233
 30
0.0
 11
107.8124264999999
 21
746.633
 31
0.0
  0
LINE
  5
25F
330
1E
100
AcDbEntity
  8
0
100
AcDbLine
 10
107.8124264999999
 20
745.233
 30
0.0
 11
107.8124264999999
 21
744.2330000000001
 31
0.0
  0
LINE
  5
260
330
1E
100
AcDbEntity
  8
0
100
AcDbLine
 10
107.8124264999999
 20
746.633
 30
0.0
 11
107.8124264999999
 21
745.233
 31
0.0
  0
LINE
  5
261
330
1E
100
AcDbEntity
  8
0
100
AcDbLine
 10
107.8124264999999
 20
746.633
 30
0.0
 11
107.8124264999999
 21
748.133
 31
0.0
  0
LINE
  5
262
330
1E
100
AcDbEntity
  8
0
100
AcDbLine
 10
118.8124264999999
 20
745.633
 30
0.0
 11
118.8124264999999
 21
746.833
 31
0.0
  0
LINE
  5
263
330
1E
100
AcDbEntity
  8
0
100
AcDbLine
 10
107.8124264999999
 20
753.033
 30
0.0
 11
107.8124264999999
 21
751.533
 31
0.0
  0
LINE
  5
264
330
1E
100
AcDbEntity
  8
0
100
AcDbLine
 10
107.8124264999999
 20
753.033
 30
0.0
 11
107.8124264999999
 21
754.433
 31
0.0
  0
LINE
  5
265
330
1E
100
AcDbEntity
  8
0
100
AcDbLine
 10
107.8124264999999
 20
751.533
 30
0.0
 11
107.8124264999999
 21
749.8330000000001
 31
0.0
  0
LINE
  5
266
330
1E
100
AcDbEntity
  8
0
100
AcDbLine
 10
107.8124264999999
 20
751.533
 30
0.0
 11
107.8124264999999
 21
753.033
 31
0.0
  0
LINE
  5
267
330
1E
100
AcDbEntity
  8
0
100
AcDbLine
 10
107.8124264999999
 20
748.133
 30
0.0
 11
107.8124264999999
 21
746.633
 31
0.0
  0
LINE
  5
268
330
1E
100
AcDbEntity
  8
0
100
AcDbLine
 10
107.8124264999999
 20
748.133
 30
0.0
 11
107.8124264999999
 21
749.8330000000001
 31
0.0
  0
LINE
  5
269
330
1E
100
AcDbEntity
  8
0
100
AcDbLine
 10
118.8124264999999
 20
752.8330000000002
 30
0.0
 11
118.8124264999999
 21
754.0329999999999
 31
0.0
  0
LINE
  5
26A
330
1E
100
AcDbEntity
  8
0
100
AcDbLine
 10
118.8124264999999
 20
752.8330000000002
 30
0.0
 11
118.8124264999999
 21
749.8330000000001
 31
0.0
  0
LINE
  5
26B
330
1E
100
AcDbEntity
  8
0
100
AcDbLine
 10
118.8124264999999
 20
752.8330000000002
 30
0.0
 11
118.8124264999999
 21
755.533
 31
0.0
  0
LINE
  5
26C
330
1E
100
AcDbEntity
  8
0
100
AcDbLine
 10
118.8124264999999
 20
751.333
 30
0.0
 11
118.8124264999999
 21
752.8330000000002
 31
0.0
  0
LINE
  5
26D
330
1E
100
AcDbEntity
  8
0
100
AcDbLine
 10
118.8124264999999
 20
749.8330000000001
 30
0.0
 11
118.8124264999999
 21
751.333
 31
0.0
  0
LINE
  5
26E
330
1E
100
AcDbEntity
  8
0
100
AcDbLine
 10
118.8124264999999
 20
749.8330000000001
 30
0.0
 11
118.8124264999999
 21
746.833
 31
0.0
  0
LINE
  5
26F
330
1E
100
AcDbEntity
  8
0
100
AcDbLine
 10
118.8124264999999
 20
749.8330000000001
 30
0.0
 11
118.8124264999999
 21
752.8330000000002
 31
0.0
  0
LINE
  5
270
330
1E
100
AcDbEntity
  8
0
100
AcDbLine
 10
107.8124264999999
 20
749.8330000000001
 30
0.0
 11
107.8124264999999
 21
748.133
 31
0.0
  0
LINE
  5
271
330
1E
100
AcDbEntity
  8
0
100
AcDbLine
 10
107.8124264999999
 20
749.8330000000001
 30
0.0
 11
107.8124264999999
 21
751.533
 31
0.0
  0
LINE
  5
272
330
1E
100
AcDbEntity
  8
0
100
AcDbLine
 10
118.8124264999999
 20
746.833
 30
0.0
 11
118.8124264999999
 21
748.3330000000002
 31
0.0
  0
LINE
  5
273
330
1E
100
AcDbEntity
  8
0
100
AcDbLine
 10
118.8124264999999
 20
746.833
 30
0.0
 11
118.8124264999999
 21
744.133
 31
0.0
  0
LINE
  5
274
330
1E
100
AcDbEntity
  8
0
100
AcDbLine
 10
118.8124264999999
 20
746.833
 30
0.0
 11
118.8124264999999
 21
749.8330000000001
 31
0.0
  0
LINE
  5
275
330
1E
100
AcDbEntity
  8
0
100
AcDbLine
 10
118.8124264999999
 20
748.3330000000002
 30
0.0
 11
118.8124264999999
 21
749.8330000000001
 31
0.0
  0
LINE
  5
276
330
1E
100
AcDbEntity
  8
0
100
AcDbLine
 10
118.8124264999999
 20
743.833
 30
0.0
 11
118.8124264999999
 21
741.733
 31
0.0
  0
LINE
  5
277
330
1E
100
AcDbEntity
  8
0
100
AcDbLine
 10
118.8124264999999
 20
743.833
 30
0.0
 11
118.8124264999999
 21
744.033
 31
0.0
  0
LINE
  5
278
330
1E
100
AcDbEntity
  8
0
100
AcDbLine
 10
119.3124264999999
 20
743.833
 30
0.0
 11
119.3124264999999
 21
741.3330000000001
 31
0.0
  0
LINE
  5
279
330
1E
100
AcDbEntity
  8
0
100
AcDbLine
 10
119.3124264999999
 20
743.833
 30
0.0
 11
119.3124264999999
 21
746.733
 31
0.0
  0
LINE
  5
27A
330
1E
100
AcDbEntity
  8
0
100
AcDbLine
 10
121.3124264999999
 20
741.733
 30
0.0
 11
121.3124264999999
 21
744.133
 31
0.0
  0
LINE
  5
27B
330
1E
100
AcDbEntity
  8
0
100
AcDbLine
 10
121.3124264999999
 20
741.733
 30
0.0
 11
121.3124264999999
 21
739.8330000000002
 31
0.0
  0
LINE
  5
27C
330
1E
100
AcDbEntity
  8
0
100
AcDbLine
 10
120.8124264999999
 20
743.833
 30
0.0
 11
120.8124264999999
 21
741.3330000000001
 31
0.0
  0
LINE
  5
27D
330
1E
100
AcDbEntity
  8
0
100
AcDbLine
 10
120.8124264999999
 20
743.833
 30
0.0
 11
120.8124264999999
 21
746.733
 31
0.0
  0
LINE
  5
27E
330
1E
100
AcDbEntity
  8
0
100
AcDbLine
 10
119.3124264999999
 20
746.733
 30
0.0
 11
119.3124264999999
 21
743.833
 31
0.0
  0
LINE
  5
27F
330
1E
100
AcDbEntity
  8
0
100
AcDbLine
 10
119.3124264999999
 20
746.733
 30
0.0
 11
119.3124264999999
 21
749.8330000000001
 31
0.0
  0
LINE
  5
280
330
1E
100
AcDbEntity
  8
0
100
AcDbLine
 10
120.8124264999999
 20
746.733
 30
0.0
 11
120.8124264999999
 21
743.833
 31
0.0
  0
LINE
  5
281
330
1E
100
AcDbEntity
  8
0
100
AcDbLine
 10
120.8124264999999
 20
746.733
 30
0.0
 11
120.8124264999999
 21
749.8330000000001
 31
0.0
  0
LINE
  5
282
330
1E
100
AcDbEntity
  8
0
100
AcDbLine
 10
121.3124264999999
 20
744.133
 30
0.0
 11
121.3124264999999
 21
741.733
 31
0.0
  0
LINE
  5
283
330
1E
100
AcDbEntity
  8
0
100
AcDbLine
 10
121.3124264999999
 20
744.133
 30
0.0
 11
121.3124264999999
 21
746.833
 31
0.0
  0
LINE
  5
284
330
1E
100
AcDbEntity
  8
0
100
AcDbLine
 10
121.8124264999999
 20
743.833
 30
0.0
 11
121.8124264999999
 21
741.3330000000001
 31
0.0
  0
LINE
  5
285
330
1E
100
AcDbEntity
  8
0
100
AcDbLine
 10
121.8124264999999
 20
743.833
 30
0.0
 11
121.8124264999999
 21
746.733
 31
0.0
  0
LINE
  5
286
330
1E
100
AcDbEntity
  8
0
100
AcDbLine
 10
133.8124264999999
 20
743.833
 30
0.0
 11
133.8124264999999
 21
746.733
 31
0.0
  0
LINE
  5
287
330
1E
100
AcDbEntity
  8
0
100
AcDbLine
 10
119.3124264999999
 20
749.8330000000001
 30
0.0
 11
119.3124264999999
 21
746.733
 31
0.0
  0
LINE
  5
288
330
1E
100
AcDbEntity
  8
0
100
AcDbLine
 10
119.3124264999999
 20
749.8330000000001
 30
0.0
 11
119.3124264999999
 21
752.9329999999998
 31
0.0
  0
LINE
  5
289
330
1E
100
AcDbEntity
  8
0
100
AcDbLine
 10
120.8124264999999
 20
749.8330000000001
 30
0.0
 11
120.8124264999999
 21
746.733
 31
0.0
  0
LINE
  5
28A
330
1E
100
AcDbEntity
  8
0
100
AcDbLine
 10
120.8124264999999
 20
749.8330000000001
 30
0.0
 11
120.8124264999999
 21
752.9329999999998
 31
0.0
  0
LINE
  5
28B
330
1E
100
AcDbEntity
  8
0
100
AcDbLine
 10
121.3124264999999
 20
746.833
 30
0.0
 11
121.3124264999999
 21
744.133
 31
0.0
  0
LINE
  5
28C
330
1E
100
AcDbEntity
  8
0
100
AcDbLine
 10
121.3124264999999
 20
746.833
 30
0.0
 11
121.3124264999999
 21
749.8330000000001
 31
0.0
  0
LINE
  5
28D
330
1E
100
AcDbEntity
  8
0
100
AcDbLine
 10
133.8124264999999
 20
749.8330000000001
 30
0.0
 11
133.8124264999999
 21
752.9329999999998
 31
0.0
  0
LINE
  5
28E
330
1E
100
AcDbEntity
  8
0
100
AcDbLine
 10
121.3124264999999
 20
749.8330000000001
 30
0.0
 11
121.3124264999999
 21
746.833
 31
0.0
  0
LINE
  5
28F
330
1E
100
AcDbEntity
  8
0
100
AcDbLine
 10
121.3124264999999
 20
749.8330000000001
 30
0.0
 11
121.3124264999999
 21
752.8330000000002
 31
0.0
  0
LINE
  5
290
330
1E
100
AcDbEntity
  8
0
100
AcDbLine
 10
121.8124264999999
 20
746.733
 30
0.0
 11
121.8124264999999
 21
743.833
 31
0.0
  0
LINE
  5
291
330
1E
100
AcDbEntity
  8
0
100
AcDbLine
 10
121.8124264999999
 20
746.733
 30
0.0
 11
121.8124264999999
 21
749.8330000000001
 31
0.0
  0
LINE
  5
292
330
1E
100
AcDbEntity
  8
0
100
AcDbLine
 10
133.8124264999999
 20
746.733
 30
0.0
 11
133.8124264999999
 21
749.8330000000001
 31
0.0
  0
LINE
  5
293
330
1E
100
AcDbEntity
  8
0
100
AcDbLine
 10
119.3124264999999
 20
752.9329999999998
 30
0.0
 11
119.3124264999999
 21
749.8330000000001
 31
0.0
  0
LINE
  5
294
330
1E
100
AcDbEntity
  8
0
100
AcDbLine
 10
119.3124264999999
 20
752.9329999999998
 30
0.0
 11
119.3124264999999
 21
755.833
 31
0.0
  0
LINE
  5
295
330
1E
100
AcDbEntity
  8
0
100
AcDbLine
 10
120.8124264999999
 20
752.9329999999998
 30
0.0
 11
120.8124264999999
 21
749.8330000000001
 31
0.0
  0
LINE
  5
296
330
1E
100
AcDbEntity
  8
0
100
AcDbLine
 10
120.8124264999999
 20
752.9329999999998
 30
0.0
 11
120.8124264999999
 21
755.833
 31
0.0
  0
LINE
  5
297
330
1E
100
AcDbEntity
  8
0
100
AcDbLine
 10
121.3124264999999
 20
752.8330000000002
 30
0.0
 11
121.3124264999999
 21
749.8330000000001
 31
0.0
  0
LINE
  5
298
330
1E
100
AcDbEntity
  8
0
100
AcDbLine
 10
121.3124264999999
 20
752.8330000000002
 30
0.0
 11
121.3124264999999
 21
755.533
 31
0.0
  0
LINE
  5
299
330
1E
100
AcDbEntity
  8
0
100
AcDbLine
 10
133.8124264999999
 20
752.9329999999998
 30
0.0
 11
133.8124264999999
 21
755.833
 31
0.0
  0
LINE
  5
29A
330
1E
100
AcDbEntity
  8
0
100
AcDbLine
 10
121.8124264999999
 20
752.9329999999998
 30
0.0
 11
121.8124264999999
 21
749.8330000000001
 31
0.0
  0
LINE
  5
29B
330
1E
100
AcDbEntity
  8
0
100
AcDbLine
 10
121.8124264999999
 20
752.9329999999998
 30
0.0
 11
121.8124264999999
 21
755.833
 31
0.0
  0
LINE
  5
29C
330
1E
100
AcDbEntity
  8
0
100
AcDbLine
 10
121.8124264999999
 20
749.8330000000001
 30
0.0
 11
121.8124264999999
 21
746.733
 31
0.0
  0
LINE
  5
29D
330
1E
100
AcDbEntity
  8
0
100
AcDbLine
 10
121.8124264999999
 20
749.8330000000001
 30
0.0
 11
121.8124264999999
 21
752.9329999999998
 31
0.0
  0
LINE
  5
29E
330
1E
100
AcDbEntity
  8
0
100
AcDbLine
 10
118.8124264999999
 20
741.733
 30
0.0
 11
118.8124264999999
 21
739.8330000000002
 31
0.0
  0
LINE
  5
29F
330
1E
100
AcDbEntity
  8
0
100
AcDbLine
 10
118.8124264999999
 20
741.733
 30
0.0
 11
118.8124264999999
 21
743.833
 31
0.0
  0
LINE
  5
2A0
330
1E
100
AcDbEntity
  8
0
100
AcDbLine
 10
118.8124264999999
 20
741.733
 30
0.0
 11
118.8124264999999
 21
744.133
 31
0.0
  0
LINE
  5
2A1
330
1E
100
AcDbEntity
  8
0
100
AcDbLine
 10
107.8124264999999
 20
754.433
 30
0.0
 11
107.8124264999999
 21
755.433
 31
0.0
  0
LINE
  5
2A2
330
1E
100
AcDbEntity
  8
0
100
AcDbLine
 10
107.8124264999999
 20
754.433
 30
0.0
 11
107.8124264999999
 21
753.033
 31
0.0
  0
LINE
  5
2A3
330
1E
100
AcDbEntity
  8
0
100
AcDbLine
 10
107.8124264999999
 20
755.433
 30
0.0
 11
107.8124264999999
 21
754.433
 31
0.0
  0
LINE
  5
2A4
330
1E
100
AcDbEntity
  8
0
100
AcDbLine
 10
107.8124264999999
 20
755.433
 30
0.0
 11
107.8124264999999
 21
756.133
 31
0.0
  0
LINE
  5
2A5
330
1E
100
AcDbEntity
  8
0
100
AcDbLine
 10
118.8124264999999
 20
755.533
 30
0.0
 11
118.8124264999999
 21
752.8330000000002
 31
0.0
  0
LINE
  5
2A6
330
1E
100
AcDbEntity
  8
0
100
AcDbLine
 10
118.8124264999999
 20
755.533
 30
0.0
 11
118.8124264999999
 21
757.9329999999998
 31
0.0
  0
LINE
  5
2A7
330
1E
100
AcDbEntity
  8
0
100
AcDbLine
 10
118.8124264999999
 20
754.0329999999999
 30
0.0
 11
118.8124264999999
 21
755.033
 31
0.0
  0
LINE
  5
2A8
330
1E
100
AcDbEntity
  8
0
100
AcDbLine
 10
118.8124264999999
 20
755.033
 30
0.0
 11
118.8124264999999
 21
755.633
 31
0.0
  0
LINE
  5
2A9
330
1E
100
AcDbEntity
  8
0
100
AcDbLine
 10
118.8124264999999
 20
755.633
 30
0.0
 11
118.8124264999999
 21
755.833
 31
0.0
  0
LINE
  5
2AA
330
1E
100
AcDbEntity
  8
0
100
AcDbLine
 10
107.8124264999999
 20
755.833
 30
0.0
 11
118.8124264999999
 21
755.833
 31
0.0
  0
LINE
  5
2AB
330
1E
100
AcDbEntity
  8
0
100
AcDbLine
 10
107.8124264999999
 20
756.133
 30
0.0
 11
107.8124264999999
 21
755.433
 31
0.0
  0
LINE
  5
2AC
330
1E
100
AcDbEntity
  8
0
100
AcDbLine
 10
107.8124264999999
 20
756.133
 30
0.0
 11
107.8124264999999
 21
756.333
 31
0.0
  0
LINE
  5
2AD
330
1E
100
AcDbEntity
  8
0
100
AcDbLine
 10
107.8124264999999
 20
756.333
 30
0.0
 11
107.8124264999999
 21
756.133
 31
0.0
  0
LINE
  5
2AE
330
1E
100
AcDbEntity
  8
0
100
AcDbLine
 10
118.8124264999999
 20
755.833
 30
0.0
 11
118.8124264999999
 21
757.9329999999998
 31
0.0
  0
LINE
  5
2AF
330
1E
100
AcDbEntity
  8
0
100
AcDbLine
 10
119.3124264999999
 20
755.833
 30
0.0
 11
119.3124264999999
 21
752.9329999999998
 31
0.0
  0
LINE
  5
2B0
330
1E
100
AcDbEntity
  8
0
100
AcDbLine
 10
119.3124264999999
 20
755.833
 30
0.0
 11
119.3124264999999
 21
758.3330000000001
 31
0.0
  0
LINE
  5
2B1
330
1E
100
AcDbEntity
  8
0
100
AcDbLine
 10
120.8124264999999
 20
755.833
 30
0.0
 11
120.8124264999999
 21
752.9329999999998
 31
0.0
  0
LINE
  5
2B2
330
1E
100
AcDbEntity
  8
0
100
AcDbLine
 10
120.8124264999999
 20
755.833
 30
0.0
 11
120.8124264999999
 21
758.3330000000001
 31
0.0
  0
LINE
  5
2B3
330
1E
100
AcDbEntity
  8
0
100
AcDbLine
 10
121.3124264999999
 20
755.533
 30
0.0
 11
121.3124264999999
 21
752.8330000000002
 31
0.0
  0
LINE
  5
2B4
330
1E
100
AcDbEntity
  8
0
100
AcDbLine
 10
121.3124264999999
 20
755.533
 30
0.0
 11
121.3124264999999
 21
757.9329999999998
 31
0.0
  0
LINE
  5
2B5
330
1E
100
AcDbEntity
  8
0
100
AcDbLine
 10
133.8124264999999
 20
755.833
 30
0.0
 11
133.8124264999999
 21
758.3330000000001
 31
0.0
  0
LINE
  5
2B6
330
1E
100
AcDbEntity
  8
0
100
AcDbLine
 10
121.8124264999999
 20
755.833
 30
0.0
 11
121.8124264999999
 21
752.9329999999998
 31
0.0
  0
LINE
  5
2B7
330
1E
100
AcDbEntity
  8
0
100
AcDbLine
 10
121.8124264999999
 20
755.833
 30
0.0
 11
121.8124264999999
 21
758.3330000000001
 31
0.0
  0
LINE
  5
2B8
330
1E
100
AcDbEntity
  8
0
100
AcDbLine
 10
121.3124264999999
 20
757.9329999999998
 30
0.0
 11
121.3124264999999
 21
759.833
 31
0.0
  0
LINE
  5
2B9
330
1E
100
AcDbEntity
  8
0
100
AcDbLine
 10
121.3124264999999
 20
757.9329999999998
 30
0.0
 11
121.3124264999999
 21
755.533
 31
0.0
  0
LINE
  5
2BA
330
1E
100
AcDbEntity
  8
0
100
AcDbLine
 10
118.8124264999999
 20
757.9329999999998
 30
0.0
 11
118.8124264999999
 21
759.833
 31
0.0
  0
LINE
  5
2BB
330
1E
100
AcDbEntity
  8
0
100
AcDbLine
 10
118.8124264999999
 20
757.9329999999998
 30
0.0
 11
118.8124264999999
 21
755.833
 31
0.0
  0
LINE
  5
2BC
330
1E
100
AcDbEntity
  8
0
100
AcDbLine
 10
118.8124264999999
 20
757.9329999999998
 30
0.0
 11
118.8124264999999
 21
755.533
 31
0.0
  0
LINE
  5
2BD
330
1E
100
AcDbEntity
  8
0
100
AcDbLine
 10
133.8124264999999
 20
753.9919999999998
 30
0.0
 11
133.8124264999999
 21
765.3330000000002
 31
0.0
  0
LINE
  5
2BF
330
1E
100
AcDbEntity
  8
0
100
AcDbLine
 10
133.8124264999999
 20
753.9919999999998
 30
0.0
 11
133.8124264999999
 21
738.492
 31
0.0
  0
LINE
  5
2C1
330
1E
100
AcDbEntity
  8
0
100
AcDbLine
 10
99.51242650000001
 20
759.533
 30
0.0
 11
101.7124265
 21
756.683
 31
0.0
  0
LINE
  5
2C2
330
1E
100
AcDbEntity
  8
0
100
AcDbLine
 10
119.3124264999999
 20
758.3330000000001
 30
0.0
 11
119.3124264999999
 21
760.2330000000002
 31
0.0
  0
LINE
  5
2C3
330
1E
100
AcDbEntity
  8
0
100
AcDbLine
 10
119.3124264999999
 20
758.3330000000001
 30
0.0
 11
119.3124264999999
 21
755.833
 31
0.0
  0
LINE
  5
2C4
330
1E
100
AcDbEntity
  8
0
100
AcDbLine
 10
120.8124264999999
 20
758.3330000000001
 30
0.0
 11
120.8124264999999
 21
760.2330000000002
 31
0.0
  0
LINE
  5
2C5
330
1E
100
AcDbEntity
  8
0
100
AcDbLine
 10
120.8124264999999
 20
758.3330000000001
 30
0.0
 11
120.8124264999999
 21
755.833
 31
0.0
  0
LINE
  5
2C6
330
1E
100
AcDbEntity
  8
0
100
AcDbLine
 10
121.8124264999999
 20
758.3330000000001
 30
0.0
 11
121.8124264999999
 21
760.2330000000002
 31
0.0
  0
LINE
  5
2C7
330
1E
100
AcDbEntity
  8
0
100
AcDbLine
 10
121.8124264999999
 20
758.3330000000001
 30
0.0
 11
121.8124264999999
 21
755.833
 31
0.0
  0
LINE
  5
2C8
330
1E
100
AcDbEntity
  8
0
100
AcDbLine
 10
133.8124264999999
 20
758.3330000000001
 30
0.0
 11
133.8124264999999
 21
760.2330000000002
 31
0.0
  0
LINE
  5
2C9
330
1E
100
AcDbEntity
  8
0
100
AcDbLine
 10
118.8124264999999
 20
759.833
 30
0.0
 11
118.8124264999999
 21
760.9329999999999
 31
0.0
  0
LINE
  5
2CA
330
1E
100
AcDbEntity
  8
0
100
AcDbLine
 10
118.8124264999999
 20
759.833
 30
0.0
 11
118.8124264999999
 21
757.9329999999998
 31
0.0
  0
LINE
  5
2CB
330
1E
100
AcDbEntity
  8
0
100
AcDbLine
 10
119.3124264999999
 20
760.2330000000002
 30
0.0
 11
119.3124264999999
 21
758.3330000000001
 31
0.0
  0
LINE
  5
2CC
330
1E
100
AcDbEntity
  8
0
100
AcDbLine
 10
119.3124264999999
 20
760.2330000000002
 30
0.0
 11
119.3124264999999
 21
761.4329999999998
 31
0.0
  0
LINE
  5
2CD
330
1E
100
AcDbEntity
  8
0
100
AcDbLine
 10
118.8124264999999
 20
760.9329999999999
 30
0.0
 11
118.8124264999999
 21
761.3330000000002
 31
0.0
  0
LINE
  5
2CE
330
1E
100
AcDbEntity
  8
0
100
AcDbLine
 10
118.8124264999999
 20
760.9329999999999
 30
0.0
 11
118.8124264999999
 21
759.833
 31
0.0
  0
LINE
  5
2CF
330
1E
100
AcDbEntity
  8
0
100
AcDbLine
 10
119.3124264999999
 20
761.4329999999998
 30
0.0
 11
119.3124264999999
 21
760.2330000000002
 31
0.0
  0
LINE
  5
2D0
330
1E
100
AcDbEntity
  8
0
100
AcDbLine
 10
119.3124264999999
 20
761.4329999999998
 30
0.0
 11
119.3124264999999
 21
761.8330000000002
 31
0.0
  0
LINE
  5
2D1
330
1E
100
AcDbEntity
  8
0
100
AcDbLine
 10
118.8124264999999
 20
761.3330000000002
 30
0.0
 11
119.3124264999999
 21
761.8330000000002
 31
0.0
  0
LINE
  5
2D2
330
1E
100
AcDbEntity
  8
0
100
AcDbLine
 10
118.8124264999999
 20
761.3330000000002
 30
0.0
 11
118.8124264999999
 21
760.9329999999999
 31
0.0
  0
LINE
  5
2D3
330
1E
100
AcDbEntity
  8
0
100
AcDbLine
 10
120.8124264999999
 20
760.2330000000002
 30
0.0
 11
120.8124264999999
 21
758.3330000000001
 31
0.0
  0
LINE
  5
2D4
330
1E
100
AcDbEntity
  8
0
100
AcDbLine
 10
120.8124264999999
 20
760.2330000000002
 30
0.0
 11
120.8124264999999
 21
761.4329999999998
 31
0.0
  0
LINE
  5
2D5
330
1E
100
AcDbEntity
  8
0
100
AcDbLine
 10
121.3124264999999
 20
759.833
 30
0.0
 11
121.3124264999999
 21
757.9329999999998
 31
0.0
  0
LINE
  5
2D6
330
1E
100
AcDbEntity
  8
0
100
AcDbLine
 10
121.3124264999999
 20
759.833
 30
0.0
 11
121.3124264999999
 21
760.9329999999999
 31
0.0
  0
LINE
  5
2D7
330
1E
100
AcDbEntity
  8
0
100
AcDbLine
 10
120.8124264999999
 20
761.4329999999998
 30
0.0
 11
120.8124264999999
 21
760.2330000000002
 31
0.0
  0
LINE
  5
2D8
330
1E
100
AcDbEntity
  8
0
100
AcDbLine
 10
120.8124264999999
 20
761.4329999999998
 30
0.0
 11
120.8124264999999
 21
761.8330000000002
 31
0.0
  0
LINE
  5
2D9
330
1E
100
AcDbEntity
  8
0
100
AcDbLine
 10
121.3124264999999
 20
760.9329999999999
 30
0.0
 11
121.3124264999999
 21
759.833
 31
0.0
  0
LINE
  5
2DA
330
1E
100
AcDbEntity
  8
0
100
AcDbLine
 10
121.3124264999999
 20
760.9329999999999
 30
0.0
 11
121.3124264999999
 21
761.3330000000002
 31
0.0
  0
LINE
  5
2DB
330
1E
100
AcDbEntity
  8
0
100
AcDbLine
 10
119.3124264999999
 20
761.8330000000002
 30
0.0
 11
120.8124264999999
 21
761.8330000000002
 31
0.0
  0
LINE
  5
2DC
330
1E
100
AcDbEntity
  8
0
100
AcDbLine
 10
119.3124264999999
 20
761.8330000000002
 30
0.0
 11
119.3124264999999
 21
761.4329999999998
 31
0.0
  0
LINE
  5
2DD
330
1E
100
AcDbEntity
  8
0
100
AcDbLine
 10
120.8124264999999
 20
761.8330000000002
 30
0.0
 11
121.3124264999999
 21
761.3330000000002
 31
0.0
  0
LINE
  5
2DE
330
1E
100
AcDbEntity
  8
0
100
AcDbLine
 10
120.8124264999999
 20
761.8330000000002
 30
0.0
 11
120.8124264999999
 21
761.4329999999998
 31
0.0
  0
LINE
  5
2DF
330
1E
100
AcDbEntity
  8
0
100
AcDbLine
 10
121.8124264999999
 20
760.2330000000002
 30
0.0
 11
121.8124264999999
 21
758.3330000000001
 31
0.0
  0
LINE
  5
2E0
330
1E
100
AcDbEntity
  8
0
100
AcDbLine
 10
121.8124264999999
 20
760.2330000000002
 30
0.0
 11
121.8124264999999
 21
761.4329999999998
 31
0.0
  0
LINE
  5
2E1
330
1E
100
AcDbEntity
  8
0
100
AcDbLine
 10
121.8124264999999
 20
761.4329999999998
 30
0.0
 11
121.8124264999999
 21
760.2330000000002
 31
0.0
  0
LINE
  5
2E2
330
1E
100
AcDbEntity
  8
0
100
AcDbLine
 10
121.8124264999999
 20
761.4329999999998
 30
0.0
 11
121.8124264999999
 21
761.8330000000002
 31
0.0
  0
LINE
  5
2E3
330
1E
100
AcDbEntity
  8
0
100
AcDbLine
 10
133.8124264999999
 20
760.2330000000002
 30
0.0
 11
133.8124264999999
 21
761.4329999999998
 31
0.0
  0
LINE
  5
2E4
330
1E
100
AcDbEntity
  8
0
100
AcDbLine
 10
133.8124264999999
 20
761.4329999999998
 30
0.0
 11
133.8124264999999
 21
761.8330000000002
 31
0.0
  0
LINE
  5
2E5
330
1E
100
AcDbEntity
  8
0
100
AcDbLine
 10
121.3124264999999
 20
761.3330000000002
 30
0.0
 11
121.8124264999999
 21
761.8330000000002
 31
0.0
  0
LINE
  5
2E6
330
1E
100
AcDbEntity
  8
0
100
AcDbLine
 10
121.3124264999999
 20
761.3330000000002
 30
0.0
 11
121.3124264999999
 21
760.9329999999999
 31
0.0
  0
LINE
  5
2E7
330
1E
100
AcDbEntity
  8
0
100
AcDbLine
 10
121.8124264999999
 20
761.8330000000002
 30
0.0
 11
133.8124264999999
 21
761.8330000000002
 31
0.0
  0
LINE
  5
2E8
330
1E
100
AcDbEntity
  8
0
100
AcDbLine
 10
121.8124264999999
 20
761.8330000000002
 30
0.0
 11
121.8124264999999
 21
761.4329999999998
 31
0.0
  0
LINE
  5
2E9
330
1E
100
AcDbEntity
  8
0
100
AcDbLine
 10
133.8124264999999
 20
761.8330000000002
 30
0.0
 11
133.8124264999999
 21
765.3330000000002
 31
0.0
  0
LINE
  5
2EC
330
1E
100
AcDbEntity
  8
0
100
AcDbLine
 10
98.3002265
 20
758.321
 30
0.0
 11
99.8263344062377
 21
756.333
 31
0.0
  0
LINE
  5
2ED
330
1E
100
AcDbEntity
  8
0
100
AcDbLine
 10
98.06612649999999
 20
758.0869999999999
 30
0.0
 11
98.85572860384021
 21
757.05052342212
 31
0.0
  0
LINE
  5
2EE
330
1E
100
AcDbEntity
  8
0
100
AcDbLine
 10
98.06612649999999
 20
741.5789999999998
 30
0.0
 11
98.85572860384002
 21
742.6154765778798
 31
0.0
  0
LINE
  5
2F0
330
1E
100
AcDbEntity
  8
0
100
AcDbLine
 10
97.23316094347072
 20
762.3330000000001
 30
0.0
 11
133.8124264999999
 21
762.3330000000001
 31
0.0
  0
LINE
  5
2F1
330
1E
100
AcDbEntity
  8
0
100
AcDbLine
 10
58.8124265
 20
762.3330000000001
 30
0.0
 11
83.7309450185185
 21
762.3330000000001
 31
0.0
  0
LINE
  5
2F2
330
1E
100
AcDbEntity
  8
0
100
AcDbLine
 10
58.8124265
 20
762.3330000000001
 30
0.0
 11
83.73094501851859
 21
762.3330000000001
 31
0.0
  0
LINE
  5
2F3
330
1E
100
AcDbEntity
  8
0
100
AcDbLine
 10
6.48795650000004
 20
764.317
 30
0.0
 11
7.26217650000004
 21
765.352
 31
0.0
  0
LINE
  5
2F4
330
1E
100
AcDbEntity
  8
0
100
AcDbLine
 10
5.98279650000004
 20
763.1269999999998
 30
0.0
 11
6.48795650000004
 21
764.317
 31
0.0
  0
LINE
  5
2F5
330
1E
100
AcDbEntity
  8
0
100
AcDbLine
 10
7.26217650000004
 20
765.352
 30
0.0
 11
8.30926650000004
 21
766.169
 31
0.0
  0
LINE
  5
2F6
330
1E
100
AcDbEntity
  8
0
100
AcDbLine
 10
13.6271265
 20
764.665
 30
0.0
 11
14.2705265
 21
763.83
 31
0.0
  0
LINE
  5
2F7
330
1E
100
AcDbEntity
  8
0
100
AcDbLine
 10
11.84772649999999
 20
765.697
 30
0.0
 11
12.8021265
 21
765.2949999999998
 31
0.0
  0
LINE
  5
2F8
330
1E
100
AcDbEntity
  8
0
100
AcDbLine
 10
12.8021265
 20
765.2949999999998
 30
0.0
 11
13.6271265
 21
764.665
 31
0.0
  0
LINE
  5
2F9
330
1E
100
AcDbEntity
  8
0
100
AcDbLine
 10
10.8202265
 20
765.826
 30
0.0
 11
11.84772649999999
 21
765.697
 31
0.0
  0
LINE
  5
2FA
330
1E
100
AcDbEntity
  8
0
100
AcDbLine
 10
9.790626500000039
 20
765.692
 30
0.0
 11
10.8202265
 21
765.826
 31
0.0
  0
LINE
  5
2FB
330
1E
100
AcDbEntity
  8
0
100
AcDbLine
 10
8.815886500000036
 20
765.291
 30
0.0
 11
9.790626500000039
 21
765.692
 31
0.0
  0
LINE
  5
2FC
330
1E
100
AcDbEntity
  8
0
100
AcDbLine
 10
7.98089650000004
 20
764.648
 30
0.0
 11
8.815886500000036
 21
765.291
 31
0.0
  0
LINE
  5
2FD
330
1E
100
AcDbEntity
  8
0
100
AcDbLine
 10
7.35060650000004
 20
763.823
 30
0.0
 11
7.98089650000004
 21
764.648
 31
0.0
  0
LINE
  5
2FE
330
1E
100
AcDbEntity
  8
0
100
AcDbLine
 10
6.94872650000004
 20
762.8680000000001
 30
0.0
 11
7.35060650000004
 21
763.823
 31
0.0
  0
LINE
  5
2FF
330
1E
100
AcDbEntity
  8
0
100
AcDbLine
 10
13.2963265
 20
766.1569999999998
 30
0.0
 11
14.3312265
 21
765.383
 31
0.0
  0
LINE
  5
300
330
1E
100
AcDbEntity
  8
0
100
AcDbLine
 10
12.1065265
 20
766.663
 30
0.0
 11
13.2963265
 21
766.1569999999998
 31
0.0
  0
LINE
  5
301
330
1E
100
AcDbEntity
  8
0
100
AcDbLine
 10
8.30926650000004
 20
766.169
 30
0.0
 11
9.540206500000039
 21
766.6669999999997
 31
0.0
  0
LINE
  5
302
330
1E
100
AcDbEntity
  8
0
100
AcDbLine
 10
9.540206500000039
 20
766.6669999999997
 30
0.0
 11
10.8235265
 21
766.82
 31
0.0
  0
LINE
  5
303
330
1E
100
AcDbEntity
  8
0
100
AcDbLine
 10
6.98702650000004
 20
766.72
 30
0.0
 11
8.601930647544969
 21
766.2874028023109
 31
0.0
  0
LINE
  5
304
330
1E
100
AcDbEntity
  8
0
100
AcDbLine
 10
13.4464781456061
 20
766.044701832352
 30
0.0
 11
13.9642265
 21
765.9060000000001
 31
0.0
  0
LINE
  5
305
330
1E
100
AcDbEntity
  8
0
100
AcDbLine
 10
15.6464265
 20
763.105
 30
0.0
 11
15.7995265
 21
761.8219999999999
 31
0.0
  0
LINE
  5
306
330
1E
100
AcDbEntity
  8
0
100
AcDbLine
 10
14.6719265
 20
762.855
 30
0.0
 11
14.8052265
 21
761.825
 31
0.0
  0
LINE
  5
307
330
1E
100
AcDbEntity
  8
0
100
AcDbLine
 10
20.00012649999999
 20
763.5119999999998
 30
0.0
 11
20.9274265
 21
763.2639999999999
 31
0.0
  0
LINE
  5
308
330
1E
100
AcDbEntity
  8
0
100
AcDbLine
 10
20.9274265
 20
763.2639999999999
 30
0.0
 11
21.2751265
 21
763.171
 31
0.0
  0
LINE
  5
309
330
1E
100
AcDbEntity
  8
0
100
AcDbLine
 10
18.6167265
 20
763.6039999999998
 30
0.0
 11
20.1622265
 21
763.19
 31
0.0
  0
LINE
  5
30A
330
1E
100
AcDbEntity
  8
0
100
AcDbLine
 10
20.1622265
 20
763.19
 30
0.0
 11
21.0895265
 21
762.942
 31
0.0
  0
LINE
  5
30B
330
1E
100
AcDbEntity
  8
0
100
AcDbLine
 10
21.2751265
 20
763.171
 30
0.0
 11
21.4373265
 21
762.848
 31
0.0
  0
LINE
  5
30C
330
1E
100
AcDbEntity
  8
0
100
AcDbLine
 10
21.0895265
 20
762.942
 30
0.0
 11
21.4373265
 21
762.848
 31
0.0
  0
LINE
  5
30D
330
1E
100
AcDbEntity
  8
0
100
AcDbLine
 10
14.2705265
 20
763.83
 30
0.0
 11
14.6719265
 21
762.855
 31
0.0
  0
LINE
  5
30E
330
1E
100
AcDbEntity
  8
0
100
AcDbLine
 10
18.4932265
 20
763.916
 30
0.0
 11
20.00012649999999
 21
763.5119999999998
 31
0.0
  0
LINE
  5
30F
330
1E
100
AcDbEntity
  8
0
100
AcDbLine
 10
15.1480265
 20
764.336
 30
0.0
 11
15.6464265
 21
763.105
 31
0.0
  0
LINE
  5
310
330
1E
100
AcDbEntity
  8
0
100
AcDbLine
 10
14.3312265
 20
765.383
 30
0.0
 11
15.1480265
 21
764.336
 31
0.0
  0
LINE
  5
311
330
1E
100
AcDbEntity
  8
0
100
AcDbLine
 10
14.67855748299959
 20
764.9377801919679
 30
0.0
 11
16.5228265
 21
764.4439999999998
 31
0.0
  0
LINE
  5
312
330
1E
100
AcDbEntity
  8
0
100
AcDbLine
 10
14.953088300554
 20
764.585877931954
 30
0.0
 11
16.5690265
 21
764.153
 31
0.0
  0
LINE
  5
313
330
1E
100
AcDbEntity
  8
0
100
AcDbLine
 10
16.5228265
 20
764.4439999999998
 30
0.0
 11
18.4932265
 21
763.916
 31
0.0
  0
LINE
  5
314
330
1E
100
AcDbEntity
  8
0
100
AcDbLine
 10
16.5690265
 20
764.153
 30
0.0
 11
18.6167265
 21
763.6039999999998
 31
0.0
  0
LINE
  5
315
330
1E
100
AcDbEntity
  8
0
100
AcDbLine
 10
15.7735265
 20
765.421
 30
0.0
 11
17.3567265
 21
764.9969999999998
 31
0.0
  0
LINE
  5
316
330
1E
100
AcDbEntity
  8
0
100
AcDbLine
 10
13.9642265
 20
765.9060000000001
 30
0.0
 11
15.7735265
 21
765.421
 31
0.0
  0
LINE
  5
317
330
1E
100
AcDbEntity
  8
0
100
AcDbLine
 10
18.1376265
 20
765.047
 30
0.0
 11
18.8161265
 21
764.8649999999999
 31
0.0
  0
LINE
  5
318
330
1E
100
AcDbEntity
  8
0
100
AcDbLine
 10
17.3567265
 20
764.9969999999998
 30
0.0
 11
18.5629265
 21
764.674
 31
0.0
  0
LINE
  5
319
330
1E
100
AcDbEntity
  8
0
100
AcDbLine
 10
17.8767019718863
 20
764.0812075471188
 30
0.0
 11
18.5573265
 21
763.8989999999997
 31
0.0
  0
LINE
  5
31A
330
1E
100
AcDbEntity
  8
0
100
AcDbLine
 10
19.0800265
 20
764.794
 30
0.0
 11
19.5807265
 21
764.401
 31
0.0
  0
LINE
  5
31B
330
1E
100
AcDbEntity
  8
0
100
AcDbLine
 10
18.8161265
 20
764.8649999999999
 30
0.0
 11
19.0800265
 21
764.794
 31
0.0
  0
LINE
  5
31C
330
1E
100
AcDbEntity
  8
0
100
AcDbLine
 10
18.5629265
 20
764.674
 30
0.0
 11
19.3169265
 21
764.4719999999998
 31
0.0
  0
LINE
  5
31D
330
1E
100
AcDbEntity
  8
0
100
AcDbLine
 10
18.5573265
 20
763.8989999999997
 30
0.0
 11
19.3112265
 21
763.6969999999998
 31
0.0
  0
LINE
  5
31E
330
1E
100
AcDbEntity
  8
0
100
AcDbLine
 10
19.3169265
 20
764.4719999999998
 30
0.0
 11
19.5807265
 21
764.401
 31
0.0
  0
LINE
  5
31F
330
1E
100
AcDbEntity
  8
0
100
AcDbLine
 10
19.3112265
 20
763.6969999999998
 30
0.0
 11
19.57512649999999
 21
763.626
 31
0.0
  0
LINE
  5
320
330
1E
100
AcDbEntity
  8
0
100
AcDbLine
 10
19.57512649999999
 20
763.626
 30
0.0
 11
19.5807265
 21
764.401
 31
0.0
  0
LINE
  5
321
330
1E
100
AcDbEntity
  8
0
100
AcDbLine
 10
5.39687650000004
 20
768.461
 30
0.0
 11
18.1376265
 21
765.047
 31
0.0
  0
LINE
  5
322
330
1E
100
AcDbEntity
  8
0
100
AcDbLine
 10
3.695286500000038
 20
767.8810000000002
 30
0.0
 11
5.202136500000039
 21
767.4769999999998
 31
0.0
  0
LINE
  5
323
330
1E
100
AcDbEntity
  8
0
100
AcDbLine
 10
3.695286500000038
 20
767.8810000000002
 30
0.0
 11
4.1203216287139
 21
767.7670442698338
 31
0.0
  0
LINE
  5
324
330
1E
100
AcDbEntity
  8
0
100
AcDbLine
 10
3.39378650000004
 20
767.6829999999998
 30
0.0
 11
4.939266500000039
 21
767.2689999999999
 31
0.0
  0
LINE
  5
325
330
1E
100
AcDbEntity
  8
0
100
AcDbLine
 10
2.466496500000038
 20
767.932
 30
0.0
 11
3.39378650000004
 21
767.6829999999998
 31
0.0
  0
LINE
  5
326
330
1E
100
AcDbEntity
  8
0
100
AcDbLine
 10
2.767996500000039
 20
768.13
 30
0.0
 11
3.695286500000038
 21
767.8810000000002
 31
0.0
  0
LINE
  5
327
330
1E
100
AcDbEntity
  8
0
100
AcDbLine
 10
2.420266500000038
 20
768.223
 30
0.0
 11
2.767996500000039
 21
768.13
 31
0.0
  0
LINE
  5
328
330
1E
100
AcDbEntity
  8
0
100
AcDbLine
 10
2.118766500000039
 20
768.025
 30
0.0
 11
2.466496500000038
 21
767.932
 31
0.0
  0
LINE
  5
329
330
1E
100
AcDbEntity
  8
0
100
AcDbLine
 10
2.118766500000039
 20
768.025
 30
0.0
 11
2.420266500000038
 21
768.223
 31
0.0
  0
LINE
  5
32A
330
1E
100
AcDbEntity
  8
0
100
AcDbLine
 10
4.939266500000039
 20
767.2689999999999
 30
0.0
 11
6.98702650000004
 21
766.72
 31
0.0
  0
LINE
  5
32B
330
1E
100
AcDbEntity
  8
0
100
AcDbLine
 10
4.384156500000038
 20
767.6969999999998
 30
0.0
 11
5.13805650000004
 21
767.4949999999999
 31
0.0
  0
LINE
  5
32C
330
1E
100
AcDbEntity
  8
0
100
AcDbLine
 10
10.8235265
 20
766.82
 30
0.0
 11
12.1065265
 21
766.663
 31
0.0
  0
LINE
  5
32D
330
1E
100
AcDbEntity
  8
0
100
AcDbLine
 10
7.17262650000004
 20
766.9489999999998
 30
0.0
 11
9.01677937822971
 21
766.455237682875
 31
0.0
  0
LINE
  5
32E
330
1E
100
AcDbEntity
  8
0
100
AcDbLine
 10
5.202136500000039
 20
767.4769999999998
 30
0.0
 11
7.17262650000004
 21
766.9489999999998
 31
0.0
  0
LINE
  5
32F
330
1E
100
AcDbEntity
  8
0
100
AcDbLine
 10
6.38197650000004
 20
767.1610000000002
 30
0.0
 11
8.002846500000041
 21
766.727
 31
0.0
  0
LINE
  5
330
330
1E
100
AcDbEntity
  8
0
100
AcDbLine
 10
8.310046500000041
 20
767.421
 30
0.0
 11
10.11942649999999
 21
766.936
 31
0.0
  0
LINE
  5
331
330
1E
100
AcDbEntity
  8
0
100
AcDbLine
 10
10.11942649999999
 20
766.936
 30
0.0
 11
10.6359230003538
 21
766.797633532209
 31
0.0
  0
LINE
  5
332
330
1E
100
AcDbEntity
  8
0
100
AcDbLine
 10
5.13805650000004
 20
767.4949999999999
 30
0.0
 11
6.38197650000004
 21
767.1610000000002
 31
0.0
  0
LINE
  5
333
330
1E
100
AcDbEntity
  8
0
100
AcDbLine
 10
4.766746500000039
 20
768.3699999999999
 30
0.0
 11
5.52063650000004
 21
768.1689999999998
 31
0.0
  0
LINE
  5
334
330
1E
100
AcDbEntity
  8
0
100
AcDbLine
 10
4.50287650000004
 20
768.441
 30
0.0
 11
5.133006500000039
 21
768.5310000000002
 31
0.0
  0
LINE
  5
335
330
1E
100
AcDbEntity
  8
0
100
AcDbLine
 10
4.50287650000004
 20
768.441
 30
0.0
 11
4.766746500000039
 21
768.3699999999999
 31
0.0
  0
LINE
  5
336
330
1E
100
AcDbEntity
  8
0
100
AcDbLine
 10
5.52063650000004
 20
768.1689999999998
 30
0.0
 11
6.72686650000004
 21
767.845
 31
0.0
  0
LINE
  5
337
330
1E
100
AcDbEntity
  8
0
100
AcDbLine
 10
6.72686650000004
 20
767.845
 30
0.0
 11
8.310046500000041
 21
767.421
 31
0.0
  0
LINE
  5
338
330
1E
100
AcDbEntity
  8
0
100
AcDbLine
 10
5.133006500000039
 20
768.5310000000002
 30
0.0
 11
5.39687650000004
 21
768.461
 31
0.0
  0
LINE
  5
339
330
1E
100
AcDbEntity
  8
0
100
AcDbLine
 10
4.13840486258798
 20
767.762195992643
 30
0.0
 11
4.384156500000038
 21
767.6969999999998
 31
0.0
  0
LINE
  5
33A
330
1E
100
AcDbEntity
  8
0
100
AcDbLine
 10
4.13840486258798
 20
767.762195992643
 30
0.0
 11
5.202136500000039
 21
767.4769999999998
 31
0.0
  0
LINE
  5
33B
330
1E
100
AcDbEntity
  8
0
100
AcDbLine
 10
4.1203216287139
 20
767.7670442698338
 30
0.0
 11
4.50287650000004
 21
768.441
 31
0.0
  0
LINE
  5
33C
330
1E
100
AcDbEntity
  8
0
100
AcDbLine
 10
8.002846500000041
 20
766.727
 30
0.0
 11
9.016835699264268
 21
766.4552604686121
 31
0.0
  0
LINE
  5
33D
330
1E
100
AcDbEntity
  8
0
100
AcDbLine
 10
86.90442649999999
 20
774.7080000000002
 30
0.0
 11
87.2884265
 21
776.208
 31
0.0
  0
LINE
  5
33E
330
1E
100
AcDbEntity
  8
0
100
AcDbLine
 10
86.90442649999999
 20
774.7080000000002
 30
0.0
 11
87.0244265
 21
772.8099999999998
 31
0.0
  0
LINE
  5
33F
330
1E
100
AcDbEntity
  8
0
100
AcDbLine
 10
86.98127104756393
 20
773.4925754060318
 30
0.0
 11
87.0244265
 21
772.8099999999998
 31
0.0
  0
LINE
  5
340
330
1E
100
AcDbEntity
  8
0
100
AcDbLine
 10
86.98127104756393
 20
773.4925754060318
 30
0.0
 11
87.0054265
 21
772.937
 31
0.0
  0
LINE
  5
341
330
1E
100
AcDbEntity
  8
0
100
AcDbLine
 10
86.9234265
 20
774.823
 30
0.0
 11
87.0029865
 21
775.0930000000002
 31
0.0
  0
LINE
  5
342
330
1E
100
AcDbEntity
  8
0
100
AcDbLine
 10
87.0054265
 20
772.937
 30
0.0
 11
87.0851650519023
 21
772.304904301649
 31
0.0
  0
LINE
  5
344
330
1E
100
AcDbEntity
  8
0
100
AcDbLine
 10
87.0244265
 20
772.8099999999998
 30
0.0
 11
87.0851650519023
 21
772.304904301649
 31
0.0
  0
LINE
  5
345
330
1E
100
AcDbEntity
  8
0
100
AcDbLine
 10
87.0244265
 20
772.8099999999998
 30
0.0
 11
87.5024265
 21
768.835
 31
0.0
  0
LINE
  5
346
330
1E
100
AcDbEntity
  8
0
100
AcDbLine
 10
86.2624265
 20
763.0830000000002
 30
0.0
 11
88.25940402183011
 21
763.364264439694
 31
0.0
  0
LINE
  5
348
330
1E
100
AcDbEntity
  8
0
100
AcDbLine
 10
87.2884265
 20
776.208
 30
0.0
 11
87.9994265
 21
777.3039999999999
 31
0.0
  0
LINE
  5
349
330
1E
100
AcDbEntity
  8
0
100
AcDbLine
 10
88.3644265
 20
762.5369999999998
 30
0.0
 11
88.5741495781758
 21
760.967858805255
 31
0.0
  0
LINE
  5
34A
330
1E
100
AcDbEntity
  8
0
100
AcDbLine
 10
88.3644265
 20
762.5369999999998
 30
0.0
 11
88.6694265
 21
760.2549999999999
 31
0.0
  0
LINE
  5
34B
330
1E
100
AcDbEntity
  8
0
100
AcDbLine
 10
88.0294265
 20
765.291
 30
0.0
 11
88.3644265
 21
762.5369999999998
 31
0.0
  0
LINE
  5
34C
330
1E
100
AcDbEntity
  8
0
100
AcDbLine
 10
88.0294265
 20
765.291
 30
0.0
 11
88.0554265000001
 21
764.9709999999998
 31
0.0
  0
LINE
  5
34D
330
1E
100
AcDbEntity
  8
0
100
AcDbLine
 10
88.0554265000001
 20
764.9709999999998
 30
0.0
 11
88.15997385998921
 21
764.2177837928048
 31
0.0
  0
LINE
  5
34E
330
1E
100
AcDbEntity
  8
0
100
AcDbLine
 10
97.2604265
 20
762.5369999999998
 30
0.0
 11
97.5954265
 21
765.291
 31
0.0
  0
LINE
  5
34F
330
1E
100
AcDbEntity
  8
0
100
AcDbLine
 10
97.5954265
 20
765.291
 30
0.0
 11
98.12242650000001
 21
768.835
 31
0.0
  0
LINE
  5
350
330
1E
100
AcDbEntity
  8
0
100
AcDbLine
 10
97.5694265
 20
764.9709999999998
 30
0.0
 11
97.85507664682949
 21
767.03711028532
 31
0.0
  0
LINE
  5
351
330
1E
100
AcDbEntity
  8
0
100
AcDbLine
 10
97.5694265
 20
764.9709999999998
 30
0.0
 11
97.5954265
 21
765.291
 31
0.0
  0
LINE
  5
353
330
1E
100
AcDbEntity
  8
0
100
AcDbLine
 10
87.9994265
 20
777.3039999999999
 30
0.0
 11
88.7684265
 21
777.9580000000001
 31
0.0
  0
LINE
  5
355
330
1E
100
AcDbEntity
  8
0
100
AcDbLine
 10
88.0954265
 20
777.4
 30
0.0
 11
88.2857713275858
 21
777.5475234294418
 31
0.0
  0
LINE
  5
356
330
1E
100
AcDbEntity
  8
0
100
AcDbLine
 10
88.7684265
 20
777.9580000000001
 30
0.0
 11
89.88342649999998
 21
778.4769999999999
 31
0.0
  0
LINE
  5
357
330
1E
100
AcDbEntity
  8
0
100
AcDbLine
 10
98.12242650000001
 20
768.835
 30
0.0
 11
98.6004265
 21
772.8099999999998
 31
0.0
  0
LINE
  5
35A
330
1E
100
AcDbEntity
  8
0
100
AcDbLine
 10
96.8564265
 20
777.9580000000001
 30
0.0
 11
97.6254265
 21
777.3039999999999
 31
0.0
  0
LINE
  5
35B
330
1E
100
AcDbEntity
  8
0
100
AcDbLine
 10
95.7414265
 20
778.4769999999999
 30
0.0
 11
96.8564265
 21
777.9580000000001
 31
0.0
  0
LINE
  5
35C
330
1E
100
AcDbEntity
  8
0
100
AcDbLine
 10
92.81242650000001
 20
778.8330000000001
 30
0.0
 11
95.7414265
 21
778.4769999999999
 31
0.0
  0
LINE
  5
35E
330
1E
100
AcDbEntity
  8
0
100
AcDbLine
 10
98.33642650000001
 20
776.208
 30
0.0
 11
98.7204265
 21
774.7080000000002
 31
0.0
  0
LINE
  5
35F
330
1E
100
AcDbEntity
  8
0
100
AcDbLine
 10
97.6254265
 20
777.3039999999999
 30
0.0
 11
98.33642650000001
 21
776.208
 31
0.0
  0
LINE
  5
360
330
1E
100
AcDbEntity
  8
0
100
AcDbLine
 10
98.61942650000001
 20
772.937
 30
0.0
 11
98.64358195243619
 21
773.4925754060318
 31
0.0
  0
LINE
  5
361
330
1E
100
AcDbEntity
  8
0
100
AcDbLine
 10
98.6004265
 20
772.8099999999998
 30
0.0
 11
98.64358195243619
 21
773.4925754060318
 31
0.0
  0
LINE
  5
362
330
1E
100
AcDbEntity
  8
0
100
AcDbLine
 10
98.6004265
 20
772.8099999999998
 30
0.0
 11
98.7204265
 21
774.7080000000002
 31
0.0
  0
LINE
  5
363
330
1E
100
AcDbEntity
  8
0
100
AcDbLine
 10
98.62186649999999
 20
775.0930000000002
 30
0.0
 11
98.7014265
 21
774.823
 31
0.0
  0
LINE
  5
364
330
1E
100
AcDbEntity
  8
0
100
AcDbLine
 10
97.33908167241407
 20
777.5475234294418
 30
0.0
 11
97.5294265000001
 21
777.4
 31
0.0
  0
LINE
  5
365
330
1E
100
AcDbEntity
  8
0
100
AcDbLine
 10
98.5396879480978
 20
772.3049043016499
 30
0.0
 11
98.6004265
 21
772.8099999999998
 31
0.0
  0
LINE
  5
366
330
1E
100
AcDbEntity
  8
0
100
AcDbLine
 10
98.5396879480978
 20
772.3049043016499
 30
0.0
 11
98.61942650000001
 21
772.937
 31
0.0
  0
LINE
  5
367
330
1E
100
AcDbEntity
  8
0
100
AcDbLine
 10
120.6124264999999
 20
816.1669999999997
 30
0.0
 11
125.6124264999999
 21
816.1669999999997
 31
0.0
  0
LINE
  5
368
330
1E
100
AcDbEntity
  8
0
100
AcDbLine
 10
118.8124264999999
 20
816.1669999999997
 30
0.0
 11
120.6124264999999
 21
816.1669999999997
 31
0.0
  0
LINE
  5
369
330
1E
100
AcDbEntity
  8
0
100
AcDbLine
 10
133.8124264999999
 20
816.1669999999997
 30
0.0
 11
144.4124264999999
 21
816.1669999999997
 31
0.0
  0
LINE
  5
36A
330
1E
100
AcDbEntity
  8
0
100
AcDbLine
 10
125.6124264999999
 20
816.1669999999997
 30
0.0
 11
133.8124264999999
 21
816.1669999999997
 31
0.0
  0
LINE
  5
36B
330
1E
100
AcDbEntity
  8
0
100
AcDbLine
 10
126.5124264999998
 20
816.1669999999997
 30
0.0
 11
134.5124265
 21
816.1669999999997
 31
0.0
  0
LINE
  5
36C
330
1E
100
AcDbEntity
  8
0
100
AcDbLine
 10
121.6124264999999
 20
816.1669999999997
 30
0.0
 11
126.5124264999998
 21
816.1669999999997
 31
0.0
  0
LINE
  5
36D
330
1E
100
AcDbEntity
  8
0
100
AcDbLine
 10
117.3124264999999
 20
820.167
 30
0.0
 11
119.2124264999999
 21
820.1679999999999
 31
0.0
  0
LINE
  5
36E
330
1E
100
AcDbEntity
  8
0
100
AcDbLine
 10
117.3124264999999
 20
820.167
 30
0.0
 11
118.8124264999999
 21
820.6669999999999
 31
0.0
  0
LINE
  5
36F
330
1E
100
AcDbEntity
  8
0
100
AcDbLine
 10
116.8124264999998
 20
818.6669999999997
 30
0.0
 11
116.8124264999998
 21
818.1669999999996
 31
0.0
  0
LINE
  5
370
330
1E
100
AcDbEntity
  8
0
100
AcDbLine
 10
116.8124264999998
 20
818.6669999999997
 30
0.0
 11
117.3124264999999
 21
820.167
 31
0.0
  0
LINE
  5
371
330
1E
100
AcDbEntity
  8
0
100
AcDbLine
 10
116.8124264999998
 20
818.1669999999996
 30
0.0
 11
117.3124264999999
 21
816.6669999999998
 31
0.0
  0
LINE
  5
372
330
1E
100
AcDbEntity
  8
0
100
AcDbLine
 10
116.8124264999998
 20
818.1669999999996
 30
0.0
 11
116.8124264999998
 21
818.6669999999997
 31
0.0
  0
LINE
  5
373
330
1E
100
AcDbEntity
  8
0
100
AcDbLine
 10
132.8124264999999
 20
816.6669999999998
 30
0.0
 11
143.7124265
 21
816.6679999999999
 31
0.0
  0
LINE
  5
374
330
1E
100
AcDbEntity
  8
0
100
AcDbLine
 10
124.3124264999998
 20
816.6679999999999
 30
0.0
 11
132.8124264999999
 21
816.6669999999998
 31
0.0
  0
LINE
  5
375
330
1E
100
AcDbEntity
  8
0
100
AcDbLine
 10
118.8124264999999
 20
820.6669999999999
 30
0.0
 11
120.6124264999999
 21
820.6669999999999
 31
0.0
  0
LINE
  5
376
330
1E
100
AcDbEntity
  8
0
100
AcDbLine
 10
118.8124264999999
 20
820.6669999999999
 30
0.0
 11
119.3124264999999
 21
826.1669999999996
 31
0.0
  0
LINE
  5
377
330
1E
100
AcDbEntity
  8
0
100
AcDbLine
 10
132.8124264999999
 20
820.167
 30
0.0
 11
143.7124265
 21
820.1679999999999
 31
0.0
  0
LINE
  5
378
330
1E
100
AcDbEntity
  8
0
100
AcDbLine
 10
119.8124264999999
 20
827.6669999999997
 30
0.0
 11
121.6124264999999
 21
827.6669999999997
 31
0.0
  0
LINE
  5
379
330
1E
100
AcDbEntity
  8
0
100
AcDbLine
 10
119.8124264999999
 20
827.6669999999997
 30
0.0
 11
121.3124264999999
 21
828.167
 31
0.0
  0
LINE
  5
37A
330
1E
100
AcDbEntity
  8
0
100
AcDbLine
 10
119.3124264999999
 20
826.1669999999996
 30
0.0
 11
119.8124264999999
 21
827.6669999999997
 31
0.0
  0
LINE
  5
37B
330
1E
100
AcDbEntity
  8
0
100
AcDbLine
 10
133.8124264999999
 20
820.6669999999999
 30
0.0
 11
144.4124264999999
 21
820.668
 31
0.0
  0
LINE
  5
37C
330
1E
100
AcDbEntity
  8
0
100
AcDbLine
 10
121.3124264999999
 20
835.1669999999996
 30
0.0
 11
122.3124264999998
 21
836.6669999999997
 31
0.0
  0
LINE
  5
37D
330
1E
100
AcDbEntity
  8
0
100
AcDbLine
 10
120.8124264999999
 20
833.6669999999998
 30
0.0
 11
121.3124264999999
 21
832.1669999999997
 31
0.0
  0
LINE
  5
37E
330
1E
100
AcDbEntity
  8
0
100
AcDbLine
 10
120.8124264999999
 20
833.6669999999998
 30
0.0
 11
122.6124264999999
 21
833.6669999999998
 31
0.0
  0
LINE
  5
37F
330
1E
100
AcDbEntity
  8
0
100
AcDbLine
 10
120.8124264999999
 20
833.6669999999998
 30
0.0
 11
121.3124264999999
 21
835.1669999999996
 31
0.0
  0
LINE
  5
380
330
1E
100
AcDbEntity
  8
0
100
AcDbLine
 10
121.3124264999999
 20
832.1669999999997
 30
0.0
 11
121.8124264999999
 21
831.1669999999997
 31
0.0
  0
LINE
  5
381
330
1E
100
AcDbEntity
  8
0
100
AcDbLine
 10
121.3124264999999
 20
830.1669999999997
 30
0.0
 11
121.3124264999999
 21
828.167
 31
0.0
  0
LINE
  5
382
330
1E
100
AcDbEntity
  8
0
100
AcDbLine
 10
121.3124264999999
 20
830.1669999999997
 30
0.0
 11
121.8124264999999
 21
831.1669999999997
 31
0.0
  0
LINE
  5
383
330
1E
100
AcDbEntity
  8
0
100
AcDbLine
 10
121.3124264999999
 20
828.167
 30
0.0
 11
123.1124264999998
 21
828.1679999999999
 31
0.0
  0
LINE
  5
384
330
1E
100
AcDbEntity
  8
0
100
AcDbLine
 10
121.3124264999999
 20
828.167
 30
0.0
 11
121.3124264999999
 21
830.1669999999997
 31
0.0
  0
LINE
  5
385
330
1E
100
AcDbEntity
  8
0
100
AcDbLine
 10
122.3124264999998
 20
836.6669999999997
 30
0.0
 11
122.8124264999999
 21
839.1669999999997
 31
0.0
  0
LINE
  5
386
330
1E
100
AcDbEntity
  8
0
100
AcDbLine
 10
122.8124264999999
 20
839.1669999999997
 30
0.0
 11
123.3124264999998
 21
840.667
 31
0.0
  0
LINE
  5
387
330
1E
100
AcDbEntity
  8
0
100
AcDbLine
 10
122.6124264999999
 20
833.6669999999998
 30
0.0
 11
127.4124264999999
 21
833.6669999999998
 31
0.0
  0
LINE
  5
388
330
1E
100
AcDbEntity
  8
0
100
AcDbLine
 10
121.8124264999999
 20
831.1669999999997
 30
0.0
 11
123.5124264999999
 21
831.1669999999997
 31
0.0
  0
LINE
  5
389
330
1E
100
AcDbEntity
  8
0
100
AcDbLine
 10
123.3124264999998
 20
840.667
 30
0.0
 11
124.3124264999998
 21
841.6669999999998
 31
0.0
  0
LINE
  5
38A
330
1E
100
AcDbEntity
  8
0
100
AcDbLine
 10
125.8124264999999
 20
842.1669999999997
 30
0.0
 11
142.8124264999999
 21
844.1669999999996
 31
0.0
  0
LINE
  5
38B
330
1E
100
AcDbEntity
  8
0
100
AcDbLine
 10
124.3124264999998
 20
841.6669999999998
 30
0.0
 11
125.8124264999999
 21
842.1669999999997
 31
0.0
  0
LINE
  5
38C
330
1E
100
AcDbEntity
  8
0
100
AcDbLine
 10
127.4124264999999
 20
833.6669999999998
 30
0.0
 11
135.2124265
 21
833.6669999999998
 31
0.0
  0
LINE
  5
38D
330
1E
100
AcDbEntity
  8
0
100
AcDbLine
 10
128.2124264999999
 20
831.1669999999997
 30
0.0
 11
135.9124264999999
 21
831.168
 31
0.0
  0
LINE
  5
38E
330
1E
100
AcDbEntity
  8
0
100
AcDbLine
 10
123.5124264999999
 20
831.1669999999997
 30
0.0
 11
128.2124264999999
 21
831.1669999999997
 31
0.0
  0
LINE
  5
38F
330
1E
100
AcDbEntity
  8
0
100
AcDbLine
 10
127.8124264999999
 20
828.1679999999999
 30
0.0
 11
135.6124265
 21
828.1679999999999
 31
0.0
  0
LINE
  5
390
330
1E
100
AcDbEntity
  8
0
100
AcDbLine
 10
123.1124264999998
 20
828.1679999999999
 30
0.0
 11
127.8124264999999
 21
828.1679999999999
 31
0.0
  0
LINE
  5
391
330
1E
100
AcDbEntity
  8
0
100
AcDbLine
 10
126.5124264999998
 20
827.6669999999997
 30
0.0
 11
134.5124265
 21
827.6669999999997
 31
0.0
  0
LINE
  5
392
330
1E
100
AcDbEntity
  8
0
100
AcDbLine
 10
121.6124264999999
 20
827.6669999999997
 30
0.0
 11
126.5124264999998
 21
827.6669999999997
 31
0.0
  0
LINE
  5
393
330
1E
100
AcDbEntity
  8
0
100
AcDbLine
 10
125.6124264999999
 20
820.668
 30
0.0
 11
133.8124264999999
 21
820.6669999999999
 31
0.0
  0
LINE
  5
394
330
1E
100
AcDbEntity
  8
0
100
AcDbLine
 10
120.6124264999999
 20
820.6669999999999
 30
0.0
 11
125.6124264999999
 21
820.668
 31
0.0
  0
LINE
  5
395
330
1E
100
AcDbEntity
  8
0
100
AcDbLine
 10
124.3124264999998
 20
820.1679999999999
 30
0.0
 11
132.8124264999999
 21
820.167
 31
0.0
  0
LINE
  5
396
330
1E
100
AcDbEntity
  8
0
100
AcDbLine
 10
119.2124264999999
 20
820.1679999999999
 30
0.0
 11
124.3124264999998
 21
820.1679999999999
 31
0.0
  0
LINE
  5
397
330
1E
100
AcDbEntity
  8
0
100
AcDbLine
 10
119.2124264999999
 20
816.6679999999999
 30
0.0
 11
124.3124264999998
 21
816.6679999999999
 31
0.0
  0
LINE
  5
398
330
1E
100
AcDbEntity
  8
0
100
AcDbLine
 10
117.3124264999999
 20
816.6669999999998
 30
0.0
 11
119.2124264999999
 21
816.6679999999999
 31
0.0
  0
LINE
  5
399
330
1E
100
AcDbEntity
  8
0
100
AcDbLine
 10
117.3124264999999
 20
816.6669999999998
 30
0.0
 11
118.8124264999999
 21
816.1669999999997
 31
0.0
  0
LINE
  5
39A
330
1E
100
AcDbEntity
  8
0
100
AcDbLine
 10
119.8124264999999
 20
816.1669999999997
 30
0.0
 11
121.6124264999999
 21
816.1669999999997
 31
0.0
  0
LINE
  5
39B
330
1E
100
AcDbEntity
  8
0
100
AcDbLine
 10
89.88342649999998
 20
778.4769999999999
 30
0.0
 11
92.81242650000001
 21
778.8330000000001
 31
0.0
  0
LINE
  5
39C
330
1E
100
AcDbEntity
  8
0
100
AcDbLine
 10
87.76977635317058
 20
767.03711028532
 30
0.0
 11
88.0554265000001
 21
764.9709999999998
 31
0.0
  0
LINE
  5
39D
330
1E
100
AcDbEntity
  8
0
100
AcDbLine
 10
87.5024265
 20
768.835
 30
0.0
 11
87.76977635317058
 21
767.03711028532
 31
0.0
  0
LINE
  5
39E
330
1E
100
AcDbEntity
  8
0
100
AcDbLine
 10
87.5024265
 20
768.835
 30
0.0
 11
88.0294265
 21
765.291
 31
0.0
  0
LINE
  5
39F
330
1E
100
AcDbEntity
  8
0
100
AcDbLine
 10
133.8124264999999
 20
762.3330000000001
 30
0.0
 11
133.8124264999999
 21
765.3330000000002
 31
0.0
  0
LINE
  5
3A0
330
1E
100
AcDbEntity
  8
0
100
AcDbLine
 10
134.5124265
 20
827.6669999999997
 30
0.0
 11
144.9124264999998
 21
827.6669999999997
 31
0.0
  0
LINE
  5
3A1
330
1E
100
AcDbEntity
  8
0
100
AcDbLine
 10
139.8124264999998
 20
742.333
 30
0.0
 11
139.8124264999998
 21
745.933
 31
0.0
  0
LINE
  5
3A2
330
1E
100
AcDbEntity
  8
0
100
AcDbLine
 10
139.8124264999998
 20
745.933
 30
0.0
 11
139.8124264999998
 21
742.333
 31
0.0
  0
LINE
  5
3A3
330
1E
100
AcDbEntity
  8
0
100
AcDbLine
 10
139.8124264999998
 20
745.933
 30
0.0
 11
139.8124264999998
 21
749.8330000000001
 31
0.0
  0
LINE
  5
3A4
330
1E
100
AcDbEntity
  8
0
100
AcDbLine
 10
139.8124264999998
 20
749.8330000000001
 30
0.0
 11
139.8124264999998
 21
745.933
 31
0.0
  0
LINE
  5
3A5
330
1E
100
AcDbEntity
  8
0
100
AcDbLine
 10
139.8124264999998
 20
757.3330000000002
 30
0.0
 11
139.8124264999998
 21
760.433
 31
0.0
  0
LINE
  5
3A6
330
1E
100
AcDbEntity
  8
0
100
AcDbLine
 10
139.8124264999998
 20
760.433
 30
0.0
 11
139.8124264999998
 21
762.833
 31
0.0
  0
LINE
  5
3A7
330
1E
100
AcDbEntity
  8
0
100
AcDbLine
 10
139.8124264999998
 20
760.433
 30
0.0
 11
139.8124264999998
 21
757.3330000000002
 31
0.0
  0
LINE
  5
3A8
330
1E
100
AcDbEntity
  8
0
100
AcDbLine
 10
139.8124264999998
 20
762.833
 30
0.0
 11
139.8124264999998
 21
760.433
 31
0.0
  0
LINE
  5
3A9
330
1E
100
AcDbEntity
  8
0
100
AcDbLine
 10
139.8124264999998
 20
753.9919999999998
 30
0.0
 11
139.8124264999998
 21
738.492
 31
0.0
  0
LINE
  5
3AA
330
1E
100
AcDbEntity
  8
0
100
AcDbLine
 10
139.8124264999998
 20
753.9919999999998
 30
0.0
 11
139.8124264999998
 21
765.3330000000002
 31
0.0
  0
LINE
  5
3AB
330
1E
100
AcDbEntity
  8
0
100
AcDbLine
 10
139.8124264999998
 20
765.3330000000002
 30
0.0
 11
139.8124264999998
 21
753.9919999999998
 31
0.0
  0
LINE
  5
3AC
330
1E
100
AcDbEntity
  8
0
100
AcDbLine
 10
139.8124264999998
 20
738.492
 30
0.0
 11
139.8124264999998
 21
734.333
 31
0.0
  0
LINE
  5
3AD
330
1E
100
AcDbEntity
  8
0
100
AcDbLine
 10
139.8124264999998
 20
738.492
 30
0.0
 11
139.8124264999998
 21
753.9919999999998
 31
0.0
  0
LINE
  5
3AE
330
1E
100
AcDbEntity
  8
0
100
AcDbLine
 10
139.8124264999998
 20
738.492
 30
0.0
 11
139.8124264999998
 21
736.8330000000002
 31
0.0
  0
LINE
  5
3AF
330
1E
100
AcDbEntity
  8
0
100
AcDbLine
 10
135.6124265
 20
828.1679999999999
 30
0.0
 11
145.7124265
 21
828.1679999999999
 31
0.0
  0
LINE
  5
3B0
330
1E
100
AcDbEntity
  8
0
100
AcDbLine
 10
134.5124265
 20
816.1669999999997
 30
0.0
 11
144.9124264999998
 21
816.1669999999997
 31
0.0
  0
LINE
  5
3B1
330
1E
100
AcDbEntity
  8
0
100
AcDbLine
 10
135.2124265
 20
833.6669999999998
 30
0.0
 11
145.4124264999999
 21
833.6669999999998
 31
0.0
  0
LINE
  5
3B2
330
1E
100
AcDbEntity
  8
0
100
AcDbLine
 10
135.9124264999999
 20
831.168
 30
0.0
 11
145.9124264999998
 21
831.1669999999997
 31
0.0
  0
LINE
  5
3B3
330
1E
100
AcDbEntity
  8
0
100
AcDbLine
 10
133.8124264999999
 20
765.3330000000002
 30
0.0
 11
133.8124264999999
 21
762.3330000000001
 31
0.0
  0
LINE
  5
3B4
330
1E
100
AcDbEntity
  8
0
100
AcDbLine
 10
133.8124264999999
 20
765.3330000000002
 30
0.0
 11
139.8124264999998
 21
765.3330000000002
 31
0.0
  0
LINE
  5
3B5
330
1E
100
AcDbEntity
  8
0
100
AcDbLine
 10
133.8124264999999
 20
765.3330000000002
 30
0.0
 11
133.8124264999999
 21
761.8330000000002
 31
0.0
  0
LINE
  5
3B6
330
1E
100
AcDbEntity
  8
0
100
AcDbLine
 10
133.8124264999999
 20
765.3330000000002
 30
0.0
 11
133.8124264999999
 21
753.9919999999998
 31
0.0
  0
LINE
  5
3B7
330
1E
100
AcDbEntity
  8
0
100
AcDbLine
 10
133.8124264999999
 20
737.3330000000001
 30
0.0
 11
133.8124264999999
 21
734.333
 31
0.0
  0
LINE
  5
3B8
330
1E
100
AcDbEntity
  8
0
100
AcDbLine
 10
140.3124264999999
 20
741.633
 30
0.0
 11
140.3124264999999
 21
738.133
 31
0.0
  0
LINE
  5
3B9
330
1E
100
AcDbEntity
  8
0
100
AcDbLine
 10
140.3124264999999
 20
741.633
 30
0.0
 11
140.3124264999999
 21
745.633
 31
0.0
  0
LINE
  5
3BA
330
1E
100
AcDbEntity
  8
0
100
AcDbLine
 10
140.3124264999999
 20
745.633
 30
0.0
 11
140.3124264999999
 21
749.8330000000001
 31
0.0
  0
LINE
  5
3BB
330
1E
100
AcDbEntity
  8
0
100
AcDbLine
 10
140.3124264999999
 20
745.633
 30
0.0
 11
140.3124264999999
 21
741.633
 31
0.0
  0
LINE
  5
3BC
330
1E
100
AcDbEntity
  8
0
100
AcDbLine
 10
140.3124264999999
 20
749.8330000000001
 30
0.0
 11
140.3124264999999
 21
754.0329999999999
 31
0.0
  0
LINE
  5
3BD
330
1E
100
AcDbEntity
  8
0
100
AcDbLine
 10
140.3124264999999
 20
758.033
 30
0.0
 11
140.3124264999999
 21
754.0329999999999
 31
0.0
  0
LINE
  5
3BE
330
1E
100
AcDbEntity
  8
0
100
AcDbLine
 10
140.3124264999999
 20
758.033
 30
0.0
 11
140.3124264999999
 21
761.533
 31
0.0
  0
LINE
  5
3BF
330
1E
100
AcDbEntity
  8
0
100
AcDbLine
 10
140.3124264999999
 20
754.0329999999999
 30
0.0
 11
140.3124264999999
 21
749.8330000000001
 31
0.0
  0
LINE
  5
3C0
330
1E
100
AcDbEntity
  8
0
100
AcDbLine
 10
140.3124264999999
 20
754.0329999999999
 30
0.0
 11
140.3124264999999
 21
758.033
 31
0.0
  0
LINE
  5
3C1
330
1E
100
AcDbEntity
  8
0
100
AcDbLine
 10
140.3124264999999
 20
761.533
 30
0.0
 11
140.3124264999999
 21
764.133
 31
0.0
  0
LINE
  5
3C2
330
1E
100
AcDbEntity
  8
0
100
AcDbLine
 10
140.3124264999999
 20
761.533
 30
0.0
 11
140.3124264999999
 21
758.033
 31
0.0
  0
LINE
  5
3CB
330
1E
100
AcDbEntity
  8
0
100
AcDbLine
 10
140.3124264999999
 20
764.133
 30
0.0
 11
140.3124264999999
 21
761.533
 31
0.0
  0
LINE
  5
3CC
330
1E
100
AcDbEntity
  8
0
100
AcDbLine
 10
140.3124264999999
 20
764.133
 30
0.0
 11
140.3124264999999
 21
765.733
 31
0.0
  0
LINE
  5
3CD
330
1E
100
AcDbEntity
  8
0
100
AcDbLine
 10
140.3124264999999
 20
765.733
 30
0.0
 11
140.3124264999999
 21
764.133
 31
0.0
  0
LINE
  5
3CE
330
1E
100
AcDbEntity
  8
0
100
AcDbLine
 10
140.3124264999999
 20
765.733
 30
0.0
 11
140.3124264999999
 21
766.3330000000001
 31
0.0
  0
LINE
  5
3D2
330
1E
100
AcDbEntity
  8
0
100
AcDbLine
 10
140.3124264999999
 20
738.133
 30
0.0
 11
140.3124264999999
 21
735.533
 31
0.0
  0
LINE
  5
3D3
330
1E
100
AcDbEntity
  8
0
100
AcDbLine
 10
140.3124264999999
 20
738.133
 30
0.0
 11
140.3124264999999
 21
741.633
 31
0.0
  0
LINE
  5
3D4
330
1E
100
AcDbEntity
  8
0
100
AcDbLine
 10
140.3124264999999
 20
735.533
 30
0.0
 11
140.3124264999999
 21
733.933
 31
0.0
  0
LINE
  5
3D5
330
1E
100
AcDbEntity
  8
0
100
AcDbLine
 10
140.3124264999999
 20
735.533
 30
0.0
 11
140.3124264999999
 21
738.133
 31
0.0
  0
LINE
  5
3D7
330
1E
100
AcDbEntity
  8
0
100
AcDbLine
 10
140.3124264999999
 20
766.3330000000001
 30
0.0
 11
141.8124264999998
 21
766.833
 31
0.0
  0
LINE
  5
3D8
330
1E
100
AcDbEntity
  8
0
100
AcDbLine
 10
140.3124264999999
 20
766.3330000000001
 30
0.0
 11
140.3124264999999
 21
765.733
 31
0.0
  0
LINE
  5
3D9
330
1E
100
AcDbEntity
  8
0
100
AcDbLine
 10
141.8124264999998
 20
766.833
 30
0.0
 11
143.3124264999999
 21
766.3330000000001
 31
0.0
  0
LINE
  5
3DB
330
1E
100
AcDbEntity
  8
0
100
AcDbLine
 10
142.8124264999999
 20
844.1669999999996
 30
0.0
 11
154.8124265
 21
845.167
 31
0.0
  0
LINE
  5
3DC
330
1E
100
AcDbEntity
  8
0
100
AcDbLine
 10
139.8124264999998
 20
764.8330000000002
 30
0.0
 11
140.3124264999999
 21
766.3330000000001
 31
0.0
  0
LINE
  5
3DD
330
1E
100
AcDbEntity
  8
0
100
AcDbLine
 10
139.8124264999998
 20
734.833
 30
0.0
 11
140.3124264999999
 21
733.3330000000001
 31
0.0
  0
LINE
  5
3DE
330
1E
100
AcDbEntity
  8
0
100
AcDbLine
 10
139.8124264999998
 20
734.833
 30
0.0
 11
139.8124264999998
 21
735.333
 31
0.0
  0
LINE
  5
3DF
330
1E
100
AcDbEntity
  8
0
100
AcDbLine
 10
158.2054265
 20
701.6169999999998
 30
0.0
 11
158.6054265
 21
701.6169999999998
 31
0.0
  0
LINE
  5
3E0
330
1E
100
AcDbEntity
  8
0
100
AcDbLine
 10
158.6054265
 20
701.6169999999998
 30
0.0
 11
159.6054265
 21
701.6169999999998
 31
0.0
  0
LINE
  5
3E1
330
1E
100
AcDbEntity
  8
0
100
AcDbLine
 10
160.8124264999998
 20
334.6519999999998
 30
0.0
 11
160.8124264999998
 21
326.5789999999999
 31
0.0
  0
LINE
  5
3E2
330
1E
100
AcDbEntity
  8
0
100
AcDbLine
 10
160.8124264999998
 20
334.6519999999998
 30
0.0
 11
160.8124264999998
 21
345.7599999999998
 31
0.0
  0
LINE
  5
3E3
330
1E
100
AcDbEntity
  8
0
100
AcDbLine
 10
160.8124264999998
 20
326.5789999999999
 30
0.0
 11
160.8124264999998
 21
321.68
 31
0.0
  0
LINE
  5
3E4
330
1E
100
AcDbEntity
  8
0
100
AcDbLine
 10
160.8124264999998
 20
326.5789999999999
 30
0.0
 11
160.8124264999998
 21
334.6519999999998
 31
0.0
  0
LINE
  5
3E5
330
1E
100
AcDbEntity
  8
0
100
AcDbLine
 10
160.8124264999998
 20
321.68
 30
0.0
 11
160.8124264999998
 21
320.037
 31
0.0
  0
LINE
  5
3E6
330
1E
100
AcDbEntity
  8
0
100
AcDbLine
 10
160.8124264999998
 20
321.68
 30
0.0
 11
160.8124264999998
 21
326.5789999999999
 31
0.0
  0
LINE
  5
3E7
330
1E
100
AcDbEntity
  8
0
100
AcDbLine
 10
160.8124264999998
 20
320.037
 30
0.0
 11
161.1004265
 21
317.989
 31
0.0
  0
LINE
  5
3E8
330
1E
100
AcDbEntity
  8
0
100
AcDbLine
 10
160.8124264999998
 20
320.037
 30
0.0
 11
160.8124264999998
 21
321.68
 31
0.0
  0
LINE
  5
3E9
330
1E
100
AcDbEntity
  8
0
100
AcDbLine
 10
160.8124264999998
 20
345.7599999999998
 30
0.0
 11
160.8124264999998
 21
359.713
 31
0.0
  0
LINE
  5
3EA
330
1E
100
AcDbEntity
  8
0
100
AcDbLine
 10
160.8124264999998
 20
345.7599999999998
 30
0.0
 11
160.8124264999998
 21
334.6519999999998
 31
0.0
  0
LINE
  5
3EB
330
1E
100
AcDbEntity
  8
0
100
AcDbLine
 10
168.8124264999999
 20
312.037
 30
0.0
 11
170.8604264999999
 21
312.325
 31
0.0
  0
LINE
  5
3EC
330
1E
100
AcDbEntity
  8
0
100
AcDbLine
 10
170.8604264999999
 20
312.325
 30
0.0
 11
172.7804264999999
 21
313.093
 31
0.0
  0
LINE
  5
3ED
330
1E
100
AcDbEntity
  8
0
100
AcDbLine
 10
172.7804264999999
 20
313.093
 30
0.0
 11
174.4764265
 21
314.373
 31
0.0
  0
LINE
  5
3EE
330
1E
100
AcDbEntity
  8
0
100
AcDbLine
 10
174.4764265
 20
314.373
 30
0.0
 11
175.7564265
 21
316.069
 31
0.0
  0
LINE
  5
3EF
330
1E
100
AcDbEntity
  8
0
100
AcDbLine
 10
166.7644264999998
 20
312.325
 30
0.0
 11
168.8124264999999
 21
312.037
 31
0.0
  0
LINE
  5
3F0
330
1E
100
AcDbEntity
  8
0
100
AcDbLine
 10
164.8444265
 20
313.093
 30
0.0
 11
166.7644264999998
 21
312.325
 31
0.0
  0
LINE
  5
3F1
330
1E
100
AcDbEntity
  8
0
100
AcDbLine
 10
175.7564265
 20
316.069
 30
0.0
 11
176.5244264999999
 21
317.989
 31
0.0
  0
LINE
  5
3F2
330
1E
100
AcDbEntity
  8
0
100
AcDbLine
 10
176.5244264999999
 20
317.989
 30
0.0
 11
176.8124264999999
 21
320.037
 31
0.0
  0
LINE
  5
3F3
330
1E
100
AcDbEntity
  8
0
100
AcDbLine
 10
163.1484265
 20
314.373
 30
0.0
 11
164.8444265
 21
313.093
 31
0.0
  0
LINE
  5
3F4
330
1E
100
AcDbEntity
  8
0
100
AcDbLine
 10
161.8684264999999
 20
316.069
 30
0.0
 11
163.1484265
 21
314.373
 31
0.0
  0
LINE
  5
3F5
330
1E
100
AcDbEntity
  8
0
100
AcDbLine
 10
176.8124264999999
 20
320.037
 30
0.0
 11
176.8124264999999
 21
321.68
 31
0.0
  0
LINE
  5
3F6
330
1E
100
AcDbEntity
  8
0
100
AcDbLine
 10
176.8124264999999
 20
334.6519999999998
 30
0.0
 11
176.8124264999999
 21
345.7599999999998
 31
0.0
  0
LINE
  5
3F7
330
1E
100
AcDbEntity
  8
0
100
AcDbLine
 10
176.8124264999999
 20
334.6519999999998
 30
0.0
 11
176.8124264999999
 21
326.5789999999999
 31
0.0
  0
LINE
  5
3F8
330
1E
100
AcDbEntity
  8
0
100
AcDbLine
 10
176.8124264999999
 20
326.5789999999999
 30
0.0
 11
176.8124264999999
 21
321.68
 31
0.0
  0
LINE
  5
3F9
330
1E
100
AcDbEntity
  8
0
100
AcDbLine
 10
176.8124264999999
 20
326.5789999999999
 30
0.0
 11
176.8124264999999
 21
334.6519999999998
 31
0.0
  0
LINE
  5
3FA
330
1E
100
AcDbEntity
  8
0
100
AcDbLine
 10
176.8124264999999
 20
321.68
 30
0.0
 11
176.8124264999999
 21
326.5789999999999
 31
0.0
  0
LINE
  5
3FB
330
1E
100
AcDbEntity
  8
0
100
AcDbLine
 10
176.8124264999999
 20
321.68
 30
0.0
 11
176.8124264999999
 21
320.037
 31
0.0
  0
LINE
  5
3FC
330
1E
100
AcDbEntity
  8
0
100
AcDbLine
 10
176.8124264999999
 20
345.7599999999998
 30
0.0
 11
176.8124264999999
 21
359.713
 31
0.0
  0
LINE
  5
3FD
330
1E
100
AcDbEntity
  8
0
100
AcDbLine
 10
176.8124264999999
 20
345.7599999999998
 30
0.0
 11
176.8124264999999
 21
334.6519999999998
 31
0.0
  0
LINE
  5
3FE
330
1E
100
AcDbEntity
  8
0
100
AcDbLine
 10
176.8124264999999
 20
376.2719999999998
 30
0.0
 11
176.8124264999999
 21
395.1549999999998
 31
0.0
  0
LINE
  5
3FF
330
1E
100
AcDbEntity
  8
0
100
AcDbLine
 10
176.8124264999999
 20
359.713
 30
0.0
 11
176.8124264999999
 21
376.2719999999998
 31
0.0
  0
LINE
  5
400
330
1E
100
AcDbEntity
  8
0
100
AcDbLine
 10
176.8124264999999
 20
359.713
 30
0.0
 11
176.8124264999999
 21
345.7599999999998
 31
0.0
  0
LINE
  5
401
330
1E
100
AcDbEntity
  8
0
100
AcDbLine
 10
161.1004265
 20
317.989
 30
0.0
 11
161.8684264999999
 21
316.069
 31
0.0
  0
LINE
  5
402
330
1E
100
AcDbEntity
  8
0
100
AcDbLine
 10
160.8124264999998
 20
359.713
 30
0.0
 11
160.8124264999998
 21
376.2719999999998
 31
0.0
  0
LINE
  5
403
330
1E
100
AcDbEntity
  8
0
100
AcDbLine
 10
160.8124264999998
 20
359.713
 30
0.0
 11
160.8124264999998
 21
345.7599999999998
 31
0.0
  0
LINE
  5
404
330
1E
100
AcDbEntity
  8
0
100
AcDbLine
 10
160.8124264999998
 20
438.5619999999998
 30
0.0
 11
160.8124264999998
 21
462.344
 31
0.0
  0
LINE
  5
405
330
1E
100
AcDbEntity
  8
0
100
AcDbLine
 10
160.8124264999998
 20
438.5619999999998
 30
0.0
 11
160.8124264999998
 21
416.0369999999998
 31
0.0
  0
LINE
  5
406
330
1E
100
AcDbEntity
  8
0
100
AcDbLine
 10
160.8124264999998
 20
568.2949999999998
 30
0.0
 11
160.8124264999998
 21
651.346
 31
0.0
  0
LINE
  5
407
330
1E
100
AcDbEntity
  8
0
100
AcDbLine
 10
160.8124264999998
 20
568.2949999999998
 30
0.0
 11
160.8124264999998
 21
505.541
 31
0.0
  0
LINE
  5
408
330
1E
100
AcDbEntity
  8
0
100
AcDbLine
 10
160.8124264999998
 20
651.346
 30
0.0
 11
160.8124264999998
 21
721.976
 31
0.0
  0
LINE
  5
409
330
1E
100
AcDbEntity
  8
0
100
AcDbLine
 10
160.8124264999998
 20
651.346
 30
0.0
 11
160.8124264999998
 21
568.2949999999998
 31
0.0
  0
LINE
  5
40A
330
1E
100
AcDbEntity
  8
0
100
AcDbLine
 10
160.8124264999998
 20
656.203
 30
0.0
 11
160.8124264999998
 21
679.985
 31
0.0
  0
LINE
  5
40B
330
1E
100
AcDbEntity
  8
0
100
AcDbLine
 10
160.8124264999998
 20
656.203
 30
0.0
 11
160.8124264999998
 21
633.678
 31
0.0
  0
LINE
  5
40C
330
1E
100
AcDbEntity
  8
0
100
AcDbLine
 10
160.8124264999998
 20
679.985
 30
0.0
 11
160.8124264999998
 21
701.6169999999998
 31
0.0
  0
LINE
  5
40D
330
1E
100
AcDbEntity
  8
0
100
AcDbLine
 10
160.8124264999998
 20
679.985
 30
0.0
 11
160.8124264999998
 21
656.203
 31
0.0
  0
LINE
  5
40E
330
1E
100
AcDbEntity
  8
0
100
AcDbLine
 10
160.8124264999998
 20
701.6169999999998
 30
0.0
 11
160.8124264999998
 21
679.985
 31
0.0
  0
LINE
  5
40F
330
1E
100
AcDbEntity
  8
0
100
AcDbLine
 10
160.8124264999998
 20
633.678
 30
0.0
 11
160.8124264999998
 21
612.7959999999998
 31
0.0
  0
LINE
  5
410
330
1E
100
AcDbEntity
  8
0
100
AcDbLine
 10
160.8124264999998
 20
633.678
 30
0.0
 11
160.8124264999998
 21
656.203
 31
0.0
  0
LINE
  5
411
330
1E
100
AcDbEntity
  8
0
100
AcDbLine
 10
160.8124264999998
 20
612.7959999999998
 30
0.0
 11
160.8124264999998
 21
585.5119999999998
 31
0.0
  0
LINE
  5
412
330
1E
100
AcDbEntity
  8
0
100
AcDbLine
 10
160.8124264999998
 20
612.7959999999998
 30
0.0
 11
160.8124264999998
 21
633.678
 31
0.0
  0
LINE
  5
413
330
1E
100
AcDbEntity
  8
0
100
AcDbLine
 10
160.8124264999998
 20
585.5119999999998
 30
0.0
 11
160.8124264999998
 21
612.7959999999998
 31
0.0
  0
LINE
  5
414
330
1E
100
AcDbEntity
  8
0
100
AcDbLine
 10
160.8124264999998
 20
585.5119999999998
 30
0.0
 11
160.8124264999998
 21
561.73
 31
0.0
  0
LINE
  5
415
330
1E
100
AcDbEntity
  8
0
100
AcDbLine
 10
160.8124264999998
 20
561.73
 30
0.0
 11
160.8124264999998
 21
537.0980000000002
 31
0.0
  0
LINE
  5
416
330
1E
100
AcDbEntity
  8
0
100
AcDbLine
 10
160.8124264999998
 20
561.73
 30
0.0
 11
160.8124264999998
 21
585.5119999999998
 31
0.0
  0
LINE
  5
417
330
1E
100
AcDbEntity
  8
0
100
AcDbLine
 10
160.8124264999998
 20
537.0980000000002
 30
0.0
 11
160.8124264999998
 21
512.0369999999998
 31
0.0
  0
LINE
  5
418
330
1E
100
AcDbEntity
  8
0
100
AcDbLine
 10
160.8124264999998
 20
537.0980000000002
 30
0.0
 11
160.8124264999998
 21
561.73
 31
0.0
  0
LINE
  5
419
330
1E
100
AcDbEntity
  8
0
100
AcDbLine
 10
160.8124264999998
 20
512.0369999999998
 30
0.0
 11
160.8124264999998
 21
486.976
 31
0.0
  0
LINE
  5
41A
330
1E
100
AcDbEntity
  8
0
100
AcDbLine
 10
160.8124264999998
 20
512.0369999999998
 30
0.0
 11
160.8124264999998
 21
537.0980000000002
 31
0.0
  0
LINE
  5
41B
330
1E
100
AcDbEntity
  8
0
100
AcDbLine
 10
160.8124264999998
 20
486.976
 30
0.0
 11
160.8124264999998
 21
512.0369999999998
 31
0.0
  0
LINE
  5
41C
330
1E
100
AcDbEntity
  8
0
100
AcDbLine
 10
160.8124264999998
 20
486.976
 30
0.0
 11
160.8124264999998
 21
462.344
 31
0.0
  0
LINE
  5
41D
330
1E
100
AcDbEntity
  8
0
100
AcDbLine
 10
160.8124264999998
 20
462.344
 30
0.0
 11
160.8124264999998
 21
505.541
 31
0.0
  0
LINE
  5
41E
330
1E
100
AcDbEntity
  8
0
100
AcDbLine
 10
160.8124264999998
 20
462.344
 30
0.0
 11
160.8124264999998
 21
438.5619999999998
 31
0.0
  0
LINE
  5
41F
330
1E
100
AcDbEntity
  8
0
100
AcDbLine
 10
160.8124264999998
 20
462.344
 30
0.0
 11
160.8124264999998
 21
486.976
 31
0.0
  0
LINE
  5
420
330
1E
100
AcDbEntity
  8
0
100
AcDbLine
 10
160.8124264999998
 20
505.541
 30
0.0
 11
160.8124264999998
 21
462.344
 31
0.0
  0
LINE
  5
421
330
1E
100
AcDbEntity
  8
0
100
AcDbLine
 10
160.8124264999998
 20
505.541
 30
0.0
 11
160.8124264999998
 21
568.2949999999998
 31
0.0
  0
LINE
  5
422
330
1E
100
AcDbEntity
  8
0
100
AcDbLine
 10
160.8124264999998
 20
395.1549999999998
 30
0.0
 11
160.8124264999998
 21
416.0369999999998
 31
0.0
  0
LINE
  5
423
330
1E
100
AcDbEntity
  8
0
100
AcDbLine
 10
160.8124264999998
 20
395.1549999999998
 30
0.0
 11
160.8124264999998
 21
376.2719999999998
 31
0.0
  0
LINE
  5
424
330
1E
100
AcDbEntity
  8
0
100
AcDbLine
 10
176.8124264999999
 20
395.1549999999998
 30
0.0
 11
176.8124264999999
 21
416.0369999999998
 31
0.0
  0
LINE
  5
425
330
1E
100
AcDbEntity
  8
0
100
AcDbLine
 10
176.8124264999999
 20
395.1549999999998
 30
0.0
 11
176.8124264999999
 21
376.2719999999998
 31
0.0
  0
LINE
  5
426
330
1E
100
AcDbEntity
  8
0
100
AcDbLine
 10
176.8124264999999
 20
462.344
 30
0.0
 11
176.8124264999999
 21
438.5619999999998
 31
0.0
  0
LINE
  5
427
330
1E
100
AcDbEntity
  8
0
100
AcDbLine
 10
176.8124264999999
 20
462.344
 30
0.0
 11
176.8124264999999
 21
505.541
 31
0.0
  0
LINE
  5
428
330
1E
100
AcDbEntity
  8
0
100
AcDbLine
 10
176.8124264999999
 20
438.5619999999998
 30
0.0
 11
176.8124264999999
 21
416.0369999999998
 31
0.0
  0
LINE
  5
429
330
1E
100
AcDbEntity
  8
0
100
AcDbLine
 10
176.8124264999999
 20
438.5619999999998
 30
0.0
 11
176.8124264999999
 21
462.344
 31
0.0
  0
LINE
  5
42A
330
1E
100
AcDbEntity
  8
0
100
AcDbLine
 10
176.8124264999999
 20
416.0369999999998
 30
0.0
 11
176.8124264999999
 21
438.5619999999998
 31
0.0
  0
LINE
  5
42B
330
1E
100
AcDbEntity
  8
0
100
AcDbLine
 10
176.8124264999999
 20
416.0369999999998
 30
0.0
 11
176.8124264999999
 21
395.1549999999998
 31
0.0
  0
LINE
  5
42C
330
1E
100
AcDbEntity
  8
0
100
AcDbLine
 10
176.8124264999999
 20
505.541
 30
0.0
 11
176.8124264999999
 21
568.2949999999998
 31
0.0
  0
LINE
  5
42D
330
1E
100
AcDbEntity
  8
0
100
AcDbLine
 10
176.8124264999999
 20
505.541
 30
0.0
 11
176.8124264999999
 21
462.344
 31
0.0
  0
LINE
  5
42E
330
1E
100
AcDbEntity
  8
0
100
AcDbLine
 10
176.8124264999999
 20
568.2949999999998
 30
0.0
 11
176.8124264999999
 21
651.346
 31
0.0
  0
LINE
  5
42F
330
1E
100
AcDbEntity
  8
0
100
AcDbLine
 10
176.8124264999999
 20
568.2949999999998
 30
0.0
 11
176.8124264999999
 21
505.541
 31
0.0
  0
LINE
  5
430
330
1E
100
AcDbEntity
  8
0
100
AcDbLine
 10
176.8124264999999
 20
651.346
 30
0.0
 11
176.8124264999999
 21
721.976
 31
0.0
  0
LINE
  5
431
330
1E
100
AcDbEntity
  8
0
100
AcDbLine
 10
176.8124264999999
 20
651.346
 30
0.0
 11
176.8124264999999
 21
568.2949999999998
 31
0.0
  0
LINE
  5
432
330
1E
100
AcDbEntity
  8
0
100
AcDbLine
 10
160.8124264999998
 20
416.0369999999998
 30
0.0
 11
160.8124264999998
 21
395.1549999999998
 31
0.0
  0
LINE
  5
433
330
1E
100
AcDbEntity
  8
0
100
AcDbLine
 10
160.8124264999998
 20
416.0369999999998
 30
0.0
 11
160.8124264999998
 21
438.5619999999998
 31
0.0
  0
LINE
  5
434
330
1E
100
AcDbEntity
  8
0
100
AcDbLine
 10
160.8124264999998
 20
376.2719999999998
 30
0.0
 11
160.8124264999998
 21
359.713
 31
0.0
  0
LINE
  5
435
330
1E
100
AcDbEntity
  8
0
100
AcDbLine
 10
160.8124264999998
 20
376.2719999999998
 30
0.0
 11
160.8124264999998
 21
395.1549999999998
 31
0.0
  0
LINE
  5
436
330
1E
100
AcDbEntity
  8
0
100
AcDbLine
 10
179.2054264999999
 20
701.6169999999998
 30
0.0
 11
180.194970349248
 21
731.303315477451
 31
0.0
  0
LINE
  5
437
330
1E
100
AcDbEntity
  8
0
100
AcDbLine
 10
178.8054264999999
 20
701.6169999999998
 30
0.0
 11
179.2054264999999
 21
701.6169999999998
 31
0.0
  0
LINE
  5
438
330
1E
100
AcDbEntity
  8
0
100
AcDbLine
 10
177.8054264999999
 20
701.6169999999998
 30
0.0
 11
178.8054264999999
 21
701.6169999999998
 31
0.0
  0
LINE
  5
439
330
1E
100
AcDbEntity
  8
0
100
AcDbLine
 10
176.8124264999999
 20
721.976
 30
0.0
 11
176.8124264999999
 21
759.8580000000001
 31
0.0
  0
LINE
  5
43A
330
1E
100
AcDbEntity
  8
0
100
AcDbLine
 10
176.8124264999999
 20
721.976
 30
0.0
 11
176.8124264999999
 21
651.346
 31
0.0
  0
LINE
  5
43B
330
1E
100
AcDbEntity
  8
0
100
AcDbLine
 10
160.8124264999998
 20
721.976
 30
0.0
 11
160.8124264999998
 21
759.8580000000001
 31
0.0
  0
LINE
  5
43C
330
1E
100
AcDbEntity
  8
0
100
AcDbLine
 10
160.8124264999998
 20
721.976
 30
0.0
 11
160.8124264999998
 21
651.346
 31
0.0
  0
LINE
  5
43D
330
1E
100
AcDbEntity
  8
0
100
AcDbLine
 10
176.8124264999999
 20
701.6169999999998
 30
0.0
 11
177.8054264999999
 21
701.6169999999998
 31
0.0
  0
LINE
  5
43E
330
1E
100
AcDbEntity
  8
0
100
AcDbLine
 10
159.6054265
 20
701.6169999999998
 30
0.0
 11
160.8124264999998
 21
701.6169999999998
 31
0.0
  0
LINE
  5
43F
330
1E
100
AcDbEntity
  8
0
100
AcDbLine
 10
157.2148931666669
 20
731.333
 30
0.0
 11
158.2054265
 21
701.6169999999998
 31
0.0
  0
LINE
  5
440
330
1E
100
AcDbEntity
  8
0
100
AcDbLine
 10
158.4714264999998
 20
731.333
 30
0.0
 11
160.4034264999999
 21
731.333
 31
0.0
  0
LINE
  5
441
330
1E
100
AcDbEntity
  8
0
100
AcDbLine
 10
157.3354264999998
 20
731.333
 30
0.0
 11
158.4714264999998
 21
731.333
 31
0.0
  0
LINE
  5
442
330
1E
100
AcDbEntity
  8
0
100
AcDbLine
 10
156.8804264999999
 20
731.333
 30
0.0
 11
157.3354264999998
 21
731.333
 31
0.0
  0
LINE
  5
443
330
1E
100
AcDbEntity
  8
0
100
AcDbLine
 10
156.8804264999999
 20
731.333
 30
0.0
 11
157.2181949106609
 21
731.2339476801579
 31
0.0
  0
LINE
  5
444
330
1E
100
AcDbEntity
  8
0
100
AcDbLine
 10
160.4034264999999
 20
731.333
 30
0.0
 11
160.8124264999998
 21
731.333
 31
0.0
  0
LINE
  5
445
330
1E
100
AcDbEntity
  8
0
100
AcDbLine
 10
154.1724265
 20
732.8330000000002
 30
0.0
 11
154.7124264999998
 21
732.8330000000002
 31
0.0
  0
LINE
  5
446
330
1E
100
AcDbEntity
  8
0
100
AcDbLine
 10
154.7124264999998
 20
732.8330000000002
 30
0.0
 11
156.1524264999999
 21
732.8330000000002
 31
0.0
  0
LINE
  5
447
330
1E
100
AcDbEntity
  8
0
100
AcDbLine
 10
156.1524264999999
 20
732.8330000000002
 30
0.0
 11
158.4924264999999
 21
732.8330000000002
 31
0.0
  0
LINE
  5
448
330
1E
100
AcDbEntity
  8
0
100
AcDbLine
 10
156.1524264999999
 20
732.8330000000002
 30
0.0
 11
156.3124264999999
 21
732.8330000000002
 31
0.0
  0
LINE
  5
449
330
1E
100
AcDbEntity
  8
0
100
AcDbLine
 10
158.4924264999999
 20
732.8330000000002
 30
0.0
 11
160.8124264999998
 21
732.8330000000002
 31
0.0
  0
LINE
  5
44A
330
1E
100
AcDbEntity
  8
0
100
AcDbLine
 10
158.0164265
 20
732.8330000000002
 30
0.0
 11
159.9484264999999
 21
732.8330000000002
 31
0.0
  0
LINE
  5
44B
330
1E
100
AcDbEntity
  8
0
100
AcDbLine
 10
156.7664264999999
 20
732.8330000000002
 30
0.0
 11
158.0164265
 21
732.8330000000002
 31
0.0
  0
LINE
  5
44C
330
1E
100
AcDbEntity
  8
0
100
AcDbLine
 10
156.3124264999999
 20
732.8330000000002
 30
0.0
 11
156.7664264999999
 21
732.8330000000002
 31
0.0
  0
LINE
  5
44D
330
1E
100
AcDbEntity
  8
0
100
AcDbLine
 10
156.3124264999999
 20
732.8330000000002
 30
0.0
 11
156.8804264999999
 21
731.333
 31
0.0
  0
LINE
  5
44E
330
1E
100
AcDbEntity
  8
0
100
AcDbLine
 10
159.9484264999999
 20
732.8330000000002
 30
0.0
 11
160.8124264999998
 21
732.8330000000002
 31
0.0
  0
LINE
  5
44F
330
1E
100
AcDbEntity
  8
0
100
AcDbLine
 10
176.8124264999999
 20
732.8330000000002
 30
0.0
 11
177.6764264999999
 21
732.8330000000002
 31
0.0
  0
LINE
  5
450
330
1E
100
AcDbEntity
  8
0
100
AcDbLine
 10
176.8124264999999
 20
732.8330000000002
 30
0.0
 11
179.1324264999999
 21
732.8330000000002
 31
0.0
  0
LINE
  5
451
330
1E
100
AcDbEntity
  8
0
100
AcDbLine
 10
176.8124264999999
 20
731.333
 30
0.0
 11
177.2214264999999
 21
731.333
 31
0.0
  0
LINE
  5
452
330
1E
100
AcDbEntity
  8
0
100
AcDbLine
 10
179.1324264999999
 20
732.8330000000002
 30
0.0
 11
181.4724264999999
 21
732.8330000000002
 31
0.0
  0
LINE
  5
453
330
1E
100
AcDbEntity
  8
0
100
AcDbLine
 10
177.2214264999999
 20
731.333
 30
0.0
 11
179.1534264999999
 21
731.333
 31
0.0
  0
LINE
  5
454
330
1E
100
AcDbEntity
  8
0
100
AcDbLine
 10
177.6764264999999
 20
732.8330000000002
 30
0.0
 11
179.6074265
 21
732.8330000000002
 31
0.0
  0
LINE
  5
455
330
1E
100
AcDbEntity
  8
0
100
AcDbLine
 10
179.1534264999999
 20
731.333
 30
0.0
 11
180.2894264999999
 21
731.333
 31
0.0
  0
LINE
  5
456
330
1E
100
AcDbEntity
  8
0
100
AcDbLine
 10
153.8124264999999
 20
733.433
 30
0.0
 11
154.1724265
 21
732.8330000000002
 31
0.0
  0
LINE
  5
457
330
1E
100
AcDbEntity
  8
0
100
AcDbLine
 10
153.8124264999999
 20
733.433
 30
0.0
 11
153.8124264999999
 21
734.833
 31
0.0
  0
LINE
  5
458
330
1E
100
AcDbEntity
  8
0
100
AcDbLine
 10
143.8124264999999
 20
734.333
 30
0.0
 11
145.3124264999999
 21
734.833
 31
0.0
  0
LINE
  5
459
330
1E
100
AcDbEntity
  8
0
100
AcDbLine
 10
143.8124264999999
 20
734.333
 30
0.0
 11
143.8124264999999
 21
734.933
 31
0.0
  0
LINE
  5
45A
330
1E
100
AcDbEntity
  8
0
100
AcDbLine
 10
145.3124264999999
 20
734.833
 30
0.0
 11
153.8124264999999
 21
734.833
 31
0.0
  0
LINE
  5
45B
330
1E
100
AcDbEntity
  8
0
100
AcDbLine
 10
145.3124264999999
 20
734.833
 30
0.0
 11
160.8124264999998
 21
734.833
 31
0.0
  0
LINE
  5
45C
330
1E
100
AcDbEntity
  8
0
100
AcDbLine
 10
143.3124264999999
 20
735.533
 30
0.0
 11
143.3124264999999
 21
738.133
 31
0.0
  0
LINE
  5
45D
330
1E
100
AcDbEntity
  8
0
100
AcDbLine
 10
143.3124264999999
 20
738.133
 30
0.0
 11
143.3124264999999
 21
735.533
 31
0.0
  0
LINE
  5
45E
330
1E
100
AcDbEntity
  8
0
100
AcDbLine
 10
143.3124264999999
 20
738.133
 30
0.0
 11
143.3124264999999
 21
741.633
 31
0.0
  0
LINE
  5
45F
330
1E
100
AcDbEntity
  8
0
100
AcDbLine
 10
143.3124264999999
 20
741.633
 30
0.0
 11
143.3124264999999
 21
738.133
 31
0.0
  0
LINE
  5
460
330
1E
100
AcDbEntity
  8
0
100
AcDbLine
 10
143.3124264999999
 20
741.633
 30
0.0
 11
143.3124264999999
 21
745.633
 31
0.0
  0
LINE
  5
461
330
1E
100
AcDbEntity
  8
0
100
AcDbLine
 10
143.3124264999999
 20
745.633
 30
0.0
 11
143.3124264999999
 21
741.633
 31
0.0
  0
LINE
  5
462
330
1E
100
AcDbEntity
  8
0
100
AcDbLine
 10
143.3124264999999
 20
745.633
 30
0.0
 11
143.3124264999999
 21
749.8330000000001
 31
0.0
  0
LINE
  5
463
330
1E
100
AcDbEntity
  8
0
100
AcDbLine
 10
143.8124264999999
 20
742.133
 30
0.0
 11
143.8124264999999
 21
738.933
 31
0.0
  0
LINE
  5
464
330
1E
100
AcDbEntity
  8
0
100
AcDbLine
 10
143.8124264999999
 20
742.133
 30
0.0
 11
143.8124264999999
 21
745.8330000000001
 31
0.0
  0
LINE
  5
465
330
1E
100
AcDbEntity
  8
0
100
AcDbLine
 10
143.8124264999999
 20
745.8330000000001
 30
0.0
 11
143.8124264999999
 21
742.133
 31
0.0
  0
LINE
  5
466
330
1E
100
AcDbEntity
  8
0
100
AcDbLine
 10
143.8124264999999
 20
745.8330000000001
 30
0.0
 11
143.8124264999999
 21
749.8330000000001
 31
0.0
  0
LINE
  5
467
330
1E
100
AcDbEntity
  8
0
100
AcDbLine
 10
143.3124264999999
 20
749.8330000000001
 30
0.0
 11
143.3124264999999
 21
754.0329999999999
 31
0.0
  0
LINE
  5
468
330
1E
100
AcDbEntity
  8
0
100
AcDbLine
 10
143.3124264999999
 20
749.8330000000001
 30
0.0
 11
143.3124264999999
 21
745.633
 31
0.0
  0
LINE
  5
469
330
1E
100
AcDbEntity
  8
0
100
AcDbLine
 10
143.3124264999999
 20
754.0329999999999
 30
0.0
 11
143.3124264999999
 21
749.8330000000001
 31
0.0
  0
LINE
  5
46A
330
1E
100
AcDbEntity
  8
0
100
AcDbLine
 10
143.3124264999999
 20
754.0329999999999
 30
0.0
 11
143.3124264999999
 21
758.033
 31
0.0
  0
LINE
  5
46B
330
1E
100
AcDbEntity
  8
0
100
AcDbLine
 10
143.8124264999999
 20
749.8330000000001
 30
0.0
 11
143.8124264999999
 21
753.8330000000001
 31
0.0
  0
LINE
  5
46C
330
1E
100
AcDbEntity
  8
0
100
AcDbLine
 10
143.8124264999999
 20
749.8330000000001
 30
0.0
 11
143.8124264999999
 21
745.8330000000001
 31
0.0
  0
LINE
  5
46D
330
1E
100
AcDbEntity
  8
0
100
AcDbLine
 10
143.3124264999999
 20
758.033
 30
0.0
 11
143.3124264999999
 21
754.0329999999999
 31
0.0
  0
LINE
  5
46E
330
1E
100
AcDbEntity
  8
0
100
AcDbLine
 10
143.3124264999999
 20
758.033
 30
0.0
 11
143.3124264999999
 21
761.533
 31
0.0
  0
LINE
  5
46F
330
1E
100
AcDbEntity
  8
0
100
AcDbLine
 10
143.8124264999999
 20
757.533
 30
0.0
 11
143.8124264999999
 21
753.8330000000001
 31
0.0
  0
LINE
  5
470
330
1E
100
AcDbEntity
  8
0
100
AcDbLine
 10
143.8124264999999
 20
757.533
 30
0.0
 11
143.8124264999999
 21
760.7330000000001
 31
0.0
  0
LINE
  5
471
330
1E
100
AcDbEntity
  8
0
100
AcDbLine
 10
143.8124264999999
 20
753.8330000000001
 30
0.0
 11
143.8124264999999
 21
749.8330000000001
 31
0.0
  0
LINE
  5
472
330
1E
100
AcDbEntity
  8
0
100
AcDbLine
 10
143.8124264999999
 20
753.8330000000001
 30
0.0
 11
143.8124264999999
 21
757.533
 31
0.0
  0
LINE
  5
473
330
1E
100
AcDbEntity
  8
0
100
AcDbLine
 10
143.3124264999999
 20
761.533
 30
0.0
 11
143.3124264999999
 21
764.133
 31
0.0
  0
LINE
  5
474
330
1E
100
AcDbEntity
  8
0
100
AcDbLine
 10
143.3124264999999
 20
761.533
 30
0.0
 11
143.3124264999999
 21
758.033
 31
0.0
  0
LINE
  5
475
330
1E
100
AcDbEntity
  8
0
100
AcDbLine
 10
143.8124264999999
 20
760.7330000000001
 30
0.0
 11
143.8124264999999
 21
763.233
 31
0.0
  0
LINE
  5
476
330
1E
100
AcDbEntity
  8
0
100
AcDbLine
 10
143.8124264999999
 20
760.7330000000001
 30
0.0
 11
143.8124264999999
 21
757.533
 31
0.0
  0
LINE
  5
477
330
1E
100
AcDbEntity
  8
0
100
AcDbLine
 10
143.3124264999999
 20
764.133
 30
0.0
 11
143.3124264999999
 21
761.533
 31
0.0
  0
LINE
  5
478
330
1E
100
AcDbEntity
  8
0
100
AcDbLine
 10
143.3124264999999
 20
764.133
 30
0.0
 11
143.3124264999999
 21
765.733
 31
0.0
  0
LINE
  5
479
330
1E
100
AcDbEntity
  8
0
100
AcDbLine
 10
143.8124264999999
 20
763.233
 30
0.0
 11
143.8124264999999
 21
760.7330000000001
 31
0.0
  0
LINE
  5
47A
330
1E
100
AcDbEntity
  8
0
100
AcDbLine
 10
143.8124264999999
 20
763.233
 30
0.0
 11
143.8124264999999
 21
764.7330000000001
 31
0.0
  0
LINE
  5
47B
330
1E
100
AcDbEntity
  8
0
100
AcDbLine
 10
143.8124264999999
 20
764.7330000000001
 30
0.0
 11
143.8124264999999
 21
763.233
 31
0.0
  0
LINE
  5
47C
330
1E
100
AcDbEntity
  8
0
100
AcDbLine
 10
143.8124264999999
 20
764.7330000000001
 30
0.0
 11
143.8124264999999
 21
765.3330000000002
 31
0.0
  0
LINE
  5
47D
330
1E
100
AcDbEntity
  8
0
100
AcDbLine
 10
143.8124264999999
 20
738.933
 30
0.0
 11
143.8124264999999
 21
736.4329999999998
 31
0.0
  0
LINE
  5
47E
330
1E
100
AcDbEntity
  8
0
100
AcDbLine
 10
143.8124264999999
 20
738.933
 30
0.0
 11
143.8124264999999
 21
742.133
 31
0.0
  0
LINE
  5
47F
330
1E
100
AcDbEntity
  8
0
100
AcDbLine
 10
143.8124264999999
 20
736.4329999999998
 30
0.0
 11
143.8124264999999
 21
734.933
 31
0.0
  0
LINE
  5
480
330
1E
100
AcDbEntity
  8
0
100
AcDbLine
 10
143.8124264999999
 20
736.4329999999998
 30
0.0
 11
143.8124264999999
 21
738.933
 31
0.0
  0
LINE
  5
481
330
1E
100
AcDbEntity
  8
0
100
AcDbLine
 10
143.8124264999999
 20
734.933
 30
0.0
 11
143.8124264999999
 21
734.333
 31
0.0
  0
LINE
  5
482
330
1E
100
AcDbEntity
  8
0
100
AcDbLine
 10
143.8124264999999
 20
734.933
 30
0.0
 11
143.8124264999999
 21
736.4329999999998
 31
0.0
  0
LINE
  5
483
330
1E
100
AcDbEntity
  8
0
100
AcDbLine
 10
145.3124264999999
 20
764.8330000000002
 30
0.0
 11
160.8124264999998
 21
764.8330000000002
 31
0.0
  0
LINE
  5
484
330
1E
100
AcDbEntity
  8
0
100
AcDbLine
 10
143.3124264999999
 20
765.733
 30
0.0
 11
143.3124264999999
 21
764.133
 31
0.0
  0
LINE
  5
485
330
1E
100
AcDbEntity
  8
0
100
AcDbLine
 10
143.3124264999999
 20
765.733
 30
0.0
 11
143.3124264999999
 21
766.3330000000001
 31
0.0
  0
LINE
  5
486
330
1E
100
AcDbEntity
  8
0
100
AcDbLine
 10
143.8124264999999
 20
765.3330000000002
 30
0.0
 11
145.3124264999999
 21
764.8330000000002
 31
0.0
  0
LINE
  5
487
330
1E
100
AcDbEntity
  8
0
100
AcDbLine
 10
143.8124264999999
 20
765.3330000000002
 30
0.0
 11
143.8124264999999
 21
764.7330000000001
 31
0.0
  0
LINE
  5
488
330
1E
100
AcDbEntity
  8
0
100
AcDbLine
 10
158.8124264999999
 20
764.8330000000002
 30
0.0
 11
158.8124264999999
 21
766.833
 31
0.0
  0
LINE
  5
489
330
1E
100
AcDbEntity
  8
0
100
AcDbLine
 10
153.8124264999999
 20
734.833
 30
0.0
 11
153.8124264999999
 21
733.433
 31
0.0
  0
LINE
  5
48A
330
1E
100
AcDbEntity
  8
0
100
AcDbLine
 10
176.8124264999999
 20
734.833
 30
0.0
 11
195.8124265
 21
734.833
 31
0.0
  0
LINE
  5
48B
330
1E
100
AcDbEntity
  8
0
100
AcDbLine
 10
176.8124264999999
 20
759.8580000000001
 30
0.0
 11
176.8124264999999
 21
799.475
 31
0.0
  0
LINE
  5
48C
330
1E
100
AcDbEntity
  8
0
100
AcDbLine
 10
176.8124264999999
 20
759.8580000000001
 30
0.0
 11
176.8124264999999
 21
721.976
 31
0.0
  0
LINE
  5
48D
330
1E
100
AcDbEntity
  8
0
100
AcDbLine
 10
176.8124264999999
 20
764.8330000000002
 30
0.0
 11
195.8124265
 21
764.8330000000002
 31
0.0
  0
LINE
  5
48E
330
1E
100
AcDbEntity
  8
0
100
AcDbLine
 10
160.8124264999998
 20
759.8580000000001
 30
0.0
 11
160.8124264999998
 21
799.475
 31
0.0
  0
LINE
  5
48F
330
1E
100
AcDbEntity
  8
0
100
AcDbLine
 10
160.8124264999998
 20
759.8580000000001
 30
0.0
 11
160.8124264999998
 21
721.976
 31
0.0
  0
LINE
  5
498
330
1E
100
AcDbEntity
  8
0
100
AcDbLine
 10
179.6074265
 20
732.8330000000002
 30
0.0
 11
180.8574265
 21
732.8330000000002
 31
0.0
  0
LINE
  5
499
330
1E
100
AcDbEntity
  8
0
100
AcDbLine
 10
180.2894264999999
 20
731.333
 30
0.0
 11
180.7444264999999
 21
731.333
 31
0.0
  0
LINE
  5
49A
330
1E
100
AcDbEntity
  8
0
100
AcDbLine
 10
180.184510583251
 20
731.168801783945
 30
0.0
 11
180.7444264999999
 21
731.333
 31
0.0
  0
LINE
  5
4A3
330
1E
100
AcDbEntity
  8
0
100
AcDbLine
 10
197.8124264999999
 20
732.8330000000002
 30
0.0
 11
199.3124264999999
 21
733.3330000000001
 31
0.0
  0
LINE
  5
4E4
330
1E
100
AcDbEntity
  8
0
100
AcDbLine
 10
241.6764265
 20
599.8330000000001
 30
0.0
 11
246.1484265
 21
599.8330000000001
 31
0.0
  0
LINE
  5
4F9
330
1E
100
AcDbEntity
  8
0
100
AcDbLine
 10
246.1484265
 20
599.8330000000001
 30
0.0
 11
251.3084265
 21
599.8330000000001
 31
0.0
  0
LINE
  5
4FA
330
1E
100
AcDbEntity
  8
0
100
AcDbLine
 10
251.3084265
 20
599.8330000000001
 30
0.0
 11
256.8124265
 21
599.8330000000001
 31
0.0
  0
LINE
  5
51A
330
1E
100
AcDbEntity
  8
0
100
AcDbLine
 10
271.9484265
 20
599.8330000000001
 30
0.0
 11
275.4744264999999
 21
599.8330000000001
 31
0.0
  0
LINE
  5
51B
330
1E
100
AcDbEntity
  8
0
100
AcDbLine
 10
267.4764264999999
 20
599.8330000000001
 30
0.0
 11
271.9484265
 21
599.8330000000001
 31
0.0
  0
LINE
  5
51C
330
1E
100
AcDbEntity
  8
0
100
AcDbLine
 10
262.3164265
 20
599.8330000000001
 30
0.0
 11
267.4764264999999
 21
599.8330000000001
 31
0.0
  0
LINE
  5
51D
330
1E
100
AcDbEntity
  8
0
100
AcDbLine
 10
256.8124265
 20
599.8330000000001
 30
0.0
 11
262.3164265
 21
599.8330000000001
 31
0.0
  0
LINE
  5
51E
330
1E
100
AcDbEntity
  8
0
100
AcDbLine
 10
238.1504265
 20
599.8330000000001
 30
0.0
 11
238.8124265
 21
599.8330000000001
 31
0.0
  0
LINE
  5
51F
330
1E
100
AcDbEntity
  8
0
100
AcDbLine
 10
238.1504265
 20
599.8330000000001
 30
0.0
 11
241.6764265
 21
599.8330000000001
 31
0.0
  0
LINE
  5
520
330
1E
100
AcDbEntity
  8
0
100
AcDbLine
 10
236.0864265
 20
599.8330000000001
 30
0.0
 11
238.1504265
 21
599.8330000000001
 31
0.0
  0
LINE
  5
521
330
1E
100
AcDbEntity
  8
0
100
AcDbLine
 10
235.3124265
 20
599.8330000000001
 30
0.0
 11
236.0864265
 21
599.8330000000001
 31
0.0
  0
LINE
  5
522
330
1E
100
AcDbEntity
  8
0
100
AcDbLine
 10
235.3124265
 20
599.8330000000001
 30
0.0
 11
235.7424265
 21
601.0830000000002
 31
0.0
  0
LINE
  5
525
330
1E
100
AcDbEntity
  8
0
100
AcDbLine
 10
274.8124265
 20
599.8330000000001
 30
0.0
 11
275.4744264999999
 21
599.8330000000001
 31
0.0
  0
LINE
  5
526
330
1E
100
AcDbEntity
  8
0
100
AcDbLine
 10
236.6024265
 20
601.9159999999998
 30
0.0
 11
239.6124265
 21
603.1659999999998
 31
0.0
  0
LINE
  5
527
330
1E
100
AcDbEntity
  8
0
100
AcDbLine
 10
235.7424265
 20
601.0830000000002
 30
0.0
 11
236.6024265
 21
601.9159999999998
 31
0.0
  0
LINE
  5
528
330
1E
100
AcDbEntity
  8
0
100
AcDbLine
 10
241.3324265
 20
605.6659999999998
 30
0.0
 11
242.1924265
 21
608.1659999999998
 31
0.0
  0
LINE
  5
529
330
1E
100
AcDbEntity
  8
0
100
AcDbLine
 10
271.4324265
 20
608.1659999999998
 30
0.0
 11
272.2924265
 21
605.6659999999998
 31
0.0
  0
LINE
  5
52A
330
1E
100
AcDbEntity
  8
0
100
AcDbLine
 10
242.1924265
 20
608.1659999999998
 30
0.0
 11
242.3644265
 21
609.333
 31
0.0
  0
LINE
  5
52B
330
1E
100
AcDbEntity
  8
0
100
AcDbLine
 10
239.6124265
 20
603.1659999999998
 30
0.0
 11
241.3324265
 21
605.6659999999998
 31
0.0
  0
LINE
  5
52C
330
1E
100
AcDbEntity
  8
0
100
AcDbLine
 10
242.1924265
 20
612.3330000000001
 30
0.0
 11
242.7084264999999
 21
612.3330000000001
 31
0.0
  0
LINE
  5
52D
330
1E
100
AcDbEntity
  8
0
100
AcDbLine
 10
242.1924265
 20
612.3330000000001
 30
0.0
 11
243.0524265
 21
612.75
 31
0.0
  0
LINE
  5
52E
330
1E
100
AcDbEntity
  8
0
100
AcDbLine
 10
241.7624265
 20
611.5
 30
0.0
 11
242.1924265
 21
612.3330000000001
 31
0.0
  0
LINE
  5
52F
330
1E
100
AcDbEntity
  8
0
100
AcDbLine
 10
241.7624265
 20
611.5
 30
0.0
 11
241.7624265
 21
611.083
 31
0.0
  0
LINE
  5
530
330
1E
100
AcDbEntity
  8
0
100
AcDbLine
 10
241.7624265
 20
611.083
 30
0.0
 11
242.1924265
 21
610.25
 31
0.0
  0
LINE
  5
531
330
1E
100
AcDbEntity
  8
0
100
AcDbLine
 10
241.7624265
 20
611.083
 30
0.0
 11
241.7624265
 21
611.5
 31
0.0
  0
LINE
  5
532
330
1E
100
AcDbEntity
  8
0
100
AcDbLine
 10
244.1704265
 20
612.3330000000001
 30
0.0
 11
253.0284265
 21
612.3330000000001
 31
0.0
  0
LINE
  5
533
330
1E
100
AcDbEntity
  8
0
100
AcDbLine
 10
253.0284265
 20
612.3330000000001
 30
0.0
 11
256.8124265
 21
612.3330000000001
 31
0.0
  0
LINE
  5
534
330
1E
100
AcDbEntity
  8
0
100
AcDbLine
 10
242.7084264999999
 20
612.3330000000001
 30
0.0
 11
244.1704265
 21
612.3330000000001
 31
0.0
  0
LINE
  5
535
330
1E
100
AcDbEntity
  8
0
100
AcDbLine
 10
264.1224265
 20
612.3330000000001
 30
0.0
 11
270.9164265
 21
612.3330000000001
 31
0.0
  0
LINE
  5
536
330
1E
100
AcDbEntity
  8
0
100
AcDbLine
 10
270.9164265
 20
612.3330000000001
 30
0.0
 11
271.4324265
 21
612.3330000000001
 31
0.0
  0
LINE
  5
537
330
1E
100
AcDbEntity
  8
0
100
AcDbLine
 10
260.5964265
 20
612.3330000000001
 30
0.0
 11
264.1224265
 21
612.3330000000001
 31
0.0
  0
LINE
  5
538
330
1E
100
AcDbEntity
  8
0
100
AcDbLine
 10
256.8124265
 20
612.3330000000001
 30
0.0
 11
260.5964265
 21
612.3330000000001
 31
0.0
  0
LINE
  5
539
330
1E
100
AcDbEntity
  8
0
100
AcDbLine
 10
242.1924265
 20
610.25
 30
0.0
 11
242.3644265
 21
609.333
 31
0.0
  0
LINE
  5
53A
330
1E
100
AcDbEntity
  8
0
100
AcDbLine
 10
247.4384265
 20
613.1659999999998
 30
0.0
 11
250.1904264999999
 21
613.1659999999998
 31
0.0
  0
LINE
  5
53B
330
1E
100
AcDbEntity
  8
0
100
AcDbLine
 10
250.1904264999999
 20
613.1659999999998
 30
0.0
 11
253.3724265
 21
613.1659999999998
 31
0.0
  0
LINE
  5
53C
330
1E
100
AcDbEntity
  8
0
100
AcDbLine
 10
253.3724265
 20
613.1659999999998
 30
0.0
 11
256.8124265
 21
613.1659999999998
 31
0.0
  0
LINE
  5
53D
330
1E
100
AcDbEntity
  8
0
100
AcDbLine
 10
245.2884265
 20
613.1659999999998
 30
0.0
 11
247.4384265
 21
613.1659999999998
 31
0.0
  0
LINE
  5
53E
330
1E
100
AcDbEntity
  8
0
100
AcDbLine
 10
243.9984265
 20
613.1659999999998
 30
0.0
 11
245.2884265
 21
613.1659999999998
 31
0.0
  0
LINE
  5
53F
330
1E
100
AcDbEntity
  8
0
100
AcDbLine
 10
266.1864265
 20
613.1659999999998
 30
0.0
 11
268.3364265
 21
613.1659999999998
 31
0.0
  0
LINE
  5
540
330
1E
100
AcDbEntity
  8
0
100
AcDbLine
 10
268.3364265
 20
613.1659999999998
 30
0.0
 11
269.6264265
 21
613.1659999999998
 31
0.0
  0
LINE
  5
541
330
1E
100
AcDbEntity
  8
0
100
AcDbLine
 10
269.6264265
 20
613.1659999999998
 30
0.0
 11
270.1424264999999
 21
613.1659999999998
 31
0.0
  0
LINE
  5
542
330
1E
100
AcDbEntity
  8
0
100
AcDbLine
 10
263.4344265
 20
613.1659999999998
 30
0.0
 11
266.1864265
 21
613.1659999999998
 31
0.0
  0
LINE
  5
543
330
1E
100
AcDbEntity
  8
0
100
AcDbLine
 10
260.2524265
 20
613.1659999999998
 30
0.0
 11
263.4344265
 21
613.1659999999998
 31
0.0
  0
LINE
  5
544
330
1E
100
AcDbEntity
  8
0
100
AcDbLine
 10
256.8124265
 20
613.1659999999998
 30
0.0
 11
260.2524265
 21
613.1659999999998
 31
0.0
  0
LINE
  5
545
330
1E
100
AcDbEntity
  8
0
100
AcDbLine
 10
243.4824265
 20
613.1659999999998
 30
0.0
 11
243.8124265
 21
614.8330000000002
 31
0.0
  0
LINE
  5
546
330
1E
100
AcDbEntity
  8
0
100
AcDbLine
 10
243.4824265
 20
613.1659999999998
 30
0.0
 11
243.9984265
 21
613.1659999999998
 31
0.0
  0
LINE
  5
547
330
1E
100
AcDbEntity
  8
0
100
AcDbLine
 10
243.0524265
 20
612.75
 30
0.0
 11
243.4824265
 21
613.1659999999998
 31
0.0
  0
LINE
  5
548
330
1E
100
AcDbEntity
  8
0
100
AcDbLine
 10
269.8124265
 20
614.8330000000002
 30
0.0
 11
270.1424264999999
 21
613.1659999999998
 31
0.0
  0
LINE
  5
549
330
1E
100
AcDbEntity
  8
0
100
AcDbLine
 10
269.8124265
 20
614.8330000000002
 30
0.0
 11
269.8124265
 21
719.8330000000002
 31
0.0
  0
LINE
  5
54A
330
1E
100
AcDbEntity
  8
0
100
AcDbLine
 10
270.5724265
 20
612.75
 30
0.0
 11
271.4324265
 21
612.3330000000001
 31
0.0
  0
LINE
  5
54B
330
1E
100
AcDbEntity
  8
0
100
AcDbLine
 10
270.1424264999999
 20
613.1659999999998
 30
0.0
 11
270.5724265
 21
612.75
 31
0.0
  0
LINE
  5
54C
330
1E
100
AcDbEntity
  8
0
100
AcDbLine
 10
271.4324265
 20
612.3330000000001
 30
0.0
 11
271.8624265
 21
611.5
 31
0.0
  0
LINE
  5
54D
330
1E
100
AcDbEntity
  8
0
100
AcDbLine
 10
271.8624265
 20
611.5
 30
0.0
 11
271.8624265
 21
611.083
 31
0.0
  0
LINE
  5
54E
330
1E
100
AcDbEntity
  8
0
100
AcDbLine
 10
271.8624265
 20
611.083
 30
0.0
 11
271.8624265
 21
611.5
 31
0.0
  0
LINE
  5
54F
330
1E
100
AcDbEntity
  8
0
100
AcDbLine
 10
271.4324265
 20
610.25
 30
0.0
 11
271.8624265
 21
611.083
 31
0.0
  0
LINE
  5
550
330
1E
100
AcDbEntity
  8
0
100
AcDbLine
 10
271.2604264999999
 20
609.333
 30
0.0
 11
271.4324265
 21
608.1659999999998
 31
0.0
  0
LINE
  5
551
330
1E
100
AcDbEntity
  8
0
100
AcDbLine
 10
271.2604264999999
 20
609.333
 30
0.0
 11
271.4324265
 21
610.25
 31
0.0
  0
LINE
  5
552
330
1E
100
AcDbEntity
  8
0
100
AcDbLine
 10
274.0124264999999
 20
603.1659999999998
 30
0.0
 11
277.0224264999999
 21
601.9159999999998
 31
0.0
  0
LINE
  5
553
330
1E
100
AcDbEntity
  8
0
100
AcDbLine
 10
277.0224264999999
 20
601.9159999999998
 30
0.0
 11
277.8824265
 21
601.0830000000002
 31
0.0
  0
LINE
  5
554
330
1E
100
AcDbEntity
  8
0
100
AcDbLine
 10
272.2924265
 20
605.6659999999998
 30
0.0
 11
274.0124264999999
 21
603.1659999999998
 31
0.0
  0
LINE
  5
555
330
1E
100
AcDbEntity
  8
0
100
AcDbLine
 10
275.4744264999999
 20
599.8330000000001
 30
0.0
 11
277.5384265
 21
599.8330000000001
 31
0.0
  0
LINE
  5
57C
330
1E
100
AcDbEntity
  8
0
100
AcDbLine
 10
277.8824265
 20
601.0830000000002
 30
0.0
 11
278.3124265
 21
599.8330000000001
 31
0.0
  0
LINE
  5
57D
330
1E
100
AcDbEntity
  8
0
100
AcDbLine
 10
277.5384265
 20
599.8330000000001
 30
0.0
 11
278.3124265
 21
599.8330000000001
 31
0.0
  0
LINE
  5
57E
330
1E
100
AcDbEntity
  8
0
100
AcDbLine
 10
241.5344265
 20
728.3330000000002
 30
0.0
 11
243.2334265
 21
724.233
 31
0.0
  0
LINE
  5
57F
330
1E
100
AcDbEntity
  8
0
100
AcDbLine
 10
243.2334265
 20
724.233
 30
0.0
 11
243.8124265
 21
719.8330000000002
 31
0.0
  0
LINE
  5
580
330
1E
100
AcDbEntity
  8
0
100
AcDbLine
 10
269.8124265
 20
719.8330000000002
 30
0.0
 11
269.8124265
 21
614.8330000000002
 31
0.0
  0
LINE
  5
581
330
1E
100
AcDbEntity
  8
0
100
AcDbLine
 10
243.8124265
 20
719.8330000000002
 30
0.0
 11
243.8124265
 21
614.8330000000002
 31
0.0
  0
LINE
  5
582
330
1E
100
AcDbEntity
  8
0
100
AcDbLine
 10
238.8334265
 20
731.8539999999998
 30
0.0
 11
241.5344265
 21
728.3330000000002
 31
0.0
  0
LINE
  5
583
330
1E
100
AcDbEntity
  8
0
100
AcDbLine
 10
268.3474265
 20
730.9619999999998
 30
0.0
 11
269.8124265
 21
719.8330000000002
 31
0.0
  0
LINE
  5
584
330
1E
100
AcDbEntity
  8
0
100
AcDbLine
 10
212.8774265
 20
732.8330000000002
 30
0.0
 11
213.8444265
 21
733.938
 31
0.0
  0
LINE
  5
585
330
1E
100
AcDbEntity
  8
0
100
AcDbLine
 10
243.8124265
 20
614.8330000000002
 30
0.0
 11
243.8124265
 21
719.8330000000002
 31
0.0
  0
LINE
  5
586
330
1E
100
AcDbEntity
  8
0
100
AcDbLine
 10
201.7484264999999
 20
732.8330000000002
 30
0.0
 11
212.8774265
 21
732.8330000000002
 31
0.0
  0
LINE
  5
587
330
1E
100
AcDbEntity
  8
0
100
AcDbLine
 10
183.4524264999999
 20
732.8330000000002
 30
0.0
 11
183.8124264999999
 21
733.433
 31
0.0
  0
LINE
  5
588
330
1E
100
AcDbEntity
  8
0
100
AcDbLine
 10
182.9124264999999
 20
732.8330000000002
 30
0.0
 11
183.4524264999999
 21
732.8330000000002
 31
0.0
  0
LINE
  5
589
330
1E
100
AcDbEntity
  8
0
100
AcDbLine
 10
181.4724264999999
 20
732.8330000000002
 30
0.0
 11
182.9124264999999
 21
732.8330000000002
 31
0.0
  0
LINE
  5
58A
330
1E
100
AcDbEntity
  8
0
100
AcDbLine
 10
181.3124264999999
 20
732.8330000000002
 30
0.0
 11
181.4724264999999
 21
732.8330000000002
 31
0.0
  0
LINE
  5
58B
330
1E
100
AcDbEntity
  8
0
100
AcDbLine
 10
195.8124265
 20
734.833
 30
0.0
 11
196.3124264999999
 21
733.3330000000001
 31
0.0
  0
LINE
  5
58C
330
1E
100
AcDbEntity
  8
0
100
AcDbLine
 10
195.8124265
 20
734.833
 30
0.0
 11
195.8124265
 21
735.333
 31
0.0
  0
LINE
  5
58D
330
1E
100
AcDbEntity
  8
0
100
AcDbLine
 10
183.8124264999999
 20
733.433
 30
0.0
 11
183.8124264999999
 21
734.833
 31
0.0
  0
LINE
  5
58E
330
1E
100
AcDbEntity
  8
0
100
AcDbLine
 10
195.8124265
 20
736.8330000000002
 30
0.0
 11
195.8124265
 21
739.2330000000002
 31
0.0
  0
LINE
  5
58F
330
1E
100
AcDbEntity
  8
0
100
AcDbLine
 10
195.8124265
 20
736.8330000000002
 30
0.0
 11
195.8124265
 21
735.333
 31
0.0
  0
LINE
  5
590
330
1E
100
AcDbEntity
  8
0
100
AcDbLine
 10
195.8124265
 20
735.333
 30
0.0
 11
195.8124265
 21
736.8330000000002
 31
0.0
  0
LINE
  5
591
330
1E
100
AcDbEntity
  8
0
100
AcDbLine
 10
195.8124265
 20
735.333
 30
0.0
 11
195.8124265
 21
734.833
 31
0.0
  0
LINE
  5
592
330
1E
100
AcDbEntity
  8
0
100
AcDbLine
 10
195.8124265
 20
739.2330000000002
 30
0.0
 11
195.8124265
 21
742.333
 31
0.0
  0
LINE
  5
593
330
1E
100
AcDbEntity
  8
0
100
AcDbLine
 10
195.8124265
 20
739.2330000000002
 30
0.0
 11
195.8124265
 21
736.8330000000002
 31
0.0
  0
LINE
  5
594
330
1E
100
AcDbEntity
  8
0
100
AcDbLine
 10
195.8124265
 20
742.333
 30
0.0
 11
195.8124265
 21
745.933
 31
0.0
  0
LINE
  5
595
330
1E
100
AcDbEntity
  8
0
100
AcDbLine
 10
195.8124265
 20
742.333
 30
0.0
 11
195.8124265
 21
739.2330000000002
 31
0.0
  0
LINE
  5
596
330
1E
100
AcDbEntity
  8
0
100
AcDbLine
 10
195.8124265
 20
745.933
 30
0.0
 11
195.8124265
 21
749.8330000000001
 31
0.0
  0
LINE
  5
597
330
1E
100
AcDbEntity
  8
0
100
AcDbLine
 10
195.8124265
 20
745.933
 30
0.0
 11
195.8124265
 21
742.333
 31
0.0
  0
LINE
  5
598
330
1E
100
AcDbEntity
  8
0
100
AcDbLine
 10
195.8124265
 20
760.433
 30
0.0
 11
195.8124265
 21
762.833
 31
0.0
  0
LINE
  5
599
330
1E
100
AcDbEntity
  8
0
100
AcDbLine
 10
195.8124265
 20
760.433
 30
0.0
 11
195.8124265
 21
757.3330000000002
 31
0.0
  0
LINE
  5
59A
330
1E
100
AcDbEntity
  8
0
100
AcDbLine
 10
195.8124265
 20
762.833
 30
0.0
 11
195.8124265
 21
764.333
 31
0.0
  0
LINE
  5
59B
330
1E
100
AcDbEntity
  8
0
100
AcDbLine
 10
195.8124265
 20
762.833
 30
0.0
 11
195.8124265
 21
760.433
 31
0.0
  0
LINE
  5
59C
330
1E
100
AcDbEntity
  8
0
100
AcDbLine
 10
195.8124265
 20
764.333
 30
0.0
 11
195.8124265
 21
764.8330000000002
 31
0.0
  0
LINE
  5
59D
330
1E
100
AcDbEntity
  8
0
100
AcDbLine
 10
195.8124265
 20
764.333
 30
0.0
 11
195.8124265
 21
762.833
 31
0.0
  0
LINE
  5
59E
330
1E
100
AcDbEntity
  8
0
100
AcDbLine
 10
195.8124265
 20
757.3330000000002
 30
0.0
 11
195.8124265
 21
760.433
 31
0.0
  0
LINE
  5
59F
330
1E
100
AcDbEntity
  8
0
100
AcDbLine
 10
195.8124265
 20
757.3330000000002
 30
0.0
 11
195.8124265
 21
753.733
 31
0.0
  0
LINE
  5
5A0
330
1E
100
AcDbEntity
  8
0
100
AcDbLine
 10
195.8124265
 20
753.733
 30
0.0
 11
195.8124265
 21
757.3330000000002
 31
0.0
  0
LINE
  5
5A1
330
1E
100
AcDbEntity
  8
0
100
AcDbLine
 10
195.8124265
 20
753.733
 30
0.0
 11
195.8124265
 21
749.8330000000001
 31
0.0
  0
LINE
  5
5A2
330
1E
100
AcDbEntity
  8
0
100
AcDbLine
 10
195.8124265
 20
749.8330000000001
 30
0.0
 11
195.8124265
 21
753.733
 31
0.0
  0
LINE
  5
5A3
330
1E
100
AcDbEntity
  8
0
100
AcDbLine
 10
180.8124265
 20
764.8330000000002
 30
0.0
 11
180.8124265
 21
766.833
 31
0.0
  0
LINE
  5
5A4
330
1E
100
AcDbEntity
  8
0
100
AcDbLine
 10
183.8124264999999
 20
734.833
 30
0.0
 11
183.8124264999999
 21
733.433
 31
0.0
  0
LINE
  5
5A5
330
1E
100
AcDbEntity
  8
0
100
AcDbLine
 10
183.8124264999999
 20
734.833
 30
0.0
 11
195.8124265
 21
734.833
 31
0.0
  0
LINE
  5
5A6
330
1E
100
AcDbEntity
  8
0
100
AcDbLine
 10
196.3124264999999
 20
741.633
 30
0.0
 11
196.3124264999999
 21
745.633
 31
0.0
  0
LINE
  5
5A7
330
1E
100
AcDbEntity
  8
0
100
AcDbLine
 10
196.3124264999999
 20
741.633
 30
0.0
 11
196.3124264999999
 21
738.133
 31
0.0
  0
LINE
  5
5A8
330
1E
100
AcDbEntity
  8
0
100
AcDbLine
 10
196.3124264999999
 20
745.633
 30
0.0
 11
196.3124264999999
 21
749.8330000000001
 31
0.0
  0
LINE
  5
5A9
330
1E
100
AcDbEntity
  8
0
100
AcDbLine
 10
196.3124264999999
 20
745.633
 30
0.0
 11
196.3124264999999
 21
741.633
 31
0.0
  0
LINE
  5
5AA
330
1E
100
AcDbEntity
  8
0
100
AcDbLine
 10
196.3124264999999
 20
738.133
 30
0.0
 11
196.3124264999999
 21
735.533
 31
0.0
  0
LINE
  5
5AB
330
1E
100
AcDbEntity
  8
0
100
AcDbLine
 10
196.3124264999999
 20
738.133
 30
0.0
 11
196.3124264999999
 21
741.633
 31
0.0
  0
LINE
  5
5AC
330
1E
100
AcDbEntity
  8
0
100
AcDbLine
 10
196.3124264999999
 20
735.533
 30
0.0
 11
196.3124264999999
 21
738.133
 31
0.0
  0
LINE
  5
5AD
330
1E
100
AcDbEntity
  8
0
100
AcDbLine
 10
196.3124264999999
 20
735.533
 30
0.0
 11
196.3124264999999
 21
733.933
 31
0.0
  0
LINE
  5
5AE
330
1E
100
AcDbEntity
  8
0
100
AcDbLine
 10
196.3124264999999
 20
733.933
 30
0.0
 11
196.3124264999999
 21
735.533
 31
0.0
  0
LINE
  5
5AF
330
1E
100
AcDbEntity
  8
0
100
AcDbLine
 10
196.3124264999999
 20
733.933
 30
0.0
 11
196.3124264999999
 21
733.3330000000001
 31
0.0
  0
LINE
  5
5B0
330
1E
100
AcDbEntity
  8
0
100
AcDbLine
 10
196.3124264999999
 20
764.133
 30
0.0
 11
196.3124264999999
 21
765.733
 31
0.0
  0
LINE
  5
5B1
330
1E
100
AcDbEntity
  8
0
100
AcDbLine
 10
196.3124264999999
 20
764.133
 30
0.0
 11
196.3124264999999
 21
761.533
 31
0.0
  0
LINE
  5
5B2
330
1E
100
AcDbEntity
  8
0
100
AcDbLine
 10
196.3124264999999
 20
765.733
 30
0.0
 11
196.3124264999999
 21
766.3330000000001
 31
0.0
  0
LINE
  5
5B3
330
1E
100
AcDbEntity
  8
0
100
AcDbLine
 10
196.3124264999999
 20
765.733
 30
0.0
 11
196.3124264999999
 21
764.133
 31
0.0
  0
LINE
  5
5B4
330
1E
100
AcDbEntity
  8
0
100
AcDbLine
 10
196.3124264999999
 20
761.533
 30
0.0
 11
196.3124264999999
 21
758.033
 31
0.0
  0
LINE
  5
5B5
330
1E
100
AcDbEntity
  8
0
100
AcDbLine
 10
196.3124264999999
 20
761.533
 30
0.0
 11
196.3124264999999
 21
764.133
 31
0.0
  0
LINE
  5
5B6
330
1E
100
AcDbEntity
  8
0
100
AcDbLine
 10
196.3124264999999
 20
758.033
 30
0.0
 11
196.3124264999999
 21
761.533
 31
0.0
  0
LINE
  5
5B7
330
1E
100
AcDbEntity
  8
0
100
AcDbLine
 10
196.3124264999999
 20
758.033
 30
0.0
 11
196.3124264999999
 21
754.0329999999999
 31
0.0
  0
LINE
  5
5B8
330
1E
100
AcDbEntity
  8
0
100
AcDbLine
 10
196.3124264999999
 20
754.0329999999999
 30
0.0
 11
196.3124264999999
 21
758.033
 31
0.0
  0
LINE
  5
5B9
330
1E
100
AcDbEntity
  8
0
100
AcDbLine
 10
196.3124264999999
 20
754.0329999999999
 30
0.0
 11
196.3124264999999
 21
749.8330000000001
 31
0.0
  0
LINE
  5
5BA
330
1E
100
AcDbEntity
  8
0
100
AcDbLine
 10
196.3124264999999
 20
749.8330000000001
 30
0.0
 11
196.3124264999999
 21
754.0329999999999
 31
0.0
  0
LINE
  5
5BB
330
1E
100
AcDbEntity
  8
0
100
AcDbLine
 10
196.3124264999999
 20
749.8330000000001
 30
0.0
 11
196.3124264999999
 21
745.633
 31
0.0
  0
LINE
  5
5BC
330
1E
100
AcDbEntity
  8
0
100
AcDbLine
 10
196.3124264999999
 20
766.3330000000001
 30
0.0
 11
197.8124264999999
 21
766.833
 31
0.0
  0
LINE
  5
5BD
330
1E
100
AcDbEntity
  8
0
100
AcDbLine
 10
196.3124264999999
 20
766.3330000000001
 30
0.0
 11
196.3124264999999
 21
765.733
 31
0.0
  0
LINE
  5
5C7
330
1E
100
AcDbEntity
  8
0
100
AcDbLine
 10
199.3124264999999
 20
741.633
 30
0.0
 11
199.3124264999999
 21
745.633
 31
0.0
  0
LINE
  5
5C8
330
1E
100
AcDbEntity
  8
0
100
AcDbLine
 10
199.3124264999999
 20
741.633
 30
0.0
 11
199.3124264999999
 21
738.133
 31
0.0
  0
LINE
  5
5C9
330
1E
100
AcDbEntity
  8
0
100
AcDbLine
 10
199.3124264999999
 20
745.633
 30
0.0
 11
199.3124264999999
 21
749.8330000000001
 31
0.0
  0
LINE
  5
5CA
330
1E
100
AcDbEntity
  8
0
100
AcDbLine
 10
199.3124264999999
 20
745.633
 30
0.0
 11
199.3124264999999
 21
741.633
 31
0.0
  0
LINE
  5
5CB
330
1E
100
AcDbEntity
  8
0
100
AcDbLine
 10
199.3124264999999
 20
738.133
 30
0.0
 11
199.3124264999999
 21
735.533
 31
0.0
  0
LINE
  5
5CC
330
1E
100
AcDbEntity
  8
0
100
AcDbLine
 10
199.3124264999999
 20
738.133
 30
0.0
 11
199.3124264999999
 21
741.633
 31
0.0
  0
LINE
  5
5CD
330
1E
100
AcDbEntity
  8
0
100
AcDbLine
 10
199.8124264999999
 20
742.333
 30
0.0
 11
199.8124264999999
 21
745.933
 31
0.0
  0
LINE
  5
5CE
330
1E
100
AcDbEntity
  8
0
100
AcDbLine
 10
199.8124264999999
 20
742.333
 30
0.0
 11
199.8124264999999
 21
739.2330000000002
 31
0.0
  0
LINE
  5
5CF
330
1E
100
AcDbEntity
  8
0
100
AcDbLine
 10
199.8124264999999
 20
745.933
 30
0.0
 11
199.8124264999999
 21
749.8330000000001
 31
0.0
  0
LINE
  5
5D0
330
1E
100
AcDbEntity
  8
0
100
AcDbLine
 10
199.8124264999999
 20
745.933
 30
0.0
 11
199.8124264999999
 21
742.333
 31
0.0
  0
LINE
  5
5D1
330
1E
100
AcDbEntity
  8
0
100
AcDbLine
 10
199.8124264999999
 20
739.2330000000002
 30
0.0
 11
199.8124264999999
 21
736.8330000000002
 31
0.0
  0
LINE
  5
5D2
330
1E
100
AcDbEntity
  8
0
100
AcDbLine
 10
199.8124264999999
 20
739.2330000000002
 30
0.0
 11
199.8124264999999
 21
742.333
 31
0.0
  0
LINE
  5
5D3
330
1E
100
AcDbEntity
  8
0
100
AcDbLine
 10
199.8124264999999
 20
736.8330000000002
 30
0.0
 11
199.8124264999999
 21
739.2330000000002
 31
0.0
  0
LINE
  5
5D4
330
1E
100
AcDbEntity
  8
0
100
AcDbLine
 10
199.8124264999999
 20
736.8330000000002
 30
0.0
 11
199.8124264999999
 21
735.333
 31
0.0
  0
LINE
  5
5D5
330
1E
100
AcDbEntity
  8
0
100
AcDbLine
 10
199.8124264999999
 20
735.333
 30
0.0
 11
199.8124264999999
 21
736.8330000000002
 31
0.0
  0
LINE
  5
5D6
330
1E
100
AcDbEntity
  8
0
100
AcDbLine
 10
199.8124264999999
 20
735.333
 30
0.0
 11
199.8124264999999
 21
734.833
 31
0.0
  0
LINE
  5
5D7
330
1E
100
AcDbEntity
  8
0
100
AcDbLine
 10
199.8124264999999
 20
734.833
 30
0.0
 11
199.8124264999999
 21
735.333
 31
0.0
  0
LINE
  5
5D8
330
1E
100
AcDbEntity
  8
0
100
AcDbLine
 10
199.3124264999999
 20
735.533
 30
0.0
 11
199.3124264999999
 21
738.133
 31
0.0
  0
LINE
  5
5D9
330
1E
100
AcDbEntity
  8
0
100
AcDbLine
 10
199.3124264999999
 20
735.533
 30
0.0
 11
199.3124264999999
 21
733.933
 31
0.0
  0
LINE
  5
5DA
330
1E
100
AcDbEntity
  8
0
100
AcDbLine
 10
199.3124264999999
 20
733.933
 30
0.0
 11
199.3124264999999
 21
735.533
 31
0.0
  0
LINE
  5
5DB
330
1E
100
AcDbEntity
  8
0
100
AcDbLine
 10
199.3124264999999
 20
733.933
 30
0.0
 11
199.3124264999999
 21
733.3330000000001
 31
0.0
  0
LINE
  5
5DC
330
1E
100
AcDbEntity
  8
0
100
AcDbLine
 10
199.8124264999999
 20
749.8330000000001
 30
0.0
 11
199.8124264999999
 21
753.733
 31
0.0
  0
LINE
  5
5DD
330
1E
100
AcDbEntity
  8
0
100
AcDbLine
 10
199.8124264999999
 20
749.8330000000001
 30
0.0
 11
199.8124264999999
 21
745.933
 31
0.0
  0
LINE
  5
5DE
330
1E
100
AcDbEntity
  8
0
100
AcDbLine
 10
199.3124264999999
 20
761.533
 30
0.0
 11
199.3124264999999
 21
758.033
 31
0.0
  0
LINE
  5
5DF
330
1E
100
AcDbEntity
  8
0
100
AcDbLine
 10
199.3124264999999
 20
761.533
 30
0.0
 11
199.3124264999999
 21
764.133
 31
0.0
  0
LINE
  5
5E0
330
1E
100
AcDbEntity
  8
0
100
AcDbLine
 10
199.3124264999999
 20
758.033
 30
0.0
 11
199.3124264999999
 21
761.533
 31
0.0
  0
LINE
  5
5E1
330
1E
100
AcDbEntity
  8
0
100
AcDbLine
 10
199.3124264999999
 20
758.033
 30
0.0
 11
199.3124264999999
 21
754.0329999999999
 31
0.0
  0
LINE
  5
5E2
330
1E
100
AcDbEntity
  8
0
100
AcDbLine
 10
199.8124264999999
 20
760.433
 30
0.0
 11
199.8124264999999
 21
757.3330000000002
 31
0.0
  0
LINE
  5
5E3
330
1E
100
AcDbEntity
  8
0
100
AcDbLine
 10
199.8124264999999
 20
760.433
 30
0.0
 11
199.8124264999999
 21
762.833
 31
0.0
  0
LINE
  5
5E4
330
1E
100
AcDbEntity
  8
0
100
AcDbLine
 10
199.8124264999999
 20
757.3330000000002
 30
0.0
 11
199.8124264999999
 21
760.433
 31
0.0
  0
LINE
  5
5E5
330
1E
100
AcDbEntity
  8
0
100
AcDbLine
 10
199.8124264999999
 20
757.3330000000002
 30
0.0
 11
199.8124264999999
 21
753.733
 31
0.0
  0
LINE
  5
5E6
330
1E
100
AcDbEntity
  8
0
100
AcDbLine
 10
199.8124264999999
 20
753.733
 30
0.0
 11
199.8124264999999
 21
757.3330000000002
 31
0.0
  0
LINE
  5
5E7
330
1E
100
AcDbEntity
  8
0
100
AcDbLine
 10
199.8124264999999
 20
753.733
 30
0.0
 11
199.8124264999999
 21
749.8330000000001
 31
0.0
  0
LINE
  5
5E8
330
1E
100
AcDbEntity
  8
0
100
AcDbLine
 10
199.3124264999999
 20
754.0329999999999
 30
0.0
 11
199.3124264999999
 21
758.033
 31
0.0
  0
LINE
  5
5E9
330
1E
100
AcDbEntity
  8
0
100
AcDbLine
 10
199.3124264999999
 20
754.0329999999999
 30
0.0
 11
199.3124264999999
 21
749.8330000000001
 31
0.0
  0
LINE
  5
5EA
330
1E
100
AcDbEntity
  8
0
100
AcDbLine
 10
199.3124264999999
 20
749.8330000000001
 30
0.0
 11
199.3124264999999
 21
754.0329999999999
 31
0.0
  0
LINE
  5
5EB
330
1E
100
AcDbEntity
  8
0
100
AcDbLine
 10
199.3124264999999
 20
749.8330000000001
 30
0.0
 11
199.3124264999999
 21
745.633
 31
0.0
  0
LINE
  5
5EF
330
1E
100
AcDbEntity
  8
0
100
AcDbLine
 10
199.8124264999999
 20
762.833
 30
0.0
 11
199.8124264999999
 21
764.333
 31
0.0
  0
LINE
  5
5F0
330
1E
100
AcDbEntity
  8
0
100
AcDbLine
 10
199.8124264999999
 20
762.833
 30
0.0
 11
199.8124264999999
 21
760.433
 31
0.0
  0
LINE
  5
5F1
330
1E
100
AcDbEntity
  8
0
100
AcDbLine
 10
199.8124264999999
 20
764.8330000000002
 30
0.0
 11
199.8124264999999
 21
764.333
 31
0.0
  0
LINE
  5
5F2
330
1E
100
AcDbEntity
  8
0
100
AcDbLine
 10
199.8124264999999
 20
764.333
 30
0.0
 11
199.8124264999999
 21
764.8330000000002
 31
0.0
  0
LINE
  5
5F3
330
1E
100
AcDbEntity
  8
0
100
AcDbLine
 10
199.8124264999999
 20
764.333
 30
0.0
 11
199.8124264999999
 21
762.833
 31
0.0
  0
LINE
  5
5F4
330
1E
100
AcDbEntity
  8
0
100
AcDbLine
 10
199.3124264999999
 20
764.133
 30
0.0
 11
199.3124264999999
 21
765.733
 31
0.0
  0
LINE
  5
5F5
330
1E
100
AcDbEntity
  8
0
100
AcDbLine
 10
199.3124264999999
 20
764.133
 30
0.0
 11
199.3124264999999
 21
761.533
 31
0.0
  0
LINE
  5
5F6
330
1E
100
AcDbEntity
  8
0
100
AcDbLine
 10
199.3124264999999
 20
765.733
 30
0.0
 11
199.3124264999999
 21
766.3330000000001
 31
0.0
  0
LINE
  5
5F7
330
1E
100
AcDbEntity
  8
0
100
AcDbLine
 10
199.3124264999999
 20
765.733
 30
0.0
 11
199.3124264999999
 21
764.133
 31
0.0
  0
LINE
  5
5FA
330
1E
100
AcDbEntity
  8
0
100
AcDbLine
 10
199.8124264999999
 20
762.0889999999998
 30
0.0
 11
200.7804264999999
 21
765.728
 31
0.0
  0
LINE
  5
5FB
330
1E
100
AcDbEntity
  8
0
100
AcDbLine
 10
213.8444265
 20
733.938
 30
0.0
 11
214.8124265
 21
736.38
 31
0.0
  0
LINE
  5
60D
330
1E
100
AcDbEntity
  8
0
100
AcDbLine
 10
231.2124265
 20
736.2539999999998
 30
0.0
 11
235.3124265
 21
734.5549999999998
 31
0.0
  0
LINE
  5
60E
330
1E
100
AcDbEntity
  8
0
100
AcDbLine
 10
235.3124265
 20
734.5549999999998
 30
0.0
 11
238.8334265
 21
731.8539999999998
 31
0.0
  0
LINE
  5
60F
330
1E
100
AcDbEntity
  8
0
100
AcDbLine
 10
226.8124265
 20
736.8330000000002
 30
0.0
 11
231.2124265
 21
736.2539999999998
 31
0.0
  0
LINE
  5
610
330
1E
100
AcDbEntity
  8
0
100
AcDbLine
 10
214.8124265
 20
736.8330000000002
 30
0.0
 11
226.8124265
 21
736.8330000000002
 31
0.0
  0
LINE
  5
621
330
1E
100
AcDbEntity
  8
0
100
AcDbLine
 10
264.0514264999999
 20
741.3330000000001
 30
0.0
 11
268.3474265
 21
730.9619999999998
 31
0.0
  0
LINE
  5
622
330
1E
100
AcDbEntity
  8
0
100
AcDbLine
 10
257.2184265
 20
750.2389999999998
 30
0.0
 11
264.0514264999999
 21
741.3330000000001
 31
0.0
  0
LINE
  5
623
330
1E
100
AcDbEntity
  8
0
100
AcDbLine
 10
248.3124265
 20
757.072
 30
0.0
 11
257.2184265
 21
750.2389999999998
 31
0.0
  0
LINE
  5
625
330
1E
100
AcDbEntity
  8
0
100
AcDbLine
 10
214.8124265
 20
762.833
 30
0.0
 11
226.8124265
 21
762.833
 31
0.0
  0
LINE
  5
626
330
1E
100
AcDbEntity
  8
0
100
AcDbLine
 10
226.8124265
 20
762.833
 30
0.0
 11
237.9414265
 21
761.368
 31
0.0
  0
LINE
  5
627
330
1E
100
AcDbEntity
  8
0
100
AcDbLine
 10
237.9414265
 20
761.368
 30
0.0
 11
248.3124265
 21
757.072
 31
0.0
  0
LINE
  5
628
330
1E
100
AcDbEntity
  8
0
100
AcDbLine
 10
213.8444265
 20
765.728
 30
0.0
 11
214.8124265
 21
763.286
 31
0.0
  0
LINE
  5
630
330
1E
100
AcDbEntity
  8
0
100
AcDbLine
 10
200.7804264999999
 20
765.728
 30
0.0
 11
201.7484264999999
 21
766.833
 31
0.0
  0
LINE
  5
631
330
1E
100
AcDbEntity
  8
0
100
AcDbLine
 10
200.7804264999999
 20
733.938
 30
0.0
 11
201.7484264999999
 21
732.8330000000002
 31
0.0
  0
LINE
  5
633
330
1E
100
AcDbEntity
  8
0
100
AcDbLine
 10
199.8124264999999
 20
737.577
 30
0.0
 11
200.7804264999999
 21
733.938
 31
0.0
  0
LINE
  5
634
330
1E
100
AcDbEntity
  8
0
100
AcDbLine
 10
199.3124264999999
 20
733.3330000000001
 30
0.0
 11
199.8124264999999
 21
734.833
 31
0.0
  0
LINE
  5
635
330
1E
100
AcDbEntity
  8
0
100
AcDbLine
 10
199.3124264999999
 20
733.3330000000001
 30
0.0
 11
199.3124264999999
 21
733.933
 31
0.0
  0
LINE
  5
636
330
1E
100
AcDbEntity
  8
0
100
AcDbLine
 10
196.3124264999999
 20
733.3330000000001
 30
0.0
 11
197.8124264999999
 21
732.8330000000002
 31
0.0
  0
LINE
  5
637
330
1E
100
AcDbEntity
  8
0
100
AcDbLine
 10
196.3124264999999
 20
733.3330000000001
 30
0.0
 11
196.3124264999999
 21
733.933
 31
0.0
  0
LINE
  5
638
330
1E
100
AcDbEntity
  8
0
100
AcDbLine
 10
199.3124264999999
 20
766.3330000000001
 30
0.0
 11
199.8124264999999
 21
764.8330000000002
 31
0.0
  0
LINE
  5
639
330
1E
100
AcDbEntity
  8
0
100
AcDbLine
 10
199.3124264999999
 20
766.3330000000001
 30
0.0
 11
199.3124264999999
 21
765.733
 31
0.0
  0
LINE
  5
63A
330
1E
100
AcDbEntity
  8
0
100
AcDbLine
 10
195.8124265
 20
764.8330000000002
 30
0.0
 11
196.3124264999999
 21
766.3330000000001
 31
0.0
  0
LINE
  5
63B
330
1E
100
AcDbEntity
  8
0
100
AcDbLine
 10
195.8124265
 20
764.8330000000002
 30
0.0
 11
195.8124265
 21
764.333
 31
0.0
  0
LINE
  5
63C
330
1E
100
AcDbEntity
  8
0
100
AcDbLine
 10
180.8574265
 20
732.8330000000002
 30
0.0
 11
181.3124264999999
 21
732.8330000000002
 31
0.0
  0
LINE
  5
63D
330
1E
100
AcDbEntity
  8
0
100
AcDbLine
 10
180.7444264999999
 20
731.333
 30
0.0
 11
181.3124264999999
 21
732.8330000000002
 31
0.0
  0
LINE
  5
63E
330
1E
100
AcDbEntity
  8
0
100
AcDbLine
 10
176.8124264999999
 20
766.833
 30
0.0
 11
177.6004265
 21
766.833
 31
0.0
  0
LINE
  5
63F
330
1E
100
AcDbEntity
  8
0
100
AcDbLine
 10
160.2644264999999
 20
766.833
 30
0.0
 11
160.8124264999998
 21
766.833
 31
0.0
  0
LINE
  5
640
330
1E
100
AcDbEntity
  8
0
100
AcDbLine
 10
159.2084264999999
 20
766.833
 30
0.0
 11
160.2644264999999
 21
766.833
 31
0.0
  0
LINE
  5
641
330
1E
100
AcDbEntity
  8
0
100
AcDbLine
 10
158.5144264999998
 20
767.0830000000002
 30
0.0
 11
159.6854264999999
 21
767.0830000000002
 31
0.0
  0
LINE
  5
642
330
1E
100
AcDbEntity
  8
0
100
AcDbLine
 10
158.5144264999998
 20
768.5830000000001
 30
0.0
 11
159.6854264999999
 21
768.5830000000001
 31
0.0
  0
LINE
  5
644
330
1E
100
AcDbEntity
  8
0
100
AcDbLine
 10
158.1054264999998
 20
767.0830000000002
 30
0.0
 11
158.9834264999999
 21
766.833
 31
0.0
  0
LINE
  5
645
330
1E
100
AcDbEntity
  8
0
100
AcDbLine
 10
158.1054264999998
 20
767.0830000000002
 30
0.0
 11
158.5144264999998
 21
767.0830000000002
 31
0.0
  0
LINE
  5
646
330
1E
100
AcDbEntity
  8
0
100
AcDbLine
 10
158.1054264999998
 20
768.5830000000001
 30
0.0
 11
158.9834264999999
 21
768.8330000000002
 31
0.0
  0
LINE
  5
647
330
1E
100
AcDbEntity
  8
0
100
AcDbLine
 10
158.1054264999998
 20
768.5830000000001
 30
0.0
 11
158.5144264999998
 21
768.5830000000001
 31
0.0
  0
LINE
  5
648
330
1E
100
AcDbEntity
  8
0
100
AcDbLine
 10
157.8124264999999
 20
767.833
 30
0.0
 11
158.1054264999998
 21
768.5830000000001
 31
0.0
  0
LINE
  5
649
330
1E
100
AcDbEntity
  8
0
100
AcDbLine
 10
157.8124264999999
 20
767.833
 30
0.0
 11
158.1054264999998
 21
767.0830000000002
 31
0.0
  0
LINE
  5
64B
330
1E
100
AcDbEntity
  8
0
100
AcDbLine
 10
158.8124264999999
 20
768.8330000000002
 30
0.0
 11
158.9414264999998
 21
769.8560000000001
 31
0.0
  0
LINE
  5
64C
330
1E
100
AcDbEntity
  8
0
100
AcDbLine
 10
158.8124264999999
 20
768.8330000000002
 30
0.0
 11
158.9834264999999
 21
768.8330000000002
 31
0.0
  0
LINE
  5
64D
330
1E
100
AcDbEntity
  8
0
100
AcDbLine
 10
158.8124264999999
 20
768.8330000000002
 30
0.0
 11
159.2004264999999
 21
768.8330000000002
 31
0.0
  0
LINE
  5
64E
330
1E
100
AcDbEntity
  8
0
100
AcDbLine
 10
158.9834264999999
 20
768.8330000000002
 30
0.0
 11
159.3934265
 21
768.8330000000002
 31
0.0
  0
LINE
  5
64F
330
1E
100
AcDbEntity
  8
0
100
AcDbLine
 10
159.6854264999999
 20
767.0830000000002
 30
0.0
 11
160.8124264999998
 21
767.0830000000002
 31
0.0
  0
LINE
  5
650
330
1E
100
AcDbEntity
  8
0
100
AcDbLine
 10
176.8124264999999
 20
767.0830000000002
 30
0.0
 11
178.0664264999999
 21
767.0830000000002
 31
0.0
  0
LINE
  5
651
330
1E
100
AcDbEntity
  8
0
100
AcDbLine
 10
159.6854264999999
 20
768.5830000000001
 30
0.0
 11
160.8124264999998
 21
768.5830000000001
 31
0.0
  0
LINE
  5
653
330
1E
100
AcDbEntity
  8
0
100
AcDbLine
 10
160.4464265
 20
768.8330000000002
 30
0.0
 11
160.8124264999998
 21
768.8330000000002
 31
0.0
  0
LINE
  5
654
330
1E
100
AcDbEntity
  8
0
100
AcDbLine
 10
159.3934265
 20
768.8330000000002
 30
0.0
 11
160.4464265
 21
768.8330000000002
 31
0.0
  0
LINE
  5
655
330
1E
100
AcDbEntity
  8
0
100
AcDbLine
 10
176.8124264999999
 20
768.5830000000001
 30
0.0
 11
178.0664264999999
 21
768.5830000000001
 31
0.0
  0
LINE
  5
657
330
1E
100
AcDbEntity
  8
0
100
AcDbLine
 10
160.2874264999998
 20
768.8330000000002
 30
0.0
 11
160.8124264999998
 21
768.8330000000002
 31
0.0
  0
LINE
  5
658
330
1E
100
AcDbEntity
  8
0
100
AcDbLine
 10
159.2004264999999
 20
768.8330000000002
 30
0.0
 11
160.2874264999998
 21
768.8330000000002
 31
0.0
  0
LINE
  5
659
330
1E
100
AcDbEntity
  8
0
100
AcDbLine
 10
176.8124264999999
 20
768.8330000000002
 30
0.0
 11
177.5774265
 21
768.8330000000002
 31
0.0
  0
LINE
  5
65A
330
1E
100
AcDbEntity
  8
0
100
AcDbLine
 10
176.8124264999999
 20
768.8330000000002
 30
0.0
 11
177.4804265
 21
768.8330000000002
 31
0.0
  0
LINE
  5
65B
330
1E
100
AcDbEntity
  8
0
100
AcDbLine
 10
158.9414264999998
 20
769.8560000000001
 30
0.0
 11
159.7184264999999
 21
772.13
 31
0.0
  0
LINE
  5
65C
330
1E
100
AcDbEntity
  8
0
100
AcDbLine
 10
144.4124264999999
 20
816.1669999999997
 30
0.0
 11
156.7124264999999
 21
816.1669999999997
 31
0.0
  0
LINE
  5
65D
330
1E
100
AcDbEntity
  8
0
100
AcDbLine
 10
176.8124264999999
 20
799.475
 30
0.0
 11
176.8124264999999
 21
759.8580000000001
 31
0.0
  0
LINE
  5
65E
330
1E
100
AcDbEntity
  8
0
100
AcDbLine
 10
176.8124264999999
 20
799.475
 30
0.0
 11
176.8124264999999
 21
830.062
 31
0.0
  0
LINE
  5
65F
330
1E
100
AcDbEntity
  8
0
100
AcDbLine
 10
160.8124264999998
 20
799.475
 30
0.0
 11
160.8124264999998
 21
830.062
 31
0.0
  0
LINE
  5
660
330
1E
100
AcDbEntity
  8
0
100
AcDbLine
 10
160.8124264999998
 20
799.475
 30
0.0
 11
160.8124264999998
 21
759.8580000000001
 31
0.0
  0
LINE
  5
661
330
1E
100
AcDbEntity
  8
0
100
AcDbLine
 10
157.0124265
 20
816.1669999999997
 30
0.0
 11
160.8124264999998
 21
816.1669999999997
 31
0.0
  0
LINE
  5
662
330
1E
100
AcDbEntity
  8
0
100
AcDbLine
 10
156.7124264999999
 20
816.1669999999997
 30
0.0
 11
160.8124264999998
 21
816.1669999999997
 31
0.0
  0
LINE
  5
663
330
1E
100
AcDbEntity
  8
0
100
AcDbLine
 10
144.9124264999998
 20
816.1669999999997
 30
0.0
 11
150.764065844262
 21
816.167483606557
 31
0.0
  0
LINE
  5
664
330
1E
100
AcDbEntity
  8
0
100
AcDbLine
 10
143.7124265
 20
816.6679999999999
 30
0.0
 11
156.3124264999999
 21
816.6669999999998
 31
0.0
  0
LINE
  5
665
330
1E
100
AcDbEntity
  8
0
100
AcDbLine
 10
156.3124264999999
 20
820.167
 30
0.0
 11
160.8124264999998
 21
820.167
 31
0.0
  0
LINE
  5
666
330
1E
100
AcDbEntity
  8
0
100
AcDbLine
 10
156.3124264999999
 20
816.6669999999998
 30
0.0
 11
160.8124264999998
 21
816.6669999999998
 31
0.0
  0
LINE
  5
667
330
1E
100
AcDbEntity
  8
0
100
AcDbLine
 10
144.4124264999999
 20
816.168
 30
0.0
 11
156.7124264999999
 21
816.1669999999997
 31
0.0
  0
LINE
  5
668
330
1E
100
AcDbEntity
  8
0
100
AcDbLine
 10
144.4124264999999
 20
820.668
 30
0.0
 11
156.7124264999999
 21
820.668
 31
0.0
  0
LINE
  5
669
330
1E
100
AcDbEntity
  8
0
100
AcDbLine
 10
144.9124264999998
 20
827.6669999999997
 30
0.0
 11
157.0124265
 21
827.668
 31
0.0
  0
LINE
  5
66A
330
1E
100
AcDbEntity
  8
0
100
AcDbLine
 10
157.0124265
 20
827.668
 30
0.0
 11
160.8124264999998
 21
827.668
 31
0.0
  0
LINE
  5
66B
330
1E
100
AcDbEntity
  8
0
100
AcDbLine
 10
156.7124264999999
 20
820.668
 30
0.0
 11
160.8124264999998
 21
820.667687022901
 31
0.0
  0
LINE
  5
66C
330
1E
100
AcDbEntity
  8
0
100
AcDbLine
 10
143.7124265
 20
820.1679999999999
 30
0.0
 11
156.3124264999999
 21
820.167
 31
0.0
  0
LINE
  5
66D
330
1E
100
AcDbEntity
  8
0
100
AcDbLine
 10
145.7124265
 20
828.1679999999999
 30
0.0
 11
157.3124264999998
 21
828.1679999999999
 31
0.0
  0
LINE
  5
66E
330
1E
100
AcDbEntity
  8
0
100
AcDbLine
 10
157.3124264999998
 20
828.1679999999999
 30
0.0
 11
160.8124264999998
 21
828.1679999999999
 31
0.0
  0
LINE
  5
66F
330
1E
100
AcDbEntity
  8
0
100
AcDbLine
 10
145.9124264999998
 20
831.1669999999997
 30
0.0
 11
157.5124265
 21
831.1669999999997
 31
0.0
  0
LINE
  5
670
330
1E
100
AcDbEntity
  8
0
100
AcDbLine
 10
176.8124264999999
 20
830.062
 30
0.0
 11
176.8124264999999
 21
844.0149999999999
 31
0.0
  0
LINE
  5
671
330
1E
100
AcDbEntity
  8
0
100
AcDbLine
 10
176.8124264999999
 20
830.062
 30
0.0
 11
176.8124264999999
 21
799.475
 31
0.0
  0
LINE
  5
672
330
1E
100
AcDbEntity
  8
0
100
AcDbLine
 10
160.8124264999998
 20
830.062
 30
0.0
 11
160.8124264999998
 21
844.0149999999999
 31
0.0
  0
LINE
  5
673
330
1E
100
AcDbEntity
  8
0
100
AcDbLine
 10
160.8124264999998
 20
830.062
 30
0.0
 11
160.8124264999998
 21
799.475
 31
0.0
  0
LINE
  5
674
330
1E
100
AcDbEntity
  8
0
100
AcDbLine
 10
157.5124265
 20
831.1669999999997
 30
0.0
 11
160.8124264999998
 21
831.1672682926827
 31
0.0
  0
LINE
  5
675
330
1E
100
AcDbEntity
  8
0
100
AcDbLine
 10
156.8124264999999
 20
846.6669999999997
 30
0.0
 11
158.3124264999999
 21
848.667
 31
0.0
  0
LINE
  5
676
330
1E
100
AcDbEntity
  8
0
100
AcDbLine
 10
154.8124265
 20
845.167
 30
0.0
 11
156.8124264999999
 21
846.6669999999997
 31
0.0
  0
LINE
  5
677
330
1E
100
AcDbEntity
  8
0
100
AcDbLine
 10
145.4124264999999
 20
833.6669999999998
 30
0.0
 11
157.2124265
 21
833.6679999999999
 31
0.0
  0
LINE
  5
678
330
1E
100
AcDbEntity
  8
0
100
AcDbLine
 10
176.8124264999999
 20
844.0149999999999
 30
0.0
 11
176.8124264999999
 21
855.123
 31
0.0
  0
LINE
  5
679
330
1E
100
AcDbEntity
  8
0
100
AcDbLine
 10
176.8124264999999
 20
844.0149999999999
 30
0.0
 11
176.8124264999999
 21
830.062
 31
0.0
  0
LINE
  5
67A
330
1E
100
AcDbEntity
  8
0
100
AcDbLine
 10
160.8124264999998
 20
844.0149999999999
 30
0.0
 11
160.8124264999998
 21
855.123
 31
0.0
  0
LINE
  5
67B
330
1E
100
AcDbEntity
  8
0
100
AcDbLine
 10
160.6124265
 20
854.1679999999999
 30
0.0
 11
160.8124264999998
 21
854.1679999999999
 31
0.0
  0
LINE
  5
67C
330
1E
100
AcDbEntity
  8
0
100
AcDbLine
 10
160.3124264999999
 20
854.1669999999998
 30
0.0
 11
160.6124265
 21
854.1679999999999
 31
0.0
  0
LINE
  5
67D
330
1E
100
AcDbEntity
  8
0
100
AcDbLine
 10
159.3124264999999
 20
853.167
 30
0.0
 11
160.3124264999999
 21
854.1669999999998
 31
0.0
  0
LINE
  5
67E
330
1E
100
AcDbEntity
  8
0
100
AcDbLine
 10
158.3124264999999
 20
848.667
 30
0.0
 11
159.3124264999999
 21
853.167
 31
0.0
  0
LINE
  5
67F
330
1E
100
AcDbEntity
  8
0
100
AcDbLine
 10
157.2124265
 20
833.6679999999999
 30
0.0
 11
160.8124264999998
 21
833.6679999999999
 31
0.0
  0
LINE
  5
680
330
1E
100
AcDbEntity
  8
0
100
AcDbLine
 10
176.8124264999999
 20
855.123
 30
0.0
 11
176.8124264999999
 21
863.1960000000001
 31
0.0
  0
LINE
  5
681
330
1E
100
AcDbEntity
  8
0
100
AcDbLine
 10
176.8124264999999
 20
855.123
 30
0.0
 11
176.8124264999999
 21
844.0149999999999
 31
0.0
  0
LINE
  5
682
330
1E
100
AcDbEntity
  8
0
100
AcDbLine
 10
160.8124264999998
 20
855.123
 30
0.0
 11
160.8124264999998
 21
863.1960000000001
 31
0.0
  0
LINE
  5
683
330
1E
100
AcDbEntity
  8
0
100
AcDbLine
 10
160.8124264999998
 20
855.123
 30
0.0
 11
160.8124264999998
 21
844.0149999999999
 31
0.0
  0
LINE
  5
684
330
1E
100
AcDbEntity
  8
0
100
AcDbLine
 10
160.6124265
 20
861.9669999999999
 30
0.0
 11
160.8124264999998
 21
861.811518518518
 31
0.0
  0
LINE
  5
685
330
1E
100
AcDbEntity
  8
0
100
AcDbLine
 10
159.2124264999999
 20
860.5669999999999
 30
0.0
 11
160.8124264999998
 21
859.328806451613
 31
0.0
  0
LINE
  5
686
330
1E
100
AcDbEntity
  8
0
100
AcDbLine
 10
176.8124264999999
 20
860.256703703704
 30
0.0
 11
179.0124265
 21
861.9669999999999
 31
0.0
  0
LINE
  5
687
330
1E
100
AcDbEntity
  8
0
100
AcDbLine
 10
176.8124264999999
 20
863.1960000000001
 30
0.0
 11
176.8124264999999
 21
855.123
 31
0.0
  0
LINE
  5
688
330
1E
100
AcDbEntity
  8
0
100
AcDbLine
 10
176.8124264999999
 20
863.1960000000001
 30
0.0
 11
176.8124264999999
 21
868.096
 31
0.0
  0
LINE
  5
689
330
1E
100
AcDbEntity
  8
0
100
AcDbLine
 10
160.8124264999998
 20
863.1960000000001
 30
0.0
 11
160.8124264999998
 21
855.123
 31
0.0
  0
LINE
  5
68A
330
1E
100
AcDbEntity
  8
0
100
AcDbLine
 10
160.8124264999998
 20
863.1960000000001
 30
0.0
 11
160.8124264999998
 21
868.096
 31
0.0
  0
LINE
  5
68B
330
1E
100
AcDbEntity
  8
0
100
AcDbLine
 10
176.8124264999999
 20
863.1868421052629
 30
0.0
 11
178.7054264999999
 21
865.578
 31
0.0
  0
LINE
  5
68C
330
1E
100
AcDbEntity
  8
0
100
AcDbLine
 10
160.6054265
 20
863.178
 30
0.0
 11
160.8124264999998
 21
863.0141250000001
 31
0.0
  0
LINE
  5
68E
330
1E
100
AcDbEntity
  8
0
100
AcDbLine
 10
176.8124264999999
 20
857.959527777778
 30
0.0
 11
177.3124264999999
 21
858.168
 31
0.0
  0
LINE
  5
68F
330
1E
100
AcDbEntity
  8
0
100
AcDbLine
 10
176.8124264999999
 20
854.1679999999999
 30
0.0
 11
178.0124264999999
 21
854.1679999999999
 31
0.0
  0
LINE
  5
690
330
1E
100
AcDbEntity
  8
0
100
AcDbLine
 10
176.8124264999999
 20
833.6679999999999
 30
0.0
 11
182.4124264999999
 21
833.6679999999999
 31
0.0
  0
LINE
  5
691
330
1E
100
AcDbEntity
  8
0
100
AcDbLine
 10
176.8124264999999
 20
831.1674308943089
 30
0.0
 11
182.1124264999999
 21
831.1669999999997
 31
0.0
  0
LINE
  5
692
330
1E
100
AcDbEntity
  8
0
100
AcDbLine
 10
176.8124264999999
 20
828.1679999999999
 30
0.0
 11
182.3124264999999
 21
828.1679999999999
 31
0.0
  0
LINE
  5
693
330
1E
100
AcDbEntity
  8
0
100
AcDbLine
 10
176.8124264999999
 20
827.668
 30
0.0
 11
182.6124264999999
 21
827.668
 31
0.0
  0
LINE
  5
694
330
1E
100
AcDbEntity
  8
0
100
AcDbLine
 10
176.8124264999999
 20
820.6675343511451
 30
0.0
 11
182.9124264999999
 21
820.668
 31
0.0
  0
LINE
  5
695
330
1E
100
AcDbEntity
  8
0
100
AcDbLine
 10
176.8124264999999
 20
820.167
 30
0.0
 11
183.3124265
 21
820.167
 31
0.0
  0
LINE
  5
696
330
1E
100
AcDbEntity
  8
0
100
AcDbLine
 10
176.8124264999999
 20
816.6669999999998
 30
0.0
 11
183.3124265
 21
816.6669999999998
 31
0.0
  0
LINE
  5
697
330
1E
100
AcDbEntity
  8
0
100
AcDbLine
 10
176.8124264999999
 20
816.1669999999997
 30
0.0
 11
182.9124264999999
 21
816.1669999999997
 31
0.0
  0
LINE
  5
698
330
1E
100
AcDbEntity
  8
0
100
AcDbLine
 10
176.8124264999999
 20
816.1669999999997
 30
0.0
 11
182.6124264999999
 21
816.1669999999997
 31
0.0
  0
LINE
  5
69A
330
1E
100
AcDbEntity
  8
0
100
AcDbLine
 10
159.7184264999999
 20
772.13
 30
0.0
 11
160.8124264999998
 21
774.0525316846989
 31
0.0
  0
LINE
  5
69B
330
1E
100
AcDbEntity
  8
0
100
AcDbLine
 10
176.8124264999999
 20
776.2109536423841
 30
0.0
 11
178.6124264999999
 21
774.404
 31
0.0
  0
LINE
  5
69C
330
1E
100
AcDbEntity
  8
0
100
AcDbLine
 10
158.8124264999999
 20
766.833
 30
0.0
 11
158.8124264999999
 21
764.8330000000002
 31
0.0
  0
LINE
  5
69D
330
1E
100
AcDbEntity
  8
0
100
AcDbLine
 10
158.8124264999999
 20
766.833
 30
0.0
 11
159.2084264999999
 21
766.833
 31
0.0
  0
LINE
  5
69E
330
1E
100
AcDbEntity
  8
0
100
AcDbLine
 10
177.6004265
 20
766.833
 30
0.0
 11
179.3604264999999
 21
766.833
 31
0.0
  0
LINE
  5
69F
330
1E
100
AcDbEntity
  8
0
100
AcDbLine
 10
178.0664264999999
 20
767.0830000000002
 30
0.0
 11
179.9394265
 21
767.0830000000002
 31
0.0
  0
LINE
  5
6A0
330
1E
100
AcDbEntity
  8
0
100
AcDbLine
 10
177.4804265
 20
768.8330000000002
 30
0.0
 11
179.1784264999999
 21
768.8330000000002
 31
0.0
  0
LINE
  5
6A1
330
1E
100
AcDbEntity
  8
0
100
AcDbLine
 10
178.0664264999999
 20
768.5830000000001
 30
0.0
 11
179.9394265
 21
768.5830000000001
 31
0.0
  0
LINE
  5
6A2
330
1E
100
AcDbEntity
  8
0
100
AcDbLine
 10
179.1784264999999
 20
768.8330000000002
 30
0.0
 11
180.2324265
 21
768.8330000000002
 31
0.0
  0
LINE
  5
6A4
330
1E
100
AcDbEntity
  8
0
100
AcDbLine
 10
177.5774265
 20
768.8330000000002
 30
0.0
 11
179.3374264999999
 21
768.8330000000002
 31
0.0
  0
LINE
  5
6A5
330
1E
100
AcDbEntity
  8
0
100
AcDbLine
 10
179.3374264999999
 20
768.8330000000002
 30
0.0
 11
180.4244264999999
 21
768.8330000000002
 31
0.0
  0
LINE
  5
6A6
330
1E
100
AcDbEntity
  8
0
100
AcDbLine
 10
179.3604264999999
 20
766.833
 30
0.0
 11
180.4164265
 21
766.833
 31
0.0
  0
LINE
  5
6A7
330
1E
100
AcDbEntity
  8
0
100
AcDbLine
 10
179.9394265
 20
767.0830000000002
 30
0.0
 11
181.1104264999999
 21
767.0830000000002
 31
0.0
  0
LINE
  5
6A8
330
1E
100
AcDbEntity
  8
0
100
AcDbLine
 10
180.2324265
 20
768.8330000000002
 30
0.0
 11
180.6414264999999
 21
768.8330000000002
 31
0.0
  0
LINE
  5
6A9
330
1E
100
AcDbEntity
  8
0
100
AcDbLine
 10
179.9394265
 20
768.5830000000001
 30
0.0
 11
181.1104264999999
 21
768.5830000000001
 31
0.0
  0
LINE
  5
6AB
330
1E
100
AcDbEntity
  8
0
100
AcDbLine
 10
180.4244264999999
 20
768.8330000000002
 30
0.0
 11
180.8124265
 21
768.8330000000002
 31
0.0
  0
LINE
  5
6AC
330
1E
100
AcDbEntity
  8
0
100
AcDbLine
 10
180.4164265
 20
766.833
 30
0.0
 11
180.8124265
 21
766.833
 31
0.0
  0
LINE
  5
6AD
330
1E
100
AcDbEntity
  8
0
100
AcDbLine
 10
180.8124265
 20
766.833
 30
0.0
 11
180.8124265
 21
764.8330000000002
 31
0.0
  0
LINE
  5
6AE
330
1E
100
AcDbEntity
  8
0
100
AcDbLine
 10
180.6414264999999
 20
766.833
 30
0.0
 11
181.5194264999999
 21
767.0830000000002
 31
0.0
  0
LINE
  5
6AF
330
1E
100
AcDbEntity
  8
0
100
AcDbLine
 10
180.6834264999999
 20
769.8560000000001
 30
0.0
 11
180.8124265
 21
768.8330000000002
 31
0.0
  0
LINE
  5
6B0
330
1E
100
AcDbEntity
  8
0
100
AcDbLine
 10
180.6414264999999
 20
768.8330000000002
 30
0.0
 11
180.8124265
 21
768.8330000000002
 31
0.0
  0
LINE
  5
6B1
330
1E
100
AcDbEntity
  8
0
100
AcDbLine
 10
180.6414264999999
 20
768.8330000000002
 30
0.0
 11
181.5194264999999
 21
768.5830000000001
 31
0.0
  0
LINE
  5
6B2
330
1E
100
AcDbEntity
  8
0
100
AcDbLine
 10
179.9064264999999
 20
772.13
 30
0.0
 11
180.6834264999999
 21
769.8560000000001
 31
0.0
  0
LINE
  5
6B3
330
1E
100
AcDbEntity
  8
0
100
AcDbLine
 10
177.8124264999999
 20
854.1679999999999
 30
0.0
 11
177.8124264999999
 21
858.5549354838708
 31
0.0
  0
LINE
  5
6B4
330
1E
100
AcDbEntity
  8
0
100
AcDbLine
 10
178.0124264999999
 20
854.1679999999999
 30
0.0
 11
179.0124265
 21
854.1679999999999
 31
0.0
  0
LINE
  5
6B5
330
1E
100
AcDbEntity
  8
0
100
AcDbLine
 10
179.3124264999999
 20
854.1669999999998
 30
0.0
 11
180.3124264999999
 21
853.167
 31
0.0
  0
LINE
  5
6B6
330
1E
100
AcDbEntity
  8
0
100
AcDbLine
 10
177.8124264999999
 20
858.5549354838708
 30
0.0
 11
177.8124264999999
 21
854.1679999999999
 31
0.0
  0
LINE
  5
6B7
330
1E
100
AcDbEntity
  8
0
100
AcDbLine
 10
179.0124265
 20
861.9669999999999
 30
0.0
 11
181.1124265
 21
864.6679999999999
 31
0.0
  0
LINE
  5
6B8
330
1E
100
AcDbEntity
  8
0
100
AcDbLine
 10
177.9124264999999
 20
863.067
 30
0.0
 11
177.9521943964358
 21
863.1172540628123
 31
0.0
  0
LINE
  5
6B9
330
1E
100
AcDbEntity
  8
0
100
AcDbLine
 10
177.3124264999999
 20
858.168
 30
0.0
 11
180.4124264999999
 21
860.5669999999999
 31
0.0
  0
LINE
  5
6BA
330
1E
100
AcDbEntity
  8
0
100
AcDbLine
 10
179.0124265
 20
854.1679999999999
 30
0.0
 11
179.3124264999999
 21
854.1669999999998
 31
0.0
  0
LINE
  5
6BB
330
1E
100
AcDbEntity
  8
0
100
AcDbLine
 10
180.4124264999999
 20
860.5669999999999
 30
0.0
 11
182.8124264999999
 21
863.668
 31
0.0
  0
LINE
  5
6BC
330
1E
100
AcDbEntity
  8
0
100
AcDbLine
 10
180.3124264999999
 20
853.167
 30
0.0
 11
181.3124264999999
 21
848.667
 31
0.0
  0
LINE
  5
6BD
330
1E
100
AcDbEntity
  8
0
100
AcDbLine
 10
178.6124264999999
 20
774.404
 30
0.0
 11
179.9064264999999
 21
772.13
 31
0.0
  0
LINE
  5
6BE
330
1E
100
AcDbEntity
  8
0
100
AcDbLine
 10
176.8124264999999
 20
862.355456974056
 30
0.0
 11
178.2974265
 21
863.348
 31
0.0
  0
LINE
  5
6BF
330
1E
100
AcDbEntity
  8
0
100
AcDbLine
 10
156.8124264999999
 20
871.1679999999999
 30
0.0
 11
157.3124264999998
 21
867.867
 31
0.0
  0
LINE
  5
6C0
330
1E
100
AcDbEntity
  8
0
100
AcDbLine
 10
156.8124264999999
 20
871.1679999999999
 30
0.0
 11
157.301944747557
 21
874.3988204338741
 31
0.0
  0
LINE
  5
6C1
330
1E
100
AcDbEntity
  8
0
100
AcDbLine
 10
156.8124264999999
 20
863.668
 30
0.0
 11
159.2124264999999
 21
860.5669999999999
 31
0.0
  0
LINE
  5
6C2
330
1E
100
AcDbEntity
  8
0
100
AcDbLine
 10
155.3124264999999
 20
867.267
 30
0.0
 11
156.8124264999999
 21
863.668
 31
0.0
  0
LINE
  5
6C3
330
1E
100
AcDbEntity
  8
0
100
AcDbLine
 10
155.3124264999999
 20
875.0669999999999
 30
0.0
 11
155.9925069297499
 21
876.6991930314
 31
0.0
  0
LINE
  5
6C4
330
1E
100
AcDbEntity
  8
0
100
AcDbLine
 10
154.8124265
 20
871.1679999999999
 30
0.0
 11
155.3124264999999
 21
867.267
 31
0.0
  0
LINE
  5
6C5
330
1E
100
AcDbEntity
  8
0
100
AcDbLine
 10
154.8124265
 20
871.1679999999999
 30
0.0
 11
155.3124264999999
 21
875.0669999999999
 31
0.0
  0
LINE
  5
6C6
330
1E
100
AcDbEntity
  8
0
100
AcDbLine
 10
178.7054264999999
 20
865.578
 30
0.0
 11
179.8054264999999
 21
868.2780000000001
 31
0.0
  0
LINE
  5
6C7
330
1E
100
AcDbEntity
  8
0
100
AcDbLine
 10
177.8054264999999
 20
866.078
 30
0.0
 11
178.8054264999999
 21
868.5779999999999
 31
0.0
  0
LINE
  5
6C8
330
1E
100
AcDbEntity
  8
0
100
AcDbLine
 10
176.8124264999999
 20
864.792941176471
 30
0.0
 11
177.8054264999999
 21
866.078
 31
0.0
  0
LINE
  5
6C9
330
1E
100
AcDbEntity
  8
0
100
AcDbLine
 10
158.7054264999999
 20
865.578
 30
0.0
 11
160.6054265
 21
863.178
 31
0.0
  0
LINE
  5
6CA
330
1E
100
AcDbEntity
  8
0
100
AcDbLine
 10
159.6054265
 20
866.078
 30
0.0
 11
160.8124264999998
 21
864.516
 31
0.0
  0
LINE
  5
6CB
330
1E
100
AcDbEntity
  8
0
100
AcDbLine
 10
158.5124265
 20
864.6679999999999
 30
0.0
 11
160.6124265
 21
861.9669999999999
 31
0.0
  0
LINE
  5
6CC
330
1E
100
AcDbEntity
  8
0
100
AcDbLine
 10
157.6054264999999
 20
874.2779999999997
 30
0.0
 11
158.7054264999999
 21
876.978
 31
0.0
  0
LINE
  5
6CD
330
1E
100
AcDbEntity
  8
0
100
AcDbLine
 10
158.6054265
 20
873.9780000000001
 30
0.0
 11
159.6054265
 21
876.478
 31
0.0
  0
LINE
  5
6CE
330
1E
100
AcDbEntity
  8
0
100
AcDbLine
 10
158.2054265
 20
871.278
 30
0.0
 11
158.6054265
 21
868.5779999999999
 31
0.0
  0
LINE
  5
6CF
330
1E
100
AcDbEntity
  8
0
100
AcDbLine
 10
158.2054265
 20
871.278
 30
0.0
 11
158.6054265
 21
873.9780000000001
 31
0.0
  0
LINE
  5
6D0
330
1E
100
AcDbEntity
  8
0
100
AcDbLine
 10
157.2054265
 20
871.278
 30
0.0
 11
157.6054264999999
 21
868.2780000000001
 31
0.0
  0
LINE
  5
6D1
330
1E
100
AcDbEntity
  8
0
100
AcDbLine
 10
157.2054265
 20
871.278
 30
0.0
 11
157.6054264999999
 21
874.2779999999997
 31
0.0
  0
LINE
  5
6D2
330
1E
100
AcDbEntity
  8
0
100
AcDbLine
 10
157.6054264999999
 20
868.2780000000001
 30
0.0
 11
158.7054264999999
 21
865.578
 31
0.0
  0
LINE
  5
6D3
330
1E
100
AcDbEntity
  8
0
100
AcDbLine
 10
176.8124264999999
 20
871.643
 30
0.0
 11
176.8124264999999
 21
868.096
 31
0.0
  0
LINE
  5
6D4
330
1E
100
AcDbEntity
  8
0
100
AcDbLine
 10
176.8124264999999
 20
868.096
 30
0.0
 11
176.8124264999999
 21
871.643
 31
0.0
  0
LINE
  5
6D5
330
1E
100
AcDbEntity
  8
0
100
AcDbLine
 10
176.8124264999999
 20
868.096
 30
0.0
 11
176.8124264999999
 21
863.1960000000001
 31
0.0
  0
LINE
  5
6D6
330
1E
100
AcDbEntity
  8
0
100
AcDbLine
 10
160.8124264999998
 20
868.096
 30
0.0
 11
160.8124264999998
 21
871.643
 31
0.0
  0
LINE
  5
6D7
330
1E
100
AcDbEntity
  8
0
100
AcDbLine
 10
160.8124264999998
 20
868.096
 30
0.0
 11
160.8124264999998
 21
863.1960000000001
 31
0.0
  0
LINE
  5
6D8
330
1E
100
AcDbEntity
  8
0
100
AcDbLine
 10
160.8124264999998
 20
871.643
 30
0.0
 11
160.8124264999998
 21
868.096
 31
0.0
  0
LINE
  5
6D9
330
1E
100
AcDbEntity
  8
0
100
AcDbLine
 10
178.8054264999999
 20
873.9780000000001
 30
0.0
 11
179.2054264999999
 21
871.278
 31
0.0
  0
LINE
  5
6DA
330
1E
100
AcDbEntity
  8
0
100
AcDbLine
 10
177.8054264999999
 20
876.478
 30
0.0
 11
178.8054264999999
 21
873.9780000000001
 31
0.0
  0
LINE
  5
6DB
330
1E
100
AcDbEntity
  8
0
100
AcDbLine
 10
178.8054264999999
 20
868.5779999999999
 30
0.0
 11
179.2054264999999
 21
871.278
 31
0.0
  0
LINE
  5
6DC
330
1E
100
AcDbEntity
  8
0
100
AcDbLine
 10
178.7054264999999
 20
876.978
 30
0.0
 11
179.8054264999999
 21
874.2779999999997
 31
0.0
  0
LINE
  5
6DD
330
1E
100
AcDbEntity
  8
0
100
AcDbLine
 10
158.7054264999999
 20
876.978
 30
0.0
 11
160.6054265
 21
879.3779999999998
 31
0.0
  0
LINE
  5
6DE
330
1E
100
AcDbEntity
  8
0
100
AcDbLine
 10
159.6054265
 20
876.478
 30
0.0
 11
161.3054264999998
 21
878.678
 31
0.0
  0
LINE
  5
6DF
330
1E
100
AcDbEntity
  8
0
100
AcDbLine
 10
158.6054265
 20
868.5779999999999
 30
0.0
 11
159.6054265
 21
866.078
 31
0.0
  0
LINE
  5
6E0
330
1E
100
AcDbEntity
  8
0
100
AcDbLine
 10
157.3124264999998
 20
867.867
 30
0.0
 11
158.5124265
 21
864.6679999999999
 31
0.0
  0
LINE
  5
6E1
330
1E
100
AcDbEntity
  8
0
100
AcDbLine
 10
157.2034264999999
 20
874.8939999999999
 30
0.0
 11
157.4932972478529
 21
873.437030608901
 31
0.0
  0
LINE
  5
6E2
330
1E
100
AcDbEntity
  8
0
100
AcDbLine
 10
155.2404264999998
 20
878.1299999999999
 30
0.0
 11
155.2554264999999
 21
879.1399999999999
 31
0.0
  0
LINE
  5
6E3
330
1E
100
AcDbEntity
  8
0
100
AcDbLine
 10
155.2404264999998
 20
878.1299999999999
 30
0.0
 11
155.4714264999998
 21
877.476
 31
0.0
  0
LINE
  5
6E4
330
1E
100
AcDbEntity
  8
0
100
AcDbLine
 10
155.2554264999999
 20
879.1399999999999
 30
0.0
 11
155.6834264999999
 21
879.9469999999999
 31
0.0
  0
LINE
  5
6E5
330
1E
100
AcDbEntity
  8
0
100
AcDbLine
 10
176.1054265
 20
878.678
 30
0.0
 11
177.8054264999999
 21
876.478
 31
0.0
  0
LINE
  5
6E6
330
1E
100
AcDbEntity
  8
0
100
AcDbLine
 10
161.3054264999998
 20
878.678
 30
0.0
 11
163.5054264999999
 21
880.3780000000001
 31
0.0
  0
LINE
  5
6E7
330
1E
100
AcDbEntity
  8
0
100
AcDbLine
 10
176.8054264999999
 20
879.3779999999998
 30
0.0
 11
178.7054264999999
 21
876.978
 31
0.0
  0
LINE
  5
6E8
330
1E
100
AcDbEntity
  8
0
100
AcDbLine
 10
160.6054265
 20
879.3779999999998
 30
0.0
 11
163.0054265
 21
881.278
 31
0.0
  0
LINE
  5
6E9
330
1E
100
AcDbEntity
  8
0
100
AcDbLine
 10
159.383430390392
 20
878.78686214479
 30
0.0
 11
160.6124265
 21
880.367
 31
0.0
  0
LINE
  5
6EB
330
1E
100
AcDbEntity
  8
0
100
AcDbLine
 10
158.8204264999999
 20
879.664
 30
0.0
 11
159.721039815147
 21
878.2608799770271
 31
0.0
  0
LINE
  5
6EC
330
1E
100
AcDbEntity
  8
0
100
AcDbLine
 10
158.3134264999999
 20
880.1389999999999
 30
0.0
 11
158.8204264999999
 21
879.664
 31
0.0
  0
LINE
  5
6ED
330
1E
100
AcDbEntity
  8
0
100
AcDbLine
 10
173.9054264999999
 20
880.3780000000001
 30
0.0
 11
176.1054265
 21
878.678
 31
0.0
  0
LINE
  5
6EE
330
1E
100
AcDbEntity
  8
0
100
AcDbLine
 10
163.5054264999999
 20
880.3780000000001
 30
0.0
 11
166.0054265
 21
881.3780000000001
 31
0.0
  0
LINE
  5
6EF
330
1E
100
AcDbEntity
  8
0
100
AcDbLine
 10
160.6124265
 20
880.367
 30
0.0
 11
163.3124265
 21
882.468
 31
0.0
  0
LINE
  5
6F0
330
1E
100
AcDbEntity
  8
0
100
AcDbLine
 10
158.0404123661679
 20
880.2536600712441
 30
0.0
 11
159.2124264999999
 21
881.7680000000001
 31
0.0
  0
LINE
  5
6F1
330
1E
100
AcDbEntity
  8
0
100
AcDbLine
 10
163.0054265
 20
881.278
 30
0.0
 11
165.7054265
 21
882.3780000000001
 31
0.0
  0
LINE
  5
6F2
330
1E
100
AcDbEntity
  8
0
100
AcDbLine
 10
168.7054264999999
 20
881.778
 30
0.0
 11
171.4054264999998
 21
881.3780000000001
 31
0.0
  0
LINE
  5
6F3
330
1E
100
AcDbEntity
  8
0
100
AcDbLine
 10
165.7054265
 20
882.3780000000001
 30
0.0
 11
168.7054264999999
 21
882.778
 31
0.0
  0
LINE
  5
6F4
330
1E
100
AcDbEntity
  8
0
100
AcDbLine
 10
166.0054265
 20
881.3780000000001
 30
0.0
 11
168.7054264999999
 21
881.778
 31
0.0
  0
LINE
  5
6F5
330
1E
100
AcDbEntity
  8
0
100
AcDbLine
 10
163.3124265
 20
882.468
 30
0.0
 11
166.5124265
 21
883.6669999999998
 31
0.0
  0
LINE
  5
6F6
330
1E
100
AcDbEntity
  8
0
100
AcDbLine
 10
166.5124265
 20
883.6669999999998
 30
0.0
 11
169.8124264999998
 21
884.1669999999997
 31
0.0
  0
LINE
  5
6F7
330
1E
100
AcDbEntity
  8
0
100
AcDbLine
 10
168.7054264999999
 20
882.778
 30
0.0
 11
171.7054264999999
 21
882.3780000000001
 31
0.0
  0
LINE
  5
6FA
330
1E
100
AcDbEntity
  8
0
100
AcDbLine
 10
159.2124264999999
 20
881.7680000000001
 30
0.0
 11
162.3124264999999
 21
884.1669999999997
 31
0.0
  0
LINE
  5
6FB
330
1E
100
AcDbEntity
  8
0
100
AcDbLine
 10
162.3124264999999
 20
884.1669999999997
 30
0.0
 11
165.9124264999999
 21
885.6669999999997
 31
0.0
  0
LINE
  5
6FC
330
1E
100
AcDbEntity
  8
0
100
AcDbLine
 10
165.9124264999999
 20
885.6669999999997
 30
0.0
 11
169.8124264999998
 21
886.167
 31
0.0
  0
LINE
  5
6FD
330
1E
100
AcDbEntity
  8
0
100
AcDbLine
 10
169.8124264999998
 20
886.167
 30
0.0
 11
173.7124265
 21
885.6669999999997
 31
0.0
  0
LINE
  5
6FE
330
1E
100
AcDbEntity
  8
0
100
AcDbLine
 10
169.8124264999998
 20
884.1669999999997
 30
0.0
 11
173.1124265
 21
883.6669999999998
 31
0.0
  0
LINE
  5
700
330
1E
100
AcDbEntity
  8
0
100
AcDbLine
 10
174.4054264999999
 20
881.278
 30
0.0
 11
176.8054264999999
 21
879.3779999999998
 31
0.0
  0
LINE
  5
701
330
1E
100
AcDbEntity
  8
0
100
AcDbLine
 10
171.4054264999998
 20
881.3780000000001
 30
0.0
 11
173.9054264999999
 21
880.3780000000001
 31
0.0
  0
LINE
  5
702
330
1E
100
AcDbEntity
  8
0
100
AcDbLine
 10
171.7054264999999
 20
882.3780000000001
 30
0.0
 11
174.4054264999999
 21
881.278
 31
0.0
  0
LINE
  5
703
330
1E
100
AcDbEntity
  8
0
100
AcDbLine
 10
177.3124264999999
 20
884.1669999999997
 30
0.0
 11
180.4124264999999
 21
881.7680000000001
 31
0.0
  0
LINE
  5
704
330
1E
100
AcDbEntity
  8
0
100
AcDbLine
 10
173.7124265
 20
885.6669999999997
 30
0.0
 11
177.3124264999999
 21
884.1669999999997
 31
0.0
  0
LINE
  5
705
330
1E
100
AcDbEntity
  8
0
100
AcDbLine
 10
176.3124264999999
 20
882.468
 30
0.0
 11
179.0124265
 21
880.367
 31
0.0
  0
LINE
  5
706
330
1E
100
AcDbEntity
  8
0
100
AcDbLine
 10
173.1124265
 20
883.6669999999998
 30
0.0
 11
176.3124264999999
 21
882.468
 31
0.0
  0
LINE
  5
709
330
1E
100
AcDbEntity
  8
0
100
AcDbLine
 10
157.3824264999998
 20
880.53
 30
0.0
 11
158.3134264999999
 21
880.1389999999999
 31
0.0
  0
LINE
  5
70A
330
1E
100
AcDbEntity
  8
0
100
AcDbLine
 10
156.4704265
 20
880.4619999999998
 30
0.0
 11
157.3824264999998
 21
880.53
 31
0.0
  0
LINE
  5
70B
330
1E
100
AcDbEntity
  8
0
100
AcDbLine
 10
156.0514264999999
 20
880.2439999999997
 30
0.0
 11
156.4704265
 21
880.4619999999998
 31
0.0
  0
LINE
  5
70C
330
1E
100
AcDbEntity
  8
0
100
AcDbLine
 10
155.6834264999999
 20
879.9469999999999
 30
0.0
 11
156.0514264999999
 21
880.2439999999997
 31
0.0
  0
LINE
  5
70D
330
1E
100
AcDbEntity
  8
0
100
AcDbLine
 10
155.4714264999998
 20
877.476
 30
0.0
 11
157.2034264999999
 21
874.8939999999999
 31
0.0
  0
LINE
  5
70E
330
1E
100
AcDbEntity
  8
0
100
AcDbLine
 10
155.4714264999998
 20
877.476
 30
0.0
 11
155.9925069297499
 21
876.6991930314
 31
0.0
  0
LINE
  5
710
330
1E
100
AcDbEntity
  8
0
100
AcDbLine
 10
179.8054264999999
 20
874.2779999999997
 30
0.0
 11
180.2054264999999
 21
871.278
 31
0.0
  0
LINE
  5
711
330
1E
100
AcDbEntity
  8
0
100
AcDbLine
 10
179.8054264999999
 20
868.2780000000001
 30
0.0
 11
180.2054264999999
 21
871.278
 31
0.0
  0
LINE
  5
713
330
1E
100
AcDbEntity
  8
0
100
AcDbLine
 10
180.0033848617388
 20
872.7933122869579
 30
0.0
 11
180.5734264999999
 21
875.66
 31
0.0
  0
LINE
  5
714
330
1E
100
AcDbEntity
  8
0
100
AcDbLine
 10
179.0124265
 20
880.367
 30
0.0
 11
180.241422609608
 21
878.78686214479
 31
0.0
  0
LINE
  5
715
330
1E
100
AcDbEntity
  8
0
100
AcDbLine
 10
180.4124264999999
 20
881.7680000000001
 30
0.0
 11
181.584440633832
 21
880.2536600712441
 31
0.0
  0
LINE
  5
716
330
1E
100
AcDbEntity
  8
0
100
AcDbLine
 10
180.8044264999999
 20
879.664
 30
0.0
 11
181.3114264999999
 21
880.1389999999999
 31
0.0
  0
LINE
  5
717
330
1E
100
AcDbEntity
  8
0
100
AcDbLine
 10
178.851011131983
 20
876.6206559033149
 30
0.0
 11
180.8044264999999
 21
879.664
 31
0.0
  0
LINE
  5
718
330
1E
100
AcDbEntity
  8
0
100
AcDbLine
 10
178.2974265
 20
863.348
 30
0.0
 11
180.8994264999999
 21
867.2410000000001
 31
0.0
  0
LINE
  5
719
330
1E
100
AcDbEntity
  8
0
100
AcDbLine
 10
181.1104264999999
 20
767.0830000000002
 30
0.0
 11
181.5194264999999
 21
767.0830000000002
 31
0.0
  0
LINE
  5
71A
330
1E
100
AcDbEntity
  8
0
100
AcDbLine
 10
181.1124265
 20
864.6679999999999
 30
0.0
 11
182.3124264999999
 21
867.867
 31
0.0
  0
LINE
  5
71B
330
1E
100
AcDbEntity
  8
0
100
AcDbLine
 10
181.3124264999999
 20
848.667
 30
0.0
 11
182.8124264999999
 21
846.6669999999997
 31
0.0
  0
LINE
  5
71C
330
1E
100
AcDbEntity
  8
0
100
AcDbLine
 10
181.1104264999999
 20
768.5830000000001
 30
0.0
 11
181.5194264999999
 21
768.5830000000001
 31
0.0
  0
LINE
  5
71E
330
1E
100
AcDbEntity
  8
0
100
AcDbLine
 10
181.5194264999999
 20
767.0830000000002
 30
0.0
 11
181.8124264999999
 21
767.833
 31
0.0
  0
LINE
  5
71F
330
1E
100
AcDbEntity
  8
0
100
AcDbLine
 10
182.9124264999999
 20
816.1669999999997
 30
0.0
 11
195.2124264999999
 21
816.1669999999997
 31
0.0
  0
LINE
  5
721
330
1E
100
AcDbEntity
  8
0
100
AcDbLine
 10
201.7484264999999
 20
766.833
 30
0.0
 11
212.8774265
 21
766.833
 31
0.0
  0
LINE
  5
724
330
1E
100
AcDbEntity
  8
0
100
AcDbLine
 10
197.8124264999999
 20
766.833
 30
0.0
 11
199.3124264999999
 21
766.3330000000001
 31
0.0
  0
LINE
  5
726
330
1E
100
AcDbEntity
  8
0
100
AcDbLine
 10
195.2124264999999
 20
816.1669999999997
 30
0.0
 11
205.8124265
 21
816.1669999999997
 31
0.0
  0
LINE
  5
727
330
1E
100
AcDbEntity
  8
0
100
AcDbLine
 10
212.8774265
 20
766.833
 30
0.0
 11
213.8444265
 21
765.728
 31
0.0
  0
LINE
  5
72B
330
1E
100
AcDbEntity
  8
0
100
AcDbLine
 10
205.8124265
 20
816.1669999999997
 30
0.0
 11
214.0124265
 21
816.1669999999997
 31
0.0
  0
LINE
  5
72C
330
1E
100
AcDbEntity
  8
0
100
AcDbLine
 10
205.1124264999999
 20
816.1669999999997
 30
0.0
 11
213.1124265
 21
816.1669999999997
 31
0.0
  0
LINE
  5
72D
330
1E
100
AcDbEntity
  8
0
100
AcDbLine
 10
220.8124265
 20
816.1669999999997
 30
0.0
 11
222.3124265
 21
816.6669999999998
 31
0.0
  0
LINE
  5
72E
330
1E
100
AcDbEntity
  8
0
100
AcDbLine
 10
214.0124265
 20
816.1669999999997
 30
0.0
 11
219.0124265
 21
816.1669999999997
 31
0.0
  0
LINE
  5
72F
330
1E
100
AcDbEntity
  8
0
100
AcDbLine
 10
219.0124265
 20
816.1669999999997
 30
0.0
 11
220.8124265
 21
816.1669999999997
 31
0.0
  0
LINE
  5
730
330
1E
100
AcDbEntity
  8
0
100
AcDbLine
 10
213.1124265
 20
816.1669999999997
 30
0.0
 11
218.0124264999999
 21
816.1669999999997
 31
0.0
  0
LINE
  5
731
330
1E
100
AcDbEntity
  8
0
100
AcDbLine
 10
218.0124264999999
 20
816.1669999999997
 30
0.0
 11
219.8124265
 21
816.1669999999997
 31
0.0
  0
LINE
  5
732
330
1E
100
AcDbEntity
  8
0
100
AcDbLine
 10
194.7124265
 20
816.1669999999997
 30
0.0
 11
205.1124264999999
 21
816.1669999999997
 31
0.0
  0
LINE
  5
733
330
1E
100
AcDbEntity
  8
0
100
AcDbLine
 10
182.3124264999999
 20
867.867
 30
0.0
 11
182.8124264999999
 21
871.1679999999999
 31
0.0
  0
LINE
  5
735
330
1E
100
AcDbEntity
  8
0
100
AcDbLine
 10
182.1124264999999
 20
831.1669999999997
 30
0.0
 11
193.7124264999999
 21
831.1669999999997
 31
0.0
  0
LINE
  5
736
330
1E
100
AcDbEntity
  8
0
100
AcDbLine
 10
182.8124264999999
 20
863.668
 30
0.0
 11
184.3124264999999
 21
867.267
 31
0.0
  0
LINE
  5
737
330
1E
100
AcDbEntity
  8
0
100
AcDbLine
 10
182.8124264999999
 20
846.6669999999997
 30
0.0
 11
184.8124264999999
 21
845.167
 31
0.0
  0
LINE
  5
738
330
1E
100
AcDbEntity
  8
0
100
AcDbLine
 10
182.4124264999999
 20
833.6679999999999
 30
0.0
 11
194.2124264999999
 21
833.6669999999998
 31
0.0
  0
LINE
  5
739
330
1E
100
AcDbEntity
  8
0
100
AcDbLine
 10
182.3124264999999
 20
828.1679999999999
 30
0.0
 11
193.9124264999999
 21
828.1679999999999
 31
0.0
  0
LINE
  5
73A
330
1E
100
AcDbEntity
  8
0
100
AcDbLine
 10
182.6124264999999
 20
827.668
 30
0.0
 11
194.7124265
 21
827.6669999999997
 31
0.0
  0
LINE
  5
73B
330
1E
100
AcDbEntity
  8
0
100
AcDbLine
 10
182.9124264999999
 20
820.668
 30
0.0
 11
195.2124264999999
 21
820.668
 31
0.0
  0
LINE
  5
73C
330
1E
100
AcDbEntity
  8
0
100
AcDbLine
 10
183.3124265
 20
820.167
 30
0.0
 11
195.9124264999999
 21
820.1679999999999
 31
0.0
  0
LINE
  5
73D
330
1E
100
AcDbEntity
  8
0
100
AcDbLine
 10
206.8124264999999
 20
816.6669999999998
 30
0.0
 11
215.3124265
 21
816.6679999999999
 31
0.0
  0
LINE
  5
73E
330
1E
100
AcDbEntity
  8
0
100
AcDbLine
 10
215.3124265
 20
816.6679999999999
 30
0.0
 11
220.4124265
 21
816.6679999999999
 31
0.0
  0
LINE
  5
73F
330
1E
100
AcDbEntity
  8
0
100
AcDbLine
 10
222.3124265
 20
816.6669999999998
 30
0.0
 11
222.8124265
 21
818.1669999999996
 31
0.0
  0
LINE
  5
740
330
1E
100
AcDbEntity
  8
0
100
AcDbLine
 10
220.4124265
 20
816.6679999999999
 30
0.0
 11
222.3124265
 21
816.6669999999998
 31
0.0
  0
LINE
  5
741
330
1E
100
AcDbEntity
  8
0
100
AcDbLine
 10
184.3124264999999
 20
867.267
 30
0.0
 11
184.8124264999999
 21
871.1679999999999
 31
0.0
  0
LINE
  5
742
330
1E
100
AcDbEntity
  8
0
100
AcDbLine
 10
184.8124264999999
 20
845.167
 30
0.0
 11
196.8124264999999
 21
844.1669999999996
 31
0.0
  0
LINE
  5
743
330
1E
100
AcDbEntity
  8
0
100
AcDbLine
 10
194.2124264999999
 20
833.6669999999998
 30
0.0
 11
204.4124264999999
 21
833.6669999999998
 31
0.0
  0
LINE
  5
744
330
1E
100
AcDbEntity
  8
0
100
AcDbLine
 10
193.7124264999999
 20
831.1669999999997
 30
0.0
 11
203.7124265
 21
831.168
 31
0.0
  0
LINE
  5
745
330
1E
100
AcDbEntity
  8
0
100
AcDbLine
 10
193.9124264999999
 20
828.1679999999999
 30
0.0
 11
204.0124265
 21
828.1679999999999
 31
0.0
  0
LINE
  5
746
330
1E
100
AcDbEntity
  8
0
100
AcDbLine
 10
194.7124265
 20
827.6669999999997
 30
0.0
 11
205.1124264999999
 21
827.6669999999997
 31
0.0
  0
LINE
  5
747
330
1E
100
AcDbEntity
  8
0
100
AcDbLine
 10
195.2124264999999
 20
820.668
 30
0.0
 11
205.8124265
 21
820.6669999999999
 31
0.0
  0
LINE
  5
748
330
1E
100
AcDbEntity
  8
0
100
AcDbLine
 10
204.0124265
 20
828.1679999999999
 30
0.0
 11
211.8124265
 21
828.1679999999999
 31
0.0
  0
LINE
  5
749
330
1E
100
AcDbEntity
  8
0
100
AcDbLine
 10
211.8124265
 20
828.1679999999999
 30
0.0
 11
216.5124265
 21
828.1679999999999
 31
0.0
  0
LINE
  5
74A
330
1E
100
AcDbEntity
  8
0
100
AcDbLine
 10
205.1124264999999
 20
827.6669999999997
 30
0.0
 11
213.1124265
 21
827.6669999999997
 31
0.0
  0
LINE
  5
74B
330
1E
100
AcDbEntity
  8
0
100
AcDbLine
 10
213.1124265
 20
827.6669999999997
 30
0.0
 11
218.0124264999999
 21
827.6669999999997
 31
0.0
  0
LINE
  5
74C
330
1E
100
AcDbEntity
  8
0
100
AcDbLine
 10
205.8124265
 20
820.6669999999999
 30
0.0
 11
214.0124265
 21
820.668
 31
0.0
  0
LINE
  5
74D
330
1E
100
AcDbEntity
  8
0
100
AcDbLine
 10
214.0124265
 20
820.668
 30
0.0
 11
219.0124265
 21
820.6669999999999
 31
0.0
  0
LINE
  5
74E
330
1E
100
AcDbEntity
  8
0
100
AcDbLine
 10
206.8124264999999
 20
820.167
 30
0.0
 11
215.3124265
 21
820.1679999999999
 31
0.0
  0
LINE
  5
74F
330
1E
100
AcDbEntity
  8
0
100
AcDbLine
 10
216.5124265
 20
828.1679999999999
 30
0.0
 11
218.3124265
 21
828.167
 31
0.0
  0
LINE
  5
750
330
1E
100
AcDbEntity
  8
0
100
AcDbLine
 10
215.3124265
 20
820.1679999999999
 30
0.0
 11
220.4124265
 21
820.1679999999999
 31
0.0
  0
LINE
  5
751
330
1E
100
AcDbEntity
  8
0
100
AcDbLine
 10
211.4124265
 20
831.1669999999997
 30
0.0
 11
216.1124265
 21
831.1669999999997
 31
0.0
  0
LINE
  5
752
330
1E
100
AcDbEntity
  8
0
100
AcDbLine
 10
218.3124265
 20
830.1669999999997
 30
0.0
 11
218.3124265
 21
828.167
 31
0.0
  0
LINE
  5
753
330
1E
100
AcDbEntity
  8
0
100
AcDbLine
 10
218.3124265
 20
828.167
 30
0.0
 11
219.8124265
 21
827.6669999999997
 31
0.0
  0
LINE
  5
754
330
1E
100
AcDbEntity
  8
0
100
AcDbLine
 10
218.3124265
 20
828.167
 30
0.0
 11
218.3124265
 21
830.1669999999997
 31
0.0
  0
LINE
  5
755
330
1E
100
AcDbEntity
  8
0
100
AcDbLine
 10
218.0124264999999
 20
827.6669999999997
 30
0.0
 11
219.8124265
 21
827.6669999999997
 31
0.0
  0
LINE
  5
756
330
1E
100
AcDbEntity
  8
0
100
AcDbLine
 10
219.8124265
 20
827.6669999999997
 30
0.0
 11
220.3124265
 21
826.1669999999996
 31
0.0
  0
LINE
  5
757
330
1E
100
AcDbEntity
  8
0
100
AcDbLine
 10
220.3124265
 20
826.1669999999996
 30
0.0
 11
220.8124265
 21
820.6669999999999
 31
0.0
  0
LINE
  5
758
330
1E
100
AcDbEntity
  8
0
100
AcDbLine
 10
220.8124265
 20
820.6669999999999
 30
0.0
 11
222.3124265
 21
820.167
 31
0.0
  0
LINE
  5
759
330
1E
100
AcDbEntity
  8
0
100
AcDbLine
 10
219.0124265
 20
820.6669999999999
 30
0.0
 11
220.8124265
 21
820.6669999999999
 31
0.0
  0
LINE
  5
75A
330
1E
100
AcDbEntity
  8
0
100
AcDbLine
 10
220.4124265
 20
820.1679999999999
 30
0.0
 11
222.3124265
 21
820.167
 31
0.0
  0
LINE
  5
75B
330
1E
100
AcDbEntity
  8
0
100
AcDbLine
 10
222.8124265
 20
818.6669999999997
 30
0.0
 11
222.8124265
 21
818.1669999999996
 31
0.0
  0
LINE
  5
75C
330
1E
100
AcDbEntity
  8
0
100
AcDbLine
 10
222.3124265
 20
820.167
 30
0.0
 11
222.8124265
 21
818.6669999999997
 31
0.0
  0
LINE
  5
75D
330
1E
100
AcDbEntity
  8
0
100
AcDbLine
 10
222.8124265
 20
818.1669999999996
 30
0.0
 11
222.8124265
 21
818.6669999999997
 31
0.0
  0
LINE
  5
75E
330
1E
100
AcDbEntity
  8
0
100
AcDbLine
 10
217.8124265
 20
831.1669999999997
 30
0.0
 11
218.3124265
 21
830.1669999999997
 31
0.0
  0
LINE
  5
75F
330
1E
100
AcDbEntity
  8
0
100
AcDbLine
 10
217.8124265
 20
831.1669999999997
 30
0.0
 11
218.3124265
 21
832.1669999999997
 31
0.0
  0
LINE
  5
760
330
1E
100
AcDbEntity
  8
0
100
AcDbLine
 10
196.8124264999999
 20
844.1669999999996
 30
0.0
 11
213.8124265
 21
842.1669999999997
 31
0.0
  0
LINE
  5
761
330
1E
100
AcDbEntity
  8
0
100
AcDbLine
 10
204.4124264999999
 20
833.6669999999998
 30
0.0
 11
212.2124265
 21
833.6669999999998
 31
0.0
  0
LINE
  5
762
330
1E
100
AcDbEntity
  8
0
100
AcDbLine
 10
213.8124265
 20
842.1669999999997
 30
0.0
 11
215.3124265
 21
841.6669999999998
 31
0.0
  0
LINE
  5
763
330
1E
100
AcDbEntity
  8
0
100
AcDbLine
 10
215.3124265
 20
841.6669999999998
 30
0.0
 11
216.3124264999999
 21
840.667
 31
0.0
  0
LINE
  5
764
330
1E
100
AcDbEntity
  8
0
100
AcDbLine
 10
216.3124264999999
 20
840.667
 30
0.0
 11
216.8124265
 21
839.1669999999997
 31
0.0
  0
LINE
  5
765
330
1E
100
AcDbEntity
  8
0
100
AcDbLine
 10
216.8124265
 20
839.1669999999997
 30
0.0
 11
217.3124265
 21
836.6669999999997
 31
0.0
  0
LINE
  5
766
330
1E
100
AcDbEntity
  8
0
100
AcDbLine
 10
212.2124265
 20
833.6669999999998
 30
0.0
 11
217.0124265
 21
833.6669999999998
 31
0.0
  0
LINE
  5
767
330
1E
100
AcDbEntity
  8
0
100
AcDbLine
 10
217.3124265
 20
836.6669999999997
 30
0.0
 11
218.3124265
 21
835.1669999999996
 31
0.0
  0
LINE
  5
768
330
1E
100
AcDbEntity
  8
0
100
AcDbLine
 10
218.3124265
 20
835.1669999999996
 30
0.0
 11
218.8124265
 21
833.6669999999998
 31
0.0
  0
LINE
  5
769
330
1E
100
AcDbEntity
  8
0
100
AcDbLine
 10
217.0124265
 20
833.6669999999998
 30
0.0
 11
218.8124265
 21
833.6669999999998
 31
0.0
  0
LINE
  5
76A
330
1E
100
AcDbEntity
  8
0
100
AcDbLine
 10
218.3124265
 20
832.1669999999997
 30
0.0
 11
218.8124265
 21
833.6669999999998
 31
0.0
  0
LINE
  5
76B
330
1E
100
AcDbEntity
  8
0
100
AcDbLine
 10
203.7124265
 20
831.168
 30
0.0
 11
211.4124265
 21
831.1669999999997
 31
0.0
  0
LINE
  5
76C
330
1E
100
AcDbEntity
  8
0
100
AcDbLine
 10
216.1124265
 20
831.1669999999997
 30
0.0
 11
217.8124265
 21
831.1669999999997
 31
0.0
  0
LINE
  5
76D
330
1E
100
AcDbEntity
  8
0
100
AcDbLine
 10
195.9124264999999
 20
820.1679999999999
 30
0.0
 11
206.8124264999999
 21
820.167
 31
0.0
  0
LINE
  5
76E
330
1E
100
AcDbEntity
  8
0
100
AcDbLine
 10
195.9124264999999
 20
816.6679999999999
 30
0.0
 11
206.8124264999999
 21
816.6669999999998
 31
0.0
  0
LINE
  5
76F
330
1E
100
AcDbEntity
  8
0
100
AcDbLine
 10
183.3124265
 20
816.6669999999998
 30
0.0
 11
195.9124264999999
 21
816.6679999999999
 31
0.0
  0
LINE
  5
770
330
1E
100
AcDbEntity
  8
0
100
AcDbLine
 10
188.8607871557379
 20
816.167483606557
 30
0.0
 11
194.7124265
 21
816.1669999999997
 31
0.0
  0
LINE
  5
771
330
1E
100
AcDbEntity
  8
0
100
AcDbLine
 10
181.5194264999999
 20
768.5830000000001
 30
0.0
 11
181.8124264999999
 21
767.833
 31
0.0
  0
LINE
  5
772
330
1E
100
AcDbEntity
  8
0
100
AcDbLine
 10
182.3229082524428
 20
874.3988204338741
 30
0.0
 11
182.8124264999999
 21
871.1679999999999
 31
0.0
  0
LINE
  5
774
330
1E
100
AcDbEntity
  8
0
100
AcDbLine
 10
181.3114264999999
 20
880.1389999999999
 30
0.0
 11
182.2424265
 21
880.53
 31
0.0
  0
LINE
  5
775
330
1E
100
AcDbEntity
  8
0
100
AcDbLine
 10
182.2424265
 20
880.53
 30
0.0
 11
183.1544264999999
 21
880.4619999999998
 31
0.0
  0
LINE
  5
776
330
1E
100
AcDbEntity
  8
0
100
AcDbLine
 10
183.63234607025
 20
876.6991930314
 30
0.0
 11
184.3124264999999
 21
875.0669999999999
 31
0.0
  0
LINE
  5
777
330
1E
100
AcDbEntity
  8
0
100
AcDbLine
 10
184.3124264999999
 20
875.0669999999999
 30
0.0
 11
184.8124264999999
 21
871.1679999999999
 31
0.0
  0
LINE
  5
778
330
1E
100
AcDbEntity
  8
0
100
AcDbLine
 10
184.1534264999999
 20
877.476
 30
0.0
 11
184.3844264999999
 21
878.1299999999999
 31
0.0
  0
LINE
  5
779
330
1E
100
AcDbEntity
  8
0
100
AcDbLine
 10
184.3694265
 20
879.1399999999999
 30
0.0
 11
184.3844264999999
 21
878.1299999999999
 31
0.0
  0
LINE
  5
77A
330
1E
100
AcDbEntity
  8
0
100
AcDbLine
 10
183.9414264999999
 20
879.9469999999999
 30
0.0
 11
184.3694265
 21
879.1399999999999
 31
0.0
  0
LINE
  5
77B
330
1E
100
AcDbEntity
  8
0
100
AcDbLine
 10
183.1544264999999
 20
880.4619999999998
 30
0.0
 11
183.5734264999999
 21
880.2439999999997
 31
0.0
  0
LINE
  5
77C
330
1E
100
AcDbEntity
  8
0
100
AcDbLine
 10
183.5734264999999
 20
880.2439999999997
 30
0.0
 11
183.9414264999999
 21
879.9469999999999
 31
0.0
  0
LINE
  5
77D
330
1E
100
AcDbEntity
  8
0
100
AcDbLine
 10
182.4214264999999
 20
874.8939999999999
 30
0.0
 11
184.1534264999999
 21
877.476
 31
0.0
  0
LINE
  5
77E
330
1E
100
AcDbEntity
  8
0
100
AcDbLine
 10
181.8124264999999
 20
871.8330000000001
 30
0.0
 11
182.4214264999999
 21
874.8939999999999
 31
0.0
  0
LINE
  5
77F
330
1E
100
AcDbEntity
  8
0
100
AcDbLine
 10
180.8994264999999
 20
867.2410000000001
 30
0.0
 11
181.8124264999999
 21
871.8330000000001
 31
0.0
  0
LINE
  5
780
330
1E
100
AcDbEntity
  8
0
100
AcDbLine
 10
143.3124264999999
 20
766.3330000000001
 30
0.0
 11
143.8124264999999
 21
765.3330000000002
 31
0.0
  0
LINE
  5
781
330
1E
100
AcDbEntity
  8
0
100
AcDbLine
 10
143.3124264999999
 20
766.3330000000001
 30
0.0
 11
143.3124264999999
 21
765.733
 31
0.0
  0
LINE
  5
782
330
1E
100
AcDbEntity
  8
0
100
AcDbLine
 10
143.3124264999999
 20
733.3330000000001
 30
0.0
 11
143.8124264999999
 21
734.333
 31
0.0
  0
LINE
  5
783
330
1E
100
AcDbEntity
  8
0
100
AcDbLine
 10
143.3124264999999
 20
733.3330000000001
 30
0.0
 11
143.3124264999999
 21
733.933
 31
0.0
  0
LINE
  5
788
330
1E
100
AcDbEntity
  8
0
100
AcDbLine
 10
214.8124265
 20
763.286
 30
0.0
 11
214.8124265
 21
736.38
 31
0.0
  0
LINE
  5
789
330
1E
100
AcDbEntity
  8
0
100
AcDbLine
 10
26.1037344088998
 20
748.8636902369501
 30
0.0
 11
27.4650265
 21
748.33
 31
0.0
  0
ENDSEC
  0
SECTION
  2
OBJECTS
  0
DICTIONARY
  5
C
330
0
100
AcDbDictionary
281
     1
  3
ACAD_GROUP
350
D
  3
ACAD_LAYOUT
350
19
  3
ACAD_MLINESTYLE
350
16
  3
ACAD_PLOTSETTINGS
350
18
  3
ACAD_PLOTSTYLENAME
350
E
  3
AcDbVariableDictionary
350
78A
  0
DICTIONARY
  5
D
102
{ACAD_REACTORS
330
C
102
}
330
C
100
AcDbDictionary
281
     1
  0
DICTIONARY
  5
19
102
{ACAD_REACTORS
330
C
102
}
330
C
100
AcDbDictionary
281
     1
  3
Layout1
350
1D
  3
Model
350
21
  0
DICTIONARY
  5
16
102
{ACAD_REACTORS
330
C
102
}
330
C
100
AcDbDictionary
281
     1
  3
Standard
350
17
  0
DICTIONARY
  5
18
102
{ACAD_REACTORS
330
C
102
}
330
C
100
AcDbDictionary
281
     1
  0
ACDBDICTIONARYWDFLT
  5
E
102
{ACAD_REACTORS
330
C
102
}
330
C
100
AcDbDictionary
281
     1
  3
Normal
350
F
100
AcDbDictionaryWithDefault
340
F
  0
DICTIONARY
  5
78A
102
{ACAD_REACTORS
330
C
102
}
330
C
100
AcDbDictionary
281
     1
  3
DIMASSOC
350
78B
  0
LAYOUT
  5
1D
102
{ACAD_REACTORS
330
19
102
}
330
19
100
AcDbPlotSettings
  1

  2
hp deskjet 980c series
  4

  6

 40
0.0
 41
0.0
 42
0.0
 43
0.0
 44
0.0
 45
0.0
 46
0.0
 47
0.0
 48
0.0
 49
0.0
140
0.0
141
0.0
142
1.0
143
1.0
 70
   688
 72
     0
 73
     0
 74
     5
  7

 75
    16
147
1.0
148
0.0
149
0.0
100
AcDbLayout
  1
Layout1
 70
     1
 71
     1
 10
0.0
 20
0.0
 11
12.0
 21
9.0
 12
0.0
 22
0.0
 32
0.0
 14
1.000000000000000E+20
 24
1.000000000000000E+20
 34
1.000000000000000E+20
 15
-1.000000000000000E+20
 25
-1.000000000000000E+20
 35
-1.000000000000000E+20
146
0.0
 13
0.0
 23
0.0
 33
0.0
 16
1.0
 26
0.0
 36
0.0
 17
0.0
 27
1.0
 37
0.0
 76
     0
330
1A
  0
LAYOUT
  5
21
102
{ACAD_REACTORS
330
19
102
}
330
19
100
AcDbPlotSettings
  1

  2
hp deskjet 980c series
  4

  6

 40
0.0
 41
0.0
 42
0.0
 43
0.0
 44
0.0
 45
0.0
 46
0.0
 47
0.0
 48
0.0
 49
0.0
140
0.0
141
0.0
142
1.0
143
1.0
 70
  1712
 72
     0
 73
     0
 74
     0
  7

 75
     0
147
1.0
148
0.0
149
0.0
100
AcDbLayout
  1
Model
 70
     1
 71
     0
 10
0.0
 20
0.0
 11
12.0
 21
9.0
 12
0.0
 22
0.0
 32
0.0
 14
0.0
 24
0.0
 34
0.0
 15
0.0
 25
0.0
 35
0.0
146
0.0
 13
0.0
 23
0.0
 33
0.0
 16
1.0
 26
0.0
 36
0.0
 17
0.0
 27
1.0
 37
0.0
 76
     0
330
1E
  0
MLINESTYLE
  5
17
102
{ACAD_REACTORS
330
16
102
}
330
16
100
AcDbMlineStyle
  2
STANDARD
 70
     0
  3

 62
   256
 51
90.0
 52
90.0
 71
     2
 49
0.5
 62
   256
  6
BYLAYER
 49
-0.5
 62
   256
  6
BYLAYER
  0
ACDBPLACEHOLDER
  5
F
102
{ACAD_REACTORS
330
E
102
}
330
E
  0
DICTIONARYVAR
  5
78B
102
{ACAD_REACTORS
330
78A
102
}
330
78A
100
DictionaryVariables
280
     0
  1
1
  0
ENDSEC
  0
EOF
