  0
SECTION
  2
HEADER
  9
$ACADVER
  1
AC1015
  9
$ACADMAINTVER
 70
    13
  9
$DWGCODEPAGE
  3
ANSI_1252
  9
$INSBASE
 10
0.0
 20
0.0
 30
0.0
  9
$EXTMIN
 10
0.206949999999992
 20
-0.17998499999999
 30
0.0
  9
$EXTMAX
 10
212.79305
 20
70.179985
 30
0.0
  9
$LIMMIN
 10
0.0
 20
0.0
  9
$LIMMAX
 10
12.0
 20
9.0
  9
$ORTHOMODE
 70
     0
  9
$REGENMODE
 70
     1
  9
$FILLMODE
 70
     1
  9
$QTEXTMODE
 70
     0
  9
$MIRRTEXT
 70
     1
  9
$LTSCALE
 40
1.0
  9
$ATTMODE
 70
     1
  9
$TEXTSIZE
 40
0.2
  9
$TRACEWID
 40
0.05
  9
$TEXTSTYLE
  7
Standard
  9
$CLAYER
  8
0
  9
$CELTYPE
  6
Continuous
  9
$CECOLOR
 62
   256
  9
$CELTSCALE
 40
1.0
  9
$DISPSILH
 70
     0
  9
$DIMSCALE
 40
1.0
  9
$DIMASZ
 40
0.18
  9
$DIMEXO
 40
0.0625
  9
$DIMDLI
 40
0.38
  9
$DIMRND
 40
0.0
  9
$DIMDLE
 40
0.0
  9
$DIMEXE
 40
0.18
  9
$DIMTP
 40
0.0
  9
$DIMTM
 40
0.0
  9
$DIMTXT
 40
0.18
  9
$DIMCEN
 40
0.09
  9
$DIMTSZ
 40
0.0
  9
$DIMTOL
 70
     0
  9
$DIMLIM
 70
     0
  9
$DIMTIH
 70
     1
  9
$DIMTOH
 70
     1
  9
$DIMSE1
 70
     0
  9
$DIMSE2
 70
     0
  9
$DIMTAD
 70
     0
  9
$DIMZIN
 70
     0
  9
$DIMBLK
  1

  9
$DIMASO
 70
     1
  9
$DIMSHO
 70
     1
  9
$DIMPOST
  1

  9
$DIMAPOST
  1

  9
$DIMALT
 70
     0
  9
$DIMALTD
 70
     2
  9
$DIMALTF
 40
25.4
  9
$DIMLFAC
 40
1.0
  9
$DIMTOFL
 70
     0
  9
$DIMTVP
 40
0.0
  9
$DIMTIX
 70
     0
  9
$DIMSOXD
 70
     0
  9
$DIMSAH
 70
     0
  9
$DIMBLK1
  1

  9
$DIMBLK2
  1

  9
$DIMSTYLE
  2
Standard
  9
$DIMCLRD
 70
     0
  9
$DIMCLRE
 70
     0
  9
$DIMCLRT
 70
     0
  9
$DIMTFAC
 40
1.0
  9
$DIMGAP
 40
0.09
  9
$DIMJUST
 70
     0
  9
$DIMSD1
 70
     0
  9
$DIMSD2
 70
     0
  9
$DIMTOLJ
 70
     1
  9
$DIMTZIN
 70
     0
  9
$DIMALTZ
 70
     0
  9
$DIMALTTZ
 70
     0
  9
$DIMUPT
 70
     0
  9
$DIMDEC
 70
     4
  9
$DIMTDEC
 70
     4
  9
$DIMALTU
 70
     2
  9
$DIMALTTD
 70
     2
  9
$DIMTXSTY
  7
Standard
  9
$DIMAUNIT
 70
     0
  9
$DIMADEC
 70
     0
  9
$DIMALTRND
 40
0.0
  9
$DIMAZIN
 70
     0
  9
$DIMDSEP
 70
    46
  9
$DIMATFIT
 70
     3
  9
$DIMFRAC
 70
     0
  9
$DIMLDRBLK
  1

  9
$DIMLUNIT
 70
     2
  9
$DIMLWD
 70
    -2
  9
$DIMLWE
 70
    -2
  9
$DIMTMOVE
 70
     0
  9
$LUNITS
 70
     2
  9
$LUPREC
 70
     4
  9
$SKETCHINC
 40
0.1
  9
$FILLETRAD
 40
0.0
  9
$AUNITS
 70
     0
  9
$AUPREC
 70
     0
  9
$MENU
  1
.
  9
$ELEVATION
 40
0.0
  9
$PELEVATION
 40
0.0
  9
$THICKNESS
 40
0.0
  9
$LIMCHECK
 70
     0
  9
$CHAMFERA
 40
0.0
  9
$CHAMFERB
 40
0.0
  9
$CHAMFERC
 40
0.0
  9
$CHAMFERD
 40
0.0
  9
$SKPOLY
 70
     0
  9
$TDCREATE
 40
2454751.617585174
  9
$TDUCREATE
 40
2454751.534251840
  9
$TDUPDATE
 40
2454751.618437129
  9
$TDUUPDATE
 40
2454751.535103796
  9
$TDINDWG
 40
0.0008519560
  9
$TDUSRTIMER
 40
0.0008519560
  9
$USRTIMER
 70
     1
  9
$ANGBASE
 50
0.0
  9
$ANGDIR
 70
     0
  9
$PDMODE
 70
     0
  9
$PDSIZE
 40
0.0
  9
$PLINEWID
 40
0.0
  9
$SPLFRAME
 70
     0
  9
$SPLINETYPE
 70
     6
  9
$SPLINESEGS
 70
     8
  9
$HANDSEED
  5
3B5
  9
$SURFTAB1
 70
     6
  9
$SURFTAB2
 70
     6
  9
$SURFTYPE
 70
     6
  9
$SURFU
 70
     6
  9
$SURFV
 70
     6
  9
$UCSBASE
  2

  9
$UCSNAME
  2

  9
$UCSORG
 10
0.0
 20
0.0
 30
0.0
  9
$UCSXDIR
 10
1.0
 20
0.0
 30
0.0
  9
$UCSYDIR
 10
0.0
 20
1.0
 30
0.0
  9
$UCSORTHOREF
  2

  9
$UCSORTHOVIEW
 70
     1
  9
$UCSORGTOP
 10
0.0
 20
0.0
 30
0.0
  9
$UCSORGBOTTOM
 10
0.0
 20
0.0
 30
0.0
  9
$UCSORGLEFT
 10
0.0
 20
0.0
 30
0.0
  9
$UCSORGRIGHT
 10
0.0
 20
0.0
 30
0.0
  9
$UCSORGFRONT
 10
0.0
 20
0.0
 30
0.0
  9
$UCSORGBACK
 10
0.0
 20
0.0
 30
0.0
  9
$PUCSBASE
  2

  9
$PUCSNAME
  2

  9
$PUCSORG
 10
0.0
 20
0.0
 30
0.0
  9
$PUCSXDIR
 10
1.0
 20
0.0
 30
0.0
  9
$PUCSYDIR
 10
0.0
 20
1.0
 30
0.0
  9
$PUCSORTHOREF
  2

  9
$PUCSORTHOVIEW
 70
     0
  9
$PUCSORGTOP
 10
0.0
 20
0.0
 30
0.0
  9
$PUCSORGBOTTOM
 10
0.0
 20
0.0
 30
0.0
  9
$PUCSORGLEFT
 10
0.0
 20
0.0
 30
0.0
  9
$PUCSORGRIGHT
 10
0.0
 20
0.0
 30
0.0
  9
$PUCSORGFRONT
 10
0.0
 20
0.0
 30
0.0
  9
$PUCSORGBACK
 10
0.0
 20
0.0
 30
0.0
  9
$USERI1
 70
     0
  9
$USERI2
 70
     0
  9
$USERI3
 70
     0
  9
$USERI4
 70
     0
  9
$USERI5
 70
     0
  9
$USERR1
 40
0.0
  9
$USERR2
 40
0.0
  9
$USERR3
 40
0.0
  9
$USERR4
 40
0.0
  9
$USERR5
 40
0.0
  9
$WORLDVIEW
 70
     1
  9
$SHADEDGE
 70
     3
  9
$SHADEDIF
 70
    70
  9
$TILEMODE
 70
     1
  9
$MAXACTVP
 70
    64
  9
$PINSBASE
 10
0.0
 20
0.0
 30
0.0
  9
$PLIMCHECK
 70
     0
  9
$PEXTMIN
 10
1.000000000000000E+20
 20
1.000000000000000E+20
 30
1.000000000000000E+20
  9
$PEXTMAX
 10
-1.000000000000000E+20
 20
-1.000000000000000E+20
 30
-1.000000000000000E+20
  9
$PLIMMIN
 10
0.0
 20
0.0
  9
$PLIMMAX
 10
12.0
 20
9.0
  9
$UNITMODE
 70
     0
  9
$VISRETAIN
 70
     1
  9
$PLINEGEN
 70
     0
  9
$PSLTSCALE
 70
     1
  9
$TREEDEPTH
 70
  3020
  9
$CMLSTYLE
  2
Standard
  9
$CMLJUST
 70
     0
  9
$CMLSCALE
 40
1.0
  9
$PROXYGRAPHICS
 70
     1
  9
$MEASUREMENT
 70
     0
  9
$CELWEIGHT
370
    -1
  9
$ENDCAPS
280
     0
  9
$JOINSTYLE
280
     0
  9
$LWDISPLAY
290
     0
  9
$INSUNITS
 70
     0
  9
$HYPERLINKBASE
  1

  9
$STYLESHEET
  1

  9
$XEDIT
290
     1
  9
$CEPSNTYPE
380
     0
  9
$PSTYLEMODE
290
     1
  9
$FINGERPRINTGUID
  2
{59C64E82-3498-49A8-BF5C-2F6AFB10AE04}
  9
$VERSIONGUID
  2
{8A3E628B-43C0-4823-8DC8-13F6E0C79423}
  9
$EXTNAMES
290
     1
  9
$PSVPSCALE
 40
0.0
  9
$OLESTARTUP
290
     0
  0
ENDSEC
  0
SECTION
  2
CLASSES
  0
CLASS
  1
ACDBDICTIONARYWDFLT
  2
AcDbDictionaryWithDefault
  3
AutoCAD 2000
 90
        0
280
     0
281
     0
  0
CLASS
  1
ACDBPLACEHOLDER
  2
AcDbPlaceHolder
  3
AutoCAD 2000
 90
        0
280
     0
281
     0
  0
CLASS
  1
LAYOUT
  2
AcDbLayout
  3
AutoCAD 2000
 90
        0
280
     0
281
     0
  0
CLASS
  1
DICTIONARYVAR
  2
AcDbDictionaryVar
  3
AutoCAD 2000
 90
        0
280
     0
281
     0
  0
ENDSEC
  0
SECTION
  2
TABLES
  0
TABLE
  2
VPORT
  5
8
330
0
100
AcDbSymbolTable
 70
     2
  0
VPORT
  5
3B4
330
8
100
AcDbSymbolTableRecord
100
AcDbViewportTableRecord
  2
*Active
 70
     0
 10
0.0
 20
0.0
 11
1.0
 21
1.0
 12
106.4999999999999
 22
35.0
 13
0.0
 23
0.0
 14
1.0
 24
1.0
 15
0.0
 25
0.0
 16
0.0
 26
0.0
 36
1.0
 17
0.0
 27
0.0
 37
0.0
 40
102.6760039954441
 41
2.078104993597951
 42
50.0
 43
0.0
 44
0.0
 50
0.0
 51
0.0
 71
     0
 72
   100
 73
     1
 74
     3
 75
     0
 76
     0
 77
     0
 78
     0
281
     0
 65
     1
110
0.0
120
0.0
130
0.0
111
1.0
121
0.0
131
0.0
112
0.0
122
1.0
132
0.0
 79
     1
146
0.0
  0
ENDTAB
  0
TABLE
  2
LTYPE
  5
5
330
0
100
AcDbSymbolTable
 70
     1
  0
LTYPE
  5
13
330
5
100
AcDbSymbolTableRecord
100
AcDbLinetypeTableRecord
  2
ByBlock
 70
     0
  3

 72
    65
 73
     0
 40
0.0
  0
LTYPE
  5
14
330
5
100
AcDbSymbolTableRecord
100
AcDbLinetypeTableRecord
  2
ByLayer
 70
     0
  3

 72
    65
 73
     0
 40
0.0
  0
LTYPE
  5
15
330
5
100
AcDbSymbolTableRecord
100
AcDbLinetypeTableRecord
  2
Continuous
 70
     0
  3
Solid line
 72
    65
 73
     0
 40
0.0
  0
ENDTAB
  0
TABLE
  2
LAYER
  5
2
330
0
100
AcDbSymbolTable
 70
     1
  0
LAYER
  5
10
330
2
100
AcDbSymbolTableRecord
100
AcDbLayerTableRecord
  2
0
 70
     0
 62
     7
  6
Continuous
370
    -3
390
F
  0
ENDTAB
  0
TABLE
  2
STYLE
  5
3
330
0
100
AcDbSymbolTable
 70
     1
  0
STYLE
  5
11
330
3
100
AcDbSymbolTableRecord
100
AcDbTextStyleTableRecord
  2
Standard
 70
     0
 40
0.0
 41
1.0
 50
0.0
 71
     0
 42
0.2
  3
txt
  4

  0
ENDTAB
  0
TABLE
  2
VIEW
  5
6
330
0
100
AcDbSymbolTable
 70
     0
  0
ENDTAB
  0
TABLE
  2
UCS
  5
7
330
0
100
AcDbSymbolTable
 70
     0
  0
ENDTAB
  0
TABLE
  2
APPID
  5
9
330
0
100
AcDbSymbolTable
 70
     1
  0
APPID
  5
12
330
9
100
AcDbSymbolTableRecord
100
AcDbRegAppTableRecord
  2
ACAD
 70
     0
  0
ENDTAB
  0
TABLE
  2
DIMSTYLE
  5
A
330
0
100
AcDbSymbolTable
 70
     1
100
AcDbDimStyleTable
 71
     0
  0
DIMSTYLE
105
3AE
330
A
100
AcDbSymbolTableRecord
100
AcDbDimStyleTableRecord
  2
Standard
 70
     0
340
11
  0
ENDTAB
  0
TABLE
  2
BLOCK_RECORD
  5
1
330
0
100
AcDbSymbolTable
 70
     0
  0
BLOCK_RECORD
  5
1E
330
1
100
AcDbSymbolTableRecord
100
AcDbBlockTableRecord
  2
*Model_Space
340
21
  0
BLOCK_RECORD
  5
1A
330
1
100
AcDbSymbolTableRecord
100
AcDbBlockTableRecord
  2
*Paper_Space
340
1D
  0
ENDTAB
  0
ENDSEC
  0
SECTION
  2
BLOCKS
  0
BLOCK
  5
1F
330
1E
100
AcDbEntity
  8
0
100
AcDbBlockBegin
  2
*Model_Space
 70
     0
 10
0.0
 20
0.0
 30
0.0
  3
*Model_Space
  1

  0
ENDBLK
  5
20
330
1E
100
AcDbEntity
  8
0
100
AcDbBlockEnd
  0
BLOCK
  5
1B
330
1A
100
AcDbEntity
 67
     1
  8
0
100
AcDbBlockBegin
  2
*Paper_Space
 70
     0
 10
0.0
 20
0.0
 30
0.0
  3
*Paper_Space
  1

  0
ENDBLK
  5
1C
330
1A
100
AcDbEntity
 67
     1
  8
0
100
AcDbBlockEnd
  0
ENDSEC
  0
SECTION
  2
ENTITIES
  0
LINE
  5
22
330
1E
100
AcDbEntity
  8
0
100
AcDbLine
 10
10.54467999999999
 20
2.575004000000009
 30
0.0
 11
13.669521
 21
2.02400900000001
 31
0.0
  0
LINE
  5
23
330
1E
100
AcDbEntity
  8
0
100
AcDbLine
 10
26.16894999999999
 20
-0.17998499999999
 30
0.0
 11
27.47854999999999
 21
0.60204500000001
 31
0.0
  0
LINE
  5
24
330
1E
100
AcDbEntity
  8
0
100
AcDbLine
 10
25.71455
 20
-0.0998449999999905
 30
0.0
 11
26.16894999999999
 21
-0.17998499999999
 31
0.0
  0
LINE
  5
25
330
1E
100
AcDbEntity
  8
0
100
AcDbLine
 10
26.16894999999999
 20
-0.17998499999999
 30
0.0
 11
27.47854999999999
 21
0.60204500000001
 31
0.0
  0
LINE
  5
26
330
1E
100
AcDbEntity
  8
0
100
AcDbLine
 10
24.46455
 20
0.12054500000001
 30
0.0
 11
25.71455
 21
-0.0998449999999905
 31
0.0
  0
LINE
  5
27
330
1E
100
AcDbEntity
  8
0
100
AcDbLine
 10
27.47854999999999
 20
0.60204500000001
 30
0.0
 11
29.03465
 21
9.48138500000001
 31
0.0
  0
LINE
  5
28
330
1E
100
AcDbEntity
  8
0
100
AcDbLine
 10
27.02405
 20
0.68219500000001
 30
0.0
 11
27.47854999999999
 21
0.60204500000001
 31
0.0
  0
LINE
  5
29
330
1E
100
AcDbEntity
  8
0
100
AcDbLine
 10
25.66045
 20
0.9226350000000099
 30
0.0
 11
27.02405
 21
0.68219500000001
 31
0.0
  0
LINE
  5
2A
330
1E
100
AcDbEntity
  8
0
100
AcDbLine
 10
23.50144999999999
 20
1.303321000000009
 30
0.0
 11
25.66045
 21
0.9226350000000099
 31
0.0
  0
LINE
  5
2B
330
1E
100
AcDbEntity
  8
0
100
AcDbLine
 10
22.53279
 20
0.4611750000000101
 30
0.0
 11
24.46455
 21
0.12054500000001
 31
0.0
  0
LINE
  5
2C
330
1E
100
AcDbEntity
  8
0
100
AcDbLine
 10
22.53279
 20
0.4611750000000101
 30
0.0
 11
24.46455
 21
0.12054500000001
 31
0.0
  0
LINE
  5
2D
330
1E
100
AcDbEntity
  8
0
100
AcDbLine
 10
19.91931
 20
0.9220050000000099
 30
0.0
 11
22.53279
 21
0.4611750000000101
 31
0.0
  0
LINE
  5
2E
330
1E
100
AcDbEntity
  8
0
100
AcDbLine
 10
20.66066999999999
 20
1.80422700000001
 30
0.0
 11
23.50144999999999
 21
1.303321000000009
 31
0.0
  0
LINE
  5
2F
330
1E
100
AcDbEntity
  8
0
100
AcDbLine
 10
17.3653
 20
2.385288000000009
 30
0.0
 11
20.66066999999999
 21
1.80422700000001
 31
0.0
  0
LINE
  5
30
330
1E
100
AcDbEntity
  8
0
100
AcDbLine
 10
13.84275
 20
3.006410000000009
 30
0.0
 11
17.3653
 21
2.385288000000009
 31
0.0
  0
LINE
  5
31
330
1E
100
AcDbEntity
  8
0
100
AcDbLine
 10
16.79442
 20
1.47300600000001
 30
0.0
 11
19.91931
 21
0.9220050000000099
 31
0.0
  0
LINE
  5
32
330
1E
100
AcDbEntity
  8
0
100
AcDbLine
 10
27.47854999999999
 20
0.6020450000000091
 30
0.0
 11
29.03465
 21
9.48138500000001
 31
0.0
  0
LINE
  5
33
330
1E
100
AcDbEntity
  8
0
100
AcDbLine
 10
24.46455
 20
0.12054500000001
 30
0.0
 11
25.71455
 21
-0.0998449999999905
 31
0.0
  0
LINE
  5
34
330
1E
100
AcDbEntity
  8
0
100
AcDbLine
 10
13.669521
 20
2.02400900000001
 30
0.0
 11
16.79442
 21
1.47300600000001
 31
0.0
  0
LINE
  5
35
330
1E
100
AcDbEntity
  8
0
100
AcDbLine
 10
0.206949999999992
 20
5.410765000000009
 30
0.0
 11
0.6614499999999929
 21
5.330625000000009
 31
0.0
  0
LINE
  5
36
330
1E
100
AcDbEntity
  8
0
100
AcDbLine
 10
0.6614499999999929
 20
5.330625000000009
 30
0.0
 11
2.02504999999999
 21
5.090185000000009
 31
0.0
  0
LINE
  5
37
330
1E
100
AcDbEntity
  8
0
100
AcDbLine
 10
0.661449999999994
 20
5.330625000000009
 30
0.0
 11
2.02504999999999
 21
5.090185000000009
 31
0.0
  0
LINE
  5
38
330
1E
100
AcDbEntity
  8
0
100
AcDbLine
 10
1.17004999999999
 20
4.228005000000009
 30
0.0
 11
1.624549999999989
 21
4.147855000000009
 31
0.0
  0
LINE
  5
39
330
1E
100
AcDbEntity
  8
0
100
AcDbLine
 10
0.206949999999992
 20
5.410765000000009
 30
0.0
 11
1.762949999999989
 21
14.290085
 31
0.0
  0
LINE
  5
3A
330
1E
100
AcDbEntity
  8
0
100
AcDbLine
 10
0.206949999999992
 20
5.410765000000009
 30
0.0
 11
1.17004999999999
 21
4.228005000000009
 31
0.0
  0
LINE
  5
3B
330
1E
100
AcDbEntity
  8
0
100
AcDbLine
 10
0.206949999999992
 20
5.410765000000009
 30
0.0
 11
0.661449999999994
 21
5.330625000000009
 31
0.0
  0
LINE
  5
3C
330
1E
100
AcDbEntity
  8
0
100
AcDbLine
 10
0.9730499999999928
 20
16.455285
 30
0.0
 11
1.801049999999989
 21
17.82878499999999
 31
0.0
  0
LINE
  5
3D
330
1E
100
AcDbEntity
  8
0
100
AcDbLine
 10
0.8864499999999921
 20
15.964185
 30
0.0
 11
1.281449999999989
 21
14.881485
 31
0.0
  0
LINE
  5
3E
330
1E
100
AcDbEntity
  8
0
100
AcDbLine
 10
0.8864499999999921
 20
15.964185
 30
0.0
 11
0.9730499999999928
 21
16.455285
 31
0.0
  0
LINE
  5
3F
330
1E
100
AcDbEntity
  8
0
100
AcDbLine
 10
1.281449999999989
 20
14.881485
 30
0.0
 11
1.762949999999989
 21
14.290085
 31
0.0
  0
LINE
  5
40
330
1E
100
AcDbEntity
  8
0
100
AcDbLine
 10
0.206949999999992
 20
5.410765000000009
 30
0.0
 11
1.17004999999999
 21
4.228005000000009
 31
0.0
  0
LINE
  5
41
330
1E
100
AcDbEntity
  8
0
100
AcDbLine
 10
0.206949999999992
 20
5.410765000000009
 30
0.0
 11
1.762949999999989
 21
14.290085
 31
0.0
  0
LINE
  5
42
330
1E
100
AcDbEntity
  8
0
100
AcDbLine
 10
2.02504999999999
 20
5.090185000000009
 30
0.0
 11
4.18407999999999
 21
4.709495000000009
 31
0.0
  0
LINE
  5
43
330
1E
100
AcDbEntity
  8
0
100
AcDbLine
 10
4.18407999999999
 20
4.709495000000009
 30
0.0
 11
7.02486999999999
 21
4.208585000000009
 31
0.0
  0
LINE
  5
44
330
1E
100
AcDbEntity
  8
0
100
AcDbLine
 10
2.87453999999999
 20
3.927455000000009
 30
0.0
 11
4.80627999999999
 21
3.586835000000009
 31
0.0
  0
LINE
  5
45
330
1E
100
AcDbEntity
  8
0
100
AcDbLine
 10
7.02486999999999
 20
4.208585000000009
 30
0.0
 11
10.32019
 21
3.627535000000009
 31
0.0
  0
LINE
  5
46
330
1E
100
AcDbEntity
  8
0
100
AcDbLine
 10
10.32019
 20
3.627535000000009
 30
0.0
 11
13.84275
 21
3.006410000000009
 31
0.0
  0
LINE
  5
47
330
1E
100
AcDbEntity
  8
0
100
AcDbLine
 10
4.80627999999999
 20
3.586835000000009
 30
0.0
 11
7.41979999999999
 21
3.126003000000009
 31
0.0
  0
LINE
  5
48
330
1E
100
AcDbEntity
  8
0
100
AcDbLine
 10
1.762949999999989
 20
14.290085
 30
0.0
 11
2.21744999999999
 21
14.209985
 31
0.0
  0
LINE
  5
49
330
1E
100
AcDbEntity
  8
0
100
AcDbLine
 10
2.21744999999999
 20
14.209985
 30
0.0
 11
3.58106999999999
 21
13.969485
 31
0.0
  0
LINE
  5
4A
330
1E
100
AcDbEntity
  8
0
100
AcDbLine
 10
3.58106999999999
 20
13.969485
 30
0.0
 11
5.74007999999999
 21
13.588885
 31
0.0
  0
LINE
  5
4B
330
1E
100
AcDbEntity
  8
0
100
AcDbLine
 10
5.74007999999999
 20
13.588885
 30
0.0
 11
8.58085999999999
 21
13.087885
 31
0.0
  0
LINE
  5
4C
330
1E
100
AcDbEntity
  8
0
100
AcDbLine
 10
8.58085999999999
 20
13.087885
 30
0.0
 11
11.876187
 21
12.506885
 31
0.0
  0
LINE
  5
4D
330
1E
100
AcDbEntity
  8
0
100
AcDbLine
 10
28.58005
 20
9.561545000000009
 30
0.0
 11
29.03465
 21
9.48138500000001
 31
0.0
  0
LINE
  5
4E
330
1E
100
AcDbEntity
  8
0
100
AcDbLine
 10
27.21645
 20
9.801975000000009
 30
0.0
 11
28.58005
 21
9.561545000000009
 31
0.0
  0
LINE
  5
4F
330
1E
100
AcDbEntity
  8
0
100
AcDbLine
 10
25.05745
 20
10.18266499999999
 30
0.0
 11
27.21645
 21
9.801975000000009
 31
0.0
  0
LINE
  5
50
330
1E
100
AcDbEntity
  8
0
100
AcDbLine
 10
22.21668999999999
 20
10.68356499999999
 30
0.0
 11
25.05745
 21
10.18266499999999
 31
0.0
  0
LINE
  5
51
330
1E
100
AcDbEntity
  8
0
100
AcDbLine
 10
18.92132
 20
11.264625
 30
0.0
 11
22.21668999999999
 21
10.68356499999999
 31
0.0
  0
LINE
  5
52
330
1E
100
AcDbEntity
  8
0
100
AcDbLine
 10
15.39877
 20
11.88575499999999
 30
0.0
 11
18.92132
 21
11.264625
 31
0.0
  0
LINE
  5
53
330
1E
100
AcDbEntity
  8
0
100
AcDbLine
 10
11.876187
 20
12.506885
 30
0.0
 11
15.39877
 21
11.88575499999999
 31
0.0
  0
LINE
  5
54
330
1E
100
AcDbEntity
  8
0
100
AcDbLine
 10
28.48335
 20
14.474385
 30
0.0
 11
28.92965
 21
14.407685
 31
0.0
  0
LINE
  5
55
330
1E
100
AcDbEntity
  8
0
100
AcDbLine
 10
27.30925
 20
14.772185
 30
0.0
 11
28.48335
 21
14.474385
 31
0.0
  0
LINE
  5
56
330
1E
100
AcDbEntity
  8
0
100
AcDbLine
 10
25.34155
 20
15.169285
 30
0.0
 11
27.30925
 21
14.772185
 31
0.0
  0
LINE
  5
57
330
1E
100
AcDbEntity
  8
0
100
AcDbLine
 10
22.74539
 20
15.665585
 30
0.0
 11
25.34155
 21
15.169285
 31
0.0
  0
LINE
  5
58
330
1E
100
AcDbEntity
  8
0
100
AcDbLine
 10
19.77078999999999
 20
16.161985
 30
0.0
 11
22.74539
 21
15.665585
 31
0.0
  0
LINE
  5
59
330
1E
100
AcDbEntity
  8
0
100
AcDbLine
 10
16.59590999999999
 20
16.724485
 30
0.0
 11
19.77078999999999
 21
16.161985
 31
0.0
  0
LINE
  5
5A
330
1E
100
AcDbEntity
  8
0
100
AcDbLine
 10
13.44593599999999
 20
17.303585
 30
0.0
 11
16.59590999999999
 21
16.724485
 31
0.0
  0
LINE
  5
5B
330
1E
100
AcDbEntity
  8
0
100
AcDbLine
 10
28.92965
 20
14.407685
 30
0.0
 11
30.20905
 21
12.819685
 31
0.0
  0
LINE
  5
5C
330
1E
100
AcDbEntity
  8
0
100
AcDbLine
 10
28.92965
 20
14.407685
 30
0.0
 11
30.17355
 21
16.929985
 31
0.0
  0
LINE
  5
5D
330
1E
100
AcDbEntity
  8
0
100
AcDbLine
 10
30.17355
 20
16.929985
 30
0.0
 11
31.73595
 21
19.268385
 31
0.0
  0
LINE
  5
5E
330
1E
100
AcDbEntity
  8
0
100
AcDbLine
 10
99.90558032841491
 20
15.2249937510688
 30
0.0
 11
99.9844053685188
 21
14.9171039655174
 31
0.0
  0
LINE
  5
5F
330
1E
100
AcDbEntity
  8
0
100
AcDbLine
 10
99.9618646073924
 20
16.51994400373859
 30
0.0
 11
99.98605000000001
 21
17.076385
 31
0.0
  0
LINE
  5
60
330
1E
100
AcDbEntity
  8
0
100
AcDbLine
 10
99.88505000000001
 20
15.305185
 30
0.0
 11
100.2690499999999
 21
13.805285
 31
0.0
  0
LINE
  5
61
330
1E
100
AcDbEntity
  8
0
100
AcDbLine
 10
99.88505000000001
 20
15.305185
 30
0.0
 11
100.0050499999999
 21
17.202885
 31
0.0
  0
LINE
  5
62
330
1E
100
AcDbEntity
  8
0
100
AcDbLine
 10
99.90405
 20
15.189785
 30
0.0
 11
99.9844053685188
 21
14.9171039655174
 31
0.0
  0
LINE
  5
63
330
1E
100
AcDbEntity
  8
0
100
AcDbLine
 10
30.20905
 20
12.819685
 30
0.0
 11
30.51735
 21
11.24581499999999
 31
0.0
  0
LINE
  5
64
330
1E
100
AcDbEntity
  8
0
100
AcDbLine
 10
30.43074999999999
 20
10.754695
 30
0.0
 11
30.51735
 21
11.24581499999999
 31
0.0
  0
LINE
  5
65
330
1E
100
AcDbEntity
  8
0
100
AcDbLine
 10
29.68935
 20
9.872425000000008
 30
0.0
 11
30.43074999999999
 21
10.754695
 31
0.0
  0
LINE
  5
66
330
1E
100
AcDbEntity
  8
0
100
AcDbLine
 10
29.03465
 20
9.48138500000001
 30
0.0
 11
29.68935
 21
9.872425000000008
 31
0.0
  0
LINE
  5
67
330
1E
100
AcDbEntity
  8
0
100
AcDbLine
 10
1.624549999999989
 20
4.147855000000009
 30
0.0
 11
2.87453999999999
 21
3.927455000000009
 31
0.0
  0
LINE
  5
68
330
1E
100
AcDbEntity
  8
0
100
AcDbLine
 10
7.41979999999999
 20
3.126003000000009
 30
0.0
 11
10.54467999999999
 21
2.575004000000009
 31
0.0
  0
LINE
  5
69
330
1E
100
AcDbEntity
  8
0
100
AcDbLine
 10
100.98005
 20
12.709185
 30
0.0
 11
101.74905
 21
12.055355
 31
0.0
  0
LINE
  5
6B
330
1E
100
AcDbEntity
  8
0
100
AcDbLine
 10
101.0760499999999
 20
12.612985
 30
0.0
 11
101.270198250779
 21
12.4624910717723
 31
0.0
  0
LINE
  5
6E
330
1E
100
AcDbEntity
  8
0
100
AcDbLine
 10
100.0050499999999
 20
17.202885
 30
0.0
 11
100.48305
 21
21.177985
 31
0.0
  0
LINE
  5
6F
330
1E
100
AcDbEntity
  8
0
100
AcDbLine
 10
100.2690499999999
 20
13.805285
 30
0.0
 11
100.98005
 21
12.709185
 31
0.0
  0
LINE
  5
70
330
1E
100
AcDbEntity
  8
0
100
AcDbLine
 10
101.74905
 20
12.055355
 30
0.0
 11
102.86405
 21
11.536155
 31
0.0
  0
LINE
  5
71
330
1E
100
AcDbEntity
  8
0
100
AcDbLine
 10
102.86405
 20
11.536155
 30
0.0
 11
105.7930499999999
 21
11.179985
 31
0.0
  0
LINE
  5
73
330
1E
100
AcDbEntity
  8
0
100
AcDbLine
 10
109.83705
 20
12.055355
 30
0.0
 11
110.6060499999999
 21
12.709185
 31
0.0
  0
LINE
  5
76
330
1E
100
AcDbEntity
  8
0
100
AcDbLine
 10
111.58105
 20
17.202885
 30
0.0
 11
111.7010499999999
 21
15.305185
 31
0.0
  0
LINE
  5
77
330
1E
100
AcDbEntity
  8
0
100
AcDbLine
 10
111.6000499999999
 20
17.076385
 30
0.0
 11
111.6242353926079
 21
16.5199440037388
 31
0.0
  0
LINE
  5
78
330
1E
100
AcDbEntity
  8
0
100
AcDbLine
 10
111.31705
 20
13.805285
 30
0.0
 11
111.7010499999999
 21
15.305185
 31
0.0
  0
LINE
  5
79
330
1E
100
AcDbEntity
  8
0
100
AcDbLine
 10
111.6016946314809
 20
14.9171039655177
 30
0.0
 11
111.6820499999999
 21
15.189785
 31
0.0
  0
LINE
  5
7A
330
1E
100
AcDbEntity
  8
0
100
AcDbLine
 10
110.6060499999999
 20
12.709185
 30
0.0
 11
111.31705
 21
13.805285
 31
0.0
  0
LINE
  5
7B
330
1E
100
AcDbEntity
  8
0
100
AcDbLine
 10
110.3159017492209
 20
12.4624910717723
 30
0.0
 11
110.51005
 21
12.612985
 31
0.0
  0
LINE
  5
7C
330
1E
100
AcDbEntity
  8
0
100
AcDbLine
 10
108.7220499999999
 20
11.536155
 30
0.0
 11
109.83705
 21
12.055355
 31
0.0
  0
LINE
  5
7D
330
1E
100
AcDbEntity
  8
0
100
AcDbLine
 10
105.7930499999999
 20
11.179985
 30
0.0
 11
108.7220499999999
 21
11.536155
 31
0.0
  0
LINE
  5
7E
330
1E
100
AcDbEntity
  8
0
100
AcDbLine
 10
99.98605000000001
 20
17.076385
 30
0.0
 11
100.0667697157539
 21
17.71615287049239
 31
0.0
  0
LINE
  5
7F
330
1E
100
AcDbEntity
  8
0
100
AcDbLine
 10
10.46948999999999
 20
17.816385
 30
0.0
 11
13.44593599999999
 21
17.303585
 31
0.0
  0
LINE
  5
80
330
1E
100
AcDbEntity
  8
0
100
AcDbLine
 10
4.74809999999999
 20
18.858685
 30
0.0
 11
5.87353999999999
 21
18.633385
 31
0.0
  0
LINE
  5
81
330
1E
100
AcDbEntity
  8
0
100
AcDbLine
 10
5.87353999999999
 20
18.633385
 30
0.0
 11
7.85682999999999
 21
18.279685
 31
0.0
  0
LINE
  5
82
330
1E
100
AcDbEntity
  8
0
100
AcDbLine
 10
7.85682999999999
 20
18.279685
 30
0.0
 11
10.46948999999999
 21
17.816385
 31
0.0
  0
LINE
  5
83
330
1E
100
AcDbEntity
  8
0
100
AcDbLine
 10
4.33355999999999
 20
18.901585
 30
0.0
 11
5.83264999999999
 21
23.974785
 31
0.0
  0
LINE
  5
84
330
1E
100
AcDbEntity
  8
0
100
AcDbLine
 10
4.33355999999999
 20
18.901585
 30
0.0
 11
4.74809999999999
 21
18.858685
 31
0.0
  0
LINE
  5
85
330
1E
100
AcDbEntity
  8
0
100
AcDbLine
 10
31.73595
 20
19.268385
 30
0.0
 11
33.59024999999999
 21
21.382785
 31
0.0
  0
LINE
  5
86
330
1E
100
AcDbEntity
  8
0
100
AcDbLine
 10
5.83264999999999
 20
23.974785
 30
0.0
 11
8.52286999999999
 21
29.42998499999999
 31
0.0
  0
LINE
  5
87
330
1E
100
AcDbEntity
  8
0
100
AcDbLine
 10
33.59024999999999
 20
21.382785
 30
0.0
 11
35.70465
 21
23.23708499999999
 31
0.0
  0
LINE
  5
88
330
1E
100
AcDbEntity
  8
0
100
AcDbLine
 10
38.04305
 20
24.799485
 30
0.0
 11
40.56535
 21
26.043385
 31
0.0
  0
LINE
  5
89
330
1E
100
AcDbEntity
  8
0
100
AcDbLine
 10
35.70465
 20
23.23708499999999
 30
0.0
 11
38.04305
 21
24.799485
 31
0.0
  0
LINE
  5
8A
330
1E
100
AcDbEntity
  8
0
100
AcDbLine
 10
1.801049999999989
 20
17.82878499999999
 30
0.0
 11
4.33355999999999
 21
18.901585
 31
0.0
  0
LINE
  5
8C
330
1E
100
AcDbEntity
  8
0
100
AcDbLine
 10
111.519330284246
 20
17.7161528704925
 30
0.0
 11
111.6000499999999
 21
17.076385
 31
0.0
  0
LINE
  5
8D
330
1E
100
AcDbEntity
  8
0
100
AcDbLine
 10
110.5760499999999
 20
24.722085
 30
0.0
 11
111.10305
 21
21.177985
 31
0.0
  0
LINE
  5
8E
330
1E
100
AcDbEntity
  8
0
100
AcDbLine
 10
110.5500499999999
 20
25.041785
 30
0.0
 11
110.835097583243
 21
22.979977713908
 31
0.0
  0
LINE
  5
8F
330
1E
100
AcDbEntity
  8
0
100
AcDbLine
 10
110.5500499999999
 20
25.041785
 30
0.0
 11
110.5760499999999
 21
24.722085
 31
0.0
  0
LINE
  5
90
330
1E
100
AcDbEntity
  8
0
100
AcDbLine
 10
101.0360499999999
 20
25.041785
 30
0.0
 11
101.140418270882
 21
25.79379001845369
 31
0.0
  0
LINE
  5
91
330
1E
100
AcDbEntity
  8
0
100
AcDbLine
 10
101.01005
 20
24.722085
 30
0.0
 11
101.34505
 21
27.475985
 31
0.0
  0
LINE
  5
92
330
1E
100
AcDbEntity
  8
0
100
AcDbLine
 10
101.01005
 20
24.722085
 30
0.0
 11
101.0360499999999
 21
25.041785
 31
0.0
  0
LINE
  5
93
330
1E
100
AcDbEntity
  8
0
100
AcDbLine
 10
138.29305
 20
23.679985
 30
0.0
 11
139.7930499999999
 21
23.179985
 31
0.0
  0
LINE
  5
94
330
1E
100
AcDbEntity
  8
0
100
AcDbLine
 10
138.29305
 20
23.679985
 30
0.0
 11
138.29305
 21
24.279985
 31
0.0
  0
LINE
  5
95
330
1E
100
AcDbEntity
  8
0
100
AcDbLine
 10
138.29305
 20
24.279985
 30
0.0
 11
138.29305
 21
23.679985
 31
0.0
  0
LINE
  5
96
330
1E
100
AcDbEntity
  8
0
100
AcDbLine
 10
138.29305
 20
24.279985
 30
0.0
 11
138.29305
 21
25.879985
 31
0.0
  0
LINE
  5
99
330
1E
100
AcDbEntity
  8
0
100
AcDbLine
 10
139.7930499999999
 20
23.179985
 30
0.0
 11
141.2930499999999
 21
23.679985
 31
0.0
  0
LINE
  5
9B
330
1E
100
AcDbEntity
  8
0
100
AcDbLine
 10
141.2930499999999
 20
24.279985
 30
0.0
 11
141.2930499999999
 21
23.679985
 31
0.0
  0
LINE
  5
9C
330
1E
100
AcDbEntity
  8
0
100
AcDbLine
 10
141.2930499999999
 20
24.279985
 30
0.0
 11
141.2930499999999
 21
25.879985
 31
0.0
  0
LINE
  5
9D
330
1E
100
AcDbEntity
  8
0
100
AcDbLine
 10
141.2930499999999
 20
23.679985
 30
0.0
 11
141.7930499999999
 21
24.679985
 31
0.0
  0
LINE
  5
9E
330
1E
100
AcDbEntity
  8
0
100
AcDbLine
 10
141.2930499999999
 20
23.679985
 30
0.0
 11
141.2930499999999
 21
24.279985
 31
0.0
  0
LINE
  5
9F
330
1E
100
AcDbEntity
  8
0
100
AcDbLine
 10
141.7930499999999
 20
24.679985
 30
0.0
 11
143.2930499999999
 21
25.179985
 31
0.0
  0
LINE
  5
A0
330
1E
100
AcDbEntity
  8
0
100
AcDbLine
 10
141.7930499999999
 20
24.679985
 30
0.0
 11
141.7930499999999
 21
25.279985
 31
0.0
  0
LINE
  5
A1
330
1E
100
AcDbEntity
  8
0
100
AcDbLine
 10
110.835097583243
 20
22.979977713908
 30
0.0
 11
111.10305
 21
21.177985
 31
0.0
  0
LINE
  5
A2
330
1E
100
AcDbEntity
  8
0
100
AcDbLine
 10
111.10305
 20
21.177985
 30
0.0
 11
111.519330284246
 21
17.7161528704925
 31
0.0
  0
LINE
  5
A3
330
1E
100
AcDbEntity
  8
0
100
AcDbLine
 10
111.10305
 20
21.177985
 30
0.0
 11
111.58105
 21
17.202885
 31
0.0
  0
LINE
  5
A4
330
1E
100
AcDbEntity
  8
0
100
AcDbLine
 10
100.48305
 20
21.177985
 30
0.0
 11
100.7510024167569
 21
22.9799777139084
 31
0.0
  0
LINE
  5
A5
330
1E
100
AcDbEntity
  8
0
100
AcDbLine
 10
100.48305
 20
21.177985
 30
0.0
 11
101.01005
 21
24.722085
 31
0.0
  0
LINE
  5
A6
330
1E
100
AcDbEntity
  8
0
100
AcDbLine
 10
100.0667697157539
 20
17.71615287049239
 30
0.0
 11
100.48305
 21
21.177985
 31
0.0
  0
LINE
  5
A7
330
1E
100
AcDbEntity
  8
0
100
AcDbLine
 10
152.79305
 20
24.679985
 30
0.0
 11
152.79305
 21
28.838485
 31
0.0
  0
LINE
  5
A8
330
1E
100
AcDbEntity
  8
0
100
AcDbLine
 10
153.2930499999999
 20
24.279985
 30
0.0
 11
153.2930499999999
 21
25.879985
 31
0.0
  0
LINE
  5
A9
330
1E
100
AcDbEntity
  8
0
100
AcDbLine
 10
153.2930499999999
 20
24.279985
 30
0.0
 11
153.2930499999999
 21
23.679985
 31
0.0
  0
LINE
  5
AC
330
1E
100
AcDbEntity
  8
0
100
AcDbLine
 10
156.29305
 20
24.279985
 30
0.0
 11
156.29305
 21
25.879985
 31
0.0
  0
LINE
  5
AD
330
1E
100
AcDbEntity
  8
0
100
AcDbLine
 10
156.29305
 20
24.279985
 30
0.0
 11
156.29305
 21
23.679985
 31
0.0
  0
LINE
  5
AE
330
1E
100
AcDbEntity
  8
0
100
AcDbLine
 10
153.2930499999999
 20
23.679985
 30
0.0
 11
154.7930499999999
 21
23.179985
 31
0.0
  0
LINE
  5
AF
330
1E
100
AcDbEntity
  8
0
100
AcDbLine
 10
153.2930499999999
 20
23.679985
 30
0.0
 11
153.2930499999999
 21
24.279985
 31
0.0
  0
LINE
  5
B0
330
1E
100
AcDbEntity
  8
0
100
AcDbLine
 10
154.7930499999999
 20
23.179985
 30
0.0
 11
156.29305
 21
23.679985
 31
0.0
  0
LINE
  5
B2
330
1E
100
AcDbEntity
  8
0
100
AcDbLine
 10
146.79305
 20
24.679985
 30
0.0
 11
146.79305
 21
25.179985
 31
0.0
  0
LINE
  5
B3
330
1E
100
AcDbEntity
  8
0
100
AcDbLine
 10
146.79305
 20
24.679985
 30
0.0
 11
152.79305
 21
24.679985
 31
0.0
  0
LINE
  5
B4
330
1E
100
AcDbEntity
  8
0
100
AcDbLine
 10
146.79305
 20
24.679985
 30
0.0
 11
146.79305
 21
28.838485
 31
0.0
  0
LINE
  5
B5
330
1E
100
AcDbEntity
  8
0
100
AcDbLine
 10
146.79305
 20
24.679985
 30
0.0
 11
146.79305
 21
28.17998499999999
 31
0.0
  0
LINE
  5
B6
330
1E
100
AcDbEntity
  8
0
100
AcDbLine
 10
40.56535
 20
26.043385
 30
0.0
 11
43.22845
 21
26.94738499999999
 31
0.0
  0
LINE
  5
B7
330
1E
100
AcDbEntity
  8
0
100
AcDbLine
 10
45.98675
 20
27.49608499999999
 30
0.0
 11
48.79305
 21
27.679985
 31
0.0
  0
LINE
  5
B8
330
1E
100
AcDbEntity
  8
0
100
AcDbLine
 10
43.22845
 20
26.94738499999999
 30
0.0
 11
45.98675
 21
27.49608499999999
 31
0.0
  0
LINE
  5
B9
330
1E
100
AcDbEntity
  8
0
100
AcDbLine
 10
11.90212
 20
34.48738499999999
 30
0.0
 11
15.91257999999999
 21
39.060485
 31
0.0
  0
LINE
  5
BA
330
1E
100
AcDbEntity
  8
0
100
AcDbLine
 10
8.52286999999999
 20
29.42998499999999
 30
0.0
 11
11.90212
 21
34.48738499999999
 31
0.0
  0
LINE
  5
BB
330
1E
100
AcDbEntity
  8
0
100
AcDbLine
 10
15.91257999999999
 20
39.060485
 30
0.0
 11
20.48564
 21
43.07088499999999
 31
0.0
  0
LINE
  5
BC
330
1E
100
AcDbEntity
  8
0
100
AcDbLine
 10
30.99825
 20
49.140385
 30
0.0
 11
36.75795
 21
51.095585
 31
0.0
  0
LINE
  5
BD
330
1E
100
AcDbEntity
  8
0
100
AcDbLine
 10
25.54305
 20
46.45018499999999
 30
0.0
 11
30.99825
 21
49.140385
 31
0.0
  0
LINE
  5
BE
330
1E
100
AcDbEntity
  8
0
100
AcDbLine
 10
42.72355
 20
52.282185
 30
0.0
 11
48.79305
 21
52.679985
 31
0.0
  0
LINE
  5
BF
330
1E
100
AcDbEntity
  8
0
100
AcDbLine
 10
36.75795
 20
51.095585
 30
0.0
 11
42.72355
 21
52.282185
 31
0.0
  0
LINE
  5
C0
330
1E
100
AcDbEntity
  8
0
100
AcDbLine
 10
20.48564
 20
43.07088499999999
 30
0.0
 11
25.54305
 21
46.45018499999999
 31
0.0
  0
LINE
  5
C1
330
1E
100
AcDbEntity
  8
0
100
AcDbLine
 10
48.79305
 20
27.679985
 30
0.0
 11
101.3723191414299
 21
27.679985
 31
0.0
  0
LINE
  5
C2
330
1E
100
AcDbEntity
  8
0
100
AcDbLine
 10
99.79305
 20
32.37998499999999
 30
0.0
 11
99.79305
 21
33.77998499999999
 31
0.0
  0
LINE
  5
C3
330
1E
100
AcDbEntity
  8
0
100
AcDbLine
 10
99.79305
 20
32.37998499999999
 30
0.0
 11
99.79305
 21
31.47998499999999
 31
0.0
  0
LINE
  5
C4
330
1E
100
AcDbEntity
  8
0
100
AcDbLine
 10
99.79305
 20
31.47998499999999
 30
0.0
 11
99.79305
 21
32.37998499999999
 31
0.0
  0
LINE
  5
C5
330
1E
100
AcDbEntity
  8
0
100
AcDbLine
 10
99.79305
 20
31.47998499999999
 30
0.0
 11
99.79305
 21
31.179985
 31
0.0
  0
LINE
  5
C6
330
1E
100
AcDbEntity
  8
0
100
AcDbLine
 10
99.79305
 20
31.179985
 30
0.0
 11
100.2930499999999
 21
29.679985
 31
0.0
  0
LINE
  5
C7
330
1E
100
AcDbEntity
  8
0
100
AcDbLine
 10
99.79305
 20
31.179985
 30
0.0
 11
99.79305
 21
31.47998499999999
 31
0.0
  0
LINE
  5
C8
330
1E
100
AcDbEntity
  8
0
100
AcDbLine
 10
99.79305
 20
37.879985
 30
0.0
 11
99.79305
 21
33.77998499999999
 31
0.0
  0
LINE
  5
C9
330
1E
100
AcDbEntity
  8
0
100
AcDbLine
 10
99.79305
 20
33.77998499999999
 30
0.0
 11
99.79305
 21
37.879985
 31
0.0
  0
LINE
  5
CA
330
1E
100
AcDbEntity
  8
0
100
AcDbLine
 10
99.79305
 20
33.77998499999999
 30
0.0
 11
99.79305
 21
32.37998499999999
 31
0.0
  0
LINE
  5
CB
330
1E
100
AcDbEntity
  8
0
100
AcDbLine
 10
99.79305
 20
37.879985
 30
0.0
 11
99.79305
 21
40.179985
 31
0.0
  0
LINE
  5
CC
330
1E
100
AcDbEntity
  8
0
100
AcDbLine
 10
99.88505000000001
 20
39.37998499999999
 30
0.0
 11
100.2690499999999
 21
39.37998499999999
 31
0.0
  0
LINE
  5
CD
330
1E
100
AcDbEntity
  8
0
100
AcDbLine
 10
99.88505000000001
 20
39.37998499999999
 30
0.0
 11
99.90405
 21
40.179985
 31
0.0
  0
LINE
  5
CE
330
1E
100
AcDbEntity
  8
0
100
AcDbLine
 10
99.88505000000001
 20
39.37998499999999
 30
0.0
 11
100.38405
 21
38.879985
 31
0.0
  0
LINE
  5
CF
330
1E
100
AcDbEntity
  8
0
100
AcDbLine
 10
100.2930499999999
 20
31.07998499999999
 30
0.0
 11
100.2930499999999
 21
32.77998499999999
 31
0.0
  0
LINE
  5
D0
330
1E
100
AcDbEntity
  8
0
100
AcDbLine
 10
100.2930499999999
 20
31.07998499999999
 30
0.0
 11
100.2930499999999
 21
30.07998499999999
 31
0.0
  0
LINE
  5
D1
330
1E
100
AcDbEntity
  8
0
100
AcDbLine
 10
100.2930499999999
 20
30.07998499999999
 30
0.0
 11
100.2930499999999
 21
31.07998499999999
 31
0.0
  0
LINE
  5
D2
330
1E
100
AcDbEntity
  8
0
100
AcDbLine
 10
100.2930499999999
 20
30.07998499999999
 30
0.0
 11
100.2930499999999
 21
29.679985
 31
0.0
  0
LINE
  5
D3
330
1E
100
AcDbEntity
  8
0
100
AcDbLine
 10
100.2930499999999
 20
29.679985
 30
0.0
 11
101.5768583357099
 21
29.25204888809659
 31
0.0
  0
LINE
  5
D4
330
1E
100
AcDbEntity
  8
0
100
AcDbLine
 10
100.2930499999999
 20
29.679985
 30
0.0
 11
100.2930499999999
 21
30.07998499999999
 31
0.0
  0
LINE
  5
D5
330
1E
100
AcDbEntity
  8
0
100
AcDbLine
 10
100.2930499999999
 20
32.77998499999999
 30
0.0
 11
100.2930499999999
 21
34.979985
 31
0.0
  0
LINE
  5
D6
330
1E
100
AcDbEntity
  8
0
100
AcDbLine
 10
100.2930499999999
 20
32.77998499999999
 30
0.0
 11
100.2930499999999
 21
31.07998499999999
 31
0.0
  0
LINE
  5
D7
330
1E
100
AcDbEntity
  8
0
100
AcDbLine
 10
100.2930499999999
 20
34.979985
 30
0.0
 11
100.2930499999999
 21
37.479985
 31
0.0
  0
LINE
  5
D8
330
1E
100
AcDbEntity
  8
0
100
AcDbLine
 10
100.2930499999999
 20
34.979985
 30
0.0
 11
100.2930499999999
 21
32.77998499999999
 31
0.0
  0
LINE
  5
D9
330
1E
100
AcDbEntity
  8
0
100
AcDbLine
 10
100.2930499999999
 20
37.479985
 30
0.0
 11
100.2930499999999
 21
38.9711673647295
 31
0.0
  0
LINE
  5
DA
330
1E
100
AcDbEntity
  8
0
100
AcDbLine
 10
100.2930499999999
 20
37.479985
 30
0.0
 11
100.2930499999999
 21
34.979985
 31
0.0
  0
LINE
  5
DB
330
1E
100
AcDbEntity
  8
0
100
AcDbLine
 10
100.62164214113
 20
38.8047993899836
 30
0.0
 11
101.01005
 21
38.03358499999999
 31
0.0
  0
LINE
  5
DE
330
1E
100
AcDbEntity
  8
0
100
AcDbLine
 10
100.38405
 20
38.879985
 30
0.0
 11
102.8440499999999
 21
38.37998499999999
 31
0.0
  0
LINE
  5
DF
330
1E
100
AcDbEntity
  8
0
100
AcDbLine
 10
101.34505
 20
36.189785
 30
0.0
 11
101.65005
 21
34.17998499999999
 31
0.0
  0
LINE
  5
E0
330
1E
100
AcDbEntity
  8
0
100
AcDbLine
 10
101.01005
 20
38.03358499999999
 30
0.0
 11
101.34505
 21
36.189785
 31
0.0
  0
LINE
  5
E2
330
1E
100
AcDbEntity
  8
0
100
AcDbLine
 10
100.2930499999999
 20
38.9711673647295
 30
0.0
 11
100.2930499999999
 21
37.479985
 31
0.0
  0
LINE
  5
E4
330
1E
100
AcDbEntity
  8
0
100
AcDbLine
 10
100.2690499999999
 20
39.37998499999999
 30
0.0
 11
100.98005
 21
39.37998499999999
 31
0.0
  0
LINE
  5
E5
330
1E
100
AcDbEntity
  8
0
100
AcDbLine
 10
99.79305
 20
48.879985
 30
0.0
 11
99.79305
 21
49.17998499999999
 31
0.0
  0
LINE
  5
E6
330
1E
100
AcDbEntity
  8
0
100
AcDbLine
 10
99.79305
 20
49.17998499999999
 30
0.0
 11
99.79305
 21
46.579985
 31
0.0
  0
LINE
  5
E7
330
1E
100
AcDbEntity
  8
0
100
AcDbLine
 10
99.79305
 20
49.17998499999999
 30
0.0
 11
99.79305
 21
48.879985
 31
0.0
  0
LINE
  5
E8
330
1E
100
AcDbEntity
  8
0
100
AcDbLine
 10
99.79305
 20
49.17998499999999
 30
0.0
 11
100.2930499999999
 21
50.67998499999999
 31
0.0
  0
LINE
  5
E9
330
1E
100
AcDbEntity
  8
0
100
AcDbLine
 10
99.79305
 20
46.579985
 30
0.0
 11
99.79305
 21
44.67998499999999
 31
0.0
  0
LINE
  5
EA
330
1E
100
AcDbEntity
  8
0
100
AcDbLine
 10
99.79305
 20
46.579985
 30
0.0
 11
99.79305
 21
49.17998499999999
 31
0.0
  0
LINE
  5
EB
330
1E
100
AcDbEntity
  8
0
100
AcDbLine
 10
99.79305
 20
44.67998499999999
 30
0.0
 11
99.79305
 21
42.479985
 31
0.0
  0
LINE
  5
EC
330
1E
100
AcDbEntity
  8
0
100
AcDbLine
 10
99.79305
 20
44.67998499999999
 30
0.0
 11
99.79305
 21
46.579985
 31
0.0
  0
LINE
  5
ED
330
1E
100
AcDbEntity
  8
0
100
AcDbLine
 10
99.79305
 20
42.479985
 30
0.0
 11
99.79305
 21
40.179985
 31
0.0
  0
LINE
  5
EE
330
1E
100
AcDbEntity
  8
0
100
AcDbLine
 10
99.79305
 20
42.479985
 30
0.0
 11
99.79305
 21
44.67998499999999
 31
0.0
  0
LINE
  5
EF
330
1E
100
AcDbEntity
  8
0
100
AcDbLine
 10
99.88505000000001
 20
40.979985
 30
0.0
 11
99.90405
 21
40.179985
 31
0.0
  0
LINE
  5
F0
330
1E
100
AcDbEntity
  8
0
100
AcDbLine
 10
99.88505000000001
 20
40.979985
 30
0.0
 11
100.2690499999999
 21
40.979985
 31
0.0
  0
LINE
  5
F1
330
1E
100
AcDbEntity
  8
0
100
AcDbLine
 10
99.88505000000001
 20
40.979985
 30
0.0
 11
100.38405
 21
41.47998499999999
 31
0.0
  0
LINE
  5
F2
330
1E
100
AcDbEntity
  8
0
100
AcDbLine
 10
100.2930499999999
 20
41.3888026352705
 30
0.0
 11
100.2930499999999
 21
42.87998499999999
 31
0.0
  0
LINE
  5
F4
330
1E
100
AcDbEntity
  8
0
100
AcDbLine
 10
100.38405
 20
41.47998499999999
 30
0.0
 11
102.8440499999999
 21
41.97998499999999
 31
0.0
  0
LINE
  5
F6
330
1E
100
AcDbEntity
  8
0
100
AcDbLine
 10
100.2690499999999
 20
40.979985
 30
0.0
 11
100.98005
 21
40.979985
 31
0.0
  0
LINE
  5
F8
330
1E
100
AcDbEntity
  8
0
100
AcDbLine
 10
100.98005
 20
40.979985
 30
0.0
 11
101.74905
 21
40.979985
 31
0.0
  0
LINE
  5
F9
330
1E
100
AcDbEntity
  8
0
100
AcDbLine
 10
100.2930499999999
 20
45.37998499999999
 30
0.0
 11
100.2930499999999
 21
47.579985
 31
0.0
  0
LINE
  5
FA
330
1E
100
AcDbEntity
  8
0
100
AcDbLine
 10
100.2930499999999
 20
45.37998499999999
 30
0.0
 11
100.2930499999999
 21
42.87998499999999
 31
0.0
  0
LINE
  5
FB
330
1E
100
AcDbEntity
  8
0
100
AcDbLine
 10
100.2930499999999
 20
42.87998499999999
 30
0.0
 11
100.2930499999999
 21
45.37998499999999
 31
0.0
  0
LINE
  5
FC
330
1E
100
AcDbEntity
  8
0
100
AcDbLine
 10
100.2930499999999
 20
42.87998499999999
 30
0.0
 11
100.2930499999999
 21
41.3888026352705
 31
0.0
  0
LINE
  5
FD
330
1E
100
AcDbEntity
  8
0
100
AcDbLine
 10
100.2930499999999
 20
47.579985
 30
0.0
 11
100.2930499999999
 21
49.279985
 31
0.0
  0
LINE
  5
FE
330
1E
100
AcDbEntity
  8
0
100
AcDbLine
 10
100.2930499999999
 20
47.579985
 30
0.0
 11
100.2930499999999
 21
45.37998499999999
 31
0.0
  0
LINE
  5
FF
330
1E
100
AcDbEntity
  8
0
100
AcDbLine
 10
100.2930499999999
 20
49.279985
 30
0.0
 11
100.2930499999999
 21
50.27998499999999
 31
0.0
  0
LINE
  5
100
330
1E
100
AcDbEntity
  8
0
100
AcDbLine
 10
100.2930499999999
 20
49.279985
 30
0.0
 11
100.2930499999999
 21
47.579985
 31
0.0
  0
LINE
  5
101
330
1E
100
AcDbEntity
  8
0
100
AcDbLine
 10
100.2930499999999
 20
50.27998499999999
 30
0.0
 11
100.2930499999999
 21
50.67998499999999
 31
0.0
  0
LINE
  5
102
330
1E
100
AcDbEntity
  8
0
100
AcDbLine
 10
100.2930499999999
 20
50.27998499999999
 30
0.0
 11
100.2930499999999
 21
49.279985
 31
0.0
  0
LINE
  5
103
330
1E
100
AcDbEntity
  8
0
100
AcDbLine
 10
100.2930499999999
 20
50.67998499999999
 30
0.0
 11
101.5768583357099
 21
51.1079211119034
 31
0.0
  0
LINE
  5
104
330
1E
100
AcDbEntity
  8
0
100
AcDbLine
 10
100.2930499999999
 20
50.67998499999999
 30
0.0
 11
100.2930499999999
 21
50.27998499999999
 31
0.0
  0
LINE
  5
105
330
1E
100
AcDbEntity
  8
0
100
AcDbLine
 10
101.34505
 20
44.170185
 30
0.0
 11
101.65005
 21
46.17998499999999
 31
0.0
  0
LINE
  5
106
330
1E
100
AcDbEntity
  8
0
100
AcDbLine
 10
101.01005
 20
42.32638499999999
 30
0.0
 11
101.34505
 21
44.170185
 31
0.0
  0
LINE
  5
107
330
1E
100
AcDbEntity
  8
0
100
AcDbLine
 10
100.62164214113
 20
41.55517061001639
 30
0.0
 11
101.01005
 21
42.32638499999999
 31
0.0
  0
LINE
  5
109
330
1E
100
AcDbEntity
  8
0
100
AcDbLine
 10
99.79305
 20
40.179985
 30
0.0
 11
99.79305
 21
37.879985
 31
0.0
  0
LINE
  5
10A
330
1E
100
AcDbEntity
  8
0
100
AcDbLine
 10
99.79305
 20
40.179985
 30
0.0
 11
99.79305
 21
42.479985
 31
0.0
  0
LINE
  5
10B
330
1E
100
AcDbEntity
  8
0
100
AcDbLine
 10
100.98005
 20
39.37998499999999
 30
0.0
 11
101.74905
 21
39.37998499999999
 31
0.0
  0
LINE
  5
10C
330
1E
100
AcDbEntity
  8
0
100
AcDbLine
 10
48.79305
 20
52.679985
 30
0.0
 11
101.3723191414299
 21
52.679985
 31
0.0
  0
LINE
  5
10D
330
1E
100
AcDbEntity
  8
0
100
AcDbLine
 10
101.34505
 20
52.88398499999999
 30
0.0
 11
101.3723191414299
 21
52.679985
 31
0.0
  0
LINE
  5
10E
330
1E
100
AcDbEntity
  8
0
100
AcDbLine
 10
101.34505
 20
52.88398499999999
 30
0.0
 11
101.554681336059
 21
51.3157364115204
 31
0.0
  0
LINE
  5
10F
330
1E
100
AcDbEntity
  8
0
100
AcDbLine
 10
101.34505
 20
52.88398499999999
 30
0.0
 11
101.65005
 21
50.602285
 31
0.0
  0
LINE
  5
110
330
1E
100
AcDbEntity
  8
0
100
AcDbLine
 10
137.7930499999999
 20
25.179985
 30
0.0
 11
138.29305
 21
23.679985
 31
0.0
  0
LINE
  5
111
330
1E
100
AcDbEntity
  8
0
100
AcDbLine
 10
137.7930499999999
 20
25.179985
 30
0.0
 11
137.7930499999999
 21
25.679985
 31
0.0
  0
LINE
  5
112
330
1E
100
AcDbEntity
  8
0
100
AcDbLine
 10
136.29305
 20
26.67998499999999
 30
0.0
 11
136.29305
 21
26.179985
 31
0.0
  0
LINE
  5
113
330
1E
100
AcDbEntity
  8
0
100
AcDbLine
 10
136.29305
 20
26.67998499999999
 30
0.0
 11
136.29305
 21
28.079985
 31
0.0
  0
LINE
  5
114
330
1E
100
AcDbEntity
  8
0
100
AcDbLine
 10
137.7930499999999
 20
26.179985
 30
0.0
 11
137.7930499999999
 21
27.57998499999999
 31
0.0
  0
LINE
  5
115
330
1E
100
AcDbEntity
  8
0
100
AcDbLine
 10
136.29305
 20
26.179985
 30
0.0
 11
137.7930499999999
 21
25.679985
 31
0.0
  0
LINE
  5
116
330
1E
100
AcDbEntity
  8
0
100
AcDbLine
 10
136.29305
 20
26.179985
 30
0.0
 11
136.29305
 21
26.67998499999999
 31
0.0
  0
LINE
  5
117
330
1E
100
AcDbEntity
  8
0
100
AcDbLine
 10
137.7930499999999
 20
25.679985
 30
0.0
 11
137.7930499999999
 21
25.179985
 31
0.0
  0
LINE
  5
118
330
1E
100
AcDbEntity
  8
0
100
AcDbLine
 10
137.7930499999999
 20
25.679985
 30
0.0
 11
137.7930499999999
 21
27.179985
 31
0.0
  0
LINE
  5
119
330
1E
100
AcDbEntity
  8
0
100
AcDbLine
 10
137.7930499999999
 20
25.679985
 30
0.0
 11
137.7930499999999
 21
26.179985
 31
0.0
  0
LINE
  5
11A
330
1E
100
AcDbEntity
  8
0
100
AcDbLine
 10
138.29305
 20
25.879985
 30
0.0
 11
138.29305
 21
24.279985
 31
0.0
  0
LINE
  5
11B
330
1E
100
AcDbEntity
  8
0
100
AcDbLine
 10
138.29305
 20
25.879985
 30
0.0
 11
138.29305
 21
28.17998499999999
 31
0.0
  0
LINE
  5
11D
330
1E
100
AcDbEntity
  8
0
100
AcDbLine
 10
141.2930499999999
 20
25.879985
 30
0.0
 11
141.2930499999999
 21
24.279985
 31
0.0
  0
LINE
  5
11E
330
1E
100
AcDbEntity
  8
0
100
AcDbLine
 10
141.2930499999999
 20
25.879985
 30
0.0
 11
141.2930499999999
 21
28.17998499999999
 31
0.0
  0
LINE
  5
11F
330
1E
100
AcDbEntity
  8
0
100
AcDbLine
 10
110.2410499999999
 20
27.475985
 30
0.0
 11
110.5760499999999
 21
24.722085
 31
0.0
  0
LINE
  5
120
330
1E
100
AcDbEntity
  8
0
100
AcDbLine
 10
110.21378085857
 20
27.679985
 30
0.0
 11
135.7930499999999
 21
27.679985
 31
0.0
  0
LINE
  5
121
330
1E
100
AcDbEntity
  8
0
100
AcDbLine
 10
135.7930499999999
 20
27.679985
 30
0.0
 11
136.29305
 21
26.179985
 31
0.0
  0
LINE
  5
122
330
1E
100
AcDbEntity
  8
0
100
AcDbLine
 10
135.7930499999999
 20
27.679985
 30
0.0
 11
135.7930499999999
 21
28.17998499999999
 31
0.0
  0
LINE
  5
123
330
1E
100
AcDbEntity
  8
0
100
AcDbLine
 10
137.7930499999999
 20
27.57998499999999
 30
0.0
 11
137.7930499999999
 21
28.17998499999999
 31
0.0
  0
LINE
  5
124
330
1E
100
AcDbEntity
  8
0
100
AcDbLine
 10
132.29305
 20
28.17998499999999
 30
0.0
 11
133.7930499999999
 21
28.17998499999999
 31
0.0
  0
LINE
  5
125
330
1E
100
AcDbEntity
  8
0
100
AcDbLine
 10
132.29305
 20
28.17998499999999
 30
0.0
 11
132.29305
 21
28.57998499999999
 31
0.0
  0
LINE
  5
126
330
1E
100
AcDbEntity
  8
0
100
AcDbLine
 10
133.7930499999999
 20
28.17998499999999
 30
0.0
 11
134.29305
 21
28.679985
 31
0.0
  0
LINE
  5
127
330
1E
100
AcDbEntity
  8
0
100
AcDbLine
 10
133.7930499999999
 20
28.17998499999999
 30
0.0
 11
133.7930499999999
 21
28.57998499999999
 31
0.0
  0
LINE
  5
128
330
1E
100
AcDbEntity
  8
0
100
AcDbLine
 10
134.7930499999999
 20
28.17998499999999
 30
0.0
 11
146.79305
 21
28.17998499999999
 31
0.0
  0
LINE
  5
129
330
1E
100
AcDbEntity
  8
0
100
AcDbLine
 10
134.7930499999999
 20
28.17998499999999
 30
0.0
 11
134.7930499999999
 21
28.57998499999999
 31
0.0
  0
LINE
  5
12A
330
1E
100
AcDbEntity
  8
0
100
AcDbLine
 10
135.7930499999999
 20
28.17998499999999
 30
0.0
 11
135.7930499999999
 21
27.679985
 31
0.0
  0
LINE
  5
12B
330
1E
100
AcDbEntity
  8
0
100
AcDbLine
 10
136.29305
 20
28.17998499999999
 30
0.0
 11
136.29305
 21
28.079985
 31
0.0
  0
LINE
  5
12C
330
1E
100
AcDbEntity
  8
0
100
AcDbLine
 10
136.29305
 20
28.079985
 30
0.0
 11
136.29305
 21
26.67998499999999
 31
0.0
  0
LINE
  5
12D
330
1E
100
AcDbEntity
  8
0
100
AcDbLine
 10
136.29305
 20
28.079985
 30
0.0
 11
136.29305
 21
28.17998499999999
 31
0.0
  0
LINE
  5
12E
330
1E
100
AcDbEntity
  8
0
100
AcDbLine
 10
110.21378085857
 20
27.679985
 30
0.0
 11
135.7930499999999
 21
27.679985
 31
0.0
  0
LINE
  5
12F
330
1E
100
AcDbEntity
  8
0
100
AcDbLine
 10
137.7930499999999
 20
28.17998499999999
 30
0.0
 11
137.7930499999999
 21
27.179985
 31
0.0
  0
LINE
  5
130
330
1E
100
AcDbEntity
  8
0
100
AcDbLine
 10
137.7930499999999
 20
27.179985
 30
0.0
 11
137.7930499999999
 21
25.679985
 31
0.0
  0
LINE
  5
131
330
1E
100
AcDbEntity
  8
0
100
AcDbLine
 10
137.7930499999999
 20
27.179985
 30
0.0
 11
137.7930499999999
 21
28.17998499999999
 31
0.0
  0
LINE
  5
132
330
1E
100
AcDbEntity
  8
0
100
AcDbLine
 10
138.29305
 20
28.17998499999999
 30
0.0
 11
138.29305
 21
25.879985
 31
0.0
  0
LINE
  5
133
330
1E
100
AcDbEntity
  8
0
100
AcDbLine
 10
131.7930499999999
 20
29.07998499999999
 30
0.0
 11
131.7930499999999
 21
28.679985
 31
0.0
  0
LINE
  5
134
330
1E
100
AcDbEntity
  8
0
100
AcDbLine
 10
131.7930499999999
 20
29.07998499999999
 30
0.0
 11
131.7930499999999
 21
30.179985
 31
0.0
  0
LINE
  5
135
330
1E
100
AcDbEntity
  8
0
100
AcDbLine
 10
131.7930499999999
 20
28.679985
 30
0.0
 11
132.29305
 21
28.17998499999999
 31
0.0
  0
LINE
  5
136
330
1E
100
AcDbEntity
  8
0
100
AcDbLine
 10
131.7930499999999
 20
28.679985
 30
0.0
 11
131.7930499999999
 21
29.07998499999999
 31
0.0
  0
LINE
  5
137
330
1E
100
AcDbEntity
  8
0
100
AcDbLine
 10
132.29305
 20
28.57998499999999
 30
0.0
 11
132.29305
 21
28.17998499999999
 31
0.0
  0
LINE
  5
138
330
1E
100
AcDbEntity
  8
0
100
AcDbLine
 10
132.29305
 20
28.57998499999999
 30
0.0
 11
132.29305
 21
29.77998499999999
 31
0.0
  0
LINE
  5
139
330
1E
100
AcDbEntity
  8
0
100
AcDbLine
 10
133.7930499999999
 20
28.57998499999999
 30
0.0
 11
133.7930499999999
 21
28.17998499999999
 31
0.0
  0
LINE
  5
13A
330
1E
100
AcDbEntity
  8
0
100
AcDbLine
 10
133.7930499999999
 20
28.57998499999999
 30
0.0
 11
133.7930499999999
 21
29.77998499999999
 31
0.0
  0
LINE
  5
13B
330
1E
100
AcDbEntity
  8
0
100
AcDbLine
 10
101.65005
 20
29.757685
 30
0.0
 11
101.7930499999999
 21
31.67998499999999
 31
0.0
  0
LINE
  5
13C
330
1E
100
AcDbEntity
  8
0
100
AcDbLine
 10
109.96263893396
 20
29.6887518018793
 30
0.0
 11
110.7930499999999
 21
32.17998499999999
 31
0.0
  0
LINE
  5
13D
330
1E
100
AcDbEntity
  8
0
100
AcDbLine
 10
109.9360499999999
 20
29.757685
 30
0.0
 11
110.2410499999999
 21
27.475985
 31
0.0
  0
LINE
  5
13E
330
1E
100
AcDbEntity
  8
0
100
AcDbLine
 10
132.29305
 20
29.77998499999999
 30
0.0
 11
132.29305
 21
28.57998499999999
 31
0.0
  0
LINE
  5
13F
330
1E
100
AcDbEntity
  8
0
100
AcDbLine
 10
132.29305
 20
29.77998499999999
 30
0.0
 11
132.29305
 21
31.67998499999999
 31
0.0
  0
LINE
  5
140
330
1E
100
AcDbEntity
  8
0
100
AcDbLine
 10
133.7930499999999
 20
29.77998499999999
 30
0.0
 11
133.7930499999999
 21
28.57998499999999
 31
0.0
  0
LINE
  5
141
330
1E
100
AcDbEntity
  8
0
100
AcDbLine
 10
133.7930499999999
 20
29.77998499999999
 30
0.0
 11
133.7930499999999
 21
31.67998499999999
 31
0.0
  0
LINE
  5
142
330
1E
100
AcDbEntity
  8
0
100
AcDbLine
 10
134.29305
 20
29.07998499999999
 30
0.0
 11
134.29305
 21
28.679985
 31
0.0
  0
LINE
  5
143
330
1E
100
AcDbEntity
  8
0
100
AcDbLine
 10
134.29305
 20
29.07998499999999
 30
0.0
 11
134.29305
 21
30.179985
 31
0.0
  0
LINE
  5
144
330
1E
100
AcDbEntity
  8
0
100
AcDbLine
 10
134.29305
 20
28.679985
 30
0.0
 11
134.7930499999999
 21
28.17998499999999
 31
0.0
  0
LINE
  5
145
330
1E
100
AcDbEntity
  8
0
100
AcDbLine
 10
134.29305
 20
28.679985
 30
0.0
 11
134.29305
 21
29.07998499999999
 31
0.0
  0
LINE
  5
146
330
1E
100
AcDbEntity
  8
0
100
AcDbLine
 10
131.7930499999999
 20
30.179985
 30
0.0
 11
131.7930499999999
 21
29.07998499999999
 31
0.0
  0
LINE
  5
147
330
1E
100
AcDbEntity
  8
0
100
AcDbLine
 10
131.7930499999999
 20
30.179985
 30
0.0
 11
131.7930499999999
 21
32.079985
 31
0.0
  0
LINE
  5
148
330
1E
100
AcDbEntity
  8
0
100
AcDbLine
 10
109.891789260472
 20
30.3526669552115
 30
0.0
 11
110.0314186639409
 21
29.0442335884794
 31
0.0
  0
LINE
  5
149
330
1E
100
AcDbEntity
  8
0
100
AcDbLine
 10
109.7930499999999
 20
31.67998499999999
 30
0.0
 11
109.9360499999999
 21
34.17998499999999
 31
0.0
  0
LINE
  5
14A
330
1E
100
AcDbEntity
  8
0
100
AcDbLine
 10
109.7930499999999
 20
31.67998499999999
 30
0.0
 11
109.9360499999999
 21
29.757685
 31
0.0
  0
LINE
  5
14B
330
1E
100
AcDbEntity
  8
0
100
AcDbLine
 10
132.29305
 20
31.67998499999999
 30
0.0
 11
132.29305
 21
29.77998499999999
 31
0.0
  0
LINE
  5
14C
330
1E
100
AcDbEntity
  8
0
100
AcDbLine
 10
132.29305
 20
31.67998499999999
 30
0.0
 11
132.29305
 21
34.17998499999999
 31
0.0
  0
LINE
  5
14D
330
1E
100
AcDbEntity
  8
0
100
AcDbLine
 10
110.7930499999999
 20
33.27998499999999
 30
0.0
 11
110.7930499999999
 21
34.579985
 31
0.0
  0
LINE
  5
14E
330
1E
100
AcDbEntity
  8
0
100
AcDbLine
 10
110.7930499999999
 20
33.27998499999999
 30
0.0
 11
110.7930499999999
 21
32.479985
 31
0.0
  0
LINE
  5
14F
330
1E
100
AcDbEntity
  8
0
100
AcDbLine
 10
110.7930499999999
 20
32.479985
 30
0.0
 11
110.7930499999999
 21
33.27998499999999
 31
0.0
  0
LINE
  5
150
330
1E
100
AcDbEntity
  8
0
100
AcDbLine
 10
110.7930499999999
 20
32.479985
 30
0.0
 11
110.7930499999999
 21
32.17998499999999
 31
0.0
  0
LINE
  5
151
330
1E
100
AcDbEntity
  8
0
100
AcDbLine
 10
110.7930499999999
 20
32.17998499999999
 30
0.0
 11
110.7930499999999
 21
32.479985
 31
0.0
  0
LINE
  5
152
330
1E
100
AcDbEntity
  8
0
100
AcDbLine
 10
110.7930499999999
 20
32.17998499999999
 30
0.0
 11
112.7930499999999
 21
33.67998499999999
 31
0.0
  0
LINE
  5
153
330
1E
100
AcDbEntity
  8
0
100
AcDbLine
 10
112.7930499999999
 20
33.67998499999999
 30
0.0
 11
112.7930499999999
 21
33.879985
 31
0.0
  0
LINE
  5
154
330
1E
100
AcDbEntity
  8
0
100
AcDbLine
 10
112.7930499999999
 20
33.67998499999999
 30
0.0
 11
120.79305
 21
33.67998499999999
 31
0.0
  0
LINE
  5
155
330
1E
100
AcDbEntity
  8
0
100
AcDbLine
 10
112.7930499999999
 20
33.879985
 30
0.0
 11
112.7930499999999
 21
34.579985
 31
0.0
  0
LINE
  5
156
330
1E
100
AcDbEntity
  8
0
100
AcDbLine
 10
112.7930499999999
 20
33.879985
 30
0.0
 11
112.7930499999999
 21
33.67998499999999
 31
0.0
  0
LINE
  5
157
330
1E
100
AcDbEntity
  8
0
100
AcDbLine
 10
120.79305
 20
33.879985
 30
0.0
 11
120.79305
 21
34.579985
 31
0.0
  0
LINE
  5
158
330
1E
100
AcDbEntity
  8
0
100
AcDbLine
 10
120.79305
 20
33.879985
 30
0.0
 11
120.79305
 21
33.67998499999999
 31
0.0
  0
LINE
  5
159
330
1E
100
AcDbEntity
  8
0
100
AcDbLine
 10
120.79305
 20
33.67998499999999
 30
0.0
 11
120.79305
 21
33.879985
 31
0.0
  0
LINE
  5
15A
330
1E
100
AcDbEntity
  8
0
100
AcDbLine
 10
120.79305
 20
34.17998499999999
 30
0.0
 11
131.7930499999999
 21
34.17998499999999
 31
0.0
  0
LINE
  5
15B
330
1E
100
AcDbEntity
  8
0
100
AcDbLine
 10
109.9360499999999
 20
34.17998499999999
 30
0.0
 11
110.2410499999999
 21
36.189785
 31
0.0
  0
LINE
  5
15C
330
1E
100
AcDbEntity
  8
0
100
AcDbLine
 10
101.65005
 20
34.17998499999999
 30
0.0
 11
101.7930499999999
 21
31.67998499999999
 31
0.0
  0
LINE
  5
15D
330
1E
100
AcDbEntity
  8
0
100
AcDbLine
 10
112.7930499999999
 20
34.579985
 30
0.0
 11
112.7930499999999
 21
35.579985
 31
0.0
  0
LINE
  5
15E
330
1E
100
AcDbEntity
  8
0
100
AcDbLine
 10
112.7930499999999
 20
34.579985
 30
0.0
 11
112.7930499999999
 21
33.879985
 31
0.0
  0
LINE
  5
15F
330
1E
100
AcDbEntity
  8
0
100
AcDbLine
 10
120.79305
 20
34.579985
 30
0.0
 11
120.79305
 21
35.579985
 31
0.0
  0
LINE
  5
160
330
1E
100
AcDbEntity
  8
0
100
AcDbLine
 10
120.79305
 20
34.579985
 30
0.0
 11
120.79305
 21
33.879985
 31
0.0
  0
LINE
  5
161
330
1E
100
AcDbEntity
  8
0
100
AcDbLine
 10
110.7930499999999
 20
34.579985
 30
0.0
 11
110.7930499999999
 21
36.17998499999999
 31
0.0
  0
LINE
  5
162
330
1E
100
AcDbEntity
  8
0
100
AcDbLine
 10
110.7930499999999
 20
34.579985
 30
0.0
 11
110.7930499999999
 21
33.27998499999999
 31
0.0
  0
LINE
  5
163
330
1E
100
AcDbEntity
  8
0
100
AcDbLine
 10
110.7930499999999
 20
36.17998499999999
 30
0.0
 11
110.7930499999999
 21
38.079985
 31
0.0
  0
LINE
  5
164
330
1E
100
AcDbEntity
  8
0
100
AcDbLine
 10
110.7930499999999
 20
36.17998499999999
 30
0.0
 11
110.7930499999999
 21
34.579985
 31
0.0
  0
LINE
  5
165
330
1E
100
AcDbEntity
  8
0
100
AcDbLine
 10
112.7930499999999
 20
35.579985
 30
0.0
 11
112.7930499999999
 21
36.979985
 31
0.0
  0
LINE
  5
166
330
1E
100
AcDbEntity
  8
0
100
AcDbLine
 10
112.7930499999999
 20
35.579985
 30
0.0
 11
112.7930499999999
 21
34.579985
 31
0.0
  0
LINE
  5
167
330
1E
100
AcDbEntity
  8
0
100
AcDbLine
 10
131.7930499999999
 20
35.979985
 30
0.0
 11
131.7930499999999
 21
34.979985
 31
0.0
  0
LINE
  5
168
330
1E
100
AcDbEntity
  8
0
100
AcDbLine
 10
131.7930499999999
 20
34.979985
 30
0.0
 11
131.7930499999999
 21
34.37998499999999
 31
0.0
  0
LINE
  5
169
330
1E
100
AcDbEntity
  8
0
100
AcDbLine
 10
131.7930499999999
 20
34.37998499999999
 30
0.0
 11
131.7930499999999
 21
34.17998499999999
 31
0.0
  0
LINE
  5
16A
330
1E
100
AcDbEntity
  8
0
100
AcDbLine
 10
120.79305
 20
35.579985
 30
0.0
 11
120.79305
 21
36.979985
 31
0.0
  0
LINE
  5
16B
330
1E
100
AcDbEntity
  8
0
100
AcDbLine
 10
120.79305
 20
35.579985
 30
0.0
 11
120.79305
 21
34.579985
 31
0.0
  0
LINE
  5
16C
330
1E
100
AcDbEntity
  8
0
100
AcDbLine
 10
112.7930499999999
 20
36.979985
 30
0.0
 11
112.7930499999999
 21
38.479985
 31
0.0
  0
LINE
  5
16D
330
1E
100
AcDbEntity
  8
0
100
AcDbLine
 10
112.7930499999999
 20
36.979985
 30
0.0
 11
112.7930499999999
 21
35.579985
 31
0.0
  0
LINE
  5
16E
330
1E
100
AcDbEntity
  8
0
100
AcDbLine
 10
120.79305
 20
36.979985
 30
0.0
 11
120.79305
 21
38.479985
 31
0.0
  0
LINE
  5
16F
330
1E
100
AcDbEntity
  8
0
100
AcDbLine
 10
120.79305
 20
36.979985
 30
0.0
 11
120.79305
 21
35.579985
 31
0.0
  0
LINE
  5
170
330
1E
100
AcDbEntity
  8
0
100
AcDbLine
 10
110.2410499999999
 20
36.189785
 30
0.0
 11
110.5760499999999
 21
38.03358499999999
 31
0.0
  0
LINE
  5
171
330
1E
100
AcDbEntity
  8
0
100
AcDbLine
 10
131.7930499999999
 20
34.479985
 30
0.0
 11
131.7930499999999
 21
32.079985
 31
0.0
  0
LINE
  5
172
330
1E
100
AcDbEntity
  8
0
100
AcDbLine
 10
131.7930499999999
 20
34.479985
 30
0.0
 11
131.7930499999999
 21
37.17998499999999
 31
0.0
  0
LINE
  5
173
330
1E
100
AcDbEntity
  8
0
100
AcDbLine
 10
102.8440499999999
 20
38.37998499999999
 30
0.0
 11
105.7930499999999
 21
38.17998499999999
 31
0.0
  0
LINE
  5
174
330
1E
100
AcDbEntity
  8
0
100
AcDbLine
 10
101.65005
 20
50.602285
 30
0.0
 11
101.7930499999999
 21
48.67998499999999
 31
0.0
  0
LINE
  5
175
330
1E
100
AcDbEntity
  8
0
100
AcDbLine
 10
101.65005
 20
46.17998499999999
 30
0.0
 11
101.7930499999999
 21
48.67998499999999
 31
0.0
  0
LINE
  5
176
330
1E
100
AcDbEntity
  8
0
100
AcDbLine
 10
102.8440499999999
 20
41.97998499999999
 30
0.0
 11
105.7930499999999
 21
42.17998499999999
 31
0.0
  0
LINE
  5
177
330
1E
100
AcDbEntity
  8
0
100
AcDbLine
 10
101.74905
 20
40.979985
 30
0.0
 11
102.86405
 21
40.979985
 31
0.0
  0
LINE
  5
178
330
1E
100
AcDbEntity
  8
0
100
AcDbLine
 10
101.74905
 20
39.37998499999999
 30
0.0
 11
102.86405
 21
39.37998499999999
 31
0.0
  0
LINE
  5
179
330
1E
100
AcDbEntity
  8
0
100
AcDbLine
 10
105.7930499999999
 20
38.17998499999999
 30
0.0
 11
108.74205
 21
38.37998499999999
 31
0.0
  0
LINE
  5
17A
330
1E
100
AcDbEntity
  8
0
100
AcDbLine
 10
108.74205
 20
38.37998499999999
 30
0.0
 11
111.20205
 21
38.879985
 31
0.0
  0
LINE
  5
17B
330
1E
100
AcDbEntity
  8
0
100
AcDbLine
 10
110.7930499999999
 20
38.46445558823529
 30
0.0
 11
110.7930499999999
 21
38.079985
 31
0.0
  0
LINE
  5
17C
330
1E
100
AcDbEntity
  8
0
100
AcDbLine
 10
110.7930499999999
 20
38.079985
 30
0.0
 11
110.7930499999999
 21
38.46445558823529
 31
0.0
  0
LINE
  5
17D
330
1E
100
AcDbEntity
  8
0
100
AcDbLine
 10
110.7930499999999
 20
38.079985
 30
0.0
 11
110.7930499999999
 21
36.17998499999999
 31
0.0
  0
LINE
  5
17E
330
1E
100
AcDbEntity
  8
0
100
AcDbLine
 10
112.7930499999999
 20
38.479985
 30
0.0
 11
112.7930499999999
 21
40.179985
 31
0.0
  0
LINE
  5
17F
330
1E
100
AcDbEntity
  8
0
100
AcDbLine
 10
112.7930499999999
 20
38.479985
 30
0.0
 11
112.7930499999999
 21
36.979985
 31
0.0
  0
LINE
  5
180
330
1E
100
AcDbEntity
  8
0
100
AcDbLine
 10
120.79305
 20
38.479985
 30
0.0
 11
120.79305
 21
40.179985
 31
0.0
  0
LINE
  5
181
330
1E
100
AcDbEntity
  8
0
100
AcDbLine
 10
120.79305
 20
38.479985
 30
0.0
 11
120.79305
 21
36.979985
 31
0.0
  0
LINE
  5
182
330
1E
100
AcDbEntity
  8
0
100
AcDbLine
 10
110.5760499999999
 20
38.03358499999999
 30
0.0
 11
110.9644578588699
 21
38.8047993899836
 31
0.0
  0
LINE
  5
183
330
1E
100
AcDbEntity
  8
0
100
AcDbLine
 10
102.86405
 20
40.979985
 30
0.0
 11
105.7930499999999
 21
40.979985
 31
0.0
  0
LINE
  5
184
330
1E
100
AcDbEntity
  8
0
100
AcDbLine
 10
105.7930499999999
 20
42.17998499999999
 30
0.0
 11
108.74205
 21
41.97998499999999
 31
0.0
  0
LINE
  5
185
330
1E
100
AcDbEntity
  8
0
100
AcDbLine
 10
105.7930499999999
 20
40.979985
 30
0.0
 11
108.7220499999999
 21
40.979985
 31
0.0
  0
LINE
  5
188
330
1E
100
AcDbEntity
  8
0
100
AcDbLine
 10
111.20205
 20
38.879985
 30
0.0
 11
111.7010499999999
 21
39.37998499999999
 31
0.0
  0
LINE
  5
18A
330
1E
100
AcDbEntity
  8
0
100
AcDbLine
 10
131.7930499999999
 20
38.67998499999999
 30
0.0
 11
131.7930499999999
 21
37.17998499999999
 31
0.0
  0
LINE
  5
18B
330
1E
100
AcDbEntity
  8
0
100
AcDbLine
 10
111.31705
 20
39.37998499999999
 30
0.0
 11
111.7010499999999
 21
39.37998499999999
 31
0.0
  0
LINE
  5
18C
330
1E
100
AcDbEntity
  8
0
100
AcDbLine
 10
110.6060499999999
 20
39.37998499999999
 30
0.0
 11
111.31705
 21
39.37998499999999
 31
0.0
  0
LINE
  5
18D
330
1E
100
AcDbEntity
  8
0
100
AcDbLine
 10
109.83705
 20
39.37998499999999
 30
0.0
 11
110.6060499999999
 21
39.37998499999999
 31
0.0
  0
LINE
  5
18E
330
1E
100
AcDbEntity
  8
0
100
AcDbLine
 10
111.31705
 20
40.979985
 30
0.0
 11
111.7010499999999
 21
40.979985
 31
0.0
  0
LINE
  5
18F
330
1E
100
AcDbEntity
  8
0
100
AcDbLine
 10
110.6060499999999
 20
40.979985
 30
0.0
 11
111.31705
 21
40.979985
 31
0.0
  0
LINE
  5
191
330
1E
100
AcDbEntity
  8
0
100
AcDbLine
 10
111.20205
 20
41.47998499999999
 30
0.0
 11
111.7010499999999
 21
40.979985
 31
0.0
  0
LINE
  5
194
330
1E
100
AcDbEntity
  8
0
100
AcDbLine
 10
109.83705
 20
40.979985
 30
0.0
 11
110.6060499999999
 21
40.979985
 31
0.0
  0
LINE
  5
195
330
1E
100
AcDbEntity
  8
0
100
AcDbLine
 10
108.7220499999999
 20
40.979985
 30
0.0
 11
109.83705
 21
40.979985
 31
0.0
  0
LINE
  5
196
330
1E
100
AcDbEntity
  8
0
100
AcDbLine
 10
108.74205
 20
41.97998499999999
 30
0.0
 11
111.20205
 21
41.47998499999999
 31
0.0
  0
LINE
  5
197
330
1E
100
AcDbEntity
  8
0
100
AcDbLine
 10
109.7930499999999
 20
48.67998499999999
 30
0.0
 11
109.9360499999999
 21
50.602285
 31
0.0
  0
LINE
  5
198
330
1E
100
AcDbEntity
  8
0
100
AcDbLine
 10
109.7930499999999
 20
48.67998499999999
 30
0.0
 11
109.9360499999999
 21
46.17998499999999
 31
0.0
  0
LINE
  5
199
330
1E
100
AcDbEntity
  8
0
100
AcDbLine
 10
109.9360499999999
 20
46.17998499999999
 30
0.0
 11
110.2410499999999
 21
44.170185
 31
0.0
  0
LINE
  5
19A
330
1E
100
AcDbEntity
  8
0
100
AcDbLine
 10
109.96263893396
 20
50.67121819812061
 30
0.0
 11
110.7930499999999
 21
48.17998499999999
 31
0.0
  0
LINE
  5
19B
330
1E
100
AcDbEntity
  8
0
100
AcDbLine
 10
109.9360499999999
 20
50.602285
 30
0.0
 11
110.2410499999999
 21
52.88398499999999
 31
0.0
  0
LINE
  5
19C
330
1E
100
AcDbEntity
  8
0
100
AcDbLine
 10
110.0314186639409
 20
51.3157364115207
 30
0.0
 11
110.2410499999999
 21
52.88398499999999
 31
0.0
  0
LINE
  5
19D
330
1E
100
AcDbEntity
  8
0
100
AcDbLine
 10
110.2410499999999
 20
44.170185
 30
0.0
 11
110.5760499999999
 21
42.32638499999999
 31
0.0
  0
LINE
  5
19E
330
1E
100
AcDbEntity
  8
0
100
AcDbLine
 10
110.7930499999999
 20
44.17998499999999
 30
0.0
 11
110.7930499999999
 21
45.77998499999999
 31
0.0
  0
LINE
  5
19F
330
1E
100
AcDbEntity
  8
0
100
AcDbLine
 10
110.7930499999999
 20
44.17998499999999
 30
0.0
 11
110.7930499999999
 21
42.27998499999999
 31
0.0
  0
LINE
  5
1A0
330
1E
100
AcDbEntity
  8
0
100
AcDbLine
 10
110.7930499999999
 20
42.27998499999999
 30
0.0
 11
110.7930499999999
 21
44.17998499999999
 31
0.0
  0
LINE
  5
1A1
330
1E
100
AcDbEntity
  8
0
100
AcDbLine
 10
110.7930499999999
 20
42.27998499999999
 30
0.0
 11
110.7930499999999
 21
41.8955144117647
 31
0.0
  0
LINE
  5
1A2
330
1E
100
AcDbEntity
  8
0
100
AcDbLine
 10
110.7930499999999
 20
41.8955144117647
 30
0.0
 11
110.7930499999999
 21
42.27998499999999
 31
0.0
  0
LINE
  5
1A3
330
1E
100
AcDbEntity
  8
0
100
AcDbLine
 10
110.7930499999999
 20
45.77998499999999
 30
0.0
 11
110.7930499999999
 21
47.079985
 31
0.0
  0
LINE
  5
1A4
330
1E
100
AcDbEntity
  8
0
100
AcDbLine
 10
110.7930499999999
 20
45.77998499999999
 30
0.0
 11
110.7930499999999
 21
44.17998499999999
 31
0.0
  0
LINE
  5
1A5
330
1E
100
AcDbEntity
  8
0
100
AcDbLine
 10
110.7930499999999
 20
47.079985
 30
0.0
 11
110.7930499999999
 21
47.87998499999999
 31
0.0
  0
LINE
  5
1A6
330
1E
100
AcDbEntity
  8
0
100
AcDbLine
 10
110.7930499999999
 20
47.079985
 30
0.0
 11
110.7930499999999
 21
45.77998499999999
 31
0.0
  0
LINE
  5
1A7
330
1E
100
AcDbEntity
  8
0
100
AcDbLine
 10
110.7930499999999
 20
47.87998499999999
 30
0.0
 11
110.7930499999999
 21
48.17998499999999
 31
0.0
  0
LINE
  5
1A8
330
1E
100
AcDbEntity
  8
0
100
AcDbLine
 10
110.7930499999999
 20
47.87998499999999
 30
0.0
 11
110.7930499999999
 21
47.079985
 31
0.0
  0
LINE
  5
1A9
330
1E
100
AcDbEntity
  8
0
100
AcDbLine
 10
110.7930499999999
 20
48.17998499999999
 30
0.0
 11
112.7930499999999
 21
46.67998499999999
 31
0.0
  0
LINE
  5
1AA
330
1E
100
AcDbEntity
  8
0
100
AcDbLine
 10
110.7930499999999
 20
48.17998499999999
 30
0.0
 11
110.7930499999999
 21
47.87998499999999
 31
0.0
  0
LINE
  5
1AB
330
1E
100
AcDbEntity
  8
0
100
AcDbLine
 10
110.5760499999999
 20
42.32638499999999
 30
0.0
 11
110.9644578588699
 21
41.55517061001639
 31
0.0
  0
LINE
  5
1AD
330
1E
100
AcDbEntity
  8
0
100
AcDbLine
 10
112.7930499999999
 20
40.179985
 30
0.0
 11
112.7930499999999
 21
38.479985
 31
0.0
  0
LINE
  5
1AE
330
1E
100
AcDbEntity
  8
0
100
AcDbLine
 10
112.7930499999999
 20
40.179985
 30
0.0
 11
112.7930499999999
 21
41.87998499999999
 31
0.0
  0
LINE
  5
1AF
330
1E
100
AcDbEntity
  8
0
100
AcDbLine
 10
112.7930499999999
 20
43.379985
 30
0.0
 11
112.7930499999999
 21
44.77998499999999
 31
0.0
  0
LINE
  5
1B0
330
1E
100
AcDbEntity
  8
0
100
AcDbLine
 10
112.7930499999999
 20
43.379985
 30
0.0
 11
112.7930499999999
 21
41.87998499999999
 31
0.0
  0
LINE
  5
1B1
330
1E
100
AcDbEntity
  8
0
100
AcDbLine
 10
112.7930499999999
 20
41.87998499999999
 30
0.0
 11
112.7930499999999
 21
43.379985
 31
0.0
  0
LINE
  5
1B2
330
1E
100
AcDbEntity
  8
0
100
AcDbLine
 10
112.7930499999999
 20
41.87998499999999
 30
0.0
 11
112.7930499999999
 21
40.179985
 31
0.0
  0
LINE
  5
1B3
330
1E
100
AcDbEntity
  8
0
100
AcDbLine
 10
120.79305
 20
43.379985
 30
0.0
 11
120.79305
 21
44.77998499999999
 31
0.0
  0
LINE
  5
1B4
330
1E
100
AcDbEntity
  8
0
100
AcDbLine
 10
120.79305
 20
43.379985
 30
0.0
 11
120.79305
 21
41.87998499999999
 31
0.0
  0
LINE
  5
1B5
330
1E
100
AcDbEntity
  8
0
100
AcDbLine
 10
120.79305
 20
41.87998499999999
 30
0.0
 11
120.79305
 21
43.379985
 31
0.0
  0
LINE
  5
1B6
330
1E
100
AcDbEntity
  8
0
100
AcDbLine
 10
120.79305
 20
41.87998499999999
 30
0.0
 11
120.79305
 21
40.179985
 31
0.0
  0
LINE
  5
1B7
330
1E
100
AcDbEntity
  8
0
100
AcDbLine
 10
112.7930499999999
 20
44.77998499999999
 30
0.0
 11
112.7930499999999
 21
45.77998499999999
 31
0.0
  0
LINE
  5
1B8
330
1E
100
AcDbEntity
  8
0
100
AcDbLine
 10
112.7930499999999
 20
44.77998499999999
 30
0.0
 11
112.7930499999999
 21
43.379985
 31
0.0
  0
LINE
  5
1B9
330
1E
100
AcDbEntity
  8
0
100
AcDbLine
 10
112.7930499999999
 20
45.77998499999999
 30
0.0
 11
112.7930499999999
 21
46.47998499999999
 31
0.0
  0
LINE
  5
1BA
330
1E
100
AcDbEntity
  8
0
100
AcDbLine
 10
112.7930499999999
 20
45.77998499999999
 30
0.0
 11
112.7930499999999
 21
44.77998499999999
 31
0.0
  0
LINE
  5
1BB
330
1E
100
AcDbEntity
  8
0
100
AcDbLine
 10
120.79305
 20
44.77998499999999
 30
0.0
 11
120.79305
 21
45.77998499999999
 31
0.0
  0
LINE
  5
1BC
330
1E
100
AcDbEntity
  8
0
100
AcDbLine
 10
120.79305
 20
44.77998499999999
 30
0.0
 11
120.79305
 21
43.379985
 31
0.0
  0
LINE
  5
1BD
330
1E
100
AcDbEntity
  8
0
100
AcDbLine
 10
120.79305
 20
46.67998499999999
 30
0.0
 11
120.79305
 21
46.47998499999999
 31
0.0
  0
LINE
  5
1BE
330
1E
100
AcDbEntity
  8
0
100
AcDbLine
 10
112.7930499999999
 20
46.47998499999999
 30
0.0
 11
112.7930499999999
 21
46.67998499999999
 31
0.0
  0
LINE
  5
1BF
330
1E
100
AcDbEntity
  8
0
100
AcDbLine
 10
112.7930499999999
 20
46.47998499999999
 30
0.0
 11
112.7930499999999
 21
45.77998499999999
 31
0.0
  0
LINE
  5
1C0
330
1E
100
AcDbEntity
  8
0
100
AcDbLine
 10
120.79305
 20
45.77998499999999
 30
0.0
 11
120.79305
 21
46.47998499999999
 31
0.0
  0
LINE
  5
1C1
330
1E
100
AcDbEntity
  8
0
100
AcDbLine
 10
120.79305
 20
45.77998499999999
 30
0.0
 11
120.79305
 21
44.77998499999999
 31
0.0
  0
LINE
  5
1C2
330
1E
100
AcDbEntity
  8
0
100
AcDbLine
 10
120.79305
 20
46.47998499999999
 30
0.0
 11
120.79305
 21
46.67998499999999
 31
0.0
  0
LINE
  5
1C3
330
1E
100
AcDbEntity
  8
0
100
AcDbLine
 10
120.79305
 20
46.47998499999999
 30
0.0
 11
120.79305
 21
45.77998499999999
 31
0.0
  0
LINE
  5
1C4
330
1E
100
AcDbEntity
  8
0
100
AcDbLine
 10
112.7930499999999
 20
46.67998499999999
 30
0.0
 11
120.79305
 21
46.67998499999999
 31
0.0
  0
LINE
  5
1C5
330
1E
100
AcDbEntity
  8
0
100
AcDbLine
 10
112.7930499999999
 20
46.67998499999999
 30
0.0
 11
112.7930499999999
 21
46.47998499999999
 31
0.0
  0
LINE
  5
1C6
330
1E
100
AcDbEntity
  8
0
100
AcDbLine
 10
131.7930499999999
 20
44.37998499999999
 30
0.0
 11
131.7930499999999
 21
43.17998499999999
 31
0.0
  0
LINE
  5
1C7
330
1E
100
AcDbEntity
  8
0
100
AcDbLine
 10
131.7930499999999
 20
43.17998499999999
 30
0.0
 11
131.7930499999999
 21
41.67998499999999
 31
0.0
  0
LINE
  5
1C8
330
1E
100
AcDbEntity
  8
0
100
AcDbLine
 10
131.7930499999999
 20
43.17998499999999
 30
0.0
 11
131.7930499999999
 21
40.179985
 31
0.0
  0
LINE
  5
1C9
330
1E
100
AcDbEntity
  8
0
100
AcDbLine
 10
131.7930499999999
 20
43.17998499999999
 30
0.0
 11
131.7930499999999
 21
45.879985
 31
0.0
  0
LINE
  5
1CA
330
1E
100
AcDbEntity
  8
0
100
AcDbLine
 10
131.7930499999999
 20
41.67998499999999
 30
0.0
 11
131.7930499999999
 21
40.179985
 31
0.0
  0
LINE
  5
1CB
330
1E
100
AcDbEntity
  8
0
100
AcDbLine
 10
131.7930499999999
 20
45.879985
 30
0.0
 11
131.7930499999999
 21
43.17998499999999
 31
0.0
  0
LINE
  5
1CC
330
1E
100
AcDbEntity
  8
0
100
AcDbLine
 10
131.7930499999999
 20
45.879985
 30
0.0
 11
131.7930499999999
 21
48.27998499999999
 31
0.0
  0
LINE
  5
1CD
330
1E
100
AcDbEntity
  8
0
100
AcDbLine
 10
131.7930499999999
 20
45.37998499999999
 30
0.0
 11
131.7930499999999
 21
44.37998499999999
 31
0.0
  0
LINE
  5
1CE
330
1E
100
AcDbEntity
  8
0
100
AcDbLine
 10
131.7930499999999
 20
45.979985
 30
0.0
 11
131.7930499999999
 21
45.37998499999999
 31
0.0
  0
LINE
  5
1CF
330
1E
100
AcDbEntity
  8
0
100
AcDbLine
 10
131.7930499999999
 20
48.27998499999999
 30
0.0
 11
131.7930499999999
 21
50.179985
 31
0.0
  0
LINE
  5
1D0
330
1E
100
AcDbEntity
  8
0
100
AcDbLine
 10
131.7930499999999
 20
48.27998499999999
 30
0.0
 11
131.7930499999999
 21
45.879985
 31
0.0
  0
LINE
  5
1D1
330
1E
100
AcDbEntity
  8
0
100
AcDbLine
 10
131.7930499999999
 20
48.27998499999999
 30
0.0
 11
131.7930499999999
 21
46.17998499999999
 31
0.0
  0
LINE
  5
1D2
330
1E
100
AcDbEntity
  8
0
100
AcDbLine
 10
131.7930499999999
 20
50.179985
 30
0.0
 11
131.7930499999999
 21
48.27998499999999
 31
0.0
  0
LINE
  5
1D3
330
1E
100
AcDbEntity
  8
0
100
AcDbLine
 10
131.7930499999999
 20
50.179985
 30
0.0
 11
131.7930499999999
 21
51.279985
 31
0.0
  0
LINE
  5
1D4
330
1E
100
AcDbEntity
  8
0
100
AcDbLine
 10
131.7930499999999
 20
51.279985
 30
0.0
 11
131.7930499999999
 21
50.179985
 31
0.0
  0
LINE
  5
1D5
330
1E
100
AcDbEntity
  8
0
100
AcDbLine
 10
131.7930499999999
 20
51.279985
 30
0.0
 11
131.7930499999999
 21
51.67998499999999
 31
0.0
  0
LINE
  5
1D6
330
1E
100
AcDbEntity
  8
0
100
AcDbLine
 10
131.7930499999999
 20
51.67998499999999
 30
0.0
 11
131.7930499999999
 21
51.279985
 31
0.0
  0
LINE
  5
1D7
330
1E
100
AcDbEntity
  8
0
100
AcDbLine
 10
131.7930499999999
 20
51.67998499999999
 30
0.0
 11
132.29305
 21
52.179985
 31
0.0
  0
LINE
  5
1D8
330
1E
100
AcDbEntity
  8
0
100
AcDbLine
 10
131.7930499999999
 20
46.17998499999999
 30
0.0
 11
131.7930499999999
 21
45.979985
 31
0.0
  0
LINE
  5
1D9
330
1E
100
AcDbEntity
  8
0
100
AcDbLine
 10
131.7930499999999
 20
46.17998499999999
 30
0.0
 11
131.7930499999999
 21
48.27998499999999
 31
0.0
  0
LINE
  5
1DA
330
1E
100
AcDbEntity
  8
0
100
AcDbLine
 10
120.79305
 20
46.17998499999999
 30
0.0
 11
131.7930499999999
 21
46.17998499999999
 31
0.0
  0
LINE
  5
1DB
330
1E
100
AcDbEntity
  8
0
100
AcDbLine
 10
120.79305
 20
40.179985
 30
0.0
 11
120.79305
 21
38.479985
 31
0.0
  0
LINE
  5
1DC
330
1E
100
AcDbEntity
  8
0
100
AcDbLine
 10
120.79305
 20
40.179985
 30
0.0
 11
120.79305
 21
41.87998499999999
 31
0.0
  0
LINE
  5
1DD
330
1E
100
AcDbEntity
  8
0
100
AcDbLine
 10
111.6820499999999
 20
40.179985
 30
0.0
 11
111.7010499999999
 21
39.37998499999999
 31
0.0
  0
LINE
  5
1DE
330
1E
100
AcDbEntity
  8
0
100
AcDbLine
 10
111.6820499999999
 20
40.179985
 30
0.0
 11
111.7010499999999
 21
40.979985
 31
0.0
  0
LINE
  5
1DF
330
1E
100
AcDbEntity
  8
0
100
AcDbLine
 10
108.7220499999999
 20
39.37998499999999
 30
0.0
 11
109.83705
 21
39.37998499999999
 31
0.0
  0
LINE
  5
1E0
330
1E
100
AcDbEntity
  8
0
100
AcDbLine
 10
105.7930499999999
 20
39.37998499999999
 30
0.0
 11
108.7220499999999
 21
39.37998499999999
 31
0.0
  0
LINE
  5
1E2
330
1E
100
AcDbEntity
  8
0
100
AcDbLine
 10
102.86405
 20
39.37998499999999
 30
0.0
 11
105.7930499999999
 21
39.37998499999999
 31
0.0
  0
LINE
  5
1E3
330
1E
100
AcDbEntity
  8
0
100
AcDbLine
 10
131.7930499999999
 20
37.17998499999999
 30
0.0
 11
131.7930499999999
 21
34.479985
 31
0.0
  0
LINE
  5
1E4
330
1E
100
AcDbEntity
  8
0
100
AcDbLine
 10
131.7930499999999
 20
37.17998499999999
 30
0.0
 11
131.7930499999999
 21
40.179985
 31
0.0
  0
LINE
  5
1E5
330
1E
100
AcDbEntity
  8
0
100
AcDbLine
 10
131.7930499999999
 20
37.17998499999999
 30
0.0
 11
131.7930499999999
 21
35.979985
 31
0.0
  0
LINE
  5
1E6
330
1E
100
AcDbEntity
  8
0
100
AcDbLine
 10
131.7930499999999
 20
40.179985
 30
0.0
 11
131.7930499999999
 21
37.17998499999999
 31
0.0
  0
LINE
  5
1E7
330
1E
100
AcDbEntity
  8
0
100
AcDbLine
 10
131.7930499999999
 20
40.179985
 30
0.0
 11
131.7930499999999
 21
38.67998499999999
 31
0.0
  0
LINE
  5
1E8
330
1E
100
AcDbEntity
  8
0
100
AcDbLine
 10
131.7930499999999
 20
40.179985
 30
0.0
 11
131.7930499999999
 21
43.17998499999999
 31
0.0
  0
LINE
  5
1E9
330
1E
100
AcDbEntity
  8
0
100
AcDbLine
 10
131.7930499999999
 20
34.17998499999999
 30
0.0
 11
131.7930499999999
 21
32.079985
 31
0.0
  0
LINE
  5
1EA
330
1E
100
AcDbEntity
  8
0
100
AcDbLine
 10
132.29305
 20
34.17998499999999
 30
0.0
 11
132.29305
 21
31.67998499999999
 31
0.0
  0
LINE
  5
1EB
330
1E
100
AcDbEntity
  8
0
100
AcDbLine
 10
132.29305
 20
34.17998499999999
 30
0.0
 11
132.29305
 21
37.079985
 31
0.0
  0
LINE
  5
1EC
330
1E
100
AcDbEntity
  8
0
100
AcDbLine
 10
133.7930499999999
 20
34.17998499999999
 30
0.0
 11
133.7930499999999
 21
31.67998499999999
 31
0.0
  0
LINE
  5
1ED
330
1E
100
AcDbEntity
  8
0
100
AcDbLine
 10
133.7930499999999
 20
34.17998499999999
 30
0.0
 11
133.7930499999999
 21
37.079985
 31
0.0
  0
LINE
  5
1EE
330
1E
100
AcDbEntity
  8
0
100
AcDbLine
 10
132.29305
 20
37.079985
 30
0.0
 11
132.29305
 21
34.17998499999999
 31
0.0
  0
LINE
  5
1EF
330
1E
100
AcDbEntity
  8
0
100
AcDbLine
 10
132.29305
 20
37.079985
 30
0.0
 11
132.29305
 21
40.179985
 31
0.0
  0
LINE
  5
1F0
330
1E
100
AcDbEntity
  8
0
100
AcDbLine
 10
132.29305
 20
40.179985
 30
0.0
 11
132.29305
 21
37.079985
 31
0.0
  0
LINE
  5
1F1
330
1E
100
AcDbEntity
  8
0
100
AcDbLine
 10
132.29305
 20
40.179985
 30
0.0
 11
132.29305
 21
43.27998499999999
 31
0.0
  0
LINE
  5
1F2
330
1E
100
AcDbEntity
  8
0
100
AcDbLine
 10
133.7930499999999
 20
37.079985
 30
0.0
 11
133.7930499999999
 21
34.17998499999999
 31
0.0
  0
LINE
  5
1F3
330
1E
100
AcDbEntity
  8
0
100
AcDbLine
 10
133.7930499999999
 20
37.079985
 30
0.0
 11
133.7930499999999
 21
40.179985
 31
0.0
  0
LINE
  5
1F4
330
1E
100
AcDbEntity
  8
0
100
AcDbLine
 10
133.7930499999999
 20
40.179985
 30
0.0
 11
133.7930499999999
 21
37.079985
 31
0.0
  0
LINE
  5
1F5
330
1E
100
AcDbEntity
  8
0
100
AcDbLine
 10
133.7930499999999
 20
40.179985
 30
0.0
 11
133.7930499999999
 21
43.27998499999999
 31
0.0
  0
LINE
  5
1F6
330
1E
100
AcDbEntity
  8
0
100
AcDbLine
 10
134.29305
 20
34.479985
 30
0.0
 11
134.29305
 21
32.079985
 31
0.0
  0
LINE
  5
1F7
330
1E
100
AcDbEntity
  8
0
100
AcDbLine
 10
134.29305
 20
34.479985
 30
0.0
 11
134.29305
 21
37.17998499999999
 31
0.0
  0
LINE
  5
1F8
330
1E
100
AcDbEntity
  8
0
100
AcDbLine
 10
134.29305
 20
37.17998499999999
 30
0.0
 11
134.29305
 21
34.479985
 31
0.0
  0
LINE
  5
1F9
330
1E
100
AcDbEntity
  8
0
100
AcDbLine
 10
134.29305
 20
37.17998499999999
 30
0.0
 11
134.29305
 21
40.179985
 31
0.0
  0
LINE
  5
1FA
330
1E
100
AcDbEntity
  8
0
100
AcDbLine
 10
132.29305
 20
43.27998499999999
 30
0.0
 11
132.29305
 21
40.179985
 31
0.0
  0
LINE
  5
1FB
330
1E
100
AcDbEntity
  8
0
100
AcDbLine
 10
132.29305
 20
43.27998499999999
 30
0.0
 11
132.29305
 21
46.17998499999999
 31
0.0
  0
LINE
  5
1FC
330
1E
100
AcDbEntity
  8
0
100
AcDbLine
 10
133.7930499999999
 20
43.27998499999999
 30
0.0
 11
133.7930499999999
 21
40.179985
 31
0.0
  0
LINE
  5
1FD
330
1E
100
AcDbEntity
  8
0
100
AcDbLine
 10
133.7930499999999
 20
43.27998499999999
 30
0.0
 11
133.7930499999999
 21
46.17998499999999
 31
0.0
  0
LINE
  5
1FE
330
1E
100
AcDbEntity
  8
0
100
AcDbLine
 10
132.29305
 20
46.17998499999999
 30
0.0
 11
132.29305
 21
43.27998499999999
 31
0.0
  0
LINE
  5
1FF
330
1E
100
AcDbEntity
  8
0
100
AcDbLine
 10
132.29305
 20
46.17998499999999
 30
0.0
 11
132.29305
 21
48.67998499999999
 31
0.0
  0
LINE
  5
200
330
1E
100
AcDbEntity
  8
0
100
AcDbLine
 10
133.7930499999999
 20
46.17998499999999
 30
0.0
 11
133.7930499999999
 21
43.27998499999999
 31
0.0
  0
LINE
  5
201
330
1E
100
AcDbEntity
  8
0
100
AcDbLine
 10
133.7930499999999
 20
46.17998499999999
 30
0.0
 11
133.7930499999999
 21
48.67998499999999
 31
0.0
  0
LINE
  5
202
330
1E
100
AcDbEntity
  8
0
100
AcDbLine
 10
134.29305
 20
45.879985
 30
0.0
 11
134.29305
 21
43.17998499999999
 31
0.0
  0
LINE
  5
203
330
1E
100
AcDbEntity
  8
0
100
AcDbLine
 10
134.29305
 20
45.879985
 30
0.0
 11
134.29305
 21
48.27998499999999
 31
0.0
  0
LINE
  5
204
330
1E
100
AcDbEntity
  8
0
100
AcDbLine
 10
134.29305
 20
43.17998499999999
 30
0.0
 11
134.29305
 21
40.179985
 31
0.0
  0
LINE
  5
205
330
1E
100
AcDbEntity
  8
0
100
AcDbLine
 10
134.29305
 20
43.17998499999999
 30
0.0
 11
134.29305
 21
45.879985
 31
0.0
  0
LINE
  5
206
330
1E
100
AcDbEntity
  8
0
100
AcDbLine
 10
132.29305
 20
48.67998499999999
 30
0.0
 11
132.29305
 21
50.579985
 31
0.0
  0
LINE
  5
207
330
1E
100
AcDbEntity
  8
0
100
AcDbLine
 10
132.29305
 20
48.67998499999999
 30
0.0
 11
132.29305
 21
46.17998499999999
 31
0.0
  0
LINE
  5
208
330
1E
100
AcDbEntity
  8
0
100
AcDbLine
 10
133.7930499999999
 20
48.67998499999999
 30
0.0
 11
133.7930499999999
 21
50.579985
 31
0.0
  0
LINE
  5
209
330
1E
100
AcDbEntity
  8
0
100
AcDbLine
 10
133.7930499999999
 20
48.67998499999999
 30
0.0
 11
133.7930499999999
 21
46.17998499999999
 31
0.0
  0
LINE
  5
20A
330
1E
100
AcDbEntity
  8
0
100
AcDbLine
 10
132.29305
 20
50.579985
 30
0.0
 11
132.29305
 21
48.67998499999999
 31
0.0
  0
LINE
  5
20B
330
1E
100
AcDbEntity
  8
0
100
AcDbLine
 10
132.29305
 20
50.579985
 30
0.0
 11
132.29305
 21
51.779985
 31
0.0
  0
LINE
  5
20C
330
1E
100
AcDbEntity
  8
0
100
AcDbLine
 10
133.7930499999999
 20
50.579985
 30
0.0
 11
133.7930499999999
 21
48.67998499999999
 31
0.0
  0
LINE
  5
20D
330
1E
100
AcDbEntity
  8
0
100
AcDbLine
 10
133.7930499999999
 20
50.579985
 30
0.0
 11
133.7930499999999
 21
51.779985
 31
0.0
  0
LINE
  5
20E
330
1E
100
AcDbEntity
  8
0
100
AcDbLine
 10
134.29305
 20
48.27998499999999
 30
0.0
 11
134.29305
 21
50.179985
 31
0.0
  0
LINE
  5
20F
330
1E
100
AcDbEntity
  8
0
100
AcDbLine
 10
134.29305
 20
48.27998499999999
 30
0.0
 11
134.29305
 21
45.879985
 31
0.0
  0
LINE
  5
210
330
1E
100
AcDbEntity
  8
0
100
AcDbLine
 10
134.29305
 20
50.179985
 30
0.0
 11
134.29305
 21
48.27998499999999
 31
0.0
  0
LINE
  5
211
330
1E
100
AcDbEntity
  8
0
100
AcDbLine
 10
134.29305
 20
50.179985
 30
0.0
 11
134.29305
 21
51.279985
 31
0.0
  0
LINE
  5
212
330
1E
100
AcDbEntity
  8
0
100
AcDbLine
 10
132.29305
 20
51.779985
 30
0.0
 11
132.29305
 21
50.579985
 31
0.0
  0
LINE
  5
213
330
1E
100
AcDbEntity
  8
0
100
AcDbLine
 10
132.29305
 20
51.779985
 30
0.0
 11
132.29305
 21
52.179985
 31
0.0
  0
LINE
  5
214
330
1E
100
AcDbEntity
  8
0
100
AcDbLine
 10
132.29305
 20
52.179985
 30
0.0
 11
132.29305
 21
51.779985
 31
0.0
  0
LINE
  5
215
330
1E
100
AcDbEntity
  8
0
100
AcDbLine
 10
132.29305
 20
52.179985
 30
0.0
 11
133.7930499999999
 21
52.179985
 31
0.0
  0
LINE
  5
216
330
1E
100
AcDbEntity
  8
0
100
AcDbLine
 10
133.7930499999999
 20
51.779985
 30
0.0
 11
133.7930499999999
 21
50.579985
 31
0.0
  0
LINE
  5
217
330
1E
100
AcDbEntity
  8
0
100
AcDbLine
 10
133.7930499999999
 20
51.779985
 30
0.0
 11
133.7930499999999
 21
52.179985
 31
0.0
  0
LINE
  5
218
330
1E
100
AcDbEntity
  8
0
100
AcDbLine
 10
133.7930499999999
 20
52.179985
 30
0.0
 11
133.7930499999999
 21
51.779985
 31
0.0
  0
LINE
  5
219
330
1E
100
AcDbEntity
  8
0
100
AcDbLine
 10
133.7930499999999
 20
52.179985
 30
0.0
 11
134.29305
 21
51.67998499999999
 31
0.0
  0
LINE
  5
21A
330
1E
100
AcDbEntity
  8
0
100
AcDbLine
 10
134.29305
 20
51.279985
 30
0.0
 11
134.29305
 21
50.179985
 31
0.0
  0
LINE
  5
21B
330
1E
100
AcDbEntity
  8
0
100
AcDbLine
 10
134.29305
 20
51.279985
 30
0.0
 11
134.29305
 21
51.67998499999999
 31
0.0
  0
LINE
  5
21C
330
1E
100
AcDbEntity
  8
0
100
AcDbLine
 10
134.29305
 20
51.67998499999999
 30
0.0
 11
134.29305
 21
51.279985
 31
0.0
  0
LINE
  5
21D
330
1E
100
AcDbEntity
  8
0
100
AcDbLine
 10
134.29305
 20
51.67998499999999
 30
0.0
 11
134.7930499999999
 21
52.179985
 31
0.0
  0
LINE
  5
21E
330
1E
100
AcDbEntity
  8
0
100
AcDbLine
 10
134.29305
 20
40.179985
 30
0.0
 11
134.29305
 21
37.17998499999999
 31
0.0
  0
LINE
  5
21F
330
1E
100
AcDbEntity
  8
0
100
AcDbLine
 10
134.29305
 20
40.179985
 30
0.0
 11
134.29305
 21
43.17998499999999
 31
0.0
  0
LINE
  5
220
330
1E
100
AcDbEntity
  8
0
100
AcDbLine
 10
131.7930499999999
 20
32.079985
 30
0.0
 11
131.7930499999999
 21
30.179985
 31
0.0
  0
LINE
  5
221
330
1E
100
AcDbEntity
  8
0
100
AcDbLine
 10
131.7930499999999
 20
32.079985
 30
0.0
 11
131.7930499999999
 21
34.17998499999999
 31
0.0
  0
LINE
  5
222
330
1E
100
AcDbEntity
  8
0
100
AcDbLine
 10
131.7930499999999
 20
32.079985
 30
0.0
 11
131.7930499999999
 21
34.479985
 31
0.0
  0
LINE
  5
223
330
1E
100
AcDbEntity
  8
0
100
AcDbLine
 10
133.7930499999999
 20
31.67998499999999
 30
0.0
 11
133.7930499999999
 21
29.77998499999999
 31
0.0
  0
LINE
  5
224
330
1E
100
AcDbEntity
  8
0
100
AcDbLine
 10
133.7930499999999
 20
31.67998499999999
 30
0.0
 11
133.7930499999999
 21
34.17998499999999
 31
0.0
  0
LINE
  5
225
330
1E
100
AcDbEntity
  8
0
100
AcDbLine
 10
134.7930499999999
 20
34.17998499999999
 30
0.0
 11
134.7930499999999
 21
31.67998499999999
 31
0.0
  0
LINE
  5
226
330
1E
100
AcDbEntity
  8
0
100
AcDbLine
 10
134.7930499999999
 20
34.17998499999999
 30
0.0
 11
134.7930499999999
 21
37.079985
 31
0.0
  0
LINE
  5
227
330
1E
100
AcDbEntity
  8
0
100
AcDbLine
 10
134.7930499999999
 20
37.079985
 30
0.0
 11
134.7930499999999
 21
40.179985
 31
0.0
  0
LINE
  5
228
330
1E
100
AcDbEntity
  8
0
100
AcDbLine
 10
134.7930499999999
 20
37.079985
 30
0.0
 11
134.7930499999999
 21
34.17998499999999
 31
0.0
  0
LINE
  5
229
330
1E
100
AcDbEntity
  8
0
100
AcDbLine
 10
134.29305
 20
32.079985
 30
0.0
 11
134.29305
 21
30.179985
 31
0.0
  0
LINE
  5
22A
330
1E
100
AcDbEntity
  8
0
100
AcDbLine
 10
134.29305
 20
32.079985
 30
0.0
 11
134.29305
 21
34.479985
 31
0.0
  0
LINE
  5
22B
330
1E
100
AcDbEntity
  8
0
100
AcDbLine
 10
134.29305
 20
30.179985
 30
0.0
 11
134.29305
 21
29.07998499999999
 31
0.0
  0
LINE
  5
22C
330
1E
100
AcDbEntity
  8
0
100
AcDbLine
 10
134.29305
 20
30.179985
 30
0.0
 11
134.29305
 21
32.079985
 31
0.0
  0
LINE
  5
22D
330
1E
100
AcDbEntity
  8
0
100
AcDbLine
 10
134.7930499999999
 20
31.67998499999999
 30
0.0
 11
134.7930499999999
 21
29.77998499999999
 31
0.0
  0
LINE
  5
22E
330
1E
100
AcDbEntity
  8
0
100
AcDbLine
 10
134.7930499999999
 20
31.67998499999999
 30
0.0
 11
134.7930499999999
 21
34.17998499999999
 31
0.0
  0
LINE
  5
22F
330
1E
100
AcDbEntity
  8
0
100
AcDbLine
 10
134.7930499999999
 20
29.77998499999999
 30
0.0
 11
134.7930499999999
 21
28.57998499999999
 31
0.0
  0
LINE
  5
230
330
1E
100
AcDbEntity
  8
0
100
AcDbLine
 10
134.7930499999999
 20
29.77998499999999
 30
0.0
 11
134.7930499999999
 21
31.67998499999999
 31
0.0
  0
LINE
  5
231
330
1E
100
AcDbEntity
  8
0
100
AcDbLine
 10
134.7930499999999
 20
40.179985
 30
0.0
 11
134.7930499999999
 21
43.27998499999999
 31
0.0
  0
LINE
  5
232
330
1E
100
AcDbEntity
  8
0
100
AcDbLine
 10
134.7930499999999
 20
46.17998499999999
 30
0.0
 11
134.7930499999999
 21
43.27998499999999
 31
0.0
  0
LINE
  5
233
330
1E
100
AcDbEntity
  8
0
100
AcDbLine
 10
134.7930499999999
 20
46.17998499999999
 30
0.0
 11
134.7930499999999
 21
48.67998499999999
 31
0.0
  0
LINE
  5
234
330
1E
100
AcDbEntity
  8
0
100
AcDbLine
 10
134.7930499999999
 20
43.27998499999999
 30
0.0
 11
134.7930499999999
 21
40.179985
 31
0.0
  0
LINE
  5
235
330
1E
100
AcDbEntity
  8
0
100
AcDbLine
 10
134.7930499999999
 20
43.27998499999999
 30
0.0
 11
134.7930499999999
 21
46.17998499999999
 31
0.0
  0
LINE
  5
236
330
1E
100
AcDbEntity
  8
0
100
AcDbLine
 10
134.7930499999999
 20
48.67998499999999
 30
0.0
 11
134.7930499999999
 21
50.579985
 31
0.0
  0
LINE
  5
237
330
1E
100
AcDbEntity
  8
0
100
AcDbLine
 10
134.7930499999999
 20
48.67998499999999
 30
0.0
 11
134.7930499999999
 21
46.17998499999999
 31
0.0
  0
LINE
  5
238
330
1E
100
AcDbEntity
  8
0
100
AcDbLine
 10
134.7930499999999
 20
50.579985
 30
0.0
 11
134.7930499999999
 21
48.67998499999999
 31
0.0
  0
LINE
  5
239
330
1E
100
AcDbEntity
  8
0
100
AcDbLine
 10
134.7930499999999
 20
50.579985
 30
0.0
 11
134.7930499999999
 21
51.779985
 31
0.0
  0
LINE
  5
23A
330
1E
100
AcDbEntity
  8
0
100
AcDbLine
 10
134.7930499999999
 20
51.779985
 30
0.0
 11
134.7930499999999
 21
50.579985
 31
0.0
  0
LINE
  5
23B
330
1E
100
AcDbEntity
  8
0
100
AcDbLine
 10
134.7930499999999
 20
51.779985
 30
0.0
 11
134.7930499999999
 21
52.179985
 31
0.0
  0
LINE
  5
23C
330
1E
100
AcDbEntity
  8
0
100
AcDbLine
 10
134.7930499999999
 20
52.179985
 30
0.0
 11
134.7930499999999
 21
51.779985
 31
0.0
  0
LINE
  5
23D
330
1E
100
AcDbEntity
  8
0
100
AcDbLine
 10
134.7930499999999
 20
52.179985
 30
0.0
 11
146.79305
 21
52.179985
 31
0.0
  0
LINE
  5
23E
330
1E
100
AcDbEntity
  8
0
100
AcDbLine
 10
134.7930499999999
 20
28.57998499999999
 30
0.0
 11
134.7930499999999
 21
28.17998499999999
 31
0.0
  0
LINE
  5
23F
330
1E
100
AcDbEntity
  8
0
100
AcDbLine
 10
134.7930499999999
 20
28.57998499999999
 30
0.0
 11
134.7930499999999
 21
29.77998499999999
 31
0.0
  0
LINE
  5
240
330
1E
100
AcDbEntity
  8
0
100
AcDbLine
 10
135.7930499999999
 20
52.179985
 30
0.0
 11
135.7930499999999
 21
52.679985
 31
0.0
  0
LINE
  5
241
330
1E
100
AcDbEntity
  8
0
100
AcDbLine
 10
136.29305
 20
52.179985
 30
0.0
 11
136.29305
 21
52.27998499999999
 31
0.0
  0
LINE
  5
242
330
1E
100
AcDbEntity
  8
0
100
AcDbLine
 10
137.7930499999999
 20
52.179985
 30
0.0
 11
137.7930499999999
 21
53.17998499999999
 31
0.0
  0
LINE
  5
243
330
1E
100
AcDbEntity
  8
0
100
AcDbLine
 10
137.7930499999999
 20
52.179985
 30
0.0
 11
137.7930499999999
 21
52.77998499999999
 31
0.0
  0
LINE
  5
244
330
1E
100
AcDbEntity
  8
0
100
AcDbLine
 10
138.29305
 20
52.179985
 30
0.0
 11
138.29305
 21
54.479985
 31
0.0
  0
LINE
  5
245
330
1E
100
AcDbEntity
  8
0
100
AcDbLine
 10
135.7930499999999
 20
52.679985
 30
0.0
 11
135.7930499999999
 21
52.179985
 31
0.0
  0
LINE
  5
246
330
1E
100
AcDbEntity
  8
0
100
AcDbLine
 10
135.7930499999999
 20
52.679985
 30
0.0
 11
136.29305
 21
54.17998499999999
 31
0.0
  0
LINE
  5
247
330
1E
100
AcDbEntity
  8
0
100
AcDbLine
 10
136.29305
 20
52.27998499999999
 30
0.0
 11
136.29305
 21
52.179985
 31
0.0
  0
LINE
  5
248
330
1E
100
AcDbEntity
  8
0
100
AcDbLine
 10
136.29305
 20
52.27998499999999
 30
0.0
 11
136.29305
 21
53.67998499999999
 31
0.0
  0
LINE
  5
249
330
1E
100
AcDbEntity
  8
0
100
AcDbLine
 10
110.21378085857
 20
52.679985
 30
0.0
 11
135.7930499999999
 21
52.679985
 31
0.0
  0
LINE
  5
24A
330
1E
100
AcDbEntity
  8
0
100
AcDbLine
 10
141.2930499999999
 20
52.179985
 30
0.0
 11
141.2930499999999
 21
54.479985
 31
0.0
  0
LINE
  5
24B
330
1E
100
AcDbEntity
  8
0
100
AcDbLine
 10
141.7930499999999
 20
52.179985
 30
0.0
 11
141.7930499999999
 21
53.579985
 31
0.0
  0
LINE
  5
24C
330
1E
100
AcDbEntity
  8
0
100
AcDbLine
 10
141.2930499999999
 20
28.17998499999999
 30
0.0
 11
141.2930499999999
 21
25.879985
 31
0.0
  0
LINE
  5
24D
330
1E
100
AcDbEntity
  8
0
100
AcDbLine
 10
141.7930499999999
 20
28.17998499999999
 30
0.0
 11
141.7930499999999
 21
26.77998499999999
 31
0.0
  0
LINE
  5
24E
330
1E
100
AcDbEntity
  8
0
100
AcDbLine
 10
141.7930499999999
 20
26.77998499999999
 30
0.0
 11
141.7930499999999
 21
25.279985
 31
0.0
  0
LINE
  5
24F
330
1E
100
AcDbEntity
  8
0
100
AcDbLine
 10
141.7930499999999
 20
26.77998499999999
 30
0.0
 11
141.7930499999999
 21
28.17998499999999
 31
0.0
  0
LINE
  5
251
330
1E
100
AcDbEntity
  8
0
100
AcDbLine
 10
146.79305
 20
28.838485
 30
0.0
 11
146.79305
 21
44.33848499999999
 31
0.0
  0
LINE
  5
252
330
1E
100
AcDbEntity
  8
0
100
AcDbLine
 10
146.79305
 20
28.838485
 30
0.0
 11
146.79305
 21
24.679985
 31
0.0
  0
LINE
  5
253
330
1E
100
AcDbEntity
  8
0
100
AcDbLine
 10
146.79305
 20
31.67998499999999
 30
0.0
 11
146.79305
 21
34.17998499999999
 31
0.0
  0
LINE
  5
254
330
1E
100
AcDbEntity
  8
0
100
AcDbLine
 10
146.79305
 20
34.17998499999999
 30
0.0
 11
146.79305
 21
37.079985
 31
0.0
  0
LINE
  5
255
330
1E
100
AcDbEntity
  8
0
100
AcDbLine
 10
146.79305
 20
46.17998499999999
 30
0.0
 11
146.79305
 21
48.67998499999999
 31
0.0
  0
LINE
  5
256
330
1E
100
AcDbEntity
  8
0
100
AcDbLine
 10
146.79305
 20
43.27998499999999
 30
0.0
 11
146.79305
 21
46.17998499999999
 31
0.0
  0
LINE
  5
257
330
1E
100
AcDbEntity
  8
0
100
AcDbLine
 10
146.79305
 20
40.179985
 30
0.0
 11
146.79305
 21
43.27998499999999
 31
0.0
  0
LINE
  5
258
330
1E
100
AcDbEntity
  8
0
100
AcDbLine
 10
146.79305
 20
48.67998499999999
 30
0.0
 11
146.79305
 21
50.579985
 31
0.0
  0
LINE
  5
259
330
1E
100
AcDbEntity
  8
0
100
AcDbLine
 10
146.79305
 20
50.579985
 30
0.0
 11
146.79305
 21
51.779985
 31
0.0
  0
LINE
  5
25A
330
1E
100
AcDbEntity
  8
0
100
AcDbLine
 10
146.79305
 20
51.779985
 30
0.0
 11
146.79305
 21
52.179985
 31
0.0
  0
LINE
  5
25B
330
1E
100
AcDbEntity
  8
0
100
AcDbLine
 10
146.79305
 20
52.179985
 30
0.0
 11
146.79305
 21
55.67998499999999
 31
0.0
  0
LINE
  5
25C
330
1E
100
AcDbEntity
  8
0
100
AcDbLine
 10
146.79305
 20
44.33848499999999
 30
0.0
 11
146.79305
 21
55.67998499999999
 31
0.0
  0
LINE
  5
25E
330
1E
100
AcDbEntity
  8
0
100
AcDbLine
 10
146.79305
 20
44.33848499999999
 30
0.0
 11
146.79305
 21
28.838485
 31
0.0
  0
LINE
  5
25F
330
1E
100
AcDbEntity
  8
0
100
AcDbLine
 10
146.79305
 20
37.079985
 30
0.0
 11
146.79305
 21
40.179985
 31
0.0
  0
LINE
  5
260
330
1E
100
AcDbEntity
  8
0
100
AcDbLine
 10
146.79305
 20
29.77998499999999
 30
0.0
 11
146.79305
 21
31.67998499999999
 31
0.0
  0
LINE
  5
261
330
1E
100
AcDbEntity
  8
0
100
AcDbLine
 10
146.79305
 20
28.57998499999999
 30
0.0
 11
146.79305
 21
29.77998499999999
 31
0.0
  0
LINE
  5
262
330
1E
100
AcDbEntity
  8
0
100
AcDbLine
 10
146.79305
 20
28.17998499999999
 30
0.0
 11
146.79305
 21
28.57998499999999
 31
0.0
  0
LINE
  5
263
330
1E
100
AcDbEntity
  8
0
100
AcDbLine
 10
146.79305
 20
28.17998499999999
 30
0.0
 11
146.79305
 21
24.679985
 31
0.0
  0
LINE
  5
264
330
1E
100
AcDbEntity
  8
0
100
AcDbLine
 10
143.2930499999999
 20
25.179985
 30
0.0
 11
146.79305
 21
25.179985
 31
0.0
  0
LINE
  5
265
330
1E
100
AcDbEntity
  8
0
100
AcDbLine
 10
141.7930499999999
 20
25.279985
 30
0.0
 11
141.7930499999999
 21
24.679985
 31
0.0
  0
LINE
  5
266
330
1E
100
AcDbEntity
  8
0
100
AcDbLine
 10
141.7930499999999
 20
25.279985
 30
0.0
 11
141.7930499999999
 21
26.77998499999999
 31
0.0
  0
LINE
  5
267
330
1E
100
AcDbEntity
  8
0
100
AcDbLine
 10
110.2410499999999
 20
52.88398499999999
 30
0.0
 11
110.5760499999999
 21
55.637885
 31
0.0
  0
LINE
  5
268
330
1E
100
AcDbEntity
  8
0
100
AcDbLine
 10
137.7930499999999
 20
52.77998499999999
 30
0.0
 11
137.7930499999999
 21
54.17998499999999
 31
0.0
  0
LINE
  5
269
330
1E
100
AcDbEntity
  8
0
100
AcDbLine
 10
137.7930499999999
 20
53.17998499999999
 30
0.0
 11
137.7930499999999
 21
52.179985
 31
0.0
  0
LINE
  5
26A
330
1E
100
AcDbEntity
  8
0
100
AcDbLine
 10
137.7930499999999
 20
53.17998499999999
 30
0.0
 11
137.7930499999999
 21
54.679985
 31
0.0
  0
LINE
  5
26B
330
1E
100
AcDbEntity
  8
0
100
AcDbLine
 10
110.445681729118
 20
54.56617998154619
 30
0.0
 11
110.5500499999999
 21
55.31818499999999
 31
0.0
  0
LINE
  5
26C
330
1E
100
AcDbEntity
  8
0
100
AcDbLine
 10
136.29305
 20
53.67998499999999
 30
0.0
 11
136.29305
 21
52.27998499999999
 31
0.0
  0
LINE
  5
26D
330
1E
100
AcDbEntity
  8
0
100
AcDbLine
 10
136.29305
 20
53.67998499999999
 30
0.0
 11
136.29305
 21
54.17998499999999
 31
0.0
  0
LINE
  5
26E
330
1E
100
AcDbEntity
  8
0
100
AcDbLine
 10
137.7930499999999
 20
54.17998499999999
 30
0.0
 11
137.7930499999999
 21
54.679985
 31
0.0
  0
LINE
  5
26F
330
1E
100
AcDbEntity
  8
0
100
AcDbLine
 10
136.29305
 20
54.17998499999999
 30
0.0
 11
136.29305
 21
53.67998499999999
 31
0.0
  0
LINE
  5
270
330
1E
100
AcDbEntity
  8
0
100
AcDbLine
 10
136.29305
 20
54.17998499999999
 30
0.0
 11
137.7930499999999
 21
54.679985
 31
0.0
  0
LINE
  5
271
330
1E
100
AcDbEntity
  8
0
100
AcDbLine
 10
137.7930499999999
 20
54.679985
 30
0.0
 11
137.7930499999999
 21
53.17998499999999
 31
0.0
  0
LINE
  5
272
330
1E
100
AcDbEntity
  8
0
100
AcDbLine
 10
137.7930499999999
 20
54.679985
 30
0.0
 11
137.7930499999999
 21
55.179985
 31
0.0
  0
LINE
  5
273
330
1E
100
AcDbEntity
  8
0
100
AcDbLine
 10
138.29305
 20
54.479985
 30
0.0
 11
138.29305
 21
52.179985
 31
0.0
  0
LINE
  5
274
330
1E
100
AcDbEntity
  8
0
100
AcDbLine
 10
138.29305
 20
54.479985
 30
0.0
 11
138.29305
 21
56.079985
 31
0.0
  0
LINE
  5
275
330
1E
100
AcDbEntity
  8
0
100
AcDbLine
 10
137.7930499999999
 20
55.179985
 30
0.0
 11
137.7930499999999
 21
54.679985
 31
0.0
  0
LINE
  5
276
330
1E
100
AcDbEntity
  8
0
100
AcDbLine
 10
137.7930499999999
 20
55.179985
 30
0.0
 11
138.29305
 21
56.67998499999999
 31
0.0
  0
LINE
  5
278
330
1E
100
AcDbEntity
  8
0
100
AcDbLine
 10
141.2930499999999
 20
54.479985
 30
0.0
 11
141.2930499999999
 21
52.179985
 31
0.0
  0
LINE
  5
279
330
1E
100
AcDbEntity
  8
0
100
AcDbLine
 10
141.2930499999999
 20
54.479985
 30
0.0
 11
141.2930499999999
 21
56.079985
 31
0.0
  0
LINE
  5
27A
330
1E
100
AcDbEntity
  8
0
100
AcDbLine
 10
141.7930499999999
 20
53.579985
 30
0.0
 11
141.7930499999999
 21
52.179985
 31
0.0
  0
LINE
  5
27B
330
1E
100
AcDbEntity
  8
0
100
AcDbLine
 10
141.7930499999999
 20
53.579985
 30
0.0
 11
141.7930499999999
 21
55.079985
 31
0.0
  0
LINE
  5
27C
330
1E
100
AcDbEntity
  8
0
100
AcDbLine
 10
143.2930499999999
 20
55.179985
 30
0.0
 11
146.79305
 21
55.179985
 31
0.0
  0
LINE
  5
27D
330
1E
100
AcDbEntity
  8
0
100
AcDbLine
 10
141.7930499999999
 20
55.079985
 30
0.0
 11
141.7930499999999
 21
53.579985
 31
0.0
  0
LINE
  5
27E
330
1E
100
AcDbEntity
  8
0
100
AcDbLine
 10
141.7930499999999
 20
55.079985
 30
0.0
 11
141.7930499999999
 21
55.67998499999999
 31
0.0
  0
LINE
  5
27F
330
1E
100
AcDbEntity
  8
0
100
AcDbLine
 10
110.21378085857
 20
52.679985
 30
0.0
 11
110.2410499999999
 21
52.88398499999999
 31
0.0
  0
LINE
  5
280
330
1E
100
AcDbEntity
  8
0
100
AcDbLine
 10
110.21378085857
 20
52.679985
 30
0.0
 11
135.7930499999999
 21
52.679985
 31
0.0
  0
LINE
  5
281
330
1E
100
AcDbEntity
  8
0
100
AcDbLine
 10
101.34505
 20
27.475985
 30
0.0
 11
101.3723191414299
 21
27.679985
 31
0.0
  0
LINE
  5
282
330
1E
100
AcDbEntity
  8
0
100
AcDbLine
 10
101.34505
 20
27.475985
 30
0.0
 11
101.65005
 21
29.757685
 31
0.0
  0
LINE
  5
283
330
1E
100
AcDbEntity
  8
0
100
AcDbLine
 10
101.34505
 20
27.475985
 30
0.0
 11
101.554681336059
 21
29.0442335884796
 31
0.0
  0
LINE
  5
284
330
1E
100
AcDbEntity
  8
0
100
AcDbLine
 10
101.0360499999999
 20
55.31818499999999
 30
0.0
 11
101.140418270882
 21
54.56617998154641
 31
0.0
  0
LINE
  5
285
330
1E
100
AcDbEntity
  8
0
100
AcDbLine
 10
101.01005
 20
55.637885
 30
0.0
 11
101.34505
 21
52.88398499999999
 31
0.0
  0
LINE
  5
286
330
1E
100
AcDbEntity
  8
0
100
AcDbLine
 10
101.01005
 20
55.637885
 30
0.0
 11
101.0360499999999
 21
55.31818499999999
 31
0.0
  0
LINE
  5
287
330
1E
100
AcDbEntity
  8
0
100
AcDbLine
 10
110.5760499999999
 20
55.637885
 30
0.0
 11
111.10305
 21
59.18198499999999
 31
0.0
  0
LINE
  5
288
330
1E
100
AcDbEntity
  8
0
100
AcDbLine
 10
138.29305
 20
56.079985
 30
0.0
 11
138.29305
 21
54.479985
 31
0.0
  0
LINE
  5
289
330
1E
100
AcDbEntity
  8
0
100
AcDbLine
 10
138.29305
 20
56.079985
 30
0.0
 11
138.29305
 21
56.67998499999999
 31
0.0
  0
LINE
  5
28A
330
1E
100
AcDbEntity
  8
0
100
AcDbLine
 10
138.29305
 20
56.67998499999999
 30
0.0
 11
138.29305
 21
56.079985
 31
0.0
  0
LINE
  5
28B
330
1E
100
AcDbEntity
  8
0
100
AcDbLine
 10
138.29305
 20
56.67998499999999
 30
0.0
 11
139.7930499999999
 21
57.179985
 31
0.0
  0
LINE
  5
28E
330
1E
100
AcDbEntity
  8
0
100
AcDbLine
 10
141.2930499999999
 20
56.079985
 30
0.0
 11
141.2930499999999
 21
54.479985
 31
0.0
  0
LINE
  5
28F
330
1E
100
AcDbEntity
  8
0
100
AcDbLine
 10
141.2930499999999
 20
56.079985
 30
0.0
 11
141.2930499999999
 21
56.67998499999999
 31
0.0
  0
LINE
  5
290
330
1E
100
AcDbEntity
  8
0
100
AcDbLine
 10
141.2930499999999
 20
56.67998499999999
 30
0.0
 11
141.2930499999999
 21
56.079985
 31
0.0
  0
LINE
  5
291
330
1E
100
AcDbEntity
  8
0
100
AcDbLine
 10
141.2930499999999
 20
56.67998499999999
 30
0.0
 11
141.7930499999999
 21
55.67998499999999
 31
0.0
  0
LINE
  5
292
330
1E
100
AcDbEntity
  8
0
100
AcDbLine
 10
141.7930499999999
 20
55.67998499999999
 30
0.0
 11
141.7930499999999
 21
55.079985
 31
0.0
  0
LINE
  5
293
330
1E
100
AcDbEntity
  8
0
100
AcDbLine
 10
141.7930499999999
 20
55.67998499999999
 30
0.0
 11
143.2930499999999
 21
55.179985
 31
0.0
  0
LINE
  5
294
330
1E
100
AcDbEntity
  8
0
100
AcDbLine
 10
110.5500499999999
 20
55.31818499999999
 30
0.0
 11
110.835097583243
 21
57.3799922860919
 31
0.0
  0
LINE
  5
295
330
1E
100
AcDbEntity
  8
0
100
AcDbLine
 10
110.5500499999999
 20
55.31818499999999
 30
0.0
 11
110.5760499999999
 21
55.637885
 31
0.0
  0
LINE
  5
296
330
1E
100
AcDbEntity
  8
0
100
AcDbLine
 10
146.79305
 20
55.67998499999999
 30
0.0
 11
146.79305
 21
55.179985
 31
0.0
  0
LINE
  5
297
330
1E
100
AcDbEntity
  8
0
100
AcDbLine
 10
146.79305
 20
55.67998499999999
 30
0.0
 11
152.79305
 21
55.67998499999999
 31
0.0
  0
LINE
  5
298
330
1E
100
AcDbEntity
  8
0
100
AcDbLine
 10
146.79305
 20
55.67998499999999
 30
0.0
 11
146.79305
 21
52.179985
 31
0.0
  0
LINE
  5
299
330
1E
100
AcDbEntity
  8
0
100
AcDbLine
 10
146.79305
 20
55.67998499999999
 30
0.0
 11
146.79305
 21
44.33848499999999
 31
0.0
  0
LINE
  5
29A
330
1E
100
AcDbEntity
  8
0
100
AcDbLine
 10
146.79305
 20
55.179985
 30
0.0
 11
146.79305
 21
55.67998499999999
 31
0.0
  0
LINE
  5
29B
330
1E
100
AcDbEntity
  8
0
100
AcDbLine
 10
153.2930499999999
 20
25.879985
 30
0.0
 11
153.2930499999999
 21
28.479985
 31
0.0
  0
LINE
  5
29C
330
1E
100
AcDbEntity
  8
0
100
AcDbLine
 10
153.2930499999999
 20
25.879985
 30
0.0
 11
153.2930499999999
 21
24.279985
 31
0.0
  0
LINE
  5
29D
330
1E
100
AcDbEntity
  8
0
100
AcDbLine
 10
152.79305
 20
27.179985
 30
0.0
 11
152.79305
 21
28.838485
 31
0.0
  0
LINE
  5
29E
330
1E
100
AcDbEntity
  8
0
100
AcDbLine
 10
152.79305
 20
25.179985
 30
0.0
 11
153.2930499999999
 21
23.679985
 31
0.0
  0
LINE
  5
2A0
330
1E
100
AcDbEntity
  8
0
100
AcDbLine
 10
156.29305
 20
25.879985
 30
0.0
 11
156.29305
 21
28.479985
 31
0.0
  0
LINE
  5
2A1
330
1E
100
AcDbEntity
  8
0
100
AcDbLine
 10
156.29305
 20
25.879985
 30
0.0
 11
156.29305
 21
24.279985
 31
0.0
  0
LINE
  5
2A2
330
1E
100
AcDbEntity
  8
0
100
AcDbLine
 10
153.2930499999999
 20
28.479985
 30
0.0
 11
153.2930499999999
 21
31.979985
 31
0.0
  0
LINE
  5
2A3
330
1E
100
AcDbEntity
  8
0
100
AcDbLine
 10
153.2930499999999
 20
28.479985
 30
0.0
 11
153.2930499999999
 21
25.879985
 31
0.0
  0
LINE
  5
2A4
330
1E
100
AcDbEntity
  8
0
100
AcDbLine
 10
152.79305
 20
28.838485
 30
0.0
 11
152.79305
 21
27.179985
 31
0.0
  0
LINE
  5
2A5
330
1E
100
AcDbEntity
  8
0
100
AcDbLine
 10
152.79305
 20
28.838485
 30
0.0
 11
152.79305
 21
44.33848499999999
 31
0.0
  0
LINE
  5
2A6
330
1E
100
AcDbEntity
  8
0
100
AcDbLine
 10
153.2930499999999
 20
31.979985
 30
0.0
 11
153.2930499999999
 21
35.979985
 31
0.0
  0
LINE
  5
2A7
330
1E
100
AcDbEntity
  8
0
100
AcDbLine
 10
153.2930499999999
 20
31.979985
 30
0.0
 11
153.2930499999999
 21
28.479985
 31
0.0
  0
LINE
  5
2A8
330
1E
100
AcDbEntity
  8
0
100
AcDbLine
 10
153.2930499999999
 20
35.979985
 30
0.0
 11
153.2930499999999
 21
40.179985
 31
0.0
  0
LINE
  5
2A9
330
1E
100
AcDbEntity
  8
0
100
AcDbLine
 10
153.2930499999999
 20
35.979985
 30
0.0
 11
153.2930499999999
 21
31.979985
 31
0.0
  0
LINE
  5
2AD
330
1E
100
AcDbEntity
  8
0
100
AcDbLine
 10
156.29305
 20
28.479985
 30
0.0
 11
156.29305
 21
31.979985
 31
0.0
  0
LINE
  5
2AE
330
1E
100
AcDbEntity
  8
0
100
AcDbLine
 10
156.29305
 20
28.479985
 30
0.0
 11
156.29305
 21
25.879985
 31
0.0
  0
LINE
  5
2AF
330
1E
100
AcDbEntity
  8
0
100
AcDbLine
 10
156.29305
 20
31.979985
 30
0.0
 11
156.29305
 21
35.979985
 31
0.0
  0
LINE
  5
2B0
330
1E
100
AcDbEntity
  8
0
100
AcDbLine
 10
156.29305
 20
31.979985
 30
0.0
 11
156.29305
 21
28.479985
 31
0.0
  0
LINE
  5
2B1
330
1E
100
AcDbEntity
  8
0
100
AcDbLine
 10
152.79305
 20
40.179985
 30
0.0
 11
152.79305
 21
36.27998499999999
 31
0.0
  0
LINE
  5
2B2
330
1E
100
AcDbEntity
  8
0
100
AcDbLine
 10
152.79305
 20
36.27998499999999
 30
0.0
 11
152.79305
 21
40.179985
 31
0.0
  0
LINE
  5
2B3
330
1E
100
AcDbEntity
  8
0
100
AcDbLine
 10
153.2930499999999
 20
40.179985
 30
0.0
 11
153.2930499999999
 21
35.979985
 31
0.0
  0
LINE
  5
2B4
330
1E
100
AcDbEntity
  8
0
100
AcDbLine
 10
153.2930499999999
 20
40.179985
 30
0.0
 11
153.2930499999999
 21
44.37998499999999
 31
0.0
  0
LINE
  5
2B5
330
1E
100
AcDbEntity
  8
0
100
AcDbLine
 10
152.79305
 20
53.17998499999999
 30
0.0
 11
152.79305
 21
50.77998499999999
 31
0.0
  0
LINE
  5
2B6
330
1E
100
AcDbEntity
  8
0
100
AcDbLine
 10
152.79305
 20
50.77998499999999
 30
0.0
 11
152.79305
 21
53.17998499999999
 31
0.0
  0
LINE
  5
2B7
330
1E
100
AcDbEntity
  8
0
100
AcDbLine
 10
152.79305
 20
55.179985
 30
0.0
 11
153.2930499999999
 21
56.67998499999999
 31
0.0
  0
LINE
  5
2B8
330
1E
100
AcDbEntity
  8
0
100
AcDbLine
 10
152.79305
 20
44.33848499999999
 30
0.0
 11
152.79305
 21
28.838485
 31
0.0
  0
LINE
  5
2B9
330
1E
100
AcDbEntity
  8
0
100
AcDbLine
 10
152.79305
 20
44.33848499999999
 30
0.0
 11
152.79305
 21
55.67998499999999
 31
0.0
  0
LINE
  5
2BA
330
1E
100
AcDbEntity
  8
0
100
AcDbLine
 10
153.2930499999999
 20
48.379985
 30
0.0
 11
153.2930499999999
 21
51.87998499999999
 31
0.0
  0
LINE
  5
2BB
330
1E
100
AcDbEntity
  8
0
100
AcDbLine
 10
153.2930499999999
 20
48.379985
 30
0.0
 11
153.2930499999999
 21
44.37998499999999
 31
0.0
  0
LINE
  5
2BC
330
1E
100
AcDbEntity
  8
0
100
AcDbLine
 10
153.2930499999999
 20
44.37998499999999
 30
0.0
 11
153.2930499999999
 21
48.379985
 31
0.0
  0
LINE
  5
2BD
330
1E
100
AcDbEntity
  8
0
100
AcDbLine
 10
153.2930499999999
 20
44.37998499999999
 30
0.0
 11
153.2930499999999
 21
40.179985
 31
0.0
  0
LINE
  5
2C1
330
1E
100
AcDbEntity
  8
0
100
AcDbLine
 10
156.29305
 20
48.379985
 30
0.0
 11
156.29305
 21
51.87998499999999
 31
0.0
  0
LINE
  5
2C2
330
1E
100
AcDbEntity
  8
0
100
AcDbLine
 10
156.29305
 20
48.379985
 30
0.0
 11
156.29305
 21
44.37998499999999
 31
0.0
  0
LINE
  5
2C3
330
1E
100
AcDbEntity
  8
0
100
AcDbLine
 10
156.29305
 20
44.37998499999999
 30
0.0
 11
156.29305
 21
48.379985
 31
0.0
  0
LINE
  5
2C4
330
1E
100
AcDbEntity
  8
0
100
AcDbLine
 10
156.29305
 20
44.37998499999999
 30
0.0
 11
156.29305
 21
40.179985
 31
0.0
  0
LINE
  5
2C5
330
1E
100
AcDbEntity
  8
0
100
AcDbLine
 10
153.2930499999999
 20
51.87998499999999
 30
0.0
 11
153.2930499999999
 21
54.479985
 31
0.0
  0
LINE
  5
2C6
330
1E
100
AcDbEntity
  8
0
100
AcDbLine
 10
153.2930499999999
 20
51.87998499999999
 30
0.0
 11
153.2930499999999
 21
48.379985
 31
0.0
  0
LINE
  5
2C7
330
1E
100
AcDbEntity
  8
0
100
AcDbLine
 10
153.2930499999999
 20
54.479985
 30
0.0
 11
153.2930499999999
 21
56.079985
 31
0.0
  0
LINE
  5
2C8
330
1E
100
AcDbEntity
  8
0
100
AcDbLine
 10
153.2930499999999
 20
54.479985
 30
0.0
 11
153.2930499999999
 21
51.87998499999999
 31
0.0
  0
LINE
  5
2C9
330
1E
100
AcDbEntity
  8
0
100
AcDbLine
 10
153.2930499999999
 20
56.079985
 30
0.0
 11
153.2930499999999
 21
56.67998499999999
 31
0.0
  0
LINE
  5
2CA
330
1E
100
AcDbEntity
  8
0
100
AcDbLine
 10
153.2930499999999
 20
56.079985
 30
0.0
 11
153.2930499999999
 21
54.479985
 31
0.0
  0
LINE
  5
2CC
330
1E
100
AcDbEntity
  8
0
100
AcDbLine
 10
156.29305
 20
51.87998499999999
 30
0.0
 11
156.29305
 21
54.479985
 31
0.0
  0
LINE
  5
2CD
330
1E
100
AcDbEntity
  8
0
100
AcDbLine
 10
156.29305
 20
51.87998499999999
 30
0.0
 11
156.29305
 21
48.379985
 31
0.0
  0
LINE
  5
2CE
330
1E
100
AcDbEntity
  8
0
100
AcDbLine
 10
156.29305
 20
54.479985
 30
0.0
 11
156.29305
 21
56.079985
 31
0.0
  0
LINE
  5
2CF
330
1E
100
AcDbEntity
  8
0
100
AcDbLine
 10
156.29305
 20
54.479985
 30
0.0
 11
156.29305
 21
51.87998499999999
 31
0.0
  0
LINE
  5
2D2
330
1E
100
AcDbEntity
  8
0
100
AcDbLine
 10
156.29305
 20
56.079985
 30
0.0
 11
156.29305
 21
56.67998499999999
 31
0.0
  0
LINE
  5
2D3
330
1E
100
AcDbEntity
  8
0
100
AcDbLine
 10
156.29305
 20
56.079985
 30
0.0
 11
156.29305
 21
54.479985
 31
0.0
  0
LINE
  5
2D4
330
1E
100
AcDbEntity
  8
0
100
AcDbLine
 10
152.79305
 20
55.67998499999999
 30
0.0
 11
152.79305
 21
44.33848499999999
 31
0.0
  0
LINE
  5
2D7
330
1E
100
AcDbEntity
  8
0
100
AcDbLine
 10
156.29305
 20
40.179985
 30
0.0
 11
156.29305
 21
35.979985
 31
0.0
  0
LINE
  5
2D8
330
1E
100
AcDbEntity
  8
0
100
AcDbLine
 10
156.29305
 20
40.179985
 30
0.0
 11
156.29305
 21
44.37998499999999
 31
0.0
  0
LINE
  5
2D9
330
1E
100
AcDbEntity
  8
0
100
AcDbLine
 10
156.29305
 20
35.979985
 30
0.0
 11
156.29305
 21
40.179985
 31
0.0
  0
LINE
  5
2DA
330
1E
100
AcDbEntity
  8
0
100
AcDbLine
 10
156.29305
 20
35.979985
 30
0.0
 11
156.29305
 21
31.979985
 31
0.0
  0
LINE
  5
2DB
330
1E
100
AcDbEntity
  8
0
100
AcDbLine
 10
146.79305
 20
25.179985
 30
0.0
 11
146.79305
 21
24.679985
 31
0.0
  0
LINE
  5
2DC
330
1E
100
AcDbEntity
  8
0
100
AcDbLine
 10
100.0050499999999
 20
63.15708499999999
 30
0.0
 11
100.48305
 21
59.18198499999999
 31
0.0
  0
LINE
  5
2DD
330
1E
100
AcDbEntity
  8
0
100
AcDbLine
 10
99.88505000000001
 20
65.05478499999999
 30
0.0
 11
100.2690499999999
 21
66.55468499999999
 31
0.0
  0
LINE
  5
2DE
330
1E
100
AcDbEntity
  8
0
100
AcDbLine
 10
99.88505000000001
 20
65.05478499999999
 30
0.0
 11
100.0050499999999
 21
63.15708499999999
 31
0.0
  0
LINE
  5
2DF
330
1E
100
AcDbEntity
  8
0
100
AcDbLine
 10
99.90405
 20
65.170185
 30
0.0
 11
99.98440536851891
 21
65.4428660344829
 31
0.0
  0
LINE
  5
2E0
330
1E
100
AcDbEntity
  8
0
100
AcDbLine
 10
99.9618646073924
 20
63.8400259962617
 30
0.0
 11
99.98605000000001
 21
63.283585
 31
0.0
  0
LINE
  5
2E1
330
1E
100
AcDbEntity
  8
0
100
AcDbLine
 10
99.90558032841491
 20
65.13497624893121
 30
0.0
 11
99.98440536851891
 21
65.4428660344829
 31
0.0
  0
LINE
  5
2E2
330
1E
100
AcDbEntity
  8
0
100
AcDbLine
 10
99.98605000000001
 20
63.283585
 30
0.0
 11
100.0667697157539
 21
62.6438171295077
 31
0.0
  0
LINE
  5
2E5
330
1E
100
AcDbEntity
  8
0
100
AcDbLine
 10
100.98005
 20
67.650785
 30
0.0
 11
101.74905
 21
68.304585
 31
0.0
  0
LINE
  5
2E7
330
1E
100
AcDbEntity
  8
0
100
AcDbLine
 10
101.0760499999999
 20
67.74698499999999
 30
0.0
 11
101.270382755633
 21
67.8976244741647
 31
0.0
  0
LINE
  5
2E8
330
1E
100
AcDbEntity
  8
0
100
AcDbLine
 10
100.48305
 20
59.18198499999999
 30
0.0
 11
101.01005
 21
55.637885
 31
0.0
  0
LINE
  5
2E9
330
1E
100
AcDbEntity
  8
0
100
AcDbLine
 10
100.7510024167569
 20
57.3799922860915
 30
0.0
 11
101.0360499999999
 21
55.31818499999999
 31
0.0
  0
LINE
  5
2EA
330
1E
100
AcDbEntity
  8
0
100
AcDbLine
 10
100.2690499999999
 20
66.55468499999999
 30
0.0
 11
100.98005
 21
67.650785
 31
0.0
  0
LINE
  5
2EB
330
1E
100
AcDbEntity
  8
0
100
AcDbLine
 10
105.7930499999999
 20
69.179985
 30
0.0
 11
108.7220499999999
 21
68.823785
 31
0.0
  0
LINE
  5
2EC
330
1E
100
AcDbEntity
  8
0
100
AcDbLine
 10
102.86405
 20
68.823785
 30
0.0
 11
105.7930499999999
 21
69.179985
 31
0.0
  0
LINE
  5
2ED
330
1E
100
AcDbEntity
  8
0
100
AcDbLine
 10
101.74905
 20
68.304585
 30
0.0
 11
102.86405
 21
68.823785
 31
0.0
  0
LINE
  5
2EE
330
1E
100
AcDbEntity
  8
0
100
AcDbLine
 10
154.7930499999999
 20
57.179985
 30
0.0
 11
156.29305
 21
56.67998499999999
 31
0.0
  0
LINE
  5
2F2
330
1E
100
AcDbEntity
  8
0
100
AcDbLine
 10
109.83705
 20
68.304585
 30
0.0
 11
110.6060499999999
 21
67.650785
 31
0.0
  0
LINE
  5
2F4
330
1E
100
AcDbEntity
  8
0
100
AcDbLine
 10
111.31705
 20
66.55468499999999
 30
0.0
 11
111.7010499999999
 21
65.05478499999999
 31
0.0
  0
LINE
  5
2F5
330
1E
100
AcDbEntity
  8
0
100
AcDbLine
 10
110.6060499999999
 20
67.650785
 30
0.0
 11
111.31705
 21
66.55468499999999
 31
0.0
  0
LINE
  5
2F6
330
1E
100
AcDbEntity
  8
0
100
AcDbLine
 10
110.315717244367
 20
67.8976244741647
 30
0.0
 11
110.51005
 21
67.74698499999999
 31
0.0
  0
LINE
  5
2F7
330
1E
100
AcDbEntity
  8
0
100
AcDbLine
 10
111.10305
 20
59.18198499999999
 30
0.0
 11
111.58105
 21
63.15708499999999
 31
0.0
  0
LINE
  5
2F8
330
1E
100
AcDbEntity
  8
0
100
AcDbLine
 10
111.58105
 20
63.15708499999999
 30
0.0
 11
111.7010499999999
 21
65.05478499999999
 31
0.0
  0
LINE
  5
2F9
330
1E
100
AcDbEntity
  8
0
100
AcDbLine
 10
111.6000499999999
 20
63.283585
 30
0.0
 11
111.6242353926079
 21
63.8400259962621
 31
0.0
  0
LINE
  5
2FA
330
1E
100
AcDbEntity
  8
0
100
AcDbLine
 10
111.6016946314809
 20
65.44286603448249
 30
0.0
 11
111.6820499999999
 21
65.170185
 31
0.0
  0
LINE
  5
2FB
330
1E
100
AcDbEntity
  8
0
100
AcDbLine
 10
111.519330284245
 20
62.6438171295043
 30
0.0
 11
111.58105
 21
63.15708499999999
 31
0.0
  0
LINE
  5
2FC
330
1E
100
AcDbEntity
  8
0
100
AcDbLine
 10
111.519330284245
 20
62.6438171295043
 30
0.0
 11
111.6000499999999
 21
63.283585
 31
0.0
  0
LINE
  5
2FD
330
1E
100
AcDbEntity
  8
0
100
AcDbLine
 10
139.7930499999999
 20
57.179985
 30
0.0
 11
141.2930499999999
 21
56.67998499999999
 31
0.0
  0
LINE
  5
2FE
330
1E
100
AcDbEntity
  8
0
100
AcDbLine
 10
108.7220499999999
 20
68.823785
 30
0.0
 11
109.83705
 21
68.304585
 31
0.0
  0
LINE
  5
2FF
330
1E
100
AcDbEntity
  8
0
100
AcDbLine
 10
153.2930499999999
 20
56.67998499999999
 30
0.0
 11
154.7930499999999
 21
57.179985
 31
0.0
  0
LINE
  5
300
330
1E
100
AcDbEntity
  8
0
100
AcDbLine
 10
153.2930499999999
 20
56.67998499999999
 30
0.0
 11
153.2930499999999
 21
56.079985
 31
0.0
  0
LINE
  5
301
330
1E
100
AcDbEntity
  8
0
100
AcDbLine
 10
156.29305
 20
56.67998499999999
 30
0.0
 11
156.7930499999999
 21
55.67998499999999
 31
0.0
  0
LINE
  5
302
330
1E
100
AcDbEntity
  8
0
100
AcDbLine
 10
156.29305
 20
56.67998499999999
 30
0.0
 11
156.29305
 21
56.079985
 31
0.0
  0
LINE
  5
303
330
1E
100
AcDbEntity
  8
0
100
AcDbLine
 10
152.79305
 20
25.179985
 30
0.0
 11
153.2930499999999
 21
23.679985
 31
0.0
  0
LINE
  5
304
330
1E
100
AcDbEntity
  8
0
100
AcDbLine
 10
209.7930499999999
 20
13.179985
 30
0.0
 11
210.2930499999999
 21
11.679985
 31
0.0
  0
LINE
  5
305
330
1E
100
AcDbEntity
  8
0
100
AcDbLine
 10
209.7930499999999
 20
13.179985
 30
0.0
 11
209.7930499999999
 21
14.179985
 31
0.0
  0
LINE
  5
306
330
1E
100
AcDbEntity
  8
0
100
AcDbLine
 10
210.2930499999999
 20
11.679985
 30
0.0
 11
211.29305
 21
10.679985
 31
0.0
  0
LINE
  5
307
330
1E
100
AcDbEntity
  8
0
100
AcDbLine
 10
198.2930499999999
 20
22.679985
 30
0.0
 11
198.79305
 21
22.679985
 31
0.0
  0
LINE
  5
308
330
1E
100
AcDbEntity
  8
0
100
AcDbLine
 10
197.29305
 20
23.179985
 30
0.0
 11
198.2930499999999
 21
22.679985
 31
0.0
  0
LINE
  5
309
330
1E
100
AcDbEntity
  8
0
100
AcDbLine
 10
197.29305
 20
23.179985
 30
0.0
 11
197.29305
 21
23.77998499999999
 31
0.0
  0
LINE
  5
30A
330
1E
100
AcDbEntity
  8
0
100
AcDbLine
 10
198.79305
 20
22.679985
 30
0.0
 11
199.79305
 21
23.179985
 31
0.0
  0
LINE
  5
30B
330
1E
100
AcDbEntity
  8
0
100
AcDbLine
 10
199.79305
 20
23.179985
 30
0.0
 11
200.79305
 21
23.179985
 31
0.0
  0
LINE
  5
30C
330
1E
100
AcDbEntity
  8
0
100
AcDbLine
 10
156.7930499999999
 20
24.679985
 30
0.0
 11
158.2930499999999
 21
25.179985
 31
0.0
  0
LINE
  5
30D
330
1E
100
AcDbEntity
  8
0
100
AcDbLine
 10
156.7930499999999
 20
24.679985
 30
0.0
 11
156.7930499999999
 21
25.279985
 31
0.0
  0
LINE
  5
30E
330
1E
100
AcDbEntity
  8
0
100
AcDbLine
 10
197.29305
 20
23.77998499999999
 30
0.0
 11
197.29305
 21
25.479985
 31
0.0
  0
LINE
  5
30F
330
1E
100
AcDbEntity
  8
0
100
AcDbLine
 10
197.29305
 20
23.77998499999999
 30
0.0
 11
197.29305
 21
23.179985
 31
0.0
  0
LINE
  5
310
330
1E
100
AcDbEntity
  8
0
100
AcDbLine
 10
196.7930499999999
 20
24.77998499999999
 30
0.0
 11
196.7930499999999
 21
26.27998499999999
 31
0.0
  0
LINE
  5
311
330
1E
100
AcDbEntity
  8
0
100
AcDbLine
 10
196.7930499999999
 20
24.77998499999999
 30
0.0
 11
196.7930499999999
 21
24.179985
 31
0.0
  0
LINE
  5
312
330
1E
100
AcDbEntity
  8
0
100
AcDbLine
 10
196.7930499999999
 20
24.179985
 30
0.0
 11
197.29305
 21
23.179985
 31
0.0
  0
LINE
  5
313
330
1E
100
AcDbEntity
  8
0
100
AcDbLine
 10
196.7930499999999
 20
24.179985
 30
0.0
 11
196.7930499999999
 21
24.77998499999999
 31
0.0
  0
LINE
  5
314
330
1E
100
AcDbEntity
  8
0
100
AcDbLine
 10
194.79305
 20
25.179985
 30
0.0
 11
196.7930499999999
 21
24.179985
 31
0.0
  0
LINE
  5
315
330
1E
100
AcDbEntity
  8
0
100
AcDbLine
 10
200.79305
 20
23.179985
 30
0.0
 11
203.2930499999999
 21
21.679985
 31
0.0
  0
LINE
  5
316
330
1E
100
AcDbEntity
  8
0
100
AcDbLine
 10
207.7930499999999
 20
14.679985
 30
0.0
 11
207.7930499999999
 21
17.179985
 31
0.0
  0
LINE
  5
317
330
1E
100
AcDbEntity
  8
0
100
AcDbLine
 10
207.7930499999999
 20
14.679985
 30
0.0
 11
207.7930499999999
 21
13.679985
 31
0.0
  0
LINE
  5
318
330
1E
100
AcDbEntity
  8
0
100
AcDbLine
 10
207.7930499999999
 20
17.179985
 30
0.0
 11
207.7930499999999
 21
21.47998499999999
 31
0.0
  0
LINE
  5
319
330
1E
100
AcDbEntity
  8
0
100
AcDbLine
 10
207.7930499999999
 20
17.179985
 30
0.0
 11
207.7930499999999
 21
14.679985
 31
0.0
  0
LINE
  5
31A
330
1E
100
AcDbEntity
  8
0
100
AcDbLine
 10
209.7930499999999
 20
16.779985
 30
0.0
 11
209.7930499999999
 21
21.179985
 31
0.0
  0
LINE
  5
31B
330
1E
100
AcDbEntity
  8
0
100
AcDbLine
 10
209.7930499999999
 20
16.779985
 30
0.0
 11
209.7930499999999
 21
14.179985
 31
0.0
  0
LINE
  5
31C
330
1E
100
AcDbEntity
  8
0
100
AcDbLine
 10
209.7930499999999
 20
14.179985
 30
0.0
 11
209.7930499999999
 21
16.779985
 31
0.0
  0
LINE
  5
31D
330
1E
100
AcDbEntity
  8
0
100
AcDbLine
 10
209.7930499999999
 20
14.179985
 30
0.0
 11
209.7930499999999
 21
13.179985
 31
0.0
  0
LINE
  5
31E
330
1E
100
AcDbEntity
  8
0
100
AcDbLine
 10
207.7930499999999
 20
21.47998499999999
 30
0.0
 11
207.7930499999999
 21
26.979985
 31
0.0
  0
LINE
  5
31F
330
1E
100
AcDbEntity
  8
0
100
AcDbLine
 10
207.7930499999999
 20
21.47998499999999
 30
0.0
 11
207.7930499999999
 21
17.179985
 31
0.0
  0
LINE
  5
320
330
1E
100
AcDbEntity
  8
0
100
AcDbLine
 10
209.7930499999999
 20
21.179985
 30
0.0
 11
209.7930499999999
 21
26.77998499999999
 31
0.0
  0
LINE
  5
321
330
1E
100
AcDbEntity
  8
0
100
AcDbLine
 10
209.7930499999999
 20
21.179985
 30
0.0
 11
209.7930499999999
 21
16.779985
 31
0.0
  0
LINE
  5
322
330
1E
100
AcDbEntity
  8
0
100
AcDbLine
 10
205.7930499999999
 20
18.679985
 30
0.0
 11
207.7930499999999
 21
13.679985
 31
0.0
  0
LINE
  5
323
330
1E
100
AcDbEntity
  8
0
100
AcDbLine
 10
207.7930499999999
 20
13.679985
 30
0.0
 11
208.79305
 21
13.179985
 31
0.0
  0
LINE
  5
324
330
1E
100
AcDbEntity
  8
0
100
AcDbLine
 10
207.7930499999999
 20
13.679985
 30
0.0
 11
207.7930499999999
 21
14.679985
 31
0.0
  0
LINE
  5
325
330
1E
100
AcDbEntity
  8
0
100
AcDbLine
 10
203.2930499999999
 20
21.679985
 30
0.0
 11
205.7930499999999
 21
18.679985
 31
0.0
  0
LINE
  5
326
330
1E
100
AcDbEntity
  8
0
100
AcDbLine
 10
208.79305
 20
13.179985
 30
0.0
 11
209.7930499999999
 21
13.179985
 31
0.0
  0
LINE
  5
327
330
1E
100
AcDbEntity
  8
0
100
AcDbLine
 10
212.79305
 20
14.179985
 30
0.0
 11
212.79305
 21
18.97998499999999
 31
0.0
  0
LINE
  5
328
330
1E
100
AcDbEntity
  8
0
100
AcDbLine
 10
212.79305
 20
14.179985
 30
0.0
 11
212.79305
 21
11.279985
 31
0.0
  0
LINE
  5
329
330
1E
100
AcDbEntity
  8
0
100
AcDbLine
 10
212.79305
 20
11.279985
 30
0.0
 11
212.79305
 21
14.179985
 31
0.0
  0
LINE
  5
32A
330
1E
100
AcDbEntity
  8
0
100
AcDbLine
 10
212.79305
 20
11.279985
 30
0.0
 11
212.79305
 21
10.179985
 31
0.0
  0
LINE
  5
32B
330
1E
100
AcDbEntity
  8
0
100
AcDbLine
 10
212.79305
 20
10.179985
 30
0.0
 11
212.79305
 21
11.279985
 31
0.0
  0
LINE
  5
32C
330
1E
100
AcDbEntity
  8
0
100
AcDbLine
 10
212.79305
 20
18.97998499999999
 30
0.0
 11
212.79305
 21
25.279985
 31
0.0
  0
LINE
  5
32D
330
1E
100
AcDbEntity
  8
0
100
AcDbLine
 10
212.79305
 20
18.97998499999999
 30
0.0
 11
212.79305
 21
14.179985
 31
0.0
  0
LINE
  5
32E
330
1E
100
AcDbEntity
  8
0
100
AcDbLine
 10
211.29305
 20
10.679985
 30
0.0
 11
212.79305
 21
10.179985
 31
0.0
  0
LINE
  5
32F
330
1E
100
AcDbEntity
  8
0
100
AcDbLine
 10
156.7930499999999
 20
26.77998499999999
 30
0.0
 11
156.7930499999999
 21
29.27998499999999
 31
0.0
  0
LINE
  5
330
330
1E
100
AcDbEntity
  8
0
100
AcDbLine
 10
156.7930499999999
 20
26.77998499999999
 30
0.0
 11
156.7930499999999
 21
25.279985
 31
0.0
  0
LINE
  5
331
330
1E
100
AcDbEntity
  8
0
100
AcDbLine
 10
156.7930499999999
 20
25.279985
 30
0.0
 11
156.7930499999999
 21
26.77998499999999
 31
0.0
  0
LINE
  5
332
330
1E
100
AcDbEntity
  8
0
100
AcDbLine
 10
156.7930499999999
 20
25.279985
 30
0.0
 11
156.7930499999999
 21
24.679985
 31
0.0
  0
LINE
  5
333
330
1E
100
AcDbEntity
  8
0
100
AcDbLine
 10
156.7930499999999
 20
29.27998499999999
 30
0.0
 11
156.7930499999999
 21
32.479985
 31
0.0
  0
LINE
  5
334
330
1E
100
AcDbEntity
  8
0
100
AcDbLine
 10
156.7930499999999
 20
29.27998499999999
 30
0.0
 11
156.7930499999999
 21
26.77998499999999
 31
0.0
  0
LINE
  5
335
330
1E
100
AcDbEntity
  8
0
100
AcDbLine
 10
156.7930499999999
 20
47.87998499999999
 30
0.0
 11
156.7930499999999
 21
51.079985
 31
0.0
  0
LINE
  5
336
330
1E
100
AcDbEntity
  8
0
100
AcDbLine
 10
156.7930499999999
 20
47.87998499999999
 30
0.0
 11
156.7930499999999
 21
44.17998499999999
 31
0.0
  0
LINE
  5
337
330
1E
100
AcDbEntity
  8
0
100
AcDbLine
 10
156.7930499999999
 20
44.17998499999999
 30
0.0
 11
156.7930499999999
 21
47.87998499999999
 31
0.0
  0
LINE
  5
338
330
1E
100
AcDbEntity
  8
0
100
AcDbLine
 10
156.7930499999999
 20
44.17998499999999
 30
0.0
 11
156.7930499999999
 21
40.179985
 31
0.0
  0
LINE
  5
339
330
1E
100
AcDbEntity
  8
0
100
AcDbLine
 10
156.7930499999999
 20
51.079985
 30
0.0
 11
156.7930499999999
 21
53.579985
 31
0.0
  0
LINE
  5
33A
330
1E
100
AcDbEntity
  8
0
100
AcDbLine
 10
156.7930499999999
 20
51.079985
 30
0.0
 11
156.7930499999999
 21
47.87998499999999
 31
0.0
  0
LINE
  5
33B
330
1E
100
AcDbEntity
  8
0
100
AcDbLine
 10
156.7930499999999
 20
53.579985
 30
0.0
 11
156.7930499999999
 21
55.079985
 31
0.0
  0
LINE
  5
33C
330
1E
100
AcDbEntity
  8
0
100
AcDbLine
 10
156.7930499999999
 20
53.579985
 30
0.0
 11
156.7930499999999
 21
51.079985
 31
0.0
  0
LINE
  5
33D
330
1E
100
AcDbEntity
  8
0
100
AcDbLine
 10
156.7930499999999
 20
55.079985
 30
0.0
 11
156.7930499999999
 21
55.67998499999999
 31
0.0
  0
LINE
  5
33E
330
1E
100
AcDbEntity
  8
0
100
AcDbLine
 10
156.7930499999999
 20
55.079985
 30
0.0
 11
156.7930499999999
 21
53.579985
 31
0.0
  0
LINE
  5
33F
330
1E
100
AcDbEntity
  8
0
100
AcDbLine
 10
156.7930499999999
 20
40.179985
 30
0.0
 11
156.7930499999999
 21
36.17998499999999
 31
0.0
  0
LINE
  5
340
330
1E
100
AcDbEntity
  8
0
100
AcDbLine
 10
156.7930499999999
 20
40.179985
 30
0.0
 11
156.7930499999999
 21
44.17998499999999
 31
0.0
  0
LINE
  5
341
330
1E
100
AcDbEntity
  8
0
100
AcDbLine
 10
156.7930499999999
 20
32.479985
 30
0.0
 11
156.7930499999999
 21
36.17998499999999
 31
0.0
  0
LINE
  5
342
330
1E
100
AcDbEntity
  8
0
100
AcDbLine
 10
156.7930499999999
 20
32.479985
 30
0.0
 11
156.7930499999999
 21
29.27998499999999
 31
0.0
  0
LINE
  5
343
330
1E
100
AcDbEntity
  8
0
100
AcDbLine
 10
196.7930499999999
 20
26.27998499999999
 30
0.0
 11
196.7930499999999
 21
28.879985
 31
0.0
  0
LINE
  5
344
330
1E
100
AcDbEntity
  8
0
100
AcDbLine
 10
196.7930499999999
 20
26.27998499999999
 30
0.0
 11
196.7930499999999
 21
24.77998499999999
 31
0.0
  0
LINE
  5
345
330
1E
100
AcDbEntity
  8
0
100
AcDbLine
 10
197.29305
 20
25.479985
 30
0.0
 11
197.29305
 21
23.77998499999999
 31
0.0
  0
LINE
  5
346
330
1E
100
AcDbEntity
  8
0
100
AcDbLine
 10
196.7930499999999
 20
28.879985
 30
0.0
 11
196.7930499999999
 21
32.17998499999999
 31
0.0
  0
LINE
  5
347
330
1E
100
AcDbEntity
  8
0
100
AcDbLine
 10
196.7930499999999
 20
28.879985
 30
0.0
 11
196.7930499999999
 21
26.27998499999999
 31
0.0
  0
LINE
  5
348
330
1E
100
AcDbEntity
  8
0
100
AcDbLine
 10
196.7930499999999
 20
32.17998499999999
 30
0.0
 11
196.7930499999999
 21
36.079985
 31
0.0
  0
LINE
  5
349
330
1E
100
AcDbEntity
  8
0
100
AcDbLine
 10
196.7930499999999
 20
32.17998499999999
 30
0.0
 11
196.7930499999999
 21
28.879985
 31
0.0
  0
LINE
  5
34A
330
1E
100
AcDbEntity
  8
0
100
AcDbLine
 10
196.7930499999999
 20
48.17998499999999
 30
0.0
 11
196.7930499999999
 21
51.47998499999999
 31
0.0
  0
LINE
  5
34B
330
1E
100
AcDbEntity
  8
0
100
AcDbLine
 10
196.7930499999999
 20
48.17998499999999
 30
0.0
 11
196.7930499999999
 21
44.279985
 31
0.0
  0
LINE
  5
34C
330
1E
100
AcDbEntity
  8
0
100
AcDbLine
 10
196.7930499999999
 20
44.279985
 30
0.0
 11
196.7930499999999
 21
48.17998499999999
 31
0.0
  0
LINE
  5
34D
330
1E
100
AcDbEntity
  8
0
100
AcDbLine
 10
196.7930499999999
 20
44.279985
 30
0.0
 11
196.7930499999999
 21
40.179985
 31
0.0
  0
LINE
  5
34E
330
1E
100
AcDbEntity
  8
0
100
AcDbLine
 10
196.7930499999999
 20
51.47998499999999
 30
0.0
 11
196.7930499999999
 21
54.079985
 31
0.0
  0
LINE
  5
34F
330
1E
100
AcDbEntity
  8
0
100
AcDbLine
 10
196.7930499999999
 20
51.47998499999999
 30
0.0
 11
196.7930499999999
 21
48.17998499999999
 31
0.0
  0
LINE
  5
350
330
1E
100
AcDbEntity
  8
0
100
AcDbLine
 10
196.7930499999999
 20
54.079985
 30
0.0
 11
196.7930499999999
 21
55.579985
 31
0.0
  0
LINE
  5
351
330
1E
100
AcDbEntity
  8
0
100
AcDbLine
 10
196.7930499999999
 20
54.079985
 30
0.0
 11
196.7930499999999
 21
51.47998499999999
 31
0.0
  0
LINE
  5
352
330
1E
100
AcDbEntity
  8
0
100
AcDbLine
 10
197.29305
 20
54.87998499999999
 30
0.0
 11
197.29305
 21
44.579985
 31
0.0
  0
LINE
  5
353
330
1E
100
AcDbEntity
  8
0
100
AcDbLine
 10
197.29305
 20
44.579985
 30
0.0
 11
197.29305
 21
54.87998499999999
 31
0.0
  0
LINE
  5
354
330
1E
100
AcDbEntity
  8
0
100
AcDbLine
 10
197.29305
 20
44.579985
 30
0.0
 11
197.29305
 21
40.179985
 31
0.0
  0
LINE
  5
355
330
1E
100
AcDbEntity
  8
0
100
AcDbLine
 10
197.29305
 20
54.87998499999999
 30
0.0
 11
197.29305
 21
56.579985
 31
0.0
  0
LINE
  5
356
330
1E
100
AcDbEntity
  8
0
100
AcDbLine
 10
196.7930499999999
 20
40.179985
 30
0.0
 11
196.7930499999999
 21
36.079985
 31
0.0
  0
LINE
  5
357
330
1E
100
AcDbEntity
  8
0
100
AcDbLine
 10
196.7930499999999
 20
40.179985
 30
0.0
 11
196.7930499999999
 21
44.279985
 31
0.0
  0
LINE
  5
358
330
1E
100
AcDbEntity
  8
0
100
AcDbLine
 10
196.7930499999999
 20
36.079985
 30
0.0
 11
196.7930499999999
 21
40.179985
 31
0.0
  0
LINE
  5
359
330
1E
100
AcDbEntity
  8
0
100
AcDbLine
 10
196.7930499999999
 20
36.079985
 30
0.0
 11
196.7930499999999
 21
32.17998499999999
 31
0.0
  0
LINE
  5
35A
330
1E
100
AcDbEntity
  8
0
100
AcDbLine
 10
197.29305
 20
40.179985
 30
0.0
 11
197.29305
 21
35.77998499999999
 31
0.0
  0
LINE
  5
35B
330
1E
100
AcDbEntity
  8
0
100
AcDbLine
 10
197.29305
 20
40.179985
 30
0.0
 11
197.29305
 21
44.579985
 31
0.0
  0
LINE
  5
35C
330
1E
100
AcDbEntity
  8
0
100
AcDbLine
 10
197.29305
 20
25.479985
 30
0.0
 11
197.29305
 21
35.77998499999999
 31
0.0
  0
LINE
  5
35D
330
1E
100
AcDbEntity
  8
0
100
AcDbLine
 10
197.29305
 20
35.77998499999999
 30
0.0
 11
197.29305
 21
40.179985
 31
0.0
  0
LINE
  5
35E
330
1E
100
AcDbEntity
  8
0
100
AcDbLine
 10
197.29305
 20
35.77998499999999
 30
0.0
 11
197.29305
 21
25.479985
 31
0.0
  0
LINE
  5
35F
330
1E
100
AcDbEntity
  8
0
100
AcDbLine
 10
158.2930499999999
 20
55.179985
 30
0.0
 11
194.79305
 21
55.179985
 31
0.0
  0
LINE
  5
360
330
1E
100
AcDbEntity
  8
0
100
AcDbLine
 10
156.7930499999999
 20
36.17998499999999
 30
0.0
 11
156.7930499999999
 21
40.179985
 31
0.0
  0
LINE
  5
361
330
1E
100
AcDbEntity
  8
0
100
AcDbLine
 10
156.7930499999999
 20
36.17998499999999
 30
0.0
 11
156.7930499999999
 21
32.479985
 31
0.0
  0
LINE
  5
362
330
1E
100
AcDbEntity
  8
0
100
AcDbLine
 10
196.7930499999999
 20
55.579985
 30
0.0
 11
196.7930499999999
 21
56.17998499999999
 31
0.0
  0
LINE
  5
363
330
1E
100
AcDbEntity
  8
0
100
AcDbLine
 10
196.7930499999999
 20
55.579985
 30
0.0
 11
196.7930499999999
 21
54.079985
 31
0.0
  0
LINE
  5
364
330
1E
100
AcDbEntity
  8
0
100
AcDbLine
 10
197.29305
 20
56.579985
 30
0.0
 11
197.29305
 21
57.179985
 31
0.0
  0
LINE
  5
365
330
1E
100
AcDbEntity
  8
0
100
AcDbLine
 10
197.29305
 20
56.579985
 30
0.0
 11
197.29305
 21
54.87998499999999
 31
0.0
  0
LINE
  5
366
330
1E
100
AcDbEntity
  8
0
100
AcDbLine
 10
196.7930499999999
 20
56.17998499999999
 30
0.0
 11
197.29305
 21
57.179985
 31
0.0
  0
LINE
  5
367
330
1E
100
AcDbEntity
  8
0
100
AcDbLine
 10
196.7930499999999
 20
56.17998499999999
 30
0.0
 11
196.7930499999999
 21
55.579985
 31
0.0
  0
LINE
  5
368
330
1E
100
AcDbEntity
  8
0
100
AcDbLine
 10
156.7930499999999
 20
55.67998499999999
 30
0.0
 11
158.2930499999999
 21
55.179985
 31
0.0
  0
LINE
  5
369
330
1E
100
AcDbEntity
  8
0
100
AcDbLine
 10
156.7930499999999
 20
55.67998499999999
 30
0.0
 11
156.7930499999999
 21
55.079985
 31
0.0
  0
LINE
  5
36A
330
1E
100
AcDbEntity
  8
0
100
AcDbLine
 10
194.79305
 20
55.179985
 30
0.0
 11
196.7930499999999
 21
56.17998499999999
 31
0.0
  0
LINE
  5
36B
330
1E
100
AcDbEntity
  8
0
100
AcDbLine
 10
199.79305
 20
57.179985
 30
0.0
 11
200.79305
 21
57.179985
 31
0.0
  0
LINE
  5
36C
330
1E
100
AcDbEntity
  8
0
100
AcDbLine
 10
197.29305
 20
57.179985
 30
0.0
 11
198.2930499999999
 21
57.679985
 31
0.0
  0
LINE
  5
36D
330
1E
100
AcDbEntity
  8
0
100
AcDbLine
 10
197.29305
 20
57.179985
 30
0.0
 11
197.29305
 21
56.579985
 31
0.0
  0
LINE
  5
36E
330
1E
100
AcDbEntity
  8
0
100
AcDbLine
 10
198.2930499999999
 20
57.679985
 30
0.0
 11
198.79305
 21
57.679985
 31
0.0
  0
LINE
  5
36F
330
1E
100
AcDbEntity
  8
0
100
AcDbLine
 10
198.79305
 20
57.679985
 30
0.0
 11
199.79305
 21
57.179985
 31
0.0
  0
LINE
  5
370
330
1E
100
AcDbEntity
  8
0
100
AcDbLine
 10
200.79305
 20
57.179985
 30
0.0
 11
203.2930499999999
 21
58.67998499999999
 31
0.0
  0
LINE
  5
371
330
1E
100
AcDbEntity
  8
0
100
AcDbLine
 10
207.7930499999999
 20
26.979985
 30
0.0
 11
207.7930499999999
 21
33.37998499999999
 31
0.0
  0
LINE
  5
372
330
1E
100
AcDbEntity
  8
0
100
AcDbLine
 10
207.7930499999999
 20
26.979985
 30
0.0
 11
207.7930499999999
 21
21.47998499999999
 31
0.0
  0
LINE
  5
373
330
1E
100
AcDbEntity
  8
0
100
AcDbLine
 10
209.7930499999999
 20
26.77998499999999
 30
0.0
 11
209.7930499999999
 21
33.27998499999999
 31
0.0
  0
LINE
  5
374
330
1E
100
AcDbEntity
  8
0
100
AcDbLine
 10
209.7930499999999
 20
26.77998499999999
 30
0.0
 11
209.7930499999999
 21
21.179985
 31
0.0
  0
LINE
  5
375
330
1E
100
AcDbEntity
  8
0
100
AcDbLine
 10
207.7930499999999
 20
53.379985
 30
0.0
 11
207.7930499999999
 21
58.879985
 31
0.0
  0
LINE
  5
376
330
1E
100
AcDbEntity
  8
0
100
AcDbLine
 10
207.7930499999999
 20
53.379985
 30
0.0
 11
207.7930499999999
 21
46.97998499999999
 31
0.0
  0
LINE
  5
377
330
1E
100
AcDbEntity
  8
0
100
AcDbLine
 10
207.7930499999999
 20
46.97998499999999
 30
0.0
 11
207.7930499999999
 21
53.379985
 31
0.0
  0
LINE
  5
378
330
1E
100
AcDbEntity
  8
0
100
AcDbLine
 10
207.7930499999999
 20
46.97998499999999
 30
0.0
 11
207.7930499999999
 21
40.179985
 31
0.0
  0
LINE
  5
379
330
1E
100
AcDbEntity
  8
0
100
AcDbLine
 10
207.7930499999999
 20
58.879985
 30
0.0
 11
207.7930499999999
 21
63.17998499999999
 31
0.0
  0
LINE
  5
37A
330
1E
100
AcDbEntity
  8
0
100
AcDbLine
 10
207.7930499999999
 20
58.879985
 30
0.0
 11
207.7930499999999
 21
53.379985
 31
0.0
  0
LINE
  5
37B
330
1E
100
AcDbEntity
  8
0
100
AcDbLine
 10
207.7930499999999
 20
63.17998499999999
 30
0.0
 11
207.7930499999999
 21
65.679985
 31
0.0
  0
LINE
  5
37C
330
1E
100
AcDbEntity
  8
0
100
AcDbLine
 10
207.7930499999999
 20
63.17998499999999
 30
0.0
 11
207.7930499999999
 21
58.879985
 31
0.0
  0
LINE
  5
37D
330
1E
100
AcDbEntity
  8
0
100
AcDbLine
 10
207.7930499999999
 20
65.679985
 30
0.0
 11
207.7930499999999
 21
66.679985
 31
0.0
  0
LINE
  5
37E
330
1E
100
AcDbEntity
  8
0
100
AcDbLine
 10
207.7930499999999
 20
65.679985
 30
0.0
 11
207.7930499999999
 21
63.17998499999999
 31
0.0
  0
LINE
  5
37F
330
1E
100
AcDbEntity
  8
0
100
AcDbLine
 10
205.7930499999999
 20
61.67998499999999
 30
0.0
 11
207.7930499999999
 21
66.679985
 31
0.0
  0
LINE
  5
380
330
1E
100
AcDbEntity
  8
0
100
AcDbLine
 10
207.7930499999999
 20
66.679985
 30
0.0
 11
208.79305
 21
67.179985
 31
0.0
  0
LINE
  5
381
330
1E
100
AcDbEntity
  8
0
100
AcDbLine
 10
207.7930499999999
 20
66.679985
 30
0.0
 11
207.7930499999999
 21
65.679985
 31
0.0
  0
LINE
  5
382
330
1E
100
AcDbEntity
  8
0
100
AcDbLine
 10
209.7930499999999
 20
53.579985
 30
0.0
 11
209.7930499999999
 21
59.17998499999999
 31
0.0
  0
LINE
  5
383
330
1E
100
AcDbEntity
  8
0
100
AcDbLine
 10
209.7930499999999
 20
53.579985
 30
0.0
 11
209.7930499999999
 21
47.079985
 31
0.0
  0
LINE
  5
384
330
1E
100
AcDbEntity
  8
0
100
AcDbLine
 10
209.7930499999999
 20
47.079985
 30
0.0
 11
209.7930499999999
 21
53.579985
 31
0.0
  0
LINE
  5
385
330
1E
100
AcDbEntity
  8
0
100
AcDbLine
 10
209.7930499999999
 20
47.079985
 30
0.0
 11
209.7930499999999
 21
40.179985
 31
0.0
  0
LINE
  5
386
330
1E
100
AcDbEntity
  8
0
100
AcDbLine
 10
209.7930499999999
 20
59.17998499999999
 30
0.0
 11
209.7930499999999
 21
63.579985
 31
0.0
  0
LINE
  5
387
330
1E
100
AcDbEntity
  8
0
100
AcDbLine
 10
209.7930499999999
 20
59.17998499999999
 30
0.0
 11
209.7930499999999
 21
53.579985
 31
0.0
  0
LINE
  5
388
330
1E
100
AcDbEntity
  8
0
100
AcDbLine
 10
209.7930499999999
 20
63.579985
 30
0.0
 11
209.7930499999999
 21
66.179985
 31
0.0
  0
LINE
  5
389
330
1E
100
AcDbEntity
  8
0
100
AcDbLine
 10
209.7930499999999
 20
63.579985
 30
0.0
 11
209.7930499999999
 21
59.17998499999999
 31
0.0
  0
LINE
  5
38A
330
1E
100
AcDbEntity
  8
0
100
AcDbLine
 10
209.7930499999999
 20
66.179985
 30
0.0
 11
209.7930499999999
 21
67.179985
 31
0.0
  0
LINE
  5
38B
330
1E
100
AcDbEntity
  8
0
100
AcDbLine
 10
209.7930499999999
 20
66.179985
 30
0.0
 11
209.7930499999999
 21
63.579985
 31
0.0
  0
LINE
  5
38C
330
1E
100
AcDbEntity
  8
0
100
AcDbLine
 10
208.79305
 20
67.179985
 30
0.0
 11
209.7930499999999
 21
67.179985
 31
0.0
  0
LINE
  5
38D
330
1E
100
AcDbEntity
  8
0
100
AcDbLine
 10
207.7930499999999
 20
40.179985
 30
0.0
 11
207.7930499999999
 21
33.37998499999999
 31
0.0
  0
LINE
  5
38E
330
1E
100
AcDbEntity
  8
0
100
AcDbLine
 10
207.7930499999999
 20
40.179985
 30
0.0
 11
207.7930499999999
 21
46.97998499999999
 31
0.0
  0
LINE
  5
38F
330
1E
100
AcDbEntity
  8
0
100
AcDbLine
 10
207.7930499999999
 20
33.37998499999999
 30
0.0
 11
207.7930499999999
 21
40.179985
 31
0.0
  0
LINE
  5
390
330
1E
100
AcDbEntity
  8
0
100
AcDbLine
 10
207.7930499999999
 20
33.37998499999999
 30
0.0
 11
207.7930499999999
 21
26.979985
 31
0.0
  0
LINE
  5
391
330
1E
100
AcDbEntity
  8
0
100
AcDbLine
 10
209.7930499999999
 20
40.179985
 30
0.0
 11
209.7930499999999
 21
33.27998499999999
 31
0.0
  0
LINE
  5
392
330
1E
100
AcDbEntity
  8
0
100
AcDbLine
 10
209.7930499999999
 20
40.179985
 30
0.0
 11
209.7930499999999
 21
47.079985
 31
0.0
  0
LINE
  5
393
330
1E
100
AcDbEntity
  8
0
100
AcDbLine
 10
209.7930499999999
 20
33.27998499999999
 30
0.0
 11
209.7930499999999
 21
40.179985
 31
0.0
  0
LINE
  5
394
330
1E
100
AcDbEntity
  8
0
100
AcDbLine
 10
209.7930499999999
 20
33.27998499999999
 30
0.0
 11
209.7930499999999
 21
26.77998499999999
 31
0.0
  0
LINE
  5
395
330
1E
100
AcDbEntity
  8
0
100
AcDbLine
 10
203.2930499999999
 20
58.67998499999999
 30
0.0
 11
205.7930499999999
 21
61.67998499999999
 31
0.0
  0
LINE
  5
396
330
1E
100
AcDbEntity
  8
0
100
AcDbLine
 10
210.2930499999999
 20
68.679985
 30
0.0
 11
211.29305
 21
69.679985
 31
0.0
  0
LINE
  5
397
330
1E
100
AcDbEntity
  8
0
100
AcDbLine
 10
209.7930499999999
 20
67.179985
 30
0.0
 11
210.2930499999999
 21
68.679985
 31
0.0
  0
LINE
  5
398
330
1E
100
AcDbEntity
  8
0
100
AcDbLine
 10
209.7930499999999
 20
67.179985
 30
0.0
 11
209.7930499999999
 21
66.179985
 31
0.0
  0
LINE
  5
399
330
1E
100
AcDbEntity
  8
0
100
AcDbLine
 10
212.79305
 20
25.279985
 30
0.0
 11
212.79305
 21
32.479985
 31
0.0
  0
LINE
  5
39A
330
1E
100
AcDbEntity
  8
0
100
AcDbLine
 10
212.79305
 20
25.279985
 30
0.0
 11
212.79305
 21
18.97998499999999
 31
0.0
  0
LINE
  5
39B
330
1E
100
AcDbEntity
  8
0
100
AcDbLine
 10
212.79305
 20
55.079985
 30
0.0
 11
212.79305
 21
61.379985
 31
0.0
  0
LINE
  5
39C
330
1E
100
AcDbEntity
  8
0
100
AcDbLine
 10
212.79305
 20
55.079985
 30
0.0
 11
212.79305
 21
47.87998499999999
 31
0.0
  0
LINE
  5
39D
330
1E
100
AcDbEntity
  8
0
100
AcDbLine
 10
212.79305
 20
47.87998499999999
 30
0.0
 11
212.79305
 21
55.079985
 31
0.0
  0
LINE
  5
39E
330
1E
100
AcDbEntity
  8
0
100
AcDbLine
 10
212.79305
 20
47.87998499999999
 30
0.0
 11
212.79305
 21
40.179985
 31
0.0
  0
LINE
  5
39F
330
1E
100
AcDbEntity
  8
0
100
AcDbLine
 10
212.79305
 20
61.379985
 30
0.0
 11
212.79305
 21
66.179985
 31
0.0
  0
LINE
  5
3A0
330
1E
100
AcDbEntity
  8
0
100
AcDbLine
 10
212.79305
 20
61.379985
 30
0.0
 11
212.79305
 21
55.079985
 31
0.0
  0
LINE
  5
3A1
330
1E
100
AcDbEntity
  8
0
100
AcDbLine
 10
212.79305
 20
66.179985
 30
0.0
 11
212.79305
 21
69.07998499999999
 31
0.0
  0
LINE
  5
3A2
330
1E
100
AcDbEntity
  8
0
100
AcDbLine
 10
212.79305
 20
66.179985
 30
0.0
 11
212.79305
 21
61.379985
 31
0.0
  0
LINE
  5
3A3
330
1E
100
AcDbEntity
  8
0
100
AcDbLine
 10
212.79305
 20
70.179985
 30
0.0
 11
212.79305
 21
69.07998499999999
 31
0.0
  0
LINE
  5
3A4
330
1E
100
AcDbEntity
  8
0
100
AcDbLine
 10
212.79305
 20
69.07998499999999
 30
0.0
 11
212.79305
 21
70.179985
 31
0.0
  0
LINE
  5
3A5
330
1E
100
AcDbEntity
  8
0
100
AcDbLine
 10
212.79305
 20
69.07998499999999
 30
0.0
 11
212.79305
 21
66.179985
 31
0.0
  0
LINE
  5
3A6
330
1E
100
AcDbEntity
  8
0
100
AcDbLine
 10
212.79305
 20
40.179985
 30
0.0
 11
212.79305
 21
32.479985
 31
0.0
  0
LINE
  5
3A7
330
1E
100
AcDbEntity
  8
0
100
AcDbLine
 10
212.79305
 20
40.179985
 30
0.0
 11
212.79305
 21
47.87998499999999
 31
0.0
  0
LINE
  5
3A8
330
1E
100
AcDbEntity
  8
0
100
AcDbLine
 10
212.79305
 20
32.479985
 30
0.0
 11
212.79305
 21
40.179985
 31
0.0
  0
LINE
  5
3A9
330
1E
100
AcDbEntity
  8
0
100
AcDbLine
 10
212.79305
 20
32.479985
 30
0.0
 11
212.79305
 21
25.279985
 31
0.0
  0
LINE
  5
3AA
330
1E
100
AcDbEntity
  8
0
100
AcDbLine
 10
211.29305
 20
69.679985
 30
0.0
 11
212.79305
 21
70.179985
 31
0.0
  0
LINE
  5
3AB
330
1E
100
AcDbEntity
  8
0
100
AcDbLine
 10
158.2930499999999
 20
25.179985
 30
0.0
 11
194.79305
 21
25.179985
 31
0.0
  0
LINE
  5
3AC
330
1E
100
AcDbEntity
  8
0
100
AcDbLine
 10
156.29305
 20
23.679985
 30
0.0
 11
156.7930499999999
 21
24.679985
 31
0.0
  0
LINE
  5
3AD
330
1E
100
AcDbEntity
  8
0
100
AcDbLine
 10
156.29305
 20
23.679985
 30
0.0
 11
156.29305
 21
24.279985
 31
0.0
  0
ENDSEC
  0
SECTION
  2
OBJECTS
  0
DICTIONARY
  5
C
330
0
100
AcDbDictionary
281
     1
  3
ACAD_GROUP
350
D
  3
ACAD_LAYOUT
350
19
  3
ACAD_MLINESTYLE
350
16
  3
ACAD_PLOTSETTINGS
350
18
  3
ACAD_PLOTSTYLENAME
350
E
  3
AcDbVariableDictionary
350
3B2
  0
DICTIONARY
  5
D
102
{ACAD_REACTORS
330
C
102
}
330
C
100
AcDbDictionary
281
     1
  0
DICTIONARY
  5
19
102
{ACAD_REACTORS
330
C
102
}
330
C
100
AcDbDictionary
281
     1
  3
Layout1
350
1D
  3
Model
350
21
  0
DICTIONARY
  5
16
102
{ACAD_REACTORS
330
C
102
}
330
C
100
AcDbDictionary
281
     1
  3
Standard
350
17
  0
DICTIONARY
  5
18
102
{ACAD_REACTORS
330
C
102
}
330
C
100
AcDbDictionary
281
     1
  0
ACDBDICTIONARYWDFLT
  5
E
102
{ACAD_REACTORS
330
C
102
}
330
C
100
AcDbDictionary
281
     1
  3
Normal
350
F
100
AcDbDictionaryWithDefault
340
F
  0
DICTIONARY
  5
3B2
102
{ACAD_REACTORS
330
C
102
}
330
C
100
AcDbDictionary
281
     1
  3
DIMASSOC
350
3B3
  0
LAYOUT
  5
1D
102
{ACAD_REACTORS
330
19
102
}
330
19
100
AcDbPlotSettings
  1

  2
hp deskjet 980c series
  4

  6

 40
0.0
 41
0.0
 42
0.0
 43
0.0
 44
0.0
 45
0.0
 46
0.0
 47
0.0
 48
0.0
 49
0.0
140
0.0
141
0.0
142
1.0
143
1.0
 70
   688
 72
     0
 73
     0
 74
     5
  7

 75
    16
147
1.0
148
0.0
149
0.0
100
AcDbLayout
  1
Layout1
 70
     1
 71
     1
 10
0.0
 20
0.0
 11
12.0
 21
9.0
 12
0.0
 22
0.0
 32
0.0
 14
1.000000000000000E+20
 24
1.000000000000000E+20
 34
1.000000000000000E+20
 15
-1.000000000000000E+20
 25
-1.000000000000000E+20
 35
-1.000000000000000E+20
146
0.0
 13
0.0
 23
0.0
 33
0.0
 16
1.0
 26
0.0
 36
0.0
 17
0.0
 27
1.0
 37
0.0
 76
     0
330
1A
  0
LAYOUT
  5
21
102
{ACAD_REACTORS
330
19
102
}
330
19
100
AcDbPlotSettings
  1

  2
hp deskjet 980c series
  4

  6

 40
0.0
 41
0.0
 42
0.0
 43
0.0
 44
0.0
 45
0.0
 46
0.0
 47
0.0
 48
0.0
 49
0.0
140
0.0
141
0.0
142
1.0
143
1.0
 70
  1712
 72
     0
 73
     0
 74
     0
  7

 75
     0
147
1.0
148
0.0
149
0.0
100
AcDbLayout
  1
Model
 70
     1
 71
     0
 10
0.0
 20
0.0
 11
12.0
 21
9.0
 12
0.0
 22
0.0
 32
0.0
 14
0.0
 24
0.0
 34
0.0
 15
0.0
 25
0.0
 35
0.0
146
0.0
 13
0.0
 23
0.0
 33
0.0
 16
1.0
 26
0.0
 36
0.0
 17
0.0
 27
1.0
 37
0.0
 76
     0
330
1E
  0
MLINESTYLE
  5
17
102
{ACAD_REACTORS
330
16
102
}
330
16
100
AcDbMlineStyle
  2
STANDARD
 70
     0
  3

 62
   256
 51
90.0
 52
90.0
 71
     2
 49
0.5
 62
   256
  6
BYLAYER
 49
-0.5
 62
   256
  6
BYLAYER
  0
ACDBPLACEHOLDER
  5
F
102
{ACAD_REACTORS
330
E
102
}
330
E
  0
DICTIONARYVAR
  5
3B3
102
{ACAD_REACTORS
330
3B2
102
}
330
3B2
100
DictionaryVariables
280
     0
  1
1
  0
ENDSEC
  0
EOF
