  0
SECTION
  2
HEADER
  9
$ACADVER
  1
AC1015
  9
$ACADMAINTVER
 70
    13
  9
$DWGCODEPAGE
  3
ANSI_1252
  9
$INSBASE
 10
0.0
 20
0.0
 30
0.0
  9
$EXTMIN
 10
-0.0000000000000072
 20
-0.17998499999999
 30
0.0
  9
$EXTMAX
 10
260.0
 20
70.179985
 30
0.0
  9
$LIMMIN
 10
0.0
 20
0.0
  9
$LIMMAX
 10
12.0
 20
9.0
  9
$ORTHOMODE
 70
     0
  9
$REGENMODE
 70
     1
  9
$FILLMODE
 70
     1
  9
$QTEXTMODE
 70
     0
  9
$MIRRTEXT
 70
     1
  9
$LTSCALE
 40
1.0
  9
$ATTMODE
 70
     1
  9
$TEXTSIZE
 40
0.2
  9
$TRACEWID
 40
0.05
  9
$TEXTSTYLE
  7
Standard
  9
$CLAYER
  8
0
  9
$CELTYPE
  6
Continuous
  9
$CECOLOR
 62
   256
  9
$CELTSCALE
 40
1.0
  9
$DISPSILH
 70
     0
  9
$DIMSCALE
 40
1.0
  9
$DIMASZ
 40
0.18
  9
$DIMEXO
 40
0.0625
  9
$DIMDLI
 40
0.38
  9
$DIMRND
 40
0.0
  9
$DIMDLE
 40
0.0
  9
$DIMEXE
 40
0.18
  9
$DIMTP
 40
0.0
  9
$DIMTM
 40
0.0
  9
$DIMTXT
 40
0.18
  9
$DIMCEN
 40
0.09
  9
$DIMTSZ
 40
0.0
  9
$DIMTOL
 70
     0
  9
$DIMLIM
 70
     0
  9
$DIMTIH
 70
     1
  9
$DIMTOH
 70
     1
  9
$DIMSE1
 70
     0
  9
$DIMSE2
 70
     0
  9
$DIMTAD
 70
     0
  9
$DIMZIN
 70
     0
  9
$DIMBLK
  1

  9
$DIMASO
 70
     1
  9
$DIMSHO
 70
     1
  9
$DIMPOST
  1

  9
$DIMAPOST
  1

  9
$DIMALT
 70
     0
  9
$DIMALTD
 70
     2
  9
$DIMALTF
 40
25.4
  9
$DIMLFAC
 40
1.0
  9
$DIMTOFL
 70
     0
  9
$DIMTVP
 40
0.0
  9
$DIMTIX
 70
     0
  9
$DIMSOXD
 70
     0
  9
$DIMSAH
 70
     0
  9
$DIMBLK1
  1

  9
$DIMBLK2
  1

  9
$DIMSTYLE
  2
Standard
  9
$DIMCLRD
 70
     0
  9
$DIMCLRE
 70
     0
  9
$DIMCLRT
 70
     0
  9
$DIMTFAC
 40
1.0
  9
$DIMGAP
 40
0.09
  9
$DIMJUST
 70
     0
  9
$DIMSD1
 70
     0
  9
$DIMSD2
 70
     0
  9
$DIMTOLJ
 70
     1
  9
$DIMTZIN
 70
     0
  9
$DIMALTZ
 70
     0
  9
$DIMALTTZ
 70
     0
  9
$DIMUPT
 70
     0
  9
$DIMDEC
 70
     4
  9
$DIMTDEC
 70
     4
  9
$DIMALTU
 70
     2
  9
$DIMALTTD
 70
     2
  9
$DIMTXSTY
  7
Standard
  9
$DIMAUNIT
 70
     0
  9
$DIMADEC
 70
     0
  9
$DIMALTRND
 40
0.0
  9
$DIMAZIN
 70
     0
  9
$DIMDSEP
 70
    46
  9
$DIMATFIT
 70
     3
  9
$DIMFRAC
 70
     0
  9
$DIMLDRBLK
  1

  9
$DIMLUNIT
 70
     2
  9
$DIMLWD
 70
    -2
  9
$DIMLWE
 70
    -2
  9
$DIMTMOVE
 70
     0
  9
$LUNITS
 70
     2
  9
$LUPREC
 70
     4
  9
$SKETCHINC
 40
0.1
  9
$FILLETRAD
 40
0.0
  9
$AUNITS
 70
     0
  9
$AUPREC
 70
     0
  9
$MENU
  1
.
  9
$ELEVATION
 40
0.0
  9
$PELEVATION
 40
0.0
  9
$THICKNESS
 40
0.0
  9
$LIMCHECK
 70
     0
  9
$CHAMFERA
 40
0.0
  9
$CHAMFERB
 40
0.0
  9
$CHAMFERC
 40
0.0
  9
$CHAMFERD
 40
0.0
  9
$SKPOLY
 70
     0
  9
$TDCREATE
 40
2454751.617579386
  9
$TDUCREATE
 40
2454751.534246053
  9
$TDUPDATE
 40
2454751.620176678
  9
$TDUUPDATE
 40
2454751.536843345
  9
$TDINDWG
 40
0.0025974769
  9
$TDUSRTIMER
 40
0.0025974769
  9
$USRTIMER
 70
     1
  9
$ANGBASE
 50
0.0
  9
$ANGDIR
 70
     0
  9
$PDMODE
 70
     0
  9
$PDSIZE
 40
0.0
  9
$PLINEWID
 40
0.0
  9
$SPLFRAME
 70
     0
  9
$SPLINETYPE
 70
     6
  9
$SPLINESEGS
 70
     8
  9
$HANDSEED
  5
5A5
  9
$SURFTAB1
 70
     6
  9
$SURFTAB2
 70
     6
  9
$SURFTYPE
 70
     6
  9
$SURFU
 70
     6
  9
$SURFV
 70
     6
  9
$UCSBASE
  2

  9
$UCSNAME
  2

  9
$UCSORG
 10
0.0
 20
0.0
 30
0.0
  9
$UCSXDIR
 10
1.0
 20
0.0
 30
0.0
  9
$UCSYDIR
 10
0.0
 20
1.0
 30
0.0
  9
$UCSORTHOREF
  2

  9
$UCSORTHOVIEW
 70
     1
  9
$UCSORGTOP
 10
0.0
 20
0.0
 30
0.0
  9
$UCSORGBOTTOM
 10
0.0
 20
0.0
 30
0.0
  9
$UCSORGLEFT
 10
0.0
 20
0.0
 30
0.0
  9
$UCSORGRIGHT
 10
0.0
 20
0.0
 30
0.0
  9
$UCSORGFRONT
 10
0.0
 20
0.0
 30
0.0
  9
$UCSORGBACK
 10
0.0
 20
0.0
 30
0.0
  9
$PUCSBASE
  2

  9
$PUCSNAME
  2

  9
$PUCSORG
 10
0.0
 20
0.0
 30
0.0
  9
$PUCSXDIR
 10
1.0
 20
0.0
 30
0.0
  9
$PUCSYDIR
 10
0.0
 20
1.0
 30
0.0
  9
$PUCSORTHOREF
  2

  9
$PUCSORTHOVIEW
 70
     0
  9
$PUCSORGTOP
 10
0.0
 20
0.0
 30
0.0
  9
$PUCSORGBOTTOM
 10
0.0
 20
0.0
 30
0.0
  9
$PUCSORGLEFT
 10
0.0
 20
0.0
 30
0.0
  9
$PUCSORGRIGHT
 10
0.0
 20
0.0
 30
0.0
  9
$PUCSORGFRONT
 10
0.0
 20
0.0
 30
0.0
  9
$PUCSORGBACK
 10
0.0
 20
0.0
 30
0.0
  9
$USERI1
 70
     0
  9
$USERI2
 70
     0
  9
$USERI3
 70
     0
  9
$USERI4
 70
     0
  9
$USERI5
 70
     0
  9
$USERR1
 40
0.0
  9
$USERR2
 40
0.0
  9
$USERR3
 40
0.0
  9
$USERR4
 40
0.0
  9
$USERR5
 40
0.0
  9
$WORLDVIEW
 70
     1
  9
$SHADEDGE
 70
     3
  9
$SHADEDIF
 70
    70
  9
$TILEMODE
 70
     1
  9
$MAXACTVP
 70
    64
  9
$PINSBASE
 10
0.0
 20
0.0
 30
0.0
  9
$PLIMCHECK
 70
     0
  9
$PEXTMIN
 10
1.000000000000000E+20
 20
1.000000000000000E+20
 30
1.000000000000000E+20
  9
$PEXTMAX
 10
-1.000000000000000E+20
 20
-1.000000000000000E+20
 30
-1.000000000000000E+20
  9
$PLIMMIN
 10
0.0
 20
0.0
  9
$PLIMMAX
 10
12.0
 20
9.0
  9
$UNITMODE
 70
     0
  9
$VISRETAIN
 70
     1
  9
$PLINEGEN
 70
     0
  9
$PSLTSCALE
 70
     1
  9
$TREEDEPTH
 70
  3020
  9
$CMLSTYLE
  2
Standard
  9
$CMLJUST
 70
     0
  9
$CMLSCALE
 40
1.0
  9
$PROXYGRAPHICS
 70
     1
  9
$MEASUREMENT
 70
     0
  9
$CELWEIGHT
370
    -1
  9
$ENDCAPS
280
     0
  9
$JOINSTYLE
280
     0
  9
$LWDISPLAY
290
     0
  9
$INSUNITS
 70
     0
  9
$HYPERLINKBASE
  1

  9
$STYLESHEET
  1

  9
$XEDIT
290
     1
  9
$CEPSNTYPE
380
     0
  9
$PSTYLEMODE
290
     1
  9
$FINGERPRINTGUID
  2
{757F3D16-A2CC-42F4-96E7-67BCB55E21BB}
  9
$VERSIONGUID
  2
{0F162A56-4CAE-4DF4-9B93-5D1C60671ED0}
  9
$EXTNAMES
290
     1
  9
$PSVPSCALE
 40
0.0
  9
$OLESTARTUP
290
     0
  0
ENDSEC
  0
SECTION
  2
CLASSES
  0
CLASS
  1
ACDBDICTIONARYWDFLT
  2
AcDbDictionaryWithDefault
  3
AutoCAD 2000
 90
        0
280
     0
281
     0
  0
CLASS
  1
ACDBPLACEHOLDER
  2
AcDbPlaceHolder
  3
AutoCAD 2000
 90
        0
280
     0
281
     0
  0
CLASS
  1
LAYOUT
  2
AcDbLayout
  3
AutoCAD 2000
 90
        0
280
     0
281
     0
  0
CLASS
  1
DICTIONARYVAR
  2
AcDbDictionaryVar
  3
AutoCAD 2000
 90
        0
280
     0
281
     0
  0
ENDSEC
  0
SECTION
  2
TABLES
  0
TABLE
  2
VPORT
  5
8
330
0
100
AcDbSymbolTable
 70
     2
  0
VPORT
  5
5A4
330
8
100
AcDbSymbolTableRecord
100
AcDbViewportTableRecord
  2
*Active
 70
     0
 10
0.0
 20
0.0
 11
1.0
 21
1.0
 12
130.0
 22
35.0
 13
0.0
 23
0.0
 14
1.0
 24
1.0
 15
0.0
 25
0.0
 16
0.0
 26
0.0
 36
1.0
 17
0.0
 27
0.0
 37
0.0
 40
125.5762302371391
 41
2.078104993597951
 42
50.0
 43
0.0
 44
0.0
 50
0.0
 51
0.0
 71
     0
 72
   100
 73
     1
 74
     3
 75
     0
 76
     0
 77
     0
 78
     0
281
     0
 65
     1
110
0.0
120
0.0
130
0.0
111
1.0
121
0.0
131
0.0
112
0.0
122
1.0
132
0.0
 79
     1
146
0.0
  0
ENDTAB
  0
TABLE
  2
LTYPE
  5
5
330
0
100
AcDbSymbolTable
 70
     1
  0
LTYPE
  5
13
330
5
100
AcDbSymbolTableRecord
100
AcDbLinetypeTableRecord
  2
ByBlock
 70
     0
  3

 72
    65
 73
     0
 40
0.0
  0
LTYPE
  5
14
330
5
100
AcDbSymbolTableRecord
100
AcDbLinetypeTableRecord
  2
ByLayer
 70
     0
  3

 72
    65
 73
     0
 40
0.0
  0
LTYPE
  5
15
330
5
100
AcDbSymbolTableRecord
100
AcDbLinetypeTableRecord
  2
Continuous
 70
     0
  3
Solid line
 72
    65
 73
     0
 40
0.0
  0
ENDTAB
  0
TABLE
  2
LAYER
  5
2
330
0
100
AcDbSymbolTable
 70
     1
  0
LAYER
  5
10
330
2
100
AcDbSymbolTableRecord
100
AcDbLayerTableRecord
  2
0
 70
     0
 62
     7
  6
Continuous
370
    -3
390
F
  0
ENDTAB
  0
TABLE
  2
STYLE
  5
3
330
0
100
AcDbSymbolTable
 70
     1
  0
STYLE
  5
11
330
3
100
AcDbSymbolTableRecord
100
AcDbTextStyleTableRecord
  2
Standard
 70
     0
 40
0.0
 41
1.0
 50
0.0
 71
     0
 42
0.2
  3
txt
  4

  0
ENDTAB
  0
TABLE
  2
VIEW
  5
6
330
0
100
AcDbSymbolTable
 70
     0
  0
ENDTAB
  0
TABLE
  2
UCS
  5
7
330
0
100
AcDbSymbolTable
 70
     0
  0
ENDTAB
  0
TABLE
  2
APPID
  5
9
330
0
100
AcDbSymbolTable
 70
     1
  0
APPID
  5
12
330
9
100
AcDbSymbolTableRecord
100
AcDbRegAppTableRecord
  2
ACAD
 70
     0
  0
ENDTAB
  0
TABLE
  2
DIMSTYLE
  5
A
330
0
100
AcDbSymbolTable
 70
     1
100
AcDbDimStyleTable
 71
     0
  0
DIMSTYLE
105
462
330
A
100
AcDbSymbolTableRecord
100
AcDbDimStyleTableRecord
  2
Standard
 70
     0
340
11
  0
ENDTAB
  0
TABLE
  2
BLOCK_RECORD
  5
1
330
0
100
AcDbSymbolTable
 70
     0
  0
BLOCK_RECORD
  5
1E
330
1
100
AcDbSymbolTableRecord
100
AcDbBlockTableRecord
  2
*Model_Space
340
21
  0
BLOCK_RECORD
  5
1A
330
1
100
AcDbSymbolTableRecord
100
AcDbBlockTableRecord
  2
*Paper_Space
340
1D
  0
ENDTAB
  0
ENDSEC
  0
SECTION
  2
BLOCKS
  0
BLOCK
  5
1F
330
1E
100
AcDbEntity
  8
0
100
AcDbBlockBegin
  2
*Model_Space
 70
     0
 10
0.0
 20
0.0
 30
0.0
  3
*Model_Space
  1

  0
ENDBLK
  5
20
330
1E
100
AcDbEntity
  8
0
100
AcDbBlockEnd
  0
BLOCK
  5
1B
330
1A
100
AcDbEntity
 67
     1
  8
0
100
AcDbBlockBegin
  2
*Paper_Space
 70
     0
 10
0.0
 20
0.0
 30
0.0
  3
*Paper_Space
  1

  0
ENDBLK
  5
1C
330
1A
100
AcDbEntity
 67
     1
  8
0
100
AcDbBlockEnd
  0
ENDSEC
  0
SECTION
  2
ENTITIES
  0
LINE
  5
22
330
1E
100
AcDbEntity
  8
0
100
AcDbLine
 10
1.09999999999999
 20
32.479985
 30
0.0
 11
3.99999999999999
 21
25.279985
 31
0.0
  0
LINE
  5
23
330
1E
100
AcDbEntity
  8
0
100
AcDbLine
 10
1.09999999999999
 20
32.479985
 30
0.0
 11
3.99999999999999
 21
25.279985
 31
0.0
  0
LINE
  5
24
330
1E
100
AcDbEntity
  8
0
100
AcDbLine
 10
1.499999999999989
 20
38.879985
 30
0.0
 11
3.99999999999999
 21
38.37998499999999
 31
0.0
  0
LINE
  5
26
330
1E
100
AcDbEntity
  8
0
100
AcDbLine
 10
3.757575757575749
 20
38.42846984848489
 30
0.0
 11
4.49999999999999
 21
33.37998499999999
 31
0.0
  0
LINE
  5
28
330
1E
100
AcDbEntity
  8
0
100
AcDbLine
 10
4.49999999999999
 20
33.37998499999999
 30
0.0
 11
6.99999999999999
 21
26.979985
 31
0.0
  0
LINE
  5
29
330
1E
100
AcDbEntity
  8
0
100
AcDbLine
 10
3.99999999999999
 20
25.279985
 30
0.0
 11
8.79999999999999
 21
18.97998499999999
 31
0.0
  0
LINE
  5
2A
330
1E
100
AcDbEntity
  8
0
100
AcDbLine
 10
3.99999999999999
 20
38.37998499999999
 30
0.0
 11
6.99999999999999
 21
38.17998499999999
 31
0.0
  0
LINE
  5
2E
330
1E
100
AcDbEntity
  8
0
100
AcDbLine
 10
8.79999999999999
 20
18.97998499999999
 30
0.0
 11
15.09999999999999
 21
14.179985
 31
0.0
  0
LINE
  5
2F
330
1E
100
AcDbEntity
  8
0
100
AcDbLine
 10
6.99999999999999
 20
26.979985
 30
0.0
 11
11.3
 21
21.47998499999999
 31
0.0
  0
LINE
  5
31
330
1E
100
AcDbEntity
  8
0
100
AcDbLine
 10
11.3
 20
21.47998499999999
 30
0.0
 11
16.8
 21
17.179985
 31
0.0
  0
LINE
  5
34
330
1E
100
AcDbEntity
  8
0
100
AcDbLine
 10
11.0
 20
37.879985
 30
0.0
 11
13.8861
 21
36.95038499999999
 31
0.0
  0
LINE
  5
35
330
1E
100
AcDbEntity
  8
0
100
AcDbLine
 10
10.99799999999999
 20
39.079985
 30
0.0
 11
14.54209999999999
 21
38.03358499999999
 31
0.0
  0
LINE
  5
36
330
1E
100
AcDbEntity
  8
0
100
AcDbLine
 10
7.02289999999999
 20
39.37998499999999
 30
0.0
 11
10.99799999999999
 21
39.079985
 31
0.0
  0
LINE
  5
37
330
1E
100
AcDbEntity
  8
0
100
AcDbLine
 10
6.99999999999999
 20
38.17998499999999
 30
0.0
 11
11.0
 21
37.879985
 31
0.0
  0
LINE
  5
38
330
1E
100
AcDbEntity
  8
0
100
AcDbLine
 10
5.12519999999999
 20
39.37998499999999
 30
0.0
 11
7.02289999999999
 21
39.37998499999999
 31
0.0
  0
LINE
  5
39
330
1E
100
AcDbEntity
  8
0
100
AcDbLine
 10
3.62529999999999
 20
39.37998499999999
 30
0.0
 11
5.12519999999999
 21
39.37998499999999
 31
0.0
  0
LINE
  5
3A
330
1E
100
AcDbEntity
  8
0
100
AcDbLine
 10
2.52919999999999
 20
39.37998499999999
 30
0.0
 11
3.62529999999999
 21
39.37998499999999
 31
0.0
  0
LINE
  5
3B
330
1E
100
AcDbEntity
  8
0
100
AcDbLine
 10
1.87539999999999
 20
39.37998499999999
 30
0.0
 11
2.52919999999999
 21
39.37998499999999
 31
0.0
  0
LINE
  5
3C
330
1E
100
AcDbEntity
  8
0
100
AcDbLine
 10
1.356199999999989
 20
39.37998499999999
 30
0.0
 11
1.87539999999999
 21
39.37998499999999
 31
0.0
  0
LINE
  5
3D
330
1E
100
AcDbEntity
  8
0
100
AcDbLine
 10
-0.0000000000000072
 20
40.179985
 30
0.0
 11
1.09999999999999
 21
32.479985
 31
0.0
  0
LINE
  5
3E
330
1E
100
AcDbEntity
  8
0
100
AcDbLine
 10
-0.0000000000000072
 20
40.179985
 30
0.0
 11
1.09999999999999
 21
47.87998499999999
 31
0.0
  0
LINE
  5
3F
330
1E
100
AcDbEntity
  8
0
100
AcDbLine
 10
0.9999999999999928
 20
40.979985
 30
0.0
 11
0.9999999999999928
 21
40.179985
 31
0.0
  0
LINE
  5
40
330
1E
100
AcDbEntity
  8
0
100
AcDbLine
 10
0.9999999999999928
 20
40.979985
 30
0.0
 11
1.499999999999989
 21
41.47998499999999
 31
0.0
  0
LINE
  5
41
330
1E
100
AcDbEntity
  8
0
100
AcDbLine
 10
0.9999999999999928
 20
40.979985
 30
0.0
 11
1.356199999999989
 21
40.979985
 31
0.0
  0
LINE
  5
42
330
1E
100
AcDbEntity
  8
0
100
AcDbLine
 10
5.12519999999999
 20
40.979985
 30
0.0
 11
7.02289999999999
 21
40.979985
 31
0.0
  0
LINE
  5
43
330
1E
100
AcDbEntity
  8
0
100
AcDbLine
 10
3.62529999999999
 20
40.979985
 30
0.0
 11
5.12519999999999
 21
40.979985
 31
0.0
  0
LINE
  5
44
330
1E
100
AcDbEntity
  8
0
100
AcDbLine
 10
2.52919999999999
 20
40.979985
 30
0.0
 11
3.62529999999999
 21
40.979985
 31
0.0
  0
LINE
  5
48
330
1E
100
AcDbEntity
  8
0
100
AcDbLine
 10
1.87539999999999
 20
40.979985
 30
0.0
 11
2.52919999999999
 21
40.979985
 31
0.0
  0
LINE
  5
49
330
1E
100
AcDbEntity
  8
0
100
AcDbLine
 10
1.356199999999989
 20
40.979985
 30
0.0
 11
1.87539999999999
 21
40.979985
 31
0.0
  0
LINE
  5
4A
330
1E
100
AcDbEntity
  8
0
100
AcDbLine
 10
3.757575757575749
 20
41.9315001515152
 30
0.0
 11
4.49999999999999
 21
46.97998499999999
 31
0.0
  0
LINE
  5
4C
330
1E
100
AcDbEntity
  8
0
100
AcDbLine
 10
3.99999999999999
 20
41.97998499999999
 30
0.0
 11
6.99999999999999
 21
42.17998499999999
 31
0.0
  0
LINE
  5
4D
330
1E
100
AcDbEntity
  8
0
100
AcDbLine
 10
1.499999999999989
 20
41.47998499999999
 30
0.0
 11
3.99999999999999
 21
41.97998499999999
 31
0.0
  0
LINE
  5
4E
330
1E
100
AcDbEntity
  8
0
100
AcDbLine
 10
10.99799999999999
 20
41.27998499999999
 30
0.0
 11
14.54209999999999
 21
42.32638499999999
 31
0.0
  0
LINE
  5
4F
330
1E
100
AcDbEntity
  8
0
100
AcDbLine
 10
7.02289999999999
 20
40.979985
 30
0.0
 11
10.99799999999999
 21
41.27998499999999
 31
0.0
  0
LINE
  5
50
330
1E
100
AcDbEntity
  8
0
100
AcDbLine
 10
1.09999999999999
 20
47.87998499999999
 30
0.0
 11
3.99999999999999
 21
55.079985
 31
0.0
  0
LINE
  5
51
330
1E
100
AcDbEntity
  8
0
100
AcDbLine
 10
6.99999999999999
 20
53.379985
 30
0.0
 11
11.3
 21
58.879985
 31
0.0
  0
LINE
  5
52
330
1E
100
AcDbEntity
  8
0
100
AcDbLine
 10
4.49999999999999
 20
46.97998499999999
 30
0.0
 11
6.99999999999999
 21
53.379985
 31
0.0
  0
LINE
  5
53
330
1E
100
AcDbEntity
  8
0
100
AcDbLine
 10
3.99999999999999
 20
55.079985
 30
0.0
 11
8.79999999999999
 21
61.379985
 31
0.0
  0
LINE
  5
54
330
1E
100
AcDbEntity
  8
0
100
AcDbLine
 10
1.09999999999999
 20
47.87998499999999
 30
0.0
 11
3.99999999999999
 21
55.079985
 31
0.0
  0
LINE
  5
55
330
1E
100
AcDbEntity
  8
0
100
AcDbLine
 10
8.79999999999999
 20
61.379985
 30
0.0
 11
15.09999999999999
 21
66.179985
 31
0.0
  0
LINE
  5
58
330
1E
100
AcDbEntity
  8
0
100
AcDbLine
 10
11.3
 20
58.879985
 30
0.0
 11
16.8
 21
63.17998499999999
 31
0.0
  0
LINE
  5
59
330
1E
100
AcDbEntity
  8
0
100
AcDbLine
 10
11.0
 20
42.479985
 30
0.0
 11
13.8861
 21
43.409585
 31
0.0
  0
LINE
  5
5A
330
1E
100
AcDbEntity
  8
0
100
AcDbLine
 10
6.99999999999999
 20
42.17998499999999
 30
0.0
 11
11.0
 21
42.479985
 31
0.0
  0
LINE
  5
5B
330
1E
100
AcDbEntity
  8
0
100
AcDbLine
 10
0.9999999999999928
 20
40.179985
 30
0.0
 11
0.9999999999999928
 21
39.37998499999999
 31
0.0
  0
LINE
  5
5C
330
1E
100
AcDbEntity
  8
0
100
AcDbLine
 10
0.9999999999999928
 20
40.179985
 30
0.0
 11
0.9999999999999928
 21
40.979985
 31
0.0
  0
LINE
  5
5D
330
1E
100
AcDbEntity
  8
0
100
AcDbLine
 10
0.9999999999999928
 20
39.37998499999999
 30
0.0
 11
0.9999999999999928
 21
40.179985
 31
0.0
  0
LINE
  5
5E
330
1E
100
AcDbEntity
  8
0
100
AcDbLine
 10
0.9999999999999928
 20
39.37998499999999
 30
0.0
 11
1.356199999999989
 21
39.37998499999999
 31
0.0
  0
LINE
  5
5F
330
1E
100
AcDbEntity
  8
0
100
AcDbLine
 10
0.9999999999999928
 20
39.37998499999999
 30
0.0
 11
1.499999999999989
 21
38.879985
 31
0.0
  0
LINE
  5
60
330
1E
100
AcDbEntity
  8
0
100
AcDbLine
 10
15.09999999999999
 20
14.179985
 30
0.0
 11
22.29999999999999
 21
11.279985
 31
0.0
  0
LINE
  5
61
330
1E
100
AcDbEntity
  8
0
100
AcDbLine
 10
21.49999999999999
 20
25.479985
 30
0.0
 11
25.6
 21
23.77998499999999
 31
0.0
  0
LINE
  5
63
330
1E
100
AcDbEntity
  8
0
100
AcDbLine
 10
16.8
 20
17.179985
 30
0.0
 11
23.19999999999999
 21
14.679985
 31
0.0
  0
LINE
  5
65
330
1E
100
AcDbEntity
  8
0
100
AcDbLine
 10
25.6
 20
23.77998499999999
 30
0.0
 11
26.92055303152599
 21
23.5999095866101
 31
0.0
  0
LINE
  5
67
330
1E
100
AcDbEntity
  8
0
100
AcDbLine
 10
23.19999999999999
 20
14.679985
 30
0.0
 11
28.2484848484848
 21
13.9375607575758
 31
0.0
  0
LINE
  5
69
330
1E
100
AcDbEntity
  8
0
100
AcDbLine
 10
22.29999999999999
 20
11.279985
 30
0.0
 11
30.0
 21
10.179985
 31
0.0
  0
LINE
  5
6B
330
1E
100
AcDbEntity
  8
0
100
AcDbLine
 10
23.39999999999999
 20
28.77998499999999
 30
0.0
 11
25.24919999999999
 21
26.787185
 31
0.0
  0
LINE
  5
6C
330
1E
100
AcDbEntity
  8
0
100
AcDbLine
 10
25.24919999999999
 20
26.787185
 30
0.0
 11
26.77039999999999
 21
24.066085
 31
0.0
  0
LINE
  5
6E
330
1E
100
AcDbEntity
  8
0
100
AcDbLine
 10
21.49999999999999
 20
31.67998499999999
 30
0.0
 11
24.0
 21
29.757685
 31
0.0
  0
LINE
  5
6F
330
1E
100
AcDbEntity
  8
0
100
AcDbLine
 10
20.69999999999999
 20
30.87998499999999
 30
0.0
 11
23.39999999999999
 21
28.77998499999999
 31
0.0
  0
LINE
  5
70
330
1E
100
AcDbEntity
  8
0
100
AcDbLine
 10
24.0
 20
29.757685
 30
0.0
 11
26.00979999999999
 21
27.475985
 31
0.0
  0
LINE
  5
71
330
1E
100
AcDbEntity
  8
0
100
AcDbLine
 10
24.8
 20
31.07998499999999
 30
0.0
 11
27.3
 21
30.07998499999999
 31
0.0
  0
LINE
  5
74
330
1E
100
AcDbEntity
  8
0
100
AcDbLine
 10
18.3
 20
28.479985
 30
0.0
 11
21.8
 21
25.879985
 31
0.0
  0
LINE
  5
75
330
1E
100
AcDbEntity
  8
0
100
AcDbLine
 10
21.8
 20
25.879985
 30
0.0
 11
25.8
 21
24.279985
 31
0.0
  0
LINE
  5
76
330
1E
100
AcDbEntity
  8
0
100
AcDbLine
 10
18.0
 20
28.17998499999999
 30
0.0
 11
21.49999999999999
 21
25.479985
 31
0.0
  0
LINE
  5
77
330
1E
100
AcDbEntity
  8
0
100
AcDbLine
 10
21.49999999999999
 20
25.479985
 30
0.0
 11
25.6
 21
23.77998499999999
 31
0.0
  0
LINE
  5
78
330
1E
100
AcDbEntity
  8
0
100
AcDbLine
 10
28.0
 20
17.179985
 30
0.0
 11
28.2
 21
14.179985
 31
0.0
  0
LINE
  5
7F
330
1E
100
AcDbEntity
  8
0
100
AcDbLine
 10
28.2
 20
14.179985
 30
0.0
 11
28.7
 21
11.679985
 31
0.0
  0
LINE
  5
80
330
1E
100
AcDbEntity
  8
0
100
AcDbLine
 10
28.7
 20
11.679985
 30
0.0
 11
29.19999999999999
 21
11.179985
 31
0.0
  0
LINE
  5
81
330
1E
100
AcDbEntity
  8
0
100
AcDbLine
 10
30.0
 20
10.179985
 30
0.0
 11
37.7
 21
11.279985
 31
0.0
  0
LINE
  5
82
330
1E
100
AcDbEntity
  8
0
100
AcDbLine
 10
30.8
 20
11.179985
 30
0.0
 11
30.8
 21
11.536155
 31
0.0
  0
LINE
  5
83
330
1E
100
AcDbEntity
  8
0
100
AcDbLine
 10
30.8
 20
11.179985
 30
0.0
 11
31.3
 21
11.679985
 31
0.0
  0
LINE
  5
84
330
1E
100
AcDbEntity
  8
0
100
AcDbLine
 10
30.0
 20
11.179985
 30
0.0
 11
30.8
 21
11.179985
 31
0.0
  0
LINE
  5
85
330
1E
100
AcDbEntity
  8
0
100
AcDbLine
 10
29.19999999999999
 20
17.202885
 30
0.0
 11
29.19999999999999
 21
15.305185
 31
0.0
  0
LINE
  5
86
330
1E
100
AcDbEntity
  8
0
100
AcDbLine
 10
29.19999999999999
 20
15.305185
 30
0.0
 11
29.19999999999999
 21
17.202885
 31
0.0
  0
LINE
  5
87
330
1E
100
AcDbEntity
  8
0
100
AcDbLine
 10
29.19999999999999
 20
15.305185
 30
0.0
 11
29.19999999999999
 21
13.805285
 31
0.0
  0
LINE
  5
88
330
1E
100
AcDbEntity
  8
0
100
AcDbLine
 10
29.19999999999999
 20
13.805285
 30
0.0
 11
29.19999999999999
 21
15.305185
 31
0.0
  0
LINE
  5
89
330
1E
100
AcDbEntity
  8
0
100
AcDbLine
 10
29.19999999999999
 20
13.805285
 30
0.0
 11
29.19999999999999
 21
12.709185
 31
0.0
  0
LINE
  5
8A
330
1E
100
AcDbEntity
  8
0
100
AcDbLine
 10
29.19999999999999
 20
12.709185
 30
0.0
 11
29.19999999999999
 21
13.805285
 31
0.0
  0
LINE
  5
8B
330
1E
100
AcDbEntity
  8
0
100
AcDbLine
 10
29.19999999999999
 20
12.709185
 30
0.0
 11
29.19999999999999
 21
12.055355
 31
0.0
  0
LINE
  5
8C
330
1E
100
AcDbEntity
  8
0
100
AcDbLine
 10
29.19999999999999
 20
12.055355
 30
0.0
 11
29.19999999999999
 21
12.709185
 31
0.0
  0
LINE
  5
8D
330
1E
100
AcDbEntity
  8
0
100
AcDbLine
 10
29.19999999999999
 20
12.055355
 30
0.0
 11
29.19999999999999
 21
11.536155
 31
0.0
  0
LINE
  5
8E
330
1E
100
AcDbEntity
  8
0
100
AcDbLine
 10
30.8
 20
15.305185
 30
0.0
 11
30.8
 21
13.805285
 31
0.0
  0
LINE
  5
8F
330
1E
100
AcDbEntity
  8
0
100
AcDbLine
 10
30.8
 20
15.305185
 30
0.0
 11
30.8
 21
17.202885
 31
0.0
  0
LINE
  5
90
330
1E
100
AcDbEntity
  8
0
100
AcDbLine
 10
30.8
 20
13.805285
 30
0.0
 11
30.8
 21
12.709185
 31
0.0
  0
LINE
  5
91
330
1E
100
AcDbEntity
  8
0
100
AcDbLine
 10
30.8
 20
13.805285
 30
0.0
 11
30.8
 21
15.305185
 31
0.0
  0
LINE
  5
92
330
1E
100
AcDbEntity
  8
0
100
AcDbLine
 10
30.8
 20
12.709185
 30
0.0
 11
30.8
 21
12.055355
 31
0.0
  0
LINE
  5
93
330
1E
100
AcDbEntity
  8
0
100
AcDbLine
 10
30.8
 20
12.709185
 30
0.0
 11
30.8
 21
13.805285
 31
0.0
  0
LINE
  5
94
330
1E
100
AcDbEntity
  8
0
100
AcDbLine
 10
30.8
 20
12.055355
 30
0.0
 11
30.8
 21
11.536155
 31
0.0
  0
LINE
  5
95
330
1E
100
AcDbEntity
  8
0
100
AcDbLine
 10
30.8
 20
12.055355
 30
0.0
 11
30.8
 21
12.709185
 31
0.0
  0
LINE
  5
97
330
1E
100
AcDbEntity
  8
0
100
AcDbLine
 10
31.3
 20
11.679985
 30
0.0
 11
31.8
 21
14.179985
 31
0.0
  0
LINE
  5
99
330
1E
100
AcDbEntity
  8
0
100
AcDbLine
 10
31.7515151515151
 20
13.9375607575758
 30
0.0
 11
36.79999999999999
 21
14.679985
 31
0.0
  0
LINE
  5
9B
330
1E
100
AcDbEntity
  8
0
100
AcDbLine
 10
31.8
 20
14.179985
 30
0.0
 11
32.0
 21
17.179985
 31
0.0
  0
LINE
  5
A0
330
1E
100
AcDbEntity
  8
0
100
AcDbLine
 10
30.8
 20
11.536155
 30
0.0
 11
30.8
 21
11.179985
 31
0.0
  0
LINE
  5
A1
330
1E
100
AcDbEntity
  8
0
100
AcDbLine
 10
30.8
 20
11.536155
 30
0.0
 11
30.8
 21
12.055355
 31
0.0
  0
LINE
  5
A2
330
1E
100
AcDbEntity
  8
0
100
AcDbLine
 10
31.1
 20
21.177985
 30
0.0
 11
32.1464
 21
24.722085
 31
0.0
  0
LINE
  5
A3
330
1E
100
AcDbEntity
  8
0
100
AcDbLine
 10
30.8
 20
17.202885
 30
0.0
 11
31.1
 21
21.177985
 31
0.0
  0
LINE
  5
A4
330
1E
100
AcDbEntity
  8
0
100
AcDbLine
 10
30.8
 20
17.202885
 30
0.0
 11
30.8
 21
15.305185
 31
0.0
  0
LINE
  5
A5
330
1E
100
AcDbEntity
  8
0
100
AcDbLine
 10
32.29999999999999
 20
21.179985
 30
0.0
 11
33.2296
 21
24.066085
 31
0.0
  0
LINE
  5
A6
330
1E
100
AcDbEntity
  8
0
100
AcDbLine
 10
32.0
 20
17.179985
 30
0.0
 11
32.29999999999999
 21
21.179985
 31
0.0
  0
LINE
  5
A7
330
1E
100
AcDbEntity
  8
0
100
AcDbLine
 10
29.19999999999999
 20
11.536155
 30
0.0
 11
29.19999999999999
 21
12.055355
 31
0.0
  0
LINE
  5
A8
330
1E
100
AcDbEntity
  8
0
100
AcDbLine
 10
29.19999999999999
 20
11.536155
 30
0.0
 11
29.19999999999999
 21
11.179985
 31
0.0
  0
LINE
  5
A9
330
1E
100
AcDbEntity
  8
0
100
AcDbLine
 10
29.19999999999999
 20
11.179985
 30
0.0
 11
30.0
 21
11.179985
 31
0.0
  0
LINE
  5
AA
330
1E
100
AcDbEntity
  8
0
100
AcDbLine
 10
29.19999999999999
 20
11.179985
 30
0.0
 11
29.19999999999999
 21
11.536155
 31
0.0
  0
LINE
  5
AB
330
1E
100
AcDbEntity
  8
0
100
AcDbLine
 10
28.9
 20
21.177985
 30
0.0
 11
29.19999999999999
 21
17.202885
 31
0.0
  0
LINE
  5
AC
330
1E
100
AcDbEntity
  8
0
100
AcDbLine
 10
33.079446968474
 20
23.5999095866101
 30
0.0
 11
34.39999999999999
 21
23.77998499999999
 31
0.0
  0
LINE
  5
AE
330
1E
100
AcDbEntity
  8
0
100
AcDbLine
 10
26.77039999999999
 20
24.066085
 30
0.0
 11
27.7
 21
21.179985
 31
0.0
  0
LINE
  5
AF
330
1E
100
AcDbEntity
  8
0
100
AcDbLine
 10
27.7
 20
21.179985
 30
0.0
 11
28.0
 21
17.179985
 31
0.0
  0
LINE
  5
B0
330
1E
100
AcDbEntity
  8
0
100
AcDbLine
 10
34.39999999999999
 20
23.77998499999999
 30
0.0
 11
38.5
 21
25.479985
 31
0.0
  0
LINE
  5
B2
330
1E
100
AcDbEntity
  8
0
100
AcDbLine
 10
36.79999999999999
 20
14.679985
 30
0.0
 11
43.2
 21
17.179985
 31
0.0
  0
LINE
  5
B4
330
1E
100
AcDbEntity
  8
0
100
AcDbLine
 10
116.6153999999999
 20
2.385288000000009
 30
0.0
 11
117.7691999999999
 21
1.47300600000001
 31
0.0
  0
LINE
  5
B5
330
1E
100
AcDbEntity
  8
0
100
AcDbLine
 10
115.5769
 20
12.376985
 30
0.0
 11
116.1537999999999
 21
11.73581499999999
 31
0.0
  0
LINE
  5
B6
330
1E
100
AcDbEntity
  8
0
100
AcDbLine
 10
115.0
 20
13.850585
 30
0.0
 11
115.0
 21
13.359385
 31
0.0
  0
LINE
  5
B7
330
1E
100
AcDbEntity
  8
0
100
AcDbLine
 10
115.0
 20
13.850585
 30
0.0
 11
115.5769
 21
15.324185
 31
0.0
  0
LINE
  5
B8
330
1E
100
AcDbEntity
  8
0
100
AcDbLine
 10
115.0
 20
13.359385
 30
0.0
 11
115.5769
 21
12.376985
 31
0.0
  0
LINE
  5
B9
330
1E
100
AcDbEntity
  8
0
100
AcDbLine
 10
115.0
 20
13.359385
 30
0.0
 11
115.0
 21
13.850585
 31
0.0
  0
LINE
  5
BA
330
1E
100
AcDbEntity
  8
0
100
AcDbLine
 10
116.6153999999999
 20
12.506885
 30
0.0
 11
118.0
 21
13.087885
 31
0.0
  0
LINE
  5
BB
330
1E
100
AcDbEntity
  8
0
100
AcDbLine
 10
116.1537999999999
 20
11.88575499999999
 30
0.0
 11
116.1537999999999
 21
3.006410000000009
 31
0.0
  0
LINE
  5
BC
330
1E
100
AcDbEntity
  8
0
100
AcDbLine
 10
116.1537999999999
 20
11.88575499999999
 30
0.0
 11
116.6153999999999
 21
12.506885
 31
0.0
  0
LINE
  5
BD
330
1E
100
AcDbEntity
  8
0
100
AcDbLine
 10
116.6153999999999
 20
3.627535000000009
 30
0.0
 11
118.0
 21
4.208585000000009
 31
0.0
  0
LINE
  5
BE
330
1E
100
AcDbEntity
  8
0
100
AcDbLine
 10
116.1537999999999
 20
3.006410000000009
 30
0.0
 11
116.6153999999999
 21
3.627535000000009
 31
0.0
  0
LINE
  5
BF
330
1E
100
AcDbEntity
  8
0
100
AcDbLine
 10
116.1537999999999
 20
3.006410000000009
 30
0.0
 11
116.6153999999999
 21
2.385288000000009
 31
0.0
  0
LINE
  5
C0
330
1E
100
AcDbEntity
  8
0
100
AcDbLine
 10
116.1537999999999
 20
3.006410000000009
 30
0.0
 11
116.1537999999999
 21
11.88575499999999
 31
0.0
  0
LINE
  5
C1
330
1E
100
AcDbEntity
  8
0
100
AcDbLine
 10
123.6538
 20
0.12054500000001
 30
0.0
 11
126.7692
 21
-0.0998449999999905
 31
0.0
  0
LINE
  5
C2
330
1E
100
AcDbEntity
  8
0
100
AcDbLine
 10
133.2309999999999
 20
-0.0998449999999905
 30
0.0
 11
136.346
 21
0.12054500000001
 31
0.0
  0
LINE
  5
C3
330
1E
100
AcDbEntity
  8
0
100
AcDbLine
 10
130.0
 20
-0.17998499999999
 30
0.0
 11
133.2309999999999
 21
-0.0998449999999905
 31
0.0
  0
LINE
  5
C4
330
1E
100
AcDbEntity
  8
0
100
AcDbLine
 10
133.2309999999999
 20
-0.0998449999999905
 30
0.0
 11
136.346
 21
0.12054500000001
 31
0.0
  0
LINE
  5
C5
330
1E
100
AcDbEntity
  8
0
100
AcDbLine
 10
136.346
 20
0.12054500000001
 30
0.0
 11
139.0
 21
0.4611750000000101
 31
0.0
  0
LINE
  5
C6
330
1E
100
AcDbEntity
  8
0
100
AcDbLine
 10
126.7692
 20
-0.0998449999999905
 30
0.0
 11
130.0
 21
-0.17998499999999
 31
0.0
  0
LINE
  5
C7
330
1E
100
AcDbEntity
  8
0
100
AcDbLine
 10
136.346
 20
0.12054500000001
 30
0.0
 11
139.0
 21
0.4611750000000101
 31
0.0
  0
LINE
  5
C8
330
1E
100
AcDbEntity
  8
0
100
AcDbLine
 10
139.0
 20
0.4611750000000101
 30
0.0
 11
140.962
 21
0.9220050000000099
 31
0.0
  0
LINE
  5
C9
330
1E
100
AcDbEntity
  8
0
100
AcDbLine
 10
140.962
 20
0.9220050000000099
 30
0.0
 11
142.2309999999999
 21
1.47300600000001
 31
0.0
  0
LINE
  5
CA
330
1E
100
AcDbEntity
  8
0
100
AcDbLine
 10
123.6538
 20
0.12054500000001
 30
0.0
 11
126.7692
 21
-0.0998449999999905
 31
0.0
  0
LINE
  5
CB
330
1E
100
AcDbEntity
  8
0
100
AcDbLine
 10
121.0
 20
0.4611750000000101
 30
0.0
 11
123.6538
 21
0.12054500000001
 31
0.0
  0
LINE
  5
CC
330
1E
100
AcDbEntity
  8
0
100
AcDbLine
 10
121.0
 20
0.4611750000000101
 30
0.0
 11
123.6538
 21
0.12054500000001
 31
0.0
  0
LINE
  5
CD
330
1E
100
AcDbEntity
  8
0
100
AcDbLine
 10
142.2309999999999
 20
1.47300600000001
 30
0.0
 11
142.692
 21
2.02400900000001
 31
0.0
  0
LINE
  5
CE
330
1E
100
AcDbEntity
  8
0
100
AcDbLine
 10
142.2309999999999
 20
1.47300600000001
 30
0.0
 11
143.3849999999999
 21
2.385288000000009
 31
0.0
  0
LINE
  5
CF
330
1E
100
AcDbEntity
  8
0
100
AcDbLine
 10
143.3849999999999
 20
2.385288000000009
 30
0.0
 11
143.846
 21
3.006410000000009
 31
0.0
  0
LINE
  5
D0
330
1E
100
AcDbEntity
  8
0
100
AcDbLine
 10
142.2309999999999
 20
2.575004000000009
 30
0.0
 11
142.692
 21
2.02400900000001
 31
0.0
  0
LINE
  5
D1
330
1E
100
AcDbEntity
  8
0
100
AcDbLine
 10
119.0385
 20
0.9220050000000099
 30
0.0
 11
121.0
 21
0.4611750000000101
 31
0.0
  0
LINE
  5
D2
330
1E
100
AcDbEntity
  8
0
100
AcDbLine
 10
117.7691999999999
 20
1.47300600000001
 30
0.0
 11
119.0385
 21
0.9220050000000099
 31
0.0
  0
LINE
  5
D3
330
1E
100
AcDbEntity
  8
0
100
AcDbLine
 10
118.0
 20
13.087885
 30
0.0
 11
120.1923
 21
13.588885
 31
0.0
  0
LINE
  5
D4
330
1E
100
AcDbEntity
  8
0
100
AcDbLine
 10
118.0
 20
4.208585000000009
 30
0.0
 11
120.1923
 21
4.709495000000009
 31
0.0
  0
LINE
  5
D5
330
1E
100
AcDbEntity
  8
0
100
AcDbLine
 10
139.0
 20
3.586835000000009
 30
0.0
 11
140.962
 21
3.126003000000009
 31
0.0
  0
LINE
  5
D6
330
1E
100
AcDbEntity
  8
0
100
AcDbLine
 10
143.846
 20
3.006410000000009
 30
0.0
 11
143.846
 21
11.88575499999999
 31
0.0
  0
LINE
  5
D7
330
1E
100
AcDbEntity
  8
0
100
AcDbLine
 10
140.962
 20
3.126003000000009
 30
0.0
 11
142.2309999999999
 21
2.575004000000009
 31
0.0
  0
LINE
  5
D8
330
1E
100
AcDbEntity
  8
0
100
AcDbLine
 10
123.0769
 20
13.969485
 30
0.0
 11
126.4231
 21
14.209985
 31
0.0
  0
LINE
  5
D9
330
1E
100
AcDbEntity
  8
0
100
AcDbLine
 10
120.1923
 20
13.588885
 30
0.0
 11
123.0769
 21
13.969485
 31
0.0
  0
LINE
  5
DA
330
1E
100
AcDbEntity
  8
0
100
AcDbLine
 10
123.0769
 20
5.090185000000009
 30
0.0
 11
126.4231
 21
5.330625000000009
 31
0.0
  0
LINE
  5
DB
330
1E
100
AcDbEntity
  8
0
100
AcDbLine
 10
120.1923
 20
4.709495000000009
 30
0.0
 11
123.0769
 21
5.090185000000009
 31
0.0
  0
LINE
  5
DC
330
1E
100
AcDbEntity
  8
0
100
AcDbLine
 10
133.2309999999999
 20
4.147855000000009
 30
0.0
 11
136.346
 21
3.927455000000009
 31
0.0
  0
LINE
  5
DD
330
1E
100
AcDbEntity
  8
0
100
AcDbLine
 10
143.3849999999999
 20
3.627535000000009
 30
0.0
 11
143.846
 21
3.006410000000009
 31
0.0
  0
LINE
  5
DE
330
1E
100
AcDbEntity
  8
0
100
AcDbLine
 10
136.346
 20
3.927455000000009
 30
0.0
 11
139.0
 21
3.586835000000009
 31
0.0
  0
LINE
  5
DF
330
1E
100
AcDbEntity
  8
0
100
AcDbLine
 10
142.0
 20
4.208585000000009
 30
0.0
 11
143.3849999999999
 21
3.627535000000009
 31
0.0
  0
LINE
  5
E0
330
1E
100
AcDbEntity
  8
0
100
AcDbLine
 10
130.0
 20
5.410765000000009
 30
0.0
 11
133.5769999999999
 21
5.330625000000009
 31
0.0
  0
LINE
  5
E1
330
1E
100
AcDbEntity
  8
0
100
AcDbLine
 10
136.9229999999999
 20
13.969485
 30
0.0
 11
139.8079999999999
 21
13.588885
 31
0.0
  0
LINE
  5
E2
330
1E
100
AcDbEntity
  8
0
100
AcDbLine
 10
139.8079999999999
 20
13.588885
 30
0.0
 11
142.0
 21
13.087885
 31
0.0
  0
LINE
  5
E3
330
1E
100
AcDbEntity
  8
0
100
AcDbLine
 10
133.5769999999999
 20
5.330625000000009
 30
0.0
 11
136.9229999999999
 21
5.090185000000009
 31
0.0
  0
LINE
  5
E4
330
1E
100
AcDbEntity
  8
0
100
AcDbLine
 10
136.9229999999999
 20
5.090185000000009
 30
0.0
 11
139.8079999999999
 21
4.709495000000009
 31
0.0
  0
LINE
  5
E5
330
1E
100
AcDbEntity
  8
0
100
AcDbLine
 10
143.846
 20
11.73581499999999
 30
0.0
 11
144.423
 21
12.376985
 31
0.0
  0
LINE
  5
E6
330
1E
100
AcDbEntity
  8
0
100
AcDbLine
 10
143.846
 20
11.88575499999999
 30
0.0
 11
143.846
 21
3.006410000000009
 31
0.0
  0
LINE
  5
E7
330
1E
100
AcDbEntity
  8
0
100
AcDbLine
 10
144.423
 20
12.376985
 30
0.0
 11
145.0
 21
13.359385
 31
0.0
  0
LINE
  5
E8
330
1E
100
AcDbEntity
  8
0
100
AcDbLine
 10
142.0
 20
13.087885
 30
0.0
 11
143.3849999999999
 21
12.506885
 31
0.0
  0
LINE
  5
E9
330
1E
100
AcDbEntity
  8
0
100
AcDbLine
 10
143.3849999999999
 20
12.506885
 30
0.0
 11
143.846
 21
11.88575499999999
 31
0.0
  0
LINE
  5
EA
330
1E
100
AcDbEntity
  8
0
100
AcDbLine
 10
139.8079999999999
 20
4.709495000000009
 30
0.0
 11
142.0
 21
4.208585000000009
 31
0.0
  0
LINE
  5
EB
330
1E
100
AcDbEntity
  8
0
100
AcDbLine
 10
130.0
 20
4.228005000000009
 30
0.0
 11
133.2309999999999
 21
4.147855000000009
 31
0.0
  0
LINE
  5
EC
330
1E
100
AcDbEntity
  8
0
100
AcDbLine
 10
126.4231
 20
5.330625000000009
 30
0.0
 11
130.0
 21
5.410765000000009
 31
0.0
  0
LINE
  5
ED
330
1E
100
AcDbEntity
  8
0
100
AcDbLine
 10
126.7692
 20
4.147855000000009
 30
0.0
 11
130.0
 21
4.228005000000009
 31
0.0
  0
LINE
  5
EE
330
1E
100
AcDbEntity
  8
0
100
AcDbLine
 10
123.6538
 20
3.927455000000009
 30
0.0
 11
126.7692
 21
4.147855000000009
 31
0.0
  0
LINE
  5
EF
330
1E
100
AcDbEntity
  8
0
100
AcDbLine
 10
121.0
 20
3.586835000000009
 30
0.0
 11
123.6538
 21
3.927455000000009
 31
0.0
  0
LINE
  5
F0
330
1E
100
AcDbEntity
  8
0
100
AcDbLine
 10
119.0385
 20
3.126003000000009
 30
0.0
 11
121.0
 21
3.586835000000009
 31
0.0
  0
LINE
  5
F1
330
1E
100
AcDbEntity
  8
0
100
AcDbLine
 10
117.7691999999999
 20
2.575004000000009
 30
0.0
 11
119.0385
 21
3.126003000000009
 31
0.0
  0
LINE
  5
F2
330
1E
100
AcDbEntity
  8
0
100
AcDbLine
 10
117.3076999999999
 20
2.02400900000001
 30
0.0
 11
117.7691999999999
 21
2.575004000000009
 31
0.0
  0
LINE
  5
F3
330
1E
100
AcDbEntity
  8
0
100
AcDbLine
 10
117.3076999999999
 20
2.02400900000001
 30
0.0
 11
117.7691999999999
 21
1.47300600000001
 31
0.0
  0
LINE
  5
F4
330
1E
100
AcDbEntity
  8
0
100
AcDbLine
 10
145.0
 20
13.850585
 30
0.0
 11
145.0
 21
13.359385
 31
0.0
  0
LINE
  5
11E
330
1E
100
AcDbEntity
  8
0
100
AcDbLine
 10
145.0
 20
13.359385
 30
0.0
 11
145.0
 21
13.850585
 31
0.0
  0
LINE
  5
11F
330
1E
100
AcDbEntity
  8
0
100
AcDbLine
 10
144.9
 20
14.179985
 30
0.0
 11
151.2
 21
18.97998499999999
 31
0.0
  0
LINE
  5
120
330
1E
100
AcDbEntity
  8
0
100
AcDbLine
 10
43.2
 20
17.179985
 30
0.0
 11
48.7
 21
21.47998499999999
 31
0.0
  0
LINE
  5
121
330
1E
100
AcDbEntity
  8
0
100
AcDbLine
 10
116.1537999999999
 20
15.965385
 30
0.0
 11
118.0
 21
17.303585
 31
0.0
  0
LINE
  5
122
330
1E
100
AcDbEntity
  8
0
100
AcDbLine
 10
115.5769
 20
15.324185
 30
0.0
 11
116.1537999999999
 21
15.965385
 31
0.0
  0
LINE
  5
123
330
1E
100
AcDbEntity
  8
0
100
AcDbLine
 10
133.5769999999999
 20
14.209985
 30
0.0
 11
136.9229999999999
 21
13.969485
 31
0.0
  0
LINE
  5
124
330
1E
100
AcDbEntity
  8
0
100
AcDbLine
 10
130.0
 20
14.290085
 30
0.0
 11
133.5769999999999
 21
14.209985
 31
0.0
  0
LINE
  5
125
330
1E
100
AcDbEntity
  8
0
100
AcDbLine
 10
126.4231
 20
14.209985
 30
0.0
 11
130.0
 21
14.290085
 31
0.0
  0
LINE
  5
127
330
1E
100
AcDbEntity
  8
0
100
AcDbLine
 10
142.5
 20
16.9411256283857
 30
0.0
 11
142.5
 21
19.191185
 31
0.0
  0
LINE
  5
128
330
1E
100
AcDbEntity
  8
0
100
AcDbLine
 10
117.5
 20
16.941164893836
 30
0.0
 11
117.5
 21
19.191185
 31
0.0
  0
LINE
  5
129
330
1E
100
AcDbEntity
  8
0
100
AcDbLine
 10
123.7999999999999
 20
18.633385
 30
0.0
 11
126.8
 21
18.858685
 31
0.0
  0
LINE
  5
12A
330
1E
100
AcDbEntity
  8
0
100
AcDbLine
 10
121.1999999999999
 20
18.279685
 30
0.0
 11
123.7999999999999
 21
18.633385
 31
0.0
  0
LINE
  5
12B
330
1E
100
AcDbEntity
  8
0
100
AcDbLine
 10
119.1999999999999
 20
17.816385
 30
0.0
 11
121.1999999999999
 21
18.279685
 31
0.0
  0
LINE
  5
12C
330
1E
100
AcDbEntity
  8
0
100
AcDbLine
 10
118.0
 20
17.303585
 30
0.0
 11
119.1999999999999
 21
17.816385
 31
0.0
  0
LINE
  5
12D
330
1E
100
AcDbEntity
  8
0
100
AcDbLine
 10
133.1999999999999
 20
18.858685
 30
0.0
 11
136.1999999999999
 21
18.633385
 31
0.0
  0
LINE
  5
12E
330
1E
100
AcDbEntity
  8
0
100
AcDbLine
 10
136.1999999999999
 20
18.633385
 30
0.0
 11
138.8
 21
18.279685
 31
0.0
  0
LINE
  5
12F
330
1E
100
AcDbEntity
  8
0
100
AcDbLine
 10
138.8
 20
18.279685
 30
0.0
 11
140.8
 21
17.816385
 31
0.0
  0
LINE
  5
130
330
1E
100
AcDbEntity
  8
0
100
AcDbLine
 10
140.8
 20
17.816385
 30
0.0
 11
142.0
 21
17.303585
 31
0.0
  0
LINE
  5
131
330
1E
100
AcDbEntity
  8
0
100
AcDbLine
 10
142.0
 20
17.303585
 30
0.0
 11
143.846
 21
15.965385
 31
0.0
  0
LINE
  5
133
330
1E
100
AcDbEntity
  8
0
100
AcDbLine
 10
130.0
 20
18.901585
 30
0.0
 11
133.1999999999999
 21
18.858685
 31
0.0
  0
LINE
  5
134
330
1E
100
AcDbEntity
  8
0
100
AcDbLine
 10
126.8
 20
18.858685
 30
0.0
 11
130.0
 21
18.901585
 31
0.0
  0
LINE
  5
136
330
1E
100
AcDbEntity
  8
0
100
AcDbLine
 10
116.7999999999999
 20
17.179985
 30
0.0
 11
117.4689659583699
 21
16.9186701725116
 31
0.0
  0
LINE
  5
137
330
1E
100
AcDbEntity
  8
0
100
AcDbLine
 10
108.8
 20
18.97998499999999
 30
0.0
 11
115.1
 21
14.179985
 31
0.0
  0
LINE
  5
138
330
1E
100
AcDbEntity
  8
0
100
AcDbLine
 10
142.5309966584419
 20
16.9186555697038
 30
0.0
 11
143.1999999999999
 21
17.179985
 31
0.0
  0
LINE
  5
139
330
1E
100
AcDbEntity
  8
0
100
AcDbLine
 10
143.846
 20
15.965385
 30
0.0
 11
144.423
 21
15.324185
 31
0.0
  0
LINE
  5
147
330
1E
100
AcDbEntity
  8
0
100
AcDbLine
 10
144.423
 20
15.324185
 30
0.0
 11
145.0
 21
13.850585
 31
0.0
  0
LINE
  5
14F
330
1E
100
AcDbEntity
  8
0
100
AcDbLine
 10
151.2
 20
18.97998499999999
 30
0.0
 11
156.0
 21
25.279985
 31
0.0
  0
LINE
  5
150
330
1E
100
AcDbEntity
  8
0
100
AcDbLine
 10
143.1999999999999
 20
17.179985
 30
0.0
 11
148.6999999999999
 21
21.47998499999999
 31
0.0
  0
LINE
  5
152
330
1E
100
AcDbEntity
  8
0
100
AcDbLine
 10
48.7
 20
21.47998499999999
 30
0.0
 11
53.0
 21
26.979985
 31
0.0
  0
LINE
  5
153
330
1E
100
AcDbEntity
  8
0
100
AcDbLine
 10
142.5
 20
19.191185
 30
0.0
 11
142.5
 21
16.9411256283857
 31
0.0
  0
LINE
  5
154
330
1E
100
AcDbEntity
  8
0
100
AcDbLine
 10
142.5
 20
19.191185
 30
0.0
 11
142.5
 21
23.179985
 31
0.0
  0
LINE
  5
158
330
1E
100
AcDbEntity
  8
0
100
AcDbLine
 10
117.5
 20
19.191185
 30
0.0
 11
117.5
 21
23.179985
 31
0.0
  0
LINE
  5
159
330
1E
100
AcDbEntity
  8
0
100
AcDbLine
 10
117.5
 20
19.191185
 30
0.0
 11
117.5
 21
16.941164893836
 31
0.0
  0
LINE
  5
15A
330
1E
100
AcDbEntity
  8
0
100
AcDbLine
 10
142.5
 20
23.179985
 30
0.0
 11
142.5
 21
19.191185
 31
0.0
  0
LINE
  5
15B
330
1E
100
AcDbEntity
  8
0
100
AcDbLine
 10
142.5
 20
23.179985
 30
0.0
 11
142.5
 21
26.87788499999999
 31
0.0
  0
LINE
  5
15C
330
1E
100
AcDbEntity
  8
0
100
AcDbLine
 10
117.5
 20
23.179985
 30
0.0
 11
117.5
 21
26.87788499999999
 31
0.0
  0
LINE
  5
15D
330
1E
100
AcDbEntity
  8
0
100
AcDbLine
 10
117.5
 20
23.179985
 30
0.0
 11
117.5
 21
19.191185
 31
0.0
  0
LINE
  5
15E
330
1E
100
AcDbEntity
  8
0
100
AcDbLine
 10
111.2999999999999
 20
21.47998499999999
 30
0.0
 11
116.7999999999999
 21
17.179985
 31
0.0
  0
LINE
  5
16C
330
1E
100
AcDbEntity
  8
0
100
AcDbLine
 10
148.6999999999999
 20
21.47998499999999
 30
0.0
 11
153.0
 21
26.979985
 31
0.0
  0
LINE
  5
16F
330
1E
100
AcDbEntity
  8
0
100
AcDbLine
 10
51.2
 20
18.97998499999999
 30
0.0
 11
56.0
 21
25.279985
 31
0.0
  0
LINE
  5
171
330
1E
100
AcDbEntity
  8
0
100
AcDbLine
 10
44.9
 20
14.179985
 30
0.0
 11
51.2
 21
18.97998499999999
 31
0.0
  0
LINE
  5
172
330
1E
100
AcDbEntity
  8
0
100
AcDbLine
 10
37.7
 20
11.279985
 30
0.0
 11
44.9
 21
14.179985
 31
0.0
  0
LINE
  5
173
330
1E
100
AcDbEntity
  8
0
100
AcDbLine
 10
33.2296
 20
24.066085
 30
0.0
 11
34.7508
 21
26.787185
 31
0.0
  0
LINE
  5
179
330
1E
100
AcDbEntity
  8
0
100
AcDbLine
 10
34.2
 20
24.279985
 30
0.0
 11
38.2
 21
25.879985
 31
0.0
  0
LINE
  5
17A
330
1E
100
AcDbEntity
  8
0
100
AcDbLine
 10
33.2753319076826
 20
24.1478895582404
 30
0.0
 11
34.2
 21
24.279985
 31
0.0
  0
LINE
  5
17B
330
1E
100
AcDbEntity
  8
0
100
AcDbLine
 10
34.39999999999999
 20
23.77998499999999
 30
0.0
 11
38.5
 21
25.479985
 31
0.0
  0
LINE
  5
17C
330
1E
100
AcDbEntity
  8
0
100
AcDbLine
 10
33.079446968474
 20
23.5999095866101
 30
0.0
 11
34.39999999999999
 21
23.77998499999999
 31
0.0
  0
LINE
  5
17D
330
1E
100
AcDbEntity
  8
0
100
AcDbLine
 10
32.1464
 20
24.722085
 30
0.0
 11
33.9902
 21
27.475985
 31
0.0
  0
LINE
  5
17E
330
1E
100
AcDbEntity
  8
0
100
AcDbLine
 10
27.8536
 20
24.722085
 30
0.0
 11
28.9
 21
21.177985
 31
0.0
  0
LINE
  5
181
330
1E
100
AcDbEntity
  8
0
100
AcDbLine
 10
33.9902
 20
27.475985
 30
0.0
 11
36.0
 21
29.757685
 31
0.0
  0
LINE
  5
182
330
1E
100
AcDbEntity
  8
0
100
AcDbLine
 10
34.7508
 20
26.787185
 30
0.0
 11
36.6
 21
28.77998499999999
 31
0.0
  0
LINE
  5
183
330
1E
100
AcDbEntity
  8
0
100
AcDbLine
 10
26.00979999999999
 20
27.475985
 30
0.0
 11
27.8536
 21
24.722085
 31
0.0
  0
LINE
  5
184
330
1E
100
AcDbEntity
  8
0
100
AcDbLine
 10
38.2
 20
25.879985
 30
0.0
 11
41.7
 21
28.479985
 31
0.0
  0
LINE
  5
186
330
1E
100
AcDbEntity
  8
0
100
AcDbLine
 10
38.5
 20
25.479985
 30
0.0
 11
42.0
 21
28.17998499999999
 31
0.0
  0
LINE
  5
187
330
1E
100
AcDbEntity
  8
0
100
AcDbLine
 10
36.0
 20
29.757685
 30
0.0
 11
38.5
 21
31.67998499999999
 31
0.0
  0
LINE
  5
188
330
1E
100
AcDbEntity
  8
0
100
AcDbLine
 10
36.6
 20
28.77998499999999
 30
0.0
 11
39.29999999999999
 21
30.87998499999999
 31
0.0
  0
LINE
  5
189
330
1E
100
AcDbEntity
  8
0
100
AcDbLine
 10
32.7
 20
30.07998499999999
 30
0.0
 11
35.2
 21
31.07998499999999
 31
0.0
  0
LINE
  5
18A
330
1E
100
AcDbEntity
  8
0
100
AcDbLine
 10
30.0
 20
29.679985
 30
0.0
 11
32.7
 21
30.07998499999999
 31
0.0
  0
LINE
  5
18B
330
1E
100
AcDbEntity
  8
0
100
AcDbLine
 10
38.5
 20
31.67998499999999
 30
0.0
 11
40.42229999999999
 21
34.17998499999999
 31
0.0
  0
LINE
  5
18C
330
1E
100
AcDbEntity
  8
0
100
AcDbLine
 10
35.2
 20
31.07998499999999
 30
0.0
 11
37.4
 21
32.77998499999999
 31
0.0
  0
LINE
  5
18D
330
1E
100
AcDbEntity
  8
0
100
AcDbLine
 10
27.3
 20
30.07998499999999
 30
0.0
 11
30.0
 21
29.679985
 31
0.0
  0
LINE
  5
18E
330
1E
100
AcDbEntity
  8
0
100
AcDbLine
 10
39.29999999999999
 20
30.87998499999999
 30
0.0
 11
41.39999999999999
 21
33.579985
 31
0.0
  0
LINE
  5
18F
330
1E
100
AcDbEntity
  8
0
100
AcDbLine
 10
41.7
 20
28.479985
 30
0.0
 11
44.29999999999999
 21
31.979985
 31
0.0
  0
LINE
  5
190
330
1E
100
AcDbEntity
  8
0
100
AcDbLine
 10
44.29999999999999
 20
31.979985
 30
0.0
 11
45.89999999999999
 21
35.979985
 31
0.0
  0
LINE
  5
191
330
1E
100
AcDbEntity
  8
0
100
AcDbLine
 10
42.0
 20
28.17998499999999
 30
0.0
 11
44.7
 21
31.67998499999999
 31
0.0
  0
LINE
  5
192
330
1E
100
AcDbEntity
  8
0
100
AcDbLine
 10
104.0
 20
25.279985
 30
0.0
 11
108.8
 21
18.97998499999999
 31
0.0
  0
LINE
  5
19A
330
1E
100
AcDbEntity
  8
0
100
AcDbLine
 10
156.0
 20
25.279985
 30
0.0
 11
158.9
 21
32.479985
 31
0.0
  0
LINE
  5
19C
330
1E
100
AcDbEntity
  8
0
100
AcDbLine
 10
44.7
 20
31.67998499999999
 30
0.0
 11
46.39999999999999
 21
35.77998499999999
 31
0.0
  0
LINE
  5
19D
330
1E
100
AcDbEntity
  8
0
100
AcDbLine
 10
142.5
 20
26.87788499999999
 30
0.0
 11
142.5
 21
30.22158499999999
 31
0.0
  0
LINE
  5
19E
330
1E
100
AcDbEntity
  8
0
100
AcDbLine
 10
142.5
 20
26.87788499999999
 30
0.0
 11
142.5
 21
23.179985
 31
0.0
  0
LINE
  5
19F
330
1E
100
AcDbEntity
  8
0
100
AcDbLine
 10
117.5
 20
26.87788499999999
 30
0.0
 11
117.5
 21
23.179985
 31
0.0
  0
LINE
  5
1A0
330
1E
100
AcDbEntity
  8
0
100
AcDbLine
 10
117.5
 20
26.87788499999999
 30
0.0
 11
117.5
 21
30.22158499999999
 31
0.0
  0
LINE
  5
1A1
330
1E
100
AcDbEntity
  8
0
100
AcDbLine
 10
107.0
 20
26.979985
 30
0.0
 11
111.2999999999999
 21
21.47998499999999
 31
0.0
  0
LINE
  5
1A4
330
1E
100
AcDbEntity
  8
0
100
AcDbLine
 10
142.5
 20
30.22158499999999
 30
0.0
 11
142.5
 21
33.153985
 31
0.0
  0
LINE
  5
1A5
330
1E
100
AcDbEntity
  8
0
100
AcDbLine
 10
142.5
 20
30.22158499999999
 30
0.0
 11
142.5
 21
26.87788499999999
 31
0.0
  0
LINE
  5
1A6
330
1E
100
AcDbEntity
  8
0
100
AcDbLine
 10
117.5
 20
30.22158499999999
 30
0.0
 11
117.5
 21
33.153985
 31
0.0
  0
LINE
  5
1A7
330
1E
100
AcDbEntity
  8
0
100
AcDbLine
 10
117.5
 20
30.22158499999999
 30
0.0
 11
117.5
 21
26.87788499999999
 31
0.0
  0
LINE
  5
1A8
330
1E
100
AcDbEntity
  8
0
100
AcDbLine
 10
115.3
 20
31.67998499999999
 30
0.0
 11
117.5
 21
28.8281331481481
 31
0.0
  0
LINE
  5
1AA
330
1E
100
AcDbEntity
  8
0
100
AcDbLine
 10
142.5
 20
29.5569080769231
 30
0.0
 11
144.3
 21
31.979985
 31
0.0
  0
LINE
  5
1CF
330
1E
100
AcDbEntity
  8
0
100
AcDbLine
 10
153.0
 20
26.979985
 30
0.0
 11
155.4999999999999
 21
33.37998499999999
 31
0.0
  0
LINE
  5
1D0
330
1E
100
AcDbEntity
  8
0
100
AcDbLine
 10
142.5
 20
28.8281331481482
 30
0.0
 11
144.6999999999999
 21
31.67998499999999
 31
0.0
  0
LINE
  5
1D5
330
1E
100
AcDbEntity
  8
0
100
AcDbLine
 10
144.6999999999999
 20
31.67998499999999
 30
0.0
 11
146.4
 21
35.77998499999999
 31
0.0
  0
LINE
  5
1D6
330
1E
100
AcDbEntity
  8
0
100
AcDbLine
 10
144.6999999999999
 20
31.67998499999999
 30
0.0
 11
146.4
 21
35.77998499999999
 31
0.0
  0
LINE
  5
1D7
330
1E
100
AcDbEntity
  8
0
100
AcDbLine
 10
53.0
 20
26.979985
 30
0.0
 11
55.5
 21
33.37998499999999
 31
0.0
  0
LINE
  5
1D8
330
1E
100
AcDbEntity
  8
0
100
AcDbLine
 10
56.0
 20
25.279985
 30
0.0
 11
58.9
 21
32.479985
 31
0.0
  0
LINE
  5
1D9
330
1E
100
AcDbEntity
  8
0
100
AcDbLine
 10
44.7
 20
31.67998499999999
 30
0.0
 11
46.39999999999999
 21
35.77998499999999
 31
0.0
  0
LINE
  5
1DA
330
1E
100
AcDbEntity
  8
0
100
AcDbLine
 10
25.8
 20
24.279985
 30
0.0
 11
26.7246680923173
 21
24.1478895582404
 31
0.0
  0
LINE
  5
1DB
330
1E
100
AcDbEntity
  8
0
100
AcDbLine
 10
25.6
 20
23.77998499999999
 30
0.0
 11
26.92055303152599
 21
23.5999095866101
 31
0.0
  0
LINE
  5
1DC
330
1E
100
AcDbEntity
  8
0
100
AcDbLine
 10
19.5777
 20
34.17998499999999
 30
0.0
 11
21.49999999999999
 21
31.67998499999999
 31
0.0
  0
LINE
  5
1DD
330
1E
100
AcDbEntity
  8
0
100
AcDbLine
 10
18.6
 20
33.579985
 30
0.0
 11
20.69999999999999
 21
30.87998499999999
 31
0.0
  0
LINE
  5
1DE
330
1E
100
AcDbEntity
  8
0
100
AcDbLine
 10
20.89999999999999
 20
34.979985
 30
0.0
 11
22.6
 21
32.77998499999999
 31
0.0
  0
LINE
  5
1DF
330
1E
100
AcDbEntity
  8
0
100
AcDbLine
 10
37.4
 20
32.77998499999999
 30
0.0
 11
39.1
 21
34.979985
 31
0.0
  0
LINE
  5
1E2
330
1E
100
AcDbEntity
  8
0
100
AcDbLine
 10
40.42229999999999
 20
34.17998499999999
 30
0.0
 11
42.70399999999999
 21
36.189785
 31
0.0
  0
LINE
  5
1E3
330
1E
100
AcDbEntity
  8
0
100
AcDbLine
 10
41.39999999999999
 20
33.579985
 30
0.0
 11
43.3928
 21
35.42918499999999
 31
0.0
  0
LINE
  5
1E4
330
1E
100
AcDbEntity
  8
0
100
AcDbLine
 10
39.1
 20
34.979985
 30
0.0
 11
40.1
 21
37.479985
 31
0.0
  0
LINE
  5
1E5
330
1E
100
AcDbEntity
  8
0
100
AcDbLine
 10
22.6
 20
32.77998499999999
 30
0.0
 11
24.8
 21
31.07998499999999
 31
0.0
  0
LINE
  5
1E6
330
1E
100
AcDbEntity
  8
0
100
AcDbLine
 10
43.3928
 20
35.42918499999999
 30
0.0
 11
46.1139
 21
36.95038499999999
 31
0.0
  0
LINE
  5
1E7
330
1E
100
AcDbEntity
  8
0
100
AcDbLine
 10
16.60719999999999
 20
35.42918499999999
 30
0.0
 11
18.6
 21
33.579985
 31
0.0
  0
LINE
  5
1E9
330
1E
100
AcDbEntity
  8
0
100
AcDbLine
 10
115.7
 20
31.979985
 30
0.0
 11
117.5
 21
29.5569080769231
 31
0.0
  0
LINE
  5
1EA
330
1E
100
AcDbEntity
  8
0
100
AcDbLine
 10
101.0999999999999
 20
32.479985
 30
0.0
 11
104.0
 21
25.279985
 31
0.0
  0
LINE
  5
1EE
330
1E
100
AcDbEntity
  8
0
100
AcDbLine
 10
158.9
 20
32.479985
 30
0.0
 11
160.0
 21
40.179985
 31
0.0
  0
LINE
  5
1EF
330
1E
100
AcDbEntity
  8
0
100
AcDbLine
 10
144.3
 20
31.979985
 30
0.0
 11
145.9
 21
35.979985
 31
0.0
  0
LINE
  5
1F1
330
1E
100
AcDbEntity
  8
0
100
AcDbLine
 10
55.5
 20
33.37998499999999
 30
0.0
 11
56.2424242424242
 21
38.42846984848489
 31
0.0
  0
LINE
  5
1F2
330
1E
100
AcDbEntity
  8
0
100
AcDbLine
 10
55.5
 20
33.37998499999999
 30
0.0
 11
56.2424242424242
 21
38.42846984848489
 31
0.0
  0
LINE
  5
1F3
330
1E
100
AcDbEntity
  8
0
100
AcDbLine
 10
142.5
 20
33.153985
 30
0.0
 11
142.5
 21
35.624885
 31
0.0
  0
LINE
  5
1F4
330
1E
100
AcDbEntity
  8
0
100
AcDbLine
 10
142.5
 20
33.153985
 30
0.0
 11
142.5
 21
30.22158499999999
 31
0.0
  0
LINE
  5
1F5
330
1E
100
AcDbEntity
  8
0
100
AcDbLine
 10
117.4
 20
32.979985
 30
0.0
 11
117.5
 21
32.854985
 31
0.0
  0
LINE
  5
1F6
330
1E
100
AcDbEntity
  8
0
100
AcDbLine
 10
142.5
 20
32.854985
 30
0.0
 11
142.5999999999999
 21
32.979985
 31
0.0
  0
LINE
  5
1FA
330
1E
100
AcDbEntity
  8
0
100
AcDbLine
 10
142.5999999999999
 20
32.979985
 30
0.0
 11
144.0
 21
36.47998499999999
 31
0.0
  0
LINE
  5
1FE
330
1E
100
AcDbEntity
  8
0
100
AcDbLine
 10
117.5
 20
33.153985
 30
0.0
 11
117.5
 21
35.624885
 31
0.0
  0
LINE
  5
1FF
330
1E
100
AcDbEntity
  8
0
100
AcDbLine
 10
117.5
 20
33.153985
 30
0.0
 11
117.5
 21
30.22158499999999
 31
0.0
  0
LINE
  5
200
330
1E
100
AcDbEntity
  8
0
100
AcDbLine
 10
104.4999999999999
 20
33.37998499999999
 30
0.0
 11
107.0
 21
26.979985
 31
0.0
  0
LINE
  5
201
330
1E
100
AcDbEntity
  8
0
100
AcDbLine
 10
142.5
 20
35.624885
 30
0.0
 11
142.5
 21
33.153985
 31
0.0
  0
LINE
  5
202
330
1E
100
AcDbEntity
  8
0
100
AcDbLine
 10
142.5
 20
35.624885
 30
0.0
 11
142.5
 21
37.591885
 31
0.0
  0
LINE
  5
203
330
1E
100
AcDbEntity
  8
0
100
AcDbLine
 10
142.5
 20
34.15141357142859
 30
0.0
 11
143.5
 21
36.579985
 31
0.0
  0
LINE
  5
204
330
1E
100
AcDbEntity
  8
0
100
AcDbLine
 10
117.5
 20
35.624885
 30
0.0
 11
117.5
 21
33.153985
 31
0.0
  0
LINE
  5
205
330
1E
100
AcDbEntity
  8
0
100
AcDbLine
 10
117.5
 20
35.624885
 30
0.0
 11
117.5
 21
37.591885
 31
0.0
  0
LINE
  5
206
330
1E
100
AcDbEntity
  8
0
100
AcDbLine
 10
113.5999999999999
 20
35.77998499999999
 30
0.0
 11
115.3
 21
31.67998499999999
 31
0.0
  0
LINE
  5
208
330
1E
100
AcDbEntity
  8
0
100
AcDbLine
 10
146.4
 20
35.77998499999999
 30
0.0
 11
147.0
 21
40.179985
 31
0.0
  0
LINE
  5
215
330
1E
100
AcDbEntity
  8
0
100
AcDbLine
 10
155.4999999999999
 20
33.37998499999999
 30
0.0
 11
156.4999999999999
 21
40.179985
 31
0.0
  0
LINE
  5
217
330
1E
100
AcDbEntity
  8
0
100
AcDbLine
 10
58.9
 20
32.479985
 30
0.0
 11
60.0
 21
40.179985
 31
0.0
  0
LINE
  5
218
330
1E
100
AcDbEntity
  8
0
100
AcDbLine
 10
46.39999999999999
 20
35.77998499999999
 30
0.0
 11
46.5800754133899
 21
37.100538031526
 31
0.0
  0
LINE
  5
219
330
1E
100
AcDbEntity
  8
0
100
AcDbLine
 10
15.7
 20
31.979985
 30
0.0
 11
18.3
 21
28.479985
 31
0.0
  0
LINE
  5
21A
330
1E
100
AcDbEntity
  8
0
100
AcDbLine
 10
15.3
 20
31.67998499999999
 30
0.0
 11
18.0
 21
28.17998499999999
 31
0.0
  0
LINE
  5
21B
330
1E
100
AcDbEntity
  8
0
100
AcDbLine
 10
13.8861
 20
36.95038499999999
 30
0.0
 11
16.60719999999999
 21
35.42918499999999
 31
0.0
  0
LINE
  5
21C
330
1E
100
AcDbEntity
  8
0
100
AcDbLine
 10
13.8861
 20
43.409585
 30
0.0
 11
16.60719999999999
 21
44.930785
 31
0.0
  0
LINE
  5
21D
330
1E
100
AcDbEntity
  8
0
100
AcDbLine
 10
13.6
 20
44.579985
 30
0.0
 11
15.3
 21
48.67998499999999
 31
0.0
  0
LINE
  5
21E
330
1E
100
AcDbEntity
  8
0
100
AcDbLine
 10
13.4199245866101
 20
43.259431968474
 30
0.0
 11
13.6
 21
44.579985
 31
0.0
  0
LINE
  5
21F
330
1E
100
AcDbEntity
  8
0
100
AcDbLine
 10
113.5999999999999
 20
35.77998499999999
 30
0.0
 11
115.3
 21
31.67998499999999
 31
0.0
  0
LINE
  5
220
330
1E
100
AcDbEntity
  8
0
100
AcDbLine
 10
114.1
 20
35.979985
 30
0.0
 11
115.7
 21
31.979985
 31
0.0
  0
LINE
  5
223
330
1E
100
AcDbEntity
  8
0
100
AcDbLine
 10
145.9
 20
35.979985
 30
0.0
 11
146.5
 21
40.179985
 31
0.0
  0
LINE
  5
224
330
1E
100
AcDbEntity
  8
0
100
AcDbLine
 10
146.4
 20
35.77998499999999
 30
0.0
 11
147.0
 21
40.179985
 31
0.0
  0
LINE
  5
225
330
1E
100
AcDbEntity
  8
0
100
AcDbLine
 10
45.89999999999999
 20
35.979985
 30
0.0
 11
46.0320954417596
 21
36.9046530923174
 31
0.0
  0
LINE
  5
226
330
1E
100
AcDbEntity
  8
0
100
AcDbLine
 10
14.54209999999999
 20
42.32638499999999
 30
0.0
 11
17.296
 21
44.170185
 31
0.0
  0
LINE
  5
227
330
1E
100
AcDbEntity
  8
0
100
AcDbLine
 10
42.70399999999999
 20
36.189785
 30
0.0
 11
45.4579
 21
38.03358499999999
 31
0.0
  0
LINE
  5
228
330
1E
100
AcDbEntity
  8
0
100
AcDbLine
 10
17.296
 20
44.170185
 30
0.0
 11
19.5777
 21
46.17998499999999
 31
0.0
  0
LINE
  5
229
330
1E
100
AcDbEntity
  8
0
100
AcDbLine
 10
40.1
 20
37.479985
 30
0.0
 11
40.49999999999999
 21
40.179985
 31
0.0
  0
LINE
  5
22A
330
1E
100
AcDbEntity
  8
0
100
AcDbLine
 10
19.9
 20
42.87998499999999
 30
0.0
 11
20.89999999999999
 21
45.37998499999999
 31
0.0
  0
LINE
  5
22B
330
1E
100
AcDbEntity
  8
0
100
AcDbLine
 10
40.1
 20
42.87998499999999
 30
0.0
 11
40.49999999999999
 21
40.179985
 31
0.0
  0
LINE
  5
22C
330
1E
100
AcDbEntity
  8
0
100
AcDbLine
 10
42.70399999999999
 20
44.170185
 30
0.0
 11
45.4579
 21
42.32638499999999
 31
0.0
  0
LINE
  5
22D
330
1E
100
AcDbEntity
  8
0
100
AcDbLine
 10
19.9
 20
37.479985
 30
0.0
 11
20.89999999999999
 21
34.979985
 31
0.0
  0
LINE
  5
22E
330
1E
100
AcDbEntity
  8
0
100
AcDbLine
 10
19.5
 20
40.179985
 30
0.0
 11
19.9
 21
37.479985
 31
0.0
  0
LINE
  5
22F
330
1E
100
AcDbEntity
  8
0
100
AcDbLine
 10
19.5
 20
40.179985
 30
0.0
 11
19.9
 21
42.87998499999999
 31
0.0
  0
LINE
  5
230
330
1E
100
AcDbEntity
  8
0
100
AcDbLine
 10
17.296
 20
36.189785
 30
0.0
 11
19.5777
 21
34.17998499999999
 31
0.0
  0
LINE
  5
231
330
1E
100
AcDbEntity
  8
0
100
AcDbLine
 10
14.54209999999999
 20
38.03358499999999
 30
0.0
 11
17.296
 21
36.189785
 31
0.0
  0
LINE
  5
235
330
1E
100
AcDbEntity
  8
0
100
AcDbLine
 10
45.4579
 20
42.32638499999999
 30
0.0
 11
49.00199999999999
 21
41.27998499999999
 31
0.0
  0
LINE
  5
236
330
1E
100
AcDbEntity
  8
0
100
AcDbLine
 10
45.4579
 20
38.03358499999999
 30
0.0
 11
49.00199999999999
 21
39.079985
 31
0.0
  0
LINE
  5
238
330
1E
100
AcDbEntity
  8
0
100
AcDbLine
 10
16.60719999999999
 20
44.930785
 30
0.0
 11
18.6
 21
46.779985
 31
0.0
  0
LINE
  5
239
330
1E
100
AcDbEntity
  8
0
100
AcDbLine
 10
19.5777
 20
46.17998499999999
 30
0.0
 11
21.49999999999999
 21
48.67998499999999
 31
0.0
  0
LINE
  5
23A
330
1E
100
AcDbEntity
  8
0
100
AcDbLine
 10
18.6
 20
46.779985
 30
0.0
 11
20.69999999999999
 21
49.479985
 31
0.0
  0
LINE
  5
23B
330
1E
100
AcDbEntity
  8
0
100
AcDbLine
 10
20.89999999999999
 20
45.37998499999999
 30
0.0
 11
22.6
 21
47.579985
 31
0.0
  0
LINE
  5
23C
330
1E
100
AcDbEntity
  8
0
100
AcDbLine
 10
22.6
 20
47.579985
 30
0.0
 11
24.8
 21
49.279985
 31
0.0
  0
LINE
  5
23F
330
1E
100
AcDbEntity
  8
0
100
AcDbLine
 10
37.4
 20
47.579985
 30
0.0
 11
39.1
 21
45.37998499999999
 31
0.0
  0
LINE
  5
240
330
1E
100
AcDbEntity
  8
0
100
AcDbLine
 10
40.42229999999999
 20
46.17998499999999
 30
0.0
 11
42.70399999999999
 21
44.170185
 31
0.0
  0
LINE
  5
241
330
1E
100
AcDbEntity
  8
0
100
AcDbLine
 10
41.39999999999999
 20
46.779985
 30
0.0
 11
43.3928
 21
44.930785
 31
0.0
  0
LINE
  5
242
330
1E
100
AcDbEntity
  8
0
100
AcDbLine
 10
39.1
 20
45.37998499999999
 30
0.0
 11
40.1
 21
42.87998499999999
 31
0.0
  0
LINE
  5
243
330
1E
100
AcDbEntity
  8
0
100
AcDbLine
 10
43.3928
 20
44.930785
 30
0.0
 11
46.1139
 21
43.409585
 31
0.0
  0
LINE
  5
244
330
1E
100
AcDbEntity
  8
0
100
AcDbLine
 10
15.7
 20
48.379985
 30
0.0
 11
18.3
 21
51.87998499999999
 31
0.0
  0
LINE
  5
245
330
1E
100
AcDbEntity
  8
0
100
AcDbLine
 10
14.1
 20
44.37998499999999
 30
0.0
 11
15.7
 21
48.379985
 31
0.0
  0
LINE
  5
246
330
1E
100
AcDbEntity
  8
0
100
AcDbLine
 10
13.9679045582404
 20
43.45531690768271
 30
0.0
 11
14.1
 21
44.37998499999999
 31
0.0
  0
LINE
  5
247
330
1E
100
AcDbEntity
  8
0
100
AcDbLine
 10
15.3
 20
48.67998499999999
 30
0.0
 11
18.0
 21
52.179985
 31
0.0
  0
LINE
  5
248
330
1E
100
AcDbEntity
  8
0
100
AcDbLine
 10
44.29999999999999
 20
48.379985
 30
0.0
 11
45.89999999999999
 21
44.37998499999999
 31
0.0
  0
LINE
  5
249
330
1E
100
AcDbEntity
  8
0
100
AcDbLine
 10
46.1139
 20
43.409585
 30
0.0
 11
49.0
 21
42.479985
 31
0.0
  0
LINE
  5
24A
330
1E
100
AcDbEntity
  8
0
100
AcDbLine
 10
46.1139
 20
36.95038499999999
 30
0.0
 11
49.0
 21
37.879985
 31
0.0
  0
LINE
  5
24B
330
1E
100
AcDbEntity
  8
0
100
AcDbLine
 10
45.89999999999999
 20
44.37998499999999
 30
0.0
 11
46.0320954417596
 21
43.45531690768271
 31
0.0
  0
LINE
  5
24D
330
1E
100
AcDbEntity
  8
0
100
AcDbLine
 10
21.49999999999999
 20
48.67998499999999
 30
0.0
 11
24.0
 21
50.602285
 31
0.0
  0
LINE
  5
24E
330
1E
100
AcDbEntity
  8
0
100
AcDbLine
 10
20.69999999999999
 20
49.479985
 30
0.0
 11
23.39999999999999
 21
51.579985
 31
0.0
  0
LINE
  5
24F
330
1E
100
AcDbEntity
  8
0
100
AcDbLine
 10
24.8
 20
49.279985
 30
0.0
 11
27.3
 21
50.27998499999999
 31
0.0
  0
LINE
  5
250
330
1E
100
AcDbEntity
  8
0
100
AcDbLine
 10
27.3
 20
50.27998499999999
 30
0.0
 11
30.0
 21
50.67998499999999
 31
0.0
  0
LINE
  5
251
330
1E
100
AcDbEntity
  8
0
100
AcDbLine
 10
24.0
 20
50.602285
 30
0.0
 11
26.00979999999999
 21
52.88398499999999
 31
0.0
  0
LINE
  5
252
330
1E
100
AcDbEntity
  8
0
100
AcDbLine
 10
38.5
 20
48.67998499999999
 30
0.0
 11
40.42229999999999
 21
46.17998499999999
 31
0.0
  0
LINE
  5
253
330
1E
100
AcDbEntity
  8
0
100
AcDbLine
 10
39.29999999999999
 20
49.479985
 30
0.0
 11
41.39999999999999
 21
46.779985
 31
0.0
  0
LINE
  5
254
330
1E
100
AcDbEntity
  8
0
100
AcDbLine
 10
35.2
 20
49.279985
 30
0.0
 11
37.4
 21
47.579985
 31
0.0
  0
LINE
  5
255
330
1E
100
AcDbEntity
  8
0
100
AcDbLine
 10
36.0
 20
50.602285
 30
0.0
 11
38.5
 21
48.67998499999999
 31
0.0
  0
LINE
  5
256
330
1E
100
AcDbEntity
  8
0
100
AcDbLine
 10
32.7
 20
50.27998499999999
 30
0.0
 11
35.2
 21
49.279985
 31
0.0
  0
LINE
  5
257
330
1E
100
AcDbEntity
  8
0
100
AcDbLine
 10
30.0
 20
50.67998499999999
 30
0.0
 11
32.7
 21
50.27998499999999
 31
0.0
  0
LINE
  5
258
330
1E
100
AcDbEntity
  8
0
100
AcDbLine
 10
36.6
 20
51.579985
 30
0.0
 11
39.29999999999999
 21
49.479985
 31
0.0
  0
LINE
  5
259
330
1E
100
AcDbEntity
  8
0
100
AcDbLine
 10
23.39999999999999
 20
51.579985
 30
0.0
 11
25.24919999999999
 21
53.57278499999999
 31
0.0
  0
LINE
  5
25B
330
1E
100
AcDbEntity
  8
0
100
AcDbLine
 10
18.3
 20
51.87998499999999
 30
0.0
 11
21.8
 21
54.479985
 31
0.0
  0
LINE
  5
25E
330
1E
100
AcDbEntity
  8
0
100
AcDbLine
 10
18.0
 20
52.179985
 30
0.0
 11
21.49999999999999
 21
54.87998499999999
 31
0.0
  0
LINE
  5
25F
330
1E
100
AcDbEntity
  8
0
100
AcDbLine
 10
26.00979999999999
 20
52.88398499999999
 30
0.0
 11
27.8536
 21
55.637885
 31
0.0
  0
LINE
  5
260
330
1E
100
AcDbEntity
  8
0
100
AcDbLine
 10
27.8536
 20
55.637885
 30
0.0
 11
28.9
 21
59.18198499999999
 31
0.0
  0
LINE
  5
261
330
1E
100
AcDbEntity
  8
0
100
AcDbLine
 10
25.24919999999999
 20
53.57278499999999
 30
0.0
 11
26.77039999999999
 21
56.293885
 31
0.0
  0
LINE
  5
262
330
1E
100
AcDbEntity
  8
0
100
AcDbLine
 10
32.1464
 20
55.637885
 30
0.0
 11
33.9902
 21
52.88398499999999
 31
0.0
  0
LINE
  5
265
330
1E
100
AcDbEntity
  8
0
100
AcDbLine
 10
21.8
 20
54.479985
 30
0.0
 11
25.8
 21
56.079985
 31
0.0
  0
LINE
  5
266
330
1E
100
AcDbEntity
  8
0
100
AcDbLine
 10
26.77039999999999
 20
56.293885
 30
0.0
 11
27.7
 21
59.17998499999999
 31
0.0
  0
LINE
  5
267
330
1E
100
AcDbEntity
  8
0
100
AcDbLine
 10
25.8
 20
56.079985
 30
0.0
 11
26.7246680923173
 21
56.2120804417596
 31
0.0
  0
LINE
  5
268
330
1E
100
AcDbEntity
  8
0
100
AcDbLine
 10
21.49999999999999
 20
54.87998499999999
 30
0.0
 11
25.6
 21
56.579985
 31
0.0
  0
LINE
  5
269
330
1E
100
AcDbEntity
  8
0
100
AcDbLine
 10
29.19999999999999
 20
63.15708499999999
 30
0.0
 11
29.19999999999999
 21
65.05478499999999
 31
0.0
  0
LINE
  5
26A
330
1E
100
AcDbEntity
  8
0
100
AcDbLine
 10
28.9
 20
59.18198499999999
 30
0.0
 11
29.19999999999999
 21
63.15708499999999
 31
0.0
  0
LINE
  5
26B
330
1E
100
AcDbEntity
  8
0
100
AcDbLine
 10
27.7
 20
59.17998499999999
 30
0.0
 11
28.0
 21
63.17998499999999
 31
0.0
  0
LINE
  5
26C
330
1E
100
AcDbEntity
  8
0
100
AcDbLine
 10
31.1
 20
59.18198499999999
 30
0.0
 11
32.1464
 21
55.637885
 31
0.0
  0
LINE
  5
26D
330
1E
100
AcDbEntity
  8
0
100
AcDbLine
 10
16.8
 20
63.17998499999999
 30
0.0
 11
23.19999999999999
 21
65.679985
 31
0.0
  0
LINE
  5
26F
330
1E
100
AcDbEntity
  8
0
100
AcDbLine
 10
23.19999999999999
 20
65.679985
 30
0.0
 11
28.2484848484848
 21
66.42240924242421
 31
0.0
  0
LINE
  5
271
330
1E
100
AcDbEntity
  8
0
100
AcDbLine
 10
15.09999999999999
 20
66.179985
 30
0.0
 11
22.29999999999999
 21
69.07998499999999
 31
0.0
  0
LINE
  5
272
330
1E
100
AcDbEntity
  8
0
100
AcDbLine
 10
28.0
 20
63.17998499999999
 30
0.0
 11
28.2
 21
66.179985
 31
0.0
  0
LINE
  5
273
330
1E
100
AcDbEntity
  8
0
100
AcDbLine
 10
28.2
 20
66.179985
 30
0.0
 11
28.7
 21
68.679985
 31
0.0
  0
LINE
  5
277
330
1E
100
AcDbEntity
  8
0
100
AcDbLine
 10
29.19999999999999
 20
65.05478499999999
 30
0.0
 11
29.19999999999999
 21
66.55468499999999
 31
0.0
  0
LINE
  5
278
330
1E
100
AcDbEntity
  8
0
100
AcDbLine
 10
29.19999999999999
 20
65.05478499999999
 30
0.0
 11
29.19999999999999
 21
63.15708499999999
 31
0.0
  0
LINE
  5
27C
330
1E
100
AcDbEntity
  8
0
100
AcDbLine
 10
29.19999999999999
 20
66.55468499999999
 30
0.0
 11
29.19999999999999
 21
67.650785
 31
0.0
  0
LINE
  5
27D
330
1E
100
AcDbEntity
  8
0
100
AcDbLine
 10
29.19999999999999
 20
66.55468499999999
 30
0.0
 11
29.19999999999999
 21
65.05478499999999
 31
0.0
  0
LINE
  5
27E
330
1E
100
AcDbEntity
  8
0
100
AcDbLine
 10
29.19999999999999
 20
67.650785
 30
0.0
 11
29.19999999999999
 21
68.304585
 31
0.0
  0
LINE
  5
27F
330
1E
100
AcDbEntity
  8
0
100
AcDbLine
 10
29.19999999999999
 20
67.650785
 30
0.0
 11
29.19999999999999
 21
66.55468499999999
 31
0.0
  0
LINE
  5
280
330
1E
100
AcDbEntity
  8
0
100
AcDbLine
 10
22.29999999999999
 20
69.07998499999999
 30
0.0
 11
30.0
 21
70.179985
 31
0.0
  0
LINE
  5
281
330
1E
100
AcDbEntity
  8
0
100
AcDbLine
 10
28.7
 20
68.679985
 30
0.0
 11
29.19999999999999
 21
69.179985
 31
0.0
  0
LINE
  5
282
330
1E
100
AcDbEntity
  8
0
100
AcDbLine
 10
29.19999999999999
 20
68.304585
 30
0.0
 11
29.19999999999999
 21
68.823785
 31
0.0
  0
LINE
  5
283
330
1E
100
AcDbEntity
  8
0
100
AcDbLine
 10
29.19999999999999
 20
68.304585
 30
0.0
 11
29.19999999999999
 21
67.650785
 31
0.0
  0
LINE
  5
284
330
1E
100
AcDbEntity
  8
0
100
AcDbLine
 10
29.19999999999999
 20
68.823785
 30
0.0
 11
29.19999999999999
 21
69.179985
 31
0.0
  0
LINE
  5
285
330
1E
100
AcDbEntity
  8
0
100
AcDbLine
 10
29.19999999999999
 20
68.823785
 30
0.0
 11
29.19999999999999
 21
68.304585
 31
0.0
  0
LINE
  5
286
330
1E
100
AcDbEntity
  8
0
100
AcDbLine
 10
30.0
 20
70.179985
 30
0.0
 11
37.7
 21
69.07998499999999
 31
0.0
  0
LINE
  5
287
330
1E
100
AcDbEntity
  8
0
100
AcDbLine
 10
29.19999999999999
 20
69.179985
 30
0.0
 11
30.0
 21
69.179985
 31
0.0
  0
LINE
  5
288
330
1E
100
AcDbEntity
  8
0
100
AcDbLine
 10
29.19999999999999
 20
69.179985
 30
0.0
 11
29.19999999999999
 21
68.823785
 31
0.0
  0
LINE
  5
289
330
1E
100
AcDbEntity
  8
0
100
AcDbLine
 10
30.8
 20
65.05478499999999
 30
0.0
 11
30.8
 21
63.15708499999999
 31
0.0
  0
LINE
  5
28A
330
1E
100
AcDbEntity
  8
0
100
AcDbLine
 10
30.8
 20
65.05478499999999
 30
0.0
 11
30.8
 21
66.55468499999999
 31
0.0
  0
LINE
  5
28B
330
1E
100
AcDbEntity
  8
0
100
AcDbLine
 10
30.8
 20
66.55468499999999
 30
0.0
 11
30.8
 21
65.05478499999999
 31
0.0
  0
LINE
  5
28C
330
1E
100
AcDbEntity
  8
0
100
AcDbLine
 10
30.8
 20
66.55468499999999
 30
0.0
 11
30.8
 21
67.650785
 31
0.0
  0
LINE
  5
28D
330
1E
100
AcDbEntity
  8
0
100
AcDbLine
 10
30.8
 20
67.650785
 30
0.0
 11
30.8
 21
66.55468499999999
 31
0.0
  0
LINE
  5
28E
330
1E
100
AcDbEntity
  8
0
100
AcDbLine
 10
30.8
 20
67.650785
 30
0.0
 11
30.8
 21
68.304585
 31
0.0
  0
LINE
  5
295
330
1E
100
AcDbEntity
  8
0
100
AcDbLine
 10
30.8
 20
68.304585
 30
0.0
 11
30.8
 21
67.650785
 31
0.0
  0
LINE
  5
296
330
1E
100
AcDbEntity
  8
0
100
AcDbLine
 10
30.8
 20
68.304585
 30
0.0
 11
30.8
 21
68.823785
 31
0.0
  0
LINE
  5
297
330
1E
100
AcDbEntity
  8
0
100
AcDbLine
 10
30.8
 20
68.823785
 30
0.0
 11
30.8
 21
68.304585
 31
0.0
  0
LINE
  5
298
330
1E
100
AcDbEntity
  8
0
100
AcDbLine
 10
30.8
 20
68.823785
 30
0.0
 11
30.8
 21
69.179985
 31
0.0
  0
LINE
  5
299
330
1E
100
AcDbEntity
  8
0
100
AcDbLine
 10
31.7515151515151
 20
66.42240924242421
 30
0.0
 11
36.79999999999999
 21
65.679985
 31
0.0
  0
LINE
  5
29B
330
1E
100
AcDbEntity
  8
0
100
AcDbLine
 10
31.8
 20
66.179985
 30
0.0
 11
32.0
 21
63.17998499999999
 31
0.0
  0
LINE
  5
29C
330
1E
100
AcDbEntity
  8
0
100
AcDbLine
 10
31.3
 20
68.679985
 30
0.0
 11
31.8
 21
66.179985
 31
0.0
  0
LINE
  5
29D
330
1E
100
AcDbEntity
  8
0
100
AcDbLine
 10
30.8
 20
69.179985
 30
0.0
 11
31.3
 21
68.679985
 31
0.0
  0
LINE
  5
29E
330
1E
100
AcDbEntity
  8
0
100
AcDbLine
 10
30.8
 20
69.179985
 30
0.0
 11
30.8
 21
68.823785
 31
0.0
  0
LINE
  5
29F
330
1E
100
AcDbEntity
  8
0
100
AcDbLine
 10
30.0
 20
69.179985
 30
0.0
 11
30.8
 21
69.179985
 31
0.0
  0
LINE
  5
2A0
330
1E
100
AcDbEntity
  8
0
100
AcDbLine
 10
30.8
 20
63.15708499999999
 30
0.0
 11
31.1
 21
59.18198499999999
 31
0.0
  0
LINE
  5
2A1
330
1E
100
AcDbEntity
  8
0
100
AcDbLine
 10
30.8
 20
63.15708499999999
 30
0.0
 11
30.8
 21
65.05478499999999
 31
0.0
  0
LINE
  5
2A2
330
1E
100
AcDbEntity
  8
0
100
AcDbLine
 10
32.29999999999999
 20
59.17998499999999
 30
0.0
 11
33.2296
 21
56.293885
 31
0.0
  0
LINE
  5
2A3
330
1E
100
AcDbEntity
  8
0
100
AcDbLine
 10
32.0
 20
63.17998499999999
 30
0.0
 11
32.29999999999999
 21
59.17998499999999
 31
0.0
  0
LINE
  5
2A4
330
1E
100
AcDbEntity
  8
0
100
AcDbLine
 10
25.6
 20
56.579985
 30
0.0
 11
26.92055303152599
 21
56.7600604133899
 31
0.0
  0
LINE
  5
2A5
330
1E
100
AcDbEntity
  8
0
100
AcDbLine
 10
33.9902
 20
52.88398499999999
 30
0.0
 11
36.0
 21
50.602285
 31
0.0
  0
LINE
  5
2A6
330
1E
100
AcDbEntity
  8
0
100
AcDbLine
 10
34.7508
 20
53.57278499999999
 30
0.0
 11
36.6
 21
51.579985
 31
0.0
  0
LINE
  5
2A8
330
1E
100
AcDbEntity
  8
0
100
AcDbLine
 10
38.2
 20
54.479985
 30
0.0
 11
41.7
 21
51.87998499999999
 31
0.0
  0
LINE
  5
2A9
330
1E
100
AcDbEntity
  8
0
100
AcDbLine
 10
34.2
 20
56.079985
 30
0.0
 11
38.2
 21
54.479985
 31
0.0
  0
LINE
  5
2AA
330
1E
100
AcDbEntity
  8
0
100
AcDbLine
 10
33.2296
 20
56.293885
 30
0.0
 11
34.7508
 21
53.57278499999999
 31
0.0
  0
LINE
  5
2AB
330
1E
100
AcDbEntity
  8
0
100
AcDbLine
 10
33.2753319076826
 20
56.2120804417596
 30
0.0
 11
34.2
 21
56.079985
 31
0.0
  0
LINE
  5
2AD
330
1E
100
AcDbEntity
  8
0
100
AcDbLine
 10
38.5
 20
54.87998499999999
 30
0.0
 11
42.0
 21
52.179985
 31
0.0
  0
LINE
  5
2AF
330
1E
100
AcDbEntity
  8
0
100
AcDbLine
 10
36.79999999999999
 20
65.679985
 30
0.0
 11
43.2
 21
63.17998499999999
 31
0.0
  0
LINE
  5
2B0
330
1E
100
AcDbEntity
  8
0
100
AcDbLine
 10
37.7
 20
69.07998499999999
 30
0.0
 11
44.9
 21
66.179985
 31
0.0
  0
LINE
  5
2B1
330
1E
100
AcDbEntity
  8
0
100
AcDbLine
 10
34.39999999999999
 20
56.579985
 30
0.0
 11
38.5
 21
54.87998499999999
 31
0.0
  0
LINE
  5
2B2
330
1E
100
AcDbEntity
  8
0
100
AcDbLine
 10
33.079446968474
 20
56.7600604133899
 30
0.0
 11
34.39999999999999
 21
56.579985
 31
0.0
  0
LINE
  5
2B3
330
1E
100
AcDbEntity
  8
0
100
AcDbLine
 10
41.7
 20
51.87998499999999
 30
0.0
 11
44.29999999999999
 21
48.379985
 31
0.0
  0
LINE
  5
2B4
330
1E
100
AcDbEntity
  8
0
100
AcDbLine
 10
43.2
 20
63.17998499999999
 30
0.0
 11
48.7
 21
58.879985
 31
0.0
  0
LINE
  5
2B5
330
1E
100
AcDbEntity
  8
0
100
AcDbLine
 10
44.9
 20
66.179985
 30
0.0
 11
51.2
 21
61.379985
 31
0.0
  0
LINE
  5
2B8
330
1E
100
AcDbEntity
  8
0
100
AcDbLine
 10
42.0
 20
52.179985
 30
0.0
 11
44.7
 21
48.67998499999999
 31
0.0
  0
LINE
  5
2B9
330
1E
100
AcDbEntity
  8
0
100
AcDbLine
 10
44.7
 20
48.67998499999999
 30
0.0
 11
46.39999999999999
 21
44.579985
 31
0.0
  0
LINE
  5
2BA
330
1E
100
AcDbEntity
  8
0
100
AcDbLine
 10
116.5
 20
36.579985
 30
0.0
 11
117.5
 21
34.15141357142859
 31
0.0
  0
LINE
  5
2BB
330
1E
100
AcDbEntity
  8
0
100
AcDbLine
 10
116.0
 20
36.47998499999999
 30
0.0
 11
117.4
 21
32.979985
 31
0.0
  0
LINE
  5
2C0
330
1E
100
AcDbEntity
  8
0
100
AcDbLine
 10
142.5
 20
37.591885
 30
0.0
 11
142.5
 21
35.624885
 31
0.0
  0
LINE
  5
2C1
330
1E
100
AcDbEntity
  8
0
100
AcDbLine
 10
142.5
 20
37.591885
 30
0.0
 11
142.5
 21
39.021485
 31
0.0
  0
LINE
  5
2CB
330
1E
100
AcDbEntity
  8
0
100
AcDbLine
 10
143.5
 20
36.579985
 30
0.0
 11
144.0
 21
40.179985
 31
0.0
  0
LINE
  5
2CC
330
1E
100
AcDbEntity
  8
0
100
AcDbLine
 10
144.0
 20
36.47998499999999
 30
0.0
 11
144.5
 21
40.179985
 31
0.0
  0
LINE
  5
2CD
330
1E
100
AcDbEntity
  8
0
100
AcDbLine
 10
117.5
 20
37.591885
 30
0.0
 11
117.5
 21
39.021485
 31
0.0
  0
LINE
  5
2CE
330
1E
100
AcDbEntity
  8
0
100
AcDbLine
 10
117.5
 20
37.591885
 30
0.0
 11
117.5
 21
35.624885
 31
0.0
  0
LINE
  5
2CF
330
1E
100
AcDbEntity
  8
0
100
AcDbLine
 10
49.00199999999999
 20
41.27998499999999
 30
0.0
 11
52.9771
 21
40.979985
 31
0.0
  0
LINE
  5
2D1
330
1E
100
AcDbEntity
  8
0
100
AcDbLine
 10
48.7
 20
58.879985
 30
0.0
 11
53.0
 21
53.379985
 31
0.0
  0
LINE
  5
2D3
330
1E
100
AcDbEntity
  8
0
100
AcDbLine
 10
49.0
 20
42.479985
 30
0.0
 11
53.0
 21
42.17998499999999
 31
0.0
  0
LINE
  5
2D4
330
1E
100
AcDbEntity
  8
0
100
AcDbLine
 10
53.0
 20
38.17998499999999
 30
0.0
 11
56.0
 21
38.37998499999999
 31
0.0
  0
LINE
  5
2D7
330
1E
100
AcDbEntity
  8
0
100
AcDbLine
 10
52.9771
 20
39.37998499999999
 30
0.0
 11
54.8748
 21
39.37998499999999
 31
0.0
  0
LINE
  5
2D8
330
1E
100
AcDbEntity
  8
0
100
AcDbLine
 10
54.8748
 20
39.37998499999999
 30
0.0
 11
56.3747
 21
39.37998499999999
 31
0.0
  0
LINE
  5
2DA
330
1E
100
AcDbEntity
  8
0
100
AcDbLine
 10
56.3747
 20
39.37998499999999
 30
0.0
 11
57.4708
 21
39.37998499999999
 31
0.0
  0
LINE
  5
2DB
330
1E
100
AcDbEntity
  8
0
100
AcDbLine
 10
57.4708
 20
39.37998499999999
 30
0.0
 11
58.1246
 21
39.37998499999999
 31
0.0
  0
LINE
  5
2DC
330
1E
100
AcDbEntity
  8
0
100
AcDbLine
 10
58.1246
 20
39.37998499999999
 30
0.0
 11
58.6438
 21
39.37998499999999
 31
0.0
  0
LINE
  5
2DD
330
1E
100
AcDbEntity
  8
0
100
AcDbLine
 10
56.0
 20
38.37998499999999
 30
0.0
 11
58.5
 21
38.879985
 31
0.0
  0
LINE
  5
300
330
1E
100
AcDbEntity
  8
0
100
AcDbLine
 10
142.5
 20
39.021485
 30
0.0
 11
142.5
 21
37.591885
 31
0.0
  0
LINE
  5
301
330
1E
100
AcDbEntity
  8
0
100
AcDbLine
 10
142.5
 20
39.021485
 30
0.0
 11
142.5
 21
39.88908499999999
 31
0.0
  0
LINE
  5
302
330
1E
100
AcDbEntity
  8
0
100
AcDbLine
 10
117.5
 20
39.021485
 30
0.0
 11
117.5
 21
39.88908499999999
 31
0.0
  0
LINE
  5
303
330
1E
100
AcDbEntity
  8
0
100
AcDbLine
 10
117.5
 20
39.021485
 30
0.0
 11
117.5
 21
37.591885
 31
0.0
  0
LINE
  5
304
330
1E
100
AcDbEntity
  8
0
100
AcDbLine
 10
58.6438
 20
39.37998499999999
 30
0.0
 11
59.0
 21
39.37998499999999
 31
0.0
  0
LINE
  5
305
330
1E
100
AcDbEntity
  8
0
100
AcDbLine
 10
58.5
 20
38.879985
 30
0.0
 11
59.0
 21
39.37998499999999
 31
0.0
  0
LINE
  5
306
330
1E
100
AcDbEntity
  8
0
100
AcDbLine
 10
52.9771
 20
40.979985
 30
0.0
 11
54.8748
 21
40.979985
 31
0.0
  0
LINE
  5
307
330
1E
100
AcDbEntity
  8
0
100
AcDbLine
 10
54.8748
 20
40.979985
 30
0.0
 11
56.3747
 21
40.979985
 31
0.0
  0
LINE
  5
308
330
1E
100
AcDbEntity
  8
0
100
AcDbLine
 10
56.3747
 20
40.979985
 30
0.0
 11
57.4708
 21
40.979985
 31
0.0
  0
LINE
  5
309
330
1E
100
AcDbEntity
  8
0
100
AcDbLine
 10
57.4708
 20
40.979985
 30
0.0
 11
58.1246
 21
40.979985
 31
0.0
  0
LINE
  5
30A
330
1E
100
AcDbEntity
  8
0
100
AcDbLine
 10
58.1246
 20
40.979985
 30
0.0
 11
58.6438
 21
40.979985
 31
0.0
  0
LINE
  5
30E
330
1E
100
AcDbEntity
  8
0
100
AcDbLine
 10
58.6438
 20
40.979985
 30
0.0
 11
59.0
 21
40.979985
 31
0.0
  0
LINE
  5
30F
330
1E
100
AcDbEntity
  8
0
100
AcDbLine
 10
59.0
 20
40.979985
 30
0.0
 11
59.0
 21
40.179985
 31
0.0
  0
LINE
  5
310
330
1E
100
AcDbEntity
  8
0
100
AcDbLine
 10
53.0
 20
53.379985
 30
0.0
 11
55.5
 21
46.97998499999999
 31
0.0
  0
LINE
  5
311
330
1E
100
AcDbEntity
  8
0
100
AcDbLine
 10
55.5
 20
46.97998499999999
 30
0.0
 11
56.2424242424242
 21
41.9315001515152
 31
0.0
  0
LINE
  5
313
330
1E
100
AcDbEntity
  8
0
100
AcDbLine
 10
51.2
 20
61.379985
 30
0.0
 11
56.0
 21
55.079985
 31
0.0
  0
LINE
  5
314
330
1E
100
AcDbEntity
  8
0
100
AcDbLine
 10
56.0
 20
55.079985
 30
0.0
 11
58.9
 21
47.87998499999999
 31
0.0
  0
LINE
  5
315
330
1E
100
AcDbEntity
  8
0
100
AcDbLine
 10
53.0
 20
42.17998499999999
 30
0.0
 11
56.0
 21
41.97998499999999
 31
0.0
  0
LINE
  5
316
330
1E
100
AcDbEntity
  8
0
100
AcDbLine
 10
58.9
 20
47.87998499999999
 30
0.0
 11
60.0
 21
40.179985
 31
0.0
  0
LINE
  5
317
330
1E
100
AcDbEntity
  8
0
100
AcDbLine
 10
56.0
 20
41.97998499999999
 30
0.0
 11
58.5
 21
41.47998499999999
 31
0.0
  0
LINE
  5
318
330
1E
100
AcDbEntity
  8
0
100
AcDbLine
 10
58.5
 20
41.47998499999999
 30
0.0
 11
59.0
 21
40.979985
 31
0.0
  0
LINE
  5
31A
330
1E
100
AcDbEntity
  8
0
100
AcDbLine
 10
103.4999999999999
 20
40.179985
 30
0.0
 11
104.4999999999999
 21
46.97998499999999
 31
0.0
  0
LINE
  5
31B
330
1E
100
AcDbEntity
  8
0
100
AcDbLine
 10
103.4999999999999
 20
40.179985
 30
0.0
 11
104.4999999999999
 21
33.37998499999999
 31
0.0
  0
LINE
  5
31C
330
1E
100
AcDbEntity
  8
0
100
AcDbLine
 10
100.0
 20
40.179985
 30
0.0
 11
101.0999999999999
 21
47.87998499999999
 31
0.0
  0
LINE
  5
31D
330
1E
100
AcDbEntity
  8
0
100
AcDbLine
 10
100.0
 20
40.179985
 30
0.0
 11
101.0999999999999
 21
32.479985
 31
0.0
  0
LINE
  5
31E
330
1E
100
AcDbEntity
  8
0
100
AcDbLine
 10
115.5
 20
40.179985
 30
0.0
 11
116.0
 21
43.879985
 31
0.0
  0
LINE
  5
31F
330
1E
100
AcDbEntity
  8
0
100
AcDbLine
 10
115.5
 20
40.179985
 30
0.0
 11
116.0
 21
36.47998499999999
 31
0.0
  0
LINE
  5
320
330
1E
100
AcDbEntity
  8
0
100
AcDbLine
 10
116.0
 20
40.179985
 30
0.0
 11
116.5
 21
43.77998499999999
 31
0.0
  0
LINE
  5
321
330
1E
100
AcDbEntity
  8
0
100
AcDbLine
 10
116.0
 20
40.179985
 30
0.0
 11
116.5
 21
36.579985
 31
0.0
  0
LINE
  5
322
330
1E
100
AcDbEntity
  8
0
100
AcDbLine
 10
117.5
 20
39.88908499999999
 30
0.0
 11
117.5
 21
40.179985
 31
0.0
  0
LINE
  5
323
330
1E
100
AcDbEntity
  8
0
100
AcDbLine
 10
117.5
 20
39.88908499999999
 30
0.0
 11
117.5
 21
39.021485
 31
0.0
  0
LINE
  5
324
330
1E
100
AcDbEntity
  8
0
100
AcDbLine
 10
117.5
 20
40.179985
 30
0.0
 11
118.0
 21
43.379985
 31
0.0
  0
LINE
  5
325
330
1E
100
AcDbEntity
  8
0
100
AcDbLine
 10
117.5
 20
40.179985
 30
0.0
 11
118.0
 21
43.379985
 31
0.0
  0
LINE
  5
326
330
1E
100
AcDbEntity
  8
0
100
AcDbLine
 10
117.5
 20
40.179985
 30
0.0
 11
117.522824278944
 21
40.0339096147569
 31
0.0
  0
LINE
  5
327
330
1E
100
AcDbEntity
  8
0
100
AcDbLine
 10
117.5
 20
40.179985
 30
0.0
 11
117.5
 21
39.88908499999999
 31
0.0
  0
LINE
  5
328
330
1E
100
AcDbEntity
  8
0
100
AcDbLine
 10
113.5
 20
40.179985
 30
0.0
 11
114.1
 21
44.37998499999999
 31
0.0
  0
LINE
  5
329
330
1E
100
AcDbEntity
  8
0
100
AcDbLine
 10
113.5
 20
40.179985
 30
0.0
 11
114.1
 21
35.979985
 31
0.0
  0
LINE
  5
32B
330
1E
100
AcDbEntity
  8
0
100
AcDbLine
 10
104.4999999999999
 20
46.97998499999999
 30
0.0
 11
107.0
 21
53.379985
 31
0.0
  0
LINE
  5
32C
330
1E
100
AcDbEntity
  8
0
100
AcDbLine
 10
107.0
 20
53.379985
 30
0.0
 11
111.2999999999999
 21
58.879985
 31
0.0
  0
LINE
  5
32E
330
1E
100
AcDbEntity
  8
0
100
AcDbLine
 10
104.0
 20
55.079985
 30
0.0
 11
108.8
 21
61.379985
 31
0.0
  0
LINE
  5
32F
330
1E
100
AcDbEntity
  8
0
100
AcDbLine
 10
101.0999999999999
 20
47.87998499999999
 30
0.0
 11
104.0
 21
55.079985
 31
0.0
  0
LINE
  5
330
330
1E
100
AcDbEntity
  8
0
100
AcDbLine
 10
116.0
 20
43.879985
 30
0.0
 11
117.4
 21
47.37998499999999
 31
0.0
  0
LINE
  5
331
330
1E
100
AcDbEntity
  8
0
100
AcDbLine
 10
116.5
 20
43.77998499999999
 30
0.0
 11
117.9
 21
47.17998499999999
 31
0.0
  0
LINE
  5
332
330
1E
100
AcDbEntity
  8
0
100
AcDbLine
 10
118.0
 20
43.379985
 30
0.0
 11
119.1999999999999
 21
46.379985
 31
0.0
  0
LINE
  5
333
330
1E
100
AcDbEntity
  8
0
100
AcDbLine
 10
118.0
 20
43.3799850000001
 30
0.0
 11
119.1999999999999
 21
46.379985
 31
0.0
  0
LINE
  5
334
330
1E
100
AcDbEntity
  8
0
100
AcDbLine
 10
117.4
 20
47.37998499999999
 30
0.0
 11
119.7999999999999
 21
50.379985
 31
0.0
  0
LINE
  5
335
330
1E
100
AcDbEntity
  8
0
100
AcDbLine
 10
117.9
 20
47.17998499999999
 30
0.0
 11
120.1
 21
50.079985
 31
0.0
  0
LINE
  5
336
330
1E
100
AcDbEntity
  8
0
100
AcDbLine
 10
119.1999999999999
 20
46.379985
 30
0.0
 11
121.1999999999999
 21
48.97998499999999
 31
0.0
  0
LINE
  5
337
330
1E
100
AcDbEntity
  8
0
100
AcDbLine
 10
119.1999999999999
 20
46.379985
 30
0.0
 11
121.1999999999999
 21
48.97998499999999
 31
0.0
  0
LINE
  5
338
330
1E
100
AcDbEntity
  8
0
100
AcDbLine
 10
115.7
 20
48.379985
 30
0.0
 11
118.3
 21
51.87998499999999
 31
0.0
  0
LINE
  5
339
330
1E
100
AcDbEntity
  8
0
100
AcDbLine
 10
114.1
 20
44.37998499999999
 30
0.0
 11
115.7
 21
48.379985
 31
0.0
  0
LINE
  5
33C
330
1E
100
AcDbEntity
  8
0
100
AcDbLine
 10
119.7999999999999
 20
50.379985
 30
0.0
 11
122.7999999999999
 21
52.77998499999999
 31
0.0
  0
LINE
  5
33D
330
1E
100
AcDbEntity
  8
0
100
AcDbLine
 10
120.1
 20
50.079985
 30
0.0
 11
123.0
 21
52.27998499999999
 31
0.0
  0
LINE
  5
33E
330
1E
100
AcDbEntity
  8
0
100
AcDbLine
 10
121.1999999999999
 20
48.97998499999999
 30
0.0
 11
123.7999999999999
 21
50.979985
 31
0.0
  0
LINE
  5
33F
330
1E
100
AcDbEntity
  8
0
100
AcDbLine
 10
122.7999999999999
 20
52.77998499999999
 30
0.0
 11
126.2999999999999
 21
54.17998499999999
 31
0.0
  0
LINE
  5
340
330
1E
100
AcDbEntity
  8
0
100
AcDbLine
 10
123.0
 20
52.27998499999999
 30
0.0
 11
126.4
 21
53.67998499999999
 31
0.0
  0
LINE
  5
341
330
1E
100
AcDbEntity
  8
0
100
AcDbLine
 10
123.7999999999999
 20
50.979985
 30
0.0
 11
126.8
 21
52.179985
 31
0.0
  0
LINE
  5
342
330
1E
100
AcDbEntity
  8
0
100
AcDbLine
 10
118.3
 20
51.87998499999999
 30
0.0
 11
121.7999999999999
 21
54.479985
 31
0.0
  0
LINE
  5
343
330
1E
100
AcDbEntity
  8
0
100
AcDbLine
 10
121.7999999999999
 20
54.479985
 30
0.0
 11
125.8
 21
56.079985
 31
0.0
  0
LINE
  5
344
330
1E
100
AcDbEntity
  8
0
100
AcDbLine
 10
118.0
 20
52.179985
 30
0.0
 11
121.5
 21
54.87998499999999
 31
0.0
  0
LINE
  5
346
330
1E
100
AcDbEntity
  8
0
100
AcDbLine
 10
121.5
 20
54.87998499999999
 30
0.0
 11
125.6
 21
56.579985
 31
0.0
  0
LINE
  5
347
330
1E
100
AcDbEntity
  8
0
100
AcDbLine
 10
126.4
 20
53.67998499999999
 30
0.0
 11
130.0
 21
54.17998499999999
 31
0.0
  0
LINE
  5
348
330
1E
100
AcDbEntity
  8
0
100
AcDbLine
 10
126.2999999999999
 20
54.17998499999999
 30
0.0
 11
130.0
 21
54.679985
 31
0.0
  0
LINE
  5
349
330
1E
100
AcDbEntity
  8
0
100
AcDbLine
 10
133.1999999999999
 20
52.179985
 30
0.0
 11
136.1999999999999
 21
50.979985
 31
0.0
  0
LINE
  5
34A
330
1E
100
AcDbEntity
  8
0
100
AcDbLine
 10
130.0
 20
52.679985
 30
0.0
 11
133.1999999999999
 21
52.179985
 31
0.0
  0
LINE
  5
34B
330
1E
100
AcDbEntity
  8
0
100
AcDbLine
 10
133.6999999999999
 20
54.17998499999999
 30
0.0
 11
137.1999999999999
 21
52.77998499999999
 31
0.0
  0
LINE
  5
34C
330
1E
100
AcDbEntity
  8
0
100
AcDbLine
 10
133.6
 20
53.67998499999999
 30
0.0
 11
137.0
 21
52.27998499999999
 31
0.0
  0
LINE
  5
34D
330
1E
100
AcDbEntity
  8
0
100
AcDbLine
 10
130.0
 20
54.679985
 30
0.0
 11
133.6999999999999
 21
54.17998499999999
 31
0.0
  0
LINE
  5
34E
330
1E
100
AcDbEntity
  8
0
100
AcDbLine
 10
130.0
 20
54.17998499999999
 30
0.0
 11
133.6
 21
53.67998499999999
 31
0.0
  0
LINE
  5
34F
330
1E
100
AcDbEntity
  8
0
100
AcDbLine
 10
126.8
 20
52.179985
 30
0.0
 11
130.0
 21
52.679985
 31
0.0
  0
LINE
  5
350
330
1E
100
AcDbEntity
  8
0
100
AcDbLine
 10
125.8
 20
56.079985
 30
0.0
 11
130.0
 21
56.67998499999999
 31
0.0
  0
LINE
  5
351
330
1E
100
AcDbEntity
  8
0
100
AcDbLine
 10
125.6
 20
56.579985
 30
0.0
 11
130.0
 21
57.179985
 31
0.0
  0
LINE
  5
352
330
1E
100
AcDbEntity
  8
0
100
AcDbLine
 10
115.3
 20
48.67998499999999
 30
0.0
 11
118.0
 21
52.179985
 31
0.0
  0
LINE
  5
353
330
1E
100
AcDbEntity
  8
0
100
AcDbLine
 10
113.5999999999999
 20
44.579985
 30
0.0
 11
115.3
 21
48.67998499999999
 31
0.0
  0
LINE
  5
354
330
1E
100
AcDbEntity
  8
0
100
AcDbLine
 10
113.0
 20
40.179985
 30
0.0
 11
113.5999999999999
 21
44.579985
 31
0.0
  0
LINE
  5
355
330
1E
100
AcDbEntity
  8
0
100
AcDbLine
 10
113.0
 20
40.179985
 30
0.0
 11
113.5999999999999
 21
35.77998499999999
 31
0.0
  0
LINE
  5
356
330
1E
100
AcDbEntity
  8
0
100
AcDbLine
 10
134.1999999999999
 20
56.079985
 30
0.0
 11
138.1999999999999
 21
54.479985
 31
0.0
  0
LINE
  5
357
330
1E
100
AcDbEntity
  8
0
100
AcDbLine
 10
130.0
 20
56.67998499999999
 30
0.0
 11
134.1999999999999
 21
56.079985
 31
0.0
  0
LINE
  5
358
330
1E
100
AcDbEntity
  8
0
100
AcDbLine
 10
136.1999999999999
 20
50.979985
 30
0.0
 11
138.8
 21
48.97998499999999
 31
0.0
  0
LINE
  5
359
330
1E
100
AcDbEntity
  8
0
100
AcDbLine
 10
137.1999999999999
 20
52.77998499999999
 30
0.0
 11
140.1999999999999
 21
50.379985
 31
0.0
  0
LINE
  5
35A
330
1E
100
AcDbEntity
  8
0
100
AcDbLine
 10
137.0
 20
52.27998499999999
 30
0.0
 11
139.9
 21
50.079985
 31
0.0
  0
LINE
  5
35B
330
1E
100
AcDbEntity
  8
0
100
AcDbLine
 10
142.5
 20
39.88908499999999
 30
0.0
 11
142.5
 21
39.021485
 31
0.0
  0
LINE
  5
35C
330
1E
100
AcDbEntity
  8
0
100
AcDbLine
 10
142.5
 20
39.88908499999999
 30
0.0
 11
142.5
 21
40.179985
 31
0.0
  0
LINE
  5
35D
330
1E
100
AcDbEntity
  8
0
100
AcDbLine
 10
142.4771757210559
 20
40.0339096147569
 30
0.0
 11
142.5
 21
40.179985
 31
0.0
  0
LINE
  5
35E
330
1E
100
AcDbEntity
  8
0
100
AcDbLine
 10
142.0
 20
43.379985
 30
0.0
 11
142.5
 21
40.179985
 31
0.0
  0
LINE
  5
35F
330
1E
100
AcDbEntity
  8
0
100
AcDbLine
 10
142.5
 20
40.179985
 30
0.0
 11
142.5
 21
39.88908499999999
 31
0.0
  0
LINE
  5
360
330
1E
100
AcDbEntity
  8
0
100
AcDbLine
 10
143.5
 20
43.77998499999999
 30
0.0
 11
144.0
 21
40.179985
 31
0.0
  0
LINE
  5
361
330
1E
100
AcDbEntity
  8
0
100
AcDbLine
 10
144.0
 20
43.879985
 30
0.0
 11
144.5
 21
40.179985
 31
0.0
  0
LINE
  5
39C
330
1E
100
AcDbEntity
  8
0
100
AcDbLine
 10
145.9
 20
44.37998499999999
 30
0.0
 11
146.5
 21
40.179985
 31
0.0
  0
LINE
  5
39D
330
1E
100
AcDbEntity
  8
0
100
AcDbLine
 10
140.8
 20
46.379985
 30
0.0
 11
142.0
 21
43.379985
 31
0.0
  0
LINE
  5
39E
330
1E
100
AcDbEntity
  8
0
100
AcDbLine
 10
138.8
 20
48.97998499999999
 30
0.0
 11
140.8
 21
46.379985
 31
0.0
  0
LINE
  5
39F
330
1E
100
AcDbEntity
  8
0
100
AcDbLine
 10
140.8
 20
46.379985
 30
0.0
 11
142.0
 21
43.379985
 31
0.0
  0
LINE
  5
3A0
330
1E
100
AcDbEntity
  8
0
100
AcDbLine
 10
140.1999999999999
 20
50.379985
 30
0.0
 11
142.5999999999999
 21
47.37998499999999
 31
0.0
  0
LINE
  5
3A1
330
1E
100
AcDbEntity
  8
0
100
AcDbLine
 10
139.9
 20
50.079985
 30
0.0
 11
142.1
 21
47.17998499999999
 31
0.0
  0
LINE
  5
3A2
330
1E
100
AcDbEntity
  8
0
100
AcDbLine
 10
142.5999999999999
 20
47.37998499999999
 30
0.0
 11
144.0
 21
43.879985
 31
0.0
  0
LINE
  5
3A3
330
1E
100
AcDbEntity
  8
0
100
AcDbLine
 10
142.1
 20
47.17998499999999
 30
0.0
 11
143.5
 21
43.77998499999999
 31
0.0
  0
LINE
  5
3A4
330
1E
100
AcDbEntity
  8
0
100
AcDbLine
 10
141.6999999999999
 20
51.87998499999999
 30
0.0
 11
144.3
 21
48.379985
 31
0.0
  0
LINE
  5
3A5
330
1E
100
AcDbEntity
  8
0
100
AcDbLine
 10
144.3
 20
48.379985
 30
0.0
 11
145.9
 21
44.37998499999999
 31
0.0
  0
LINE
  5
3A7
330
1E
100
AcDbEntity
  8
0
100
AcDbLine
 10
142.0
 20
52.179985
 30
0.0
 11
144.6999999999999
 21
48.67998499999999
 31
0.0
  0
LINE
  5
3BA
330
1E
100
AcDbEntity
  8
0
100
AcDbLine
 10
155.4999999999999
 20
46.97998499999999
 30
0.0
 11
156.4999999999999
 21
40.179985
 31
0.0
  0
LINE
  5
3E2
330
1E
100
AcDbEntity
  8
0
100
AcDbLine
 10
153.0
 20
53.379985
 30
0.0
 11
155.4999999999999
 21
46.97998499999999
 31
0.0
  0
LINE
  5
3E3
330
1E
100
AcDbEntity
  8
0
100
AcDbLine
 10
158.9
 20
47.87998499999999
 30
0.0
 11
160.0
 21
40.179985
 31
0.0
  0
LINE
  5
3E4
330
1E
100
AcDbEntity
  8
0
100
AcDbLine
 10
144.6999999999999
 20
48.67998499999999
 30
0.0
 11
146.4
 21
44.579985
 31
0.0
  0
LINE
  5
3E5
330
1E
100
AcDbEntity
  8
0
100
AcDbLine
 10
146.4
 20
44.579985
 30
0.0
 11
147.0
 21
40.179985
 31
0.0
  0
LINE
  5
3E6
330
1E
100
AcDbEntity
  8
0
100
AcDbLine
 10
138.1999999999999
 20
54.479985
 30
0.0
 11
141.6999999999999
 21
51.87998499999999
 31
0.0
  0
LINE
  5
3F8
330
1E
100
AcDbEntity
  8
0
100
AcDbLine
 10
156.0
 20
55.079985
 30
0.0
 11
158.9
 21
47.87998499999999
 31
0.0
  0
LINE
  5
3FA
330
1E
100
AcDbEntity
  8
0
100
AcDbLine
 10
138.5
 20
54.87998499999999
 30
0.0
 11
142.0
 21
52.179985
 31
0.0
  0
LINE
  5
3FB
330
1E
100
AcDbEntity
  8
0
100
AcDbLine
 10
134.4
 20
56.579985
 30
0.0
 11
138.5
 21
54.87998499999999
 31
0.0
  0
LINE
  5
3FC
330
1E
100
AcDbEntity
  8
0
100
AcDbLine
 10
111.2999999999999
 20
58.879985
 30
0.0
 11
116.7999999999999
 21
63.17998499999999
 31
0.0
  0
LINE
  5
3FE
330
1E
100
AcDbEntity
  8
0
100
AcDbLine
 10
116.7999999999999
 20
63.17998499999999
 30
0.0
 11
123.1999999999999
 21
65.679985
 31
0.0
  0
LINE
  5
3FF
330
1E
100
AcDbEntity
  8
0
100
AcDbLine
 10
123.1999999999999
 20
65.679985
 30
0.0
 11
130.0
 21
66.679985
 31
0.0
  0
LINE
  5
402
330
1E
100
AcDbEntity
  8
0
100
AcDbLine
 10
108.8
 20
61.379985
 30
0.0
 11
115.1
 21
66.179985
 31
0.0
  0
LINE
  5
403
330
1E
100
AcDbEntity
  8
0
100
AcDbLine
 10
115.1
 20
66.179985
 30
0.0
 11
122.3
 21
69.07998499999999
 31
0.0
  0
LINE
  5
404
330
1E
100
AcDbEntity
  8
0
100
AcDbLine
 10
130.0
 20
66.679985
 30
0.0
 11
136.8
 21
65.679985
 31
0.0
  0
LINE
  5
405
330
1E
100
AcDbEntity
  8
0
100
AcDbLine
 10
122.3
 20
69.07998499999999
 30
0.0
 11
130.0
 21
70.179985
 31
0.0
  0
LINE
  5
407
330
1E
100
AcDbEntity
  8
0
100
AcDbLine
 10
143.1999999999999
 20
63.17998499999999
 30
0.0
 11
148.6999999999999
 21
58.879985
 31
0.0
  0
LINE
  5
408
330
1E
100
AcDbEntity
  8
0
100
AcDbLine
 10
136.8
 20
65.679985
 30
0.0
 11
143.1999999999999
 21
63.17998499999999
 31
0.0
  0
LINE
  5
40B
330
1E
100
AcDbEntity
  8
0
100
AcDbLine
 10
148.6999999999999
 20
58.879985
 30
0.0
 11
153.0
 21
53.379985
 31
0.0
  0
LINE
  5
44D
330
1E
100
AcDbEntity
  8
0
100
AcDbLine
 10
151.2
 20
61.379985
 30
0.0
 11
156.0
 21
55.079985
 31
0.0
  0
LINE
  5
44E
330
1E
100
AcDbEntity
  8
0
100
AcDbLine
 10
144.9
 20
66.179985
 30
0.0
 11
151.2
 21
61.379985
 31
0.0
  0
LINE
  5
455
330
1E
100
AcDbEntity
  8
0
100
AcDbLine
 10
137.7
 20
69.07998499999999
 30
0.0
 11
144.9
 21
66.179985
 31
0.0
  0
LINE
  5
456
330
1E
100
AcDbEntity
  8
0
100
AcDbLine
 10
130.0
 20
70.179985
 30
0.0
 11
137.7
 21
69.07998499999999
 31
0.0
  0
LINE
  5
457
330
1E
100
AcDbEntity
  8
0
100
AcDbLine
 10
130.0
 20
57.179985
 30
0.0
 11
134.4
 21
56.579985
 31
0.0
  0
LINE
  5
458
330
1E
100
AcDbEntity
  8
0
100
AcDbLine
 10
59.0
 20
40.179985
 30
0.0
 11
59.0
 21
39.37998499999999
 31
0.0
  0
LINE
  5
459
330
1E
100
AcDbEntity
  8
0
100
AcDbLine
 10
59.0
 20
40.179985
 30
0.0
 11
59.0
 21
40.979985
 31
0.0
  0
LINE
  5
45A
330
1E
100
AcDbEntity
  8
0
100
AcDbLine
 10
59.0
 20
39.37998499999999
 30
0.0
 11
59.0
 21
40.179985
 31
0.0
  0
LINE
  5
45B
330
1E
100
AcDbEntity
  8
0
100
AcDbLine
 10
49.00199999999999
 20
39.079985
 30
0.0
 11
52.9771
 21
39.37998499999999
 31
0.0
  0
LINE
  5
45C
330
1E
100
AcDbEntity
  8
0
100
AcDbLine
 10
49.0
 20
37.879985
 30
0.0
 11
53.0
 21
38.17998499999999
 31
0.0
  0
LINE
  5
45D
330
1E
100
AcDbEntity
  8
0
100
AcDbLine
 10
46.39999999999999
 20
44.579985
 30
0.0
 11
46.5800754133899
 21
43.259431968474
 31
0.0
  0
LINE
  5
45E
330
1E
100
AcDbEntity
  8
0
100
AcDbLine
 10
14.1
 20
35.979985
 30
0.0
 11
15.7
 21
31.979985
 31
0.0
  0
LINE
  5
45F
330
1E
100
AcDbEntity
  8
0
100
AcDbLine
 10
13.9679045582404
 20
36.90465309231729
 30
0.0
 11
14.1
 21
35.979985
 31
0.0
  0
LINE
  5
460
330
1E
100
AcDbEntity
  8
0
100
AcDbLine
 10
13.6
 20
35.77998499999999
 30
0.0
 11
15.3
 21
31.67998499999999
 31
0.0
  0
LINE
  5
461
330
1E
100
AcDbEntity
  8
0
100
AcDbLine
 10
13.4199245866101
 20
37.100538031526
 30
0.0
 11
13.6
 21
35.77998499999999
 31
0.0
  0
LINE
  5
466
330
1E
100
AcDbEntity
  8
0
100
AcDbLine
 10
246.3999999999999
 20
35.77998499999999
 30
0.0
 11
244.7
 21
31.67998499999999
 31
0.0
  0
LINE
  5
467
330
1E
100
AcDbEntity
  8
0
100
AcDbLine
 10
245.9
 20
35.979985
 30
0.0
 11
244.3
 21
31.979985
 31
0.0
  0
LINE
  5
468
330
1E
100
AcDbEntity
  8
0
100
AcDbLine
 10
242.704
 20
36.189785
 30
0.0
 11
240.4222999999999
 21
34.17998499999999
 31
0.0
  0
LINE
  5
469
330
1E
100
AcDbEntity
  8
0
100
AcDbLine
 10
240.0999999999999
 20
37.479985
 30
0.0
 11
239.1
 21
34.979985
 31
0.0
  0
LINE
  5
46A
330
1E
100
AcDbEntity
  8
0
100
AcDbLine
 10
201.1
 20
32.479985
 30
0.0
 11
200.0
 21
40.179985
 31
0.0
  0
LINE
  5
46B
330
1E
100
AcDbEntity
  8
0
100
AcDbLine
 10
204.4999999999999
 20
33.37998499999999
 30
0.0
 11
203.7575757575758
 21
38.42846984848489
 31
0.0
  0
LINE
  5
46C
330
1E
100
AcDbEntity
  8
0
100
AcDbLine
 10
204.4999999999999
 20
33.37998499999999
 30
0.0
 11
203.7575757575758
 21
38.42846984848489
 31
0.0
  0
LINE
  5
46D
330
1E
100
AcDbEntity
  8
0
100
AcDbLine
 10
243.3927999999999
 20
35.42918499999999
 30
0.0
 11
241.4
 21
33.579985
 31
0.0
  0
LINE
  5
46E
330
1E
100
AcDbEntity
  8
0
100
AcDbLine
 10
220.9
 20
34.979985
 30
0.0
 11
219.9
 21
37.479985
 31
0.0
  0
LINE
  5
46F
330
1E
100
AcDbEntity
  8
0
100
AcDbLine
 10
218.5999999999999
 20
33.579985
 30
0.0
 11
216.6072
 21
35.42918499999999
 31
0.0
  0
LINE
  5
470
330
1E
100
AcDbEntity
  8
0
100
AcDbLine
 10
219.5777
 20
34.17998499999999
 30
0.0
 11
217.2959999999999
 21
36.189785
 31
0.0
  0
LINE
  5
471
330
1E
100
AcDbEntity
  8
0
100
AcDbLine
 10
215.3
 20
31.67998499999999
 30
0.0
 11
213.6
 21
35.77998499999999
 31
0.0
  0
LINE
  5
472
330
1E
100
AcDbEntity
  8
0
100
AcDbLine
 10
215.3
 20
31.67998499999999
 30
0.0
 11
213.6
 21
35.77998499999999
 31
0.0
  0
LINE
  5
473
330
1E
100
AcDbEntity
  8
0
100
AcDbLine
 10
215.7
 20
31.979985
 30
0.0
 11
214.1
 21
35.979985
 31
0.0
  0
LINE
  5
474
330
1E
100
AcDbEntity
  8
0
100
AcDbLine
 10
260.0
 20
40.179985
 30
0.0
 11
258.9
 21
32.479985
 31
0.0
  0
LINE
  5
475
330
1E
100
AcDbEntity
  8
0
100
AcDbLine
 10
256.2424242424242
 20
38.42846984848489
 30
0.0
 11
255.5
 21
33.37998499999999
 31
0.0
  0
LINE
  5
476
330
1E
100
AcDbEntity
  8
0
100
AcDbLine
 10
230.0
 20
29.679985
 30
0.0
 11
227.3
 21
30.07998499999999
 31
0.0
  0
LINE
  5
477
330
1E
100
AcDbEntity
  8
0
100
AcDbLine
 10
230.0
 20
11.179985
 30
0.0
 11
229.1999999999999
 21
11.179985
 31
0.0
  0
LINE
  5
478
330
1E
100
AcDbEntity
  8
0
100
AcDbLine
 10
230.0
 20
10.179985
 30
0.0
 11
222.3
 21
11.279985
 31
0.0
  0
LINE
  5
479
330
1E
100
AcDbEntity
  8
0
100
AcDbLine
 10
230.8
 20
12.709185
 30
0.0
 11
230.8
 21
13.805285
 31
0.0
  0
LINE
  5
47A
330
1E
100
AcDbEntity
  8
0
100
AcDbLine
 10
230.8
 20
13.805285
 30
0.0
 11
230.8
 21
12.709185
 31
0.0
  0
LINE
  5
47B
330
1E
100
AcDbEntity
  8
0
100
AcDbLine
 10
231.8
 20
14.179985
 30
0.0
 11
231.3
 21
11.679985
 31
0.0
  0
LINE
  5
47C
330
1E
100
AcDbEntity
  8
0
100
AcDbLine
 10
244.9
 20
14.179985
 30
0.0
 11
237.6999999999999
 21
11.279985
 31
0.0
  0
LINE
  5
47D
330
1E
100
AcDbEntity
  8
0
100
AcDbLine
 10
237.6999999999999
 20
11.279985
 30
0.0
 11
230.0
 21
10.179985
 31
0.0
  0
LINE
  5
47E
330
1E
100
AcDbEntity
  8
0
100
AcDbLine
 10
230.8
 20
11.536155
 30
0.0
 11
230.8
 21
12.055355
 31
0.0
  0
LINE
  5
47F
330
1E
100
AcDbEntity
  8
0
100
AcDbLine
 10
230.8
 20
12.055355
 30
0.0
 11
230.8
 21
11.536155
 31
0.0
  0
LINE
  5
480
330
1E
100
AcDbEntity
  8
0
100
AcDbLine
 10
231.3
 20
11.679985
 30
0.0
 11
230.8
 21
11.179985
 31
0.0
  0
LINE
  5
481
330
1E
100
AcDbEntity
  8
0
100
AcDbLine
 10
230.8
 20
11.179985
 30
0.0
 11
230.0
 21
11.179985
 31
0.0
  0
LINE
  5
482
330
1E
100
AcDbEntity
  8
0
100
AcDbLine
 10
230.8
 20
11.179985
 30
0.0
 11
230.8
 21
11.536155
 31
0.0
  0
LINE
  5
483
330
1E
100
AcDbEntity
  8
0
100
AcDbLine
 10
230.8
 20
11.536155
 30
0.0
 11
230.8
 21
11.179985
 31
0.0
  0
LINE
  5
484
330
1E
100
AcDbEntity
  8
0
100
AcDbLine
 10
230.8
 20
12.055355
 30
0.0
 11
230.8
 21
12.709185
 31
0.0
  0
LINE
  5
485
330
1E
100
AcDbEntity
  8
0
100
AcDbLine
 10
230.8
 20
12.709185
 30
0.0
 11
230.8
 21
12.055355
 31
0.0
  0
LINE
  5
486
330
1E
100
AcDbEntity
  8
0
100
AcDbLine
 10
255.5
 20
33.37998499999999
 30
0.0
 11
253.0
 21
26.979985
 31
0.0
  0
LINE
  5
487
330
1E
100
AcDbEntity
  8
0
100
AcDbLine
 10
256.0
 20
25.279985
 30
0.0
 11
251.2
 21
18.97998499999999
 31
0.0
  0
LINE
  5
488
330
1E
100
AcDbEntity
  8
0
100
AcDbLine
 10
258.9
 20
32.479985
 30
0.0
 11
256.0
 21
25.279985
 31
0.0
  0
LINE
  5
489
330
1E
100
AcDbEntity
  8
0
100
AcDbLine
 10
258.9
 20
32.479985
 30
0.0
 11
256.0
 21
25.279985
 31
0.0
  0
LINE
  5
48A
330
1E
100
AcDbEntity
  8
0
100
AcDbLine
 10
238.5
 20
25.479985
 30
0.0
 11
234.4
 21
23.77998499999999
 31
0.0
  0
LINE
  5
48B
330
1E
100
AcDbEntity
  8
0
100
AcDbLine
 10
238.5
 20
25.479985
 30
0.0
 11
234.4
 21
23.77998499999999
 31
0.0
  0
LINE
  5
48C
330
1E
100
AcDbEntity
  8
0
100
AcDbLine
 10
233.2295999999999
 20
24.066085
 30
0.0
 11
232.2999999999999
 21
21.179985
 31
0.0
  0
LINE
  5
48D
330
1E
100
AcDbEntity
  8
0
100
AcDbLine
 10
232.1464
 20
24.722085
 30
0.0
 11
231.0999999999999
 21
21.177985
 31
0.0
  0
LINE
  5
48E
330
1E
100
AcDbEntity
  8
0
100
AcDbLine
 10
253.0
 20
26.979985
 30
0.0
 11
248.7
 21
21.47998499999999
 31
0.0
  0
LINE
  5
48F
330
1E
100
AcDbEntity
  8
0
100
AcDbLine
 10
243.1999999999999
 20
17.179985
 30
0.0
 11
236.8
 21
14.679985
 31
0.0
  0
LINE
  5
490
330
1E
100
AcDbEntity
  8
0
100
AcDbLine
 10
248.7
 20
21.47998499999999
 30
0.0
 11
243.1999999999999
 21
17.179985
 31
0.0
  0
LINE
  5
491
330
1E
100
AcDbEntity
  8
0
100
AcDbLine
 10
251.2
 20
18.97998499999999
 30
0.0
 11
244.9
 21
14.179985
 31
0.0
  0
LINE
  5
492
330
1E
100
AcDbEntity
  8
0
100
AcDbLine
 10
231.0999999999999
 20
21.177985
 30
0.0
 11
230.8
 21
17.202885
 31
0.0
  0
LINE
  5
493
330
1E
100
AcDbEntity
  8
0
100
AcDbLine
 10
232.2999999999999
 20
21.179985
 30
0.0
 11
232.0
 21
17.179985
 31
0.0
  0
LINE
  5
494
330
1E
100
AcDbEntity
  8
0
100
AcDbLine
 10
236.8
 20
14.679985
 30
0.0
 11
231.7515151515152
 21
13.9375607575758
 31
0.0
  0
LINE
  5
495
330
1E
100
AcDbEntity
  8
0
100
AcDbLine
 10
230.8
 20
15.305185
 30
0.0
 11
230.8
 21
17.202885
 31
0.0
  0
LINE
  5
496
330
1E
100
AcDbEntity
  8
0
100
AcDbLine
 10
230.8
 20
17.202885
 30
0.0
 11
230.8
 21
15.305185
 31
0.0
  0
LINE
  5
497
330
1E
100
AcDbEntity
  8
0
100
AcDbLine
 10
232.0
 20
17.179985
 30
0.0
 11
231.8
 21
14.179985
 31
0.0
  0
LINE
  5
498
330
1E
100
AcDbEntity
  8
0
100
AcDbLine
 10
230.8
 20
13.805285
 30
0.0
 11
230.8
 21
15.305185
 31
0.0
  0
LINE
  5
499
330
1E
100
AcDbEntity
  8
0
100
AcDbLine
 10
230.8
 20
15.305185
 30
0.0
 11
230.8
 21
13.805285
 31
0.0
  0
LINE
  5
49A
330
1E
100
AcDbEntity
  8
0
100
AcDbLine
 10
234.4
 20
23.77998499999999
 30
0.0
 11
233.079446968474
 21
23.5999095866101
 31
0.0
  0
LINE
  5
49B
330
1E
100
AcDbEntity
  8
0
100
AcDbLine
 10
234.4
 20
23.77998499999999
 30
0.0
 11
233.079446968474
 21
23.5999095866101
 31
0.0
  0
LINE
  5
49C
330
1E
100
AcDbEntity
  8
0
100
AcDbLine
 10
244.7
 20
31.67998499999999
 30
0.0
 11
242.0
 21
28.17998499999999
 31
0.0
  0
LINE
  5
49D
330
1E
100
AcDbEntity
  8
0
100
AcDbLine
 10
244.3
 20
31.979985
 30
0.0
 11
241.6999999999999
 21
28.479985
 31
0.0
  0
LINE
  5
49E
330
1E
100
AcDbEntity
  8
0
100
AcDbLine
 10
236.0
 20
29.757685
 30
0.0
 11
233.9902
 21
27.475985
 31
0.0
  0
LINE
  5
49F
330
1E
100
AcDbEntity
  8
0
100
AcDbLine
 10
239.3
 20
30.87998499999999
 30
0.0
 11
236.6
 21
28.77998499999999
 31
0.0
  0
LINE
  5
4A0
330
1E
100
AcDbEntity
  8
0
100
AcDbLine
 10
236.6
 20
28.77998499999999
 30
0.0
 11
234.7507999999999
 21
26.787185
 31
0.0
  0
LINE
  5
4A1
330
1E
100
AcDbEntity
  8
0
100
AcDbLine
 10
238.2
 20
25.879985
 30
0.0
 11
234.2
 21
24.279985
 31
0.0
  0
LINE
  5
4A2
330
1E
100
AcDbEntity
  8
0
100
AcDbLine
 10
241.6999999999999
 20
28.479985
 30
0.0
 11
238.2
 21
25.879985
 31
0.0
  0
LINE
  5
4A3
330
1E
100
AcDbEntity
  8
0
100
AcDbLine
 10
242.0
 20
28.17998499999999
 30
0.0
 11
238.5
 21
25.479985
 31
0.0
  0
LINE
  5
4A4
330
1E
100
AcDbEntity
  8
0
100
AcDbLine
 10
234.7507999999999
 20
26.787185
 30
0.0
 11
233.2295999999999
 21
24.066085
 31
0.0
  0
LINE
  5
4A5
330
1E
100
AcDbEntity
  8
0
100
AcDbLine
 10
233.9902
 20
27.475985
 30
0.0
 11
232.1464
 21
24.722085
 31
0.0
  0
LINE
  5
4A6
330
1E
100
AcDbEntity
  8
0
100
AcDbLine
 10
234.2
 20
24.279985
 30
0.0
 11
233.2753319076827
 21
24.1478895582404
 31
0.0
  0
LINE
  5
4A7
330
1E
100
AcDbEntity
  8
0
100
AcDbLine
 10
238.5
 20
31.67998499999999
 30
0.0
 11
236.0
 21
29.757685
 31
0.0
  0
LINE
  5
4A8
330
1E
100
AcDbEntity
  8
0
100
AcDbLine
 10
237.4
 20
32.77998499999999
 30
0.0
 11
235.1999999999999
 21
31.07998499999999
 31
0.0
  0
LINE
  5
4A9
330
1E
100
AcDbEntity
  8
0
100
AcDbLine
 10
241.4
 20
33.579985
 30
0.0
 11
239.3
 21
30.87998499999999
 31
0.0
  0
LINE
  5
4AA
330
1E
100
AcDbEntity
  8
0
100
AcDbLine
 10
240.4222999999999
 20
34.17998499999999
 30
0.0
 11
238.5
 21
31.67998499999999
 31
0.0
  0
LINE
  5
4AB
330
1E
100
AcDbEntity
  8
0
100
AcDbLine
 10
239.1
 20
34.979985
 30
0.0
 11
237.4
 21
32.77998499999999
 31
0.0
  0
LINE
  5
4AC
330
1E
100
AcDbEntity
  8
0
100
AcDbLine
 10
235.1999999999999
 20
31.07998499999999
 30
0.0
 11
232.6999999999999
 21
30.07998499999999
 31
0.0
  0
LINE
  5
4AD
330
1E
100
AcDbEntity
  8
0
100
AcDbLine
 10
232.6999999999999
 20
30.07998499999999
 30
0.0
 11
230.0
 21
29.679985
 31
0.0
  0
LINE
  5
4AE
330
1E
100
AcDbEntity
  8
0
100
AcDbLine
 10
228.6999999999999
 20
11.679985
 30
0.0
 11
228.2
 21
14.179985
 31
0.0
  0
LINE
  5
4AF
330
1E
100
AcDbEntity
  8
0
100
AcDbLine
 10
229.1999999999999
 20
12.709185
 30
0.0
 11
229.1999999999999
 21
13.805285
 31
0.0
  0
LINE
  5
4B0
330
1E
100
AcDbEntity
  8
0
100
AcDbLine
 10
229.1999999999999
 20
13.805285
 30
0.0
 11
229.1999999999999
 21
12.709185
 31
0.0
  0
LINE
  5
4B1
330
1E
100
AcDbEntity
  8
0
100
AcDbLine
 10
222.3
 20
11.279985
 30
0.0
 11
215.0999999999999
 21
14.179985
 31
0.0
  0
LINE
  5
4B2
330
1E
100
AcDbEntity
  8
0
100
AcDbLine
 10
229.1999999999999
 20
11.536155
 30
0.0
 11
229.1999999999999
 21
12.055355
 31
0.0
  0
LINE
  5
4B3
330
1E
100
AcDbEntity
  8
0
100
AcDbLine
 10
229.1999999999999
 20
12.055355
 30
0.0
 11
229.1999999999999
 21
11.536155
 31
0.0
  0
LINE
  5
4B4
330
1E
100
AcDbEntity
  8
0
100
AcDbLine
 10
229.1999999999999
 20
11.179985
 30
0.0
 11
228.6999999999999
 21
11.679985
 31
0.0
  0
LINE
  5
4B5
330
1E
100
AcDbEntity
  8
0
100
AcDbLine
 10
229.1999999999999
 20
11.536155
 30
0.0
 11
229.1999999999999
 21
11.179985
 31
0.0
  0
LINE
  5
4B6
330
1E
100
AcDbEntity
  8
0
100
AcDbLine
 10
229.1999999999999
 20
11.179985
 30
0.0
 11
229.1999999999999
 21
11.536155
 31
0.0
  0
LINE
  5
4B7
330
1E
100
AcDbEntity
  8
0
100
AcDbLine
 10
229.1999999999999
 20
12.055355
 30
0.0
 11
229.1999999999999
 21
12.709185
 31
0.0
  0
LINE
  5
4B8
330
1E
100
AcDbEntity
  8
0
100
AcDbLine
 10
229.1999999999999
 20
12.709185
 30
0.0
 11
229.1999999999999
 21
12.055355
 31
0.0
  0
LINE
  5
4B9
330
1E
100
AcDbEntity
  8
0
100
AcDbLine
 10
207.0
 20
26.979985
 30
0.0
 11
204.4999999999999
 21
33.37998499999999
 31
0.0
  0
LINE
  5
4BA
330
1E
100
AcDbEntity
  8
0
100
AcDbLine
 10
208.8
 20
18.97998499999999
 30
0.0
 11
204.0
 21
25.279985
 31
0.0
  0
LINE
  5
4BB
330
1E
100
AcDbEntity
  8
0
100
AcDbLine
 10
227.7
 20
21.179985
 30
0.0
 11
226.7704
 21
24.066085
 31
0.0
  0
LINE
  5
4BC
330
1E
100
AcDbEntity
  8
0
100
AcDbLine
 10
228.9
 20
21.177985
 30
0.0
 11
227.8535999999999
 21
24.722085
 31
0.0
  0
LINE
  5
4BD
330
1E
100
AcDbEntity
  8
0
100
AcDbLine
 10
225.5999999999999
 20
23.77998499999999
 30
0.0
 11
221.4999999999999
 21
25.479985
 31
0.0
  0
LINE
  5
4BE
330
1E
100
AcDbEntity
  8
0
100
AcDbLine
 10
225.5999999999999
 20
23.77998499999999
 30
0.0
 11
221.4999999999999
 21
25.479985
 31
0.0
  0
LINE
  5
4BF
330
1E
100
AcDbEntity
  8
0
100
AcDbLine
 10
211.2999999999999
 20
21.47998499999999
 30
0.0
 11
207.0
 21
26.979985
 31
0.0
  0
LINE
  5
4C0
330
1E
100
AcDbEntity
  8
0
100
AcDbLine
 10
223.1999999999999
 20
14.679985
 30
0.0
 11
216.8
 21
17.179985
 31
0.0
  0
LINE
  5
4C1
330
1E
100
AcDbEntity
  8
0
100
AcDbLine
 10
229.1999999999999
 20
17.202885
 30
0.0
 11
228.9
 21
21.177985
 31
0.0
  0
LINE
  5
4C2
330
1E
100
AcDbEntity
  8
0
100
AcDbLine
 10
228.0
 20
17.179985
 30
0.0
 11
227.7
 21
21.179985
 31
0.0
  0
LINE
  5
4C3
330
1E
100
AcDbEntity
  8
0
100
AcDbLine
 10
228.2484848484849
 20
13.9375607575758
 30
0.0
 11
223.1999999999999
 21
14.679985
 31
0.0
  0
LINE
  5
4C4
330
1E
100
AcDbEntity
  8
0
100
AcDbLine
 10
229.1999999999999
 20
17.202885
 30
0.0
 11
229.1999999999999
 21
15.305185
 31
0.0
  0
LINE
  5
4C5
330
1E
100
AcDbEntity
  8
0
100
AcDbLine
 10
228.2
 20
14.179985
 30
0.0
 11
228.0
 21
17.179985
 31
0.0
  0
LINE
  5
4C6
330
1E
100
AcDbEntity
  8
0
100
AcDbLine
 10
229.1999999999999
 20
15.305185
 30
0.0
 11
229.1999999999999
 21
17.202885
 31
0.0
  0
LINE
  5
4C7
330
1E
100
AcDbEntity
  8
0
100
AcDbLine
 10
229.1999999999999
 20
13.805285
 30
0.0
 11
229.1999999999999
 21
15.305185
 31
0.0
  0
LINE
  5
4C8
330
1E
100
AcDbEntity
  8
0
100
AcDbLine
 10
229.1999999999999
 20
15.305185
 30
0.0
 11
229.1999999999999
 21
13.805285
 31
0.0
  0
LINE
  5
4C9
330
1E
100
AcDbEntity
  8
0
100
AcDbLine
 10
226.920553031526
 20
23.5999095866101
 30
0.0
 11
225.5999999999999
 21
23.77998499999999
 31
0.0
  0
LINE
  5
4CA
330
1E
100
AcDbEntity
  8
0
100
AcDbLine
 10
226.920553031526
 20
23.5999095866101
 30
0.0
 11
225.5999999999999
 21
23.77998499999999
 31
0.0
  0
LINE
  5
4CB
330
1E
100
AcDbEntity
  8
0
100
AcDbLine
 10
216.8
 20
17.179985
 30
0.0
 11
211.2999999999999
 21
21.47998499999999
 31
0.0
  0
LINE
  5
4CC
330
1E
100
AcDbEntity
  8
0
100
AcDbLine
 10
215.0999999999999
 20
14.179985
 30
0.0
 11
208.8
 21
18.97998499999999
 31
0.0
  0
LINE
  5
4CD
330
1E
100
AcDbEntity
  8
0
100
AcDbLine
 10
218.0
 20
28.17998499999999
 30
0.0
 11
215.3
 21
31.67998499999999
 31
0.0
  0
LINE
  5
4CE
330
1E
100
AcDbEntity
  8
0
100
AcDbLine
 10
218.3
 20
28.479985
 30
0.0
 11
215.7
 21
31.979985
 31
0.0
  0
LINE
  5
4CF
330
1E
100
AcDbEntity
  8
0
100
AcDbLine
 10
223.3999999999999
 20
28.77998499999999
 30
0.0
 11
220.6999999999999
 21
30.87998499999999
 31
0.0
  0
LINE
  5
4D0
330
1E
100
AcDbEntity
  8
0
100
AcDbLine
 10
226.0097999999999
 20
27.475985
 30
0.0
 11
224.0
 21
29.757685
 31
0.0
  0
LINE
  5
4D1
330
1E
100
AcDbEntity
  8
0
100
AcDbLine
 10
225.2492
 20
26.787185
 30
0.0
 11
223.3999999999999
 21
28.77998499999999
 31
0.0
  0
LINE
  5
4D2
330
1E
100
AcDbEntity
  8
0
100
AcDbLine
 10
225.8
 20
24.279985
 30
0.0
 11
221.7999999999999
 21
25.879985
 31
0.0
  0
LINE
  5
4D3
330
1E
100
AcDbEntity
  8
0
100
AcDbLine
 10
226.7704
 20
24.066085
 30
0.0
 11
225.2492
 21
26.787185
 31
0.0
  0
LINE
  5
4D4
330
1E
100
AcDbEntity
  8
0
100
AcDbLine
 10
227.8535999999999
 20
24.722085
 30
0.0
 11
226.0097999999999
 21
27.475985
 31
0.0
  0
LINE
  5
4D5
330
1E
100
AcDbEntity
  8
0
100
AcDbLine
 10
226.7246680923174
 20
24.1478895582404
 30
0.0
 11
225.8
 21
24.279985
 31
0.0
  0
LINE
  5
4D6
330
1E
100
AcDbEntity
  8
0
100
AcDbLine
 10
221.4999999999999
 20
25.479985
 30
0.0
 11
218.0
 21
28.17998499999999
 31
0.0
  0
LINE
  5
4D7
330
1E
100
AcDbEntity
  8
0
100
AcDbLine
 10
221.7999999999999
 20
25.879985
 30
0.0
 11
218.3
 21
28.479985
 31
0.0
  0
LINE
  5
4D8
330
1E
100
AcDbEntity
  8
0
100
AcDbLine
 10
224.0
 20
29.757685
 30
0.0
 11
221.4999999999999
 21
31.67998499999999
 31
0.0
  0
LINE
  5
4D9
330
1E
100
AcDbEntity
  8
0
100
AcDbLine
 10
224.8
 20
31.07998499999999
 30
0.0
 11
222.5999999999999
 21
32.77998499999999
 31
0.0
  0
LINE
  5
4DA
330
1E
100
AcDbEntity
  8
0
100
AcDbLine
 10
227.3
 20
30.07998499999999
 30
0.0
 11
224.8
 21
31.07998499999999
 31
0.0
  0
LINE
  5
4DB
330
1E
100
AcDbEntity
  8
0
100
AcDbLine
 10
220.6999999999999
 20
30.87998499999999
 30
0.0
 11
218.5999999999999
 21
33.579985
 31
0.0
  0
LINE
  5
4DC
330
1E
100
AcDbEntity
  8
0
100
AcDbLine
 10
221.4999999999999
 20
31.67998499999999
 30
0.0
 11
219.5777
 21
34.17998499999999
 31
0.0
  0
LINE
  5
4DD
330
1E
100
AcDbEntity
  8
0
100
AcDbLine
 10
222.5999999999999
 20
32.77998499999999
 30
0.0
 11
220.9
 21
34.979985
 31
0.0
  0
LINE
  5
4DE
330
1E
100
AcDbEntity
  8
0
100
AcDbLine
 10
204.0
 20
25.279985
 30
0.0
 11
201.1
 21
32.479985
 31
0.0
  0
LINE
  5
4DF
330
1E
100
AcDbEntity
  8
0
100
AcDbLine
 10
230.0
 20
69.179985
 30
0.0
 11
229.1999999999999
 21
69.179985
 31
0.0
  0
LINE
  5
4E0
330
1E
100
AcDbEntity
  8
0
100
AcDbLine
 10
230.0
 20
70.179985
 30
0.0
 11
222.3
 21
69.07998499999999
 31
0.0
  0
LINE
  5
4E1
330
1E
100
AcDbEntity
  8
0
100
AcDbLine
 10
230.0
 20
50.67998499999999
 30
0.0
 11
227.3
 21
50.27998499999999
 31
0.0
  0
LINE
  5
4E2
330
1E
100
AcDbEntity
  8
0
100
AcDbLine
 10
233.2295999999999
 20
56.293885
 30
0.0
 11
232.2999999999999
 21
59.17998499999999
 31
0.0
  0
LINE
  5
4E3
330
1E
100
AcDbEntity
  8
0
100
AcDbLine
 10
232.1464
 20
55.637885
 30
0.0
 11
231.0999999999999
 21
59.18198499999999
 31
0.0
  0
LINE
  5
4E4
330
1E
100
AcDbEntity
  8
0
100
AcDbLine
 10
256.0
 20
55.079985
 30
0.0
 11
251.2
 21
61.379985
 31
0.0
  0
LINE
  5
4E5
330
1E
100
AcDbEntity
  8
0
100
AcDbLine
 10
253.0
 20
53.379985
 30
0.0
 11
248.7
 21
58.879985
 31
0.0
  0
LINE
  5
4E6
330
1E
100
AcDbEntity
  8
0
100
AcDbLine
 10
255.5
 20
46.97998499999999
 30
0.0
 11
253.0
 21
53.379985
 31
0.0
  0
LINE
  5
4E7
330
1E
100
AcDbEntity
  8
0
100
AcDbLine
 10
256.0
 20
41.97998499999999
 30
0.0
 11
253.0
 21
42.17998499999999
 31
0.0
  0
LINE
  5
4E8
330
1E
100
AcDbEntity
  8
0
100
AcDbLine
 10
256.3747
 20
40.979985
 30
0.0
 11
254.8748
 21
40.979985
 31
0.0
  0
LINE
  5
4E9
330
1E
100
AcDbEntity
  8
0
100
AcDbLine
 10
256.3747
 20
39.37998499999999
 30
0.0
 11
254.8748
 21
39.37998499999999
 31
0.0
  0
LINE
  5
4EA
330
1E
100
AcDbEntity
  8
0
100
AcDbLine
 10
256.0
 20
38.37998499999999
 30
0.0
 11
253.0
 21
38.17998499999999
 31
0.0
  0
LINE
  5
4EB
330
1E
100
AcDbEntity
  8
0
100
AcDbLine
 10
256.2424242424242
 20
41.9315001515152
 30
0.0
 11
255.5
 21
46.97998499999999
 31
0.0
  0
LINE
  5
4EC
330
1E
100
AcDbEntity
  8
0
100
AcDbLine
 10
260.0
 20
40.179985
 30
0.0
 11
258.9
 21
47.87998499999999
 31
0.0
  0
LINE
  5
4ED
330
1E
100
AcDbEntity
  8
0
100
AcDbLine
 10
259.0
 20
40.179985
 30
0.0
 11
259.0
 21
40.979985
 31
0.0
  0
LINE
  5
4EE
330
1E
100
AcDbEntity
  8
0
100
AcDbLine
 10
259.0
 20
40.979985
 30
0.0
 11
259.0
 21
40.179985
 31
0.0
  0
LINE
  5
4EF
330
1E
100
AcDbEntity
  8
0
100
AcDbLine
 10
258.6438
 20
39.37998499999999
 30
0.0
 11
258.1245999999999
 21
39.37998499999999
 31
0.0
  0
LINE
  5
4F0
330
1E
100
AcDbEntity
  8
0
100
AcDbLine
 10
258.4999999999999
 20
38.879985
 30
0.0
 11
256.0
 21
38.37998499999999
 31
0.0
  0
LINE
  5
4F1
330
1E
100
AcDbEntity
  8
0
100
AcDbLine
 10
259.0
 20
39.37998499999999
 30
0.0
 11
258.4999999999999
 21
38.879985
 31
0.0
  0
LINE
  5
4F2
330
1E
100
AcDbEntity
  8
0
100
AcDbLine
 10
259.0
 20
39.37998499999999
 30
0.0
 11
258.6438
 21
39.37998499999999
 31
0.0
  0
LINE
  5
4F3
330
1E
100
AcDbEntity
  8
0
100
AcDbLine
 10
259.0
 20
39.37998499999999
 30
0.0
 11
259.0
 21
40.179985
 31
0.0
  0
LINE
  5
4F4
330
1E
100
AcDbEntity
  8
0
100
AcDbLine
 10
259.0
 20
40.179985
 30
0.0
 11
259.0
 21
39.37998499999999
 31
0.0
  0
LINE
  5
4F5
330
1E
100
AcDbEntity
  8
0
100
AcDbLine
 10
257.4708
 20
39.37998499999999
 30
0.0
 11
256.3747
 21
39.37998499999999
 31
0.0
  0
LINE
  5
4F6
330
1E
100
AcDbEntity
  8
0
100
AcDbLine
 10
258.1245999999999
 20
39.37998499999999
 30
0.0
 11
257.4708
 21
39.37998499999999
 31
0.0
  0
LINE
  5
4F7
330
1E
100
AcDbEntity
  8
0
100
AcDbLine
 10
258.6438
 20
40.979985
 30
0.0
 11
258.1245999999999
 21
40.979985
 31
0.0
  0
LINE
  5
4F8
330
1E
100
AcDbEntity
  8
0
100
AcDbLine
 10
258.4999999999999
 20
41.47998499999999
 30
0.0
 11
256.0
 21
41.97998499999999
 31
0.0
  0
LINE
  5
4F9
330
1E
100
AcDbEntity
  8
0
100
AcDbLine
 10
259.0
 20
40.979985
 30
0.0
 11
258.6438
 21
40.979985
 31
0.0
  0
LINE
  5
4FA
330
1E
100
AcDbEntity
  8
0
100
AcDbLine
 10
259.0
 20
40.979985
 30
0.0
 11
258.4999999999999
 21
41.47998499999999
 31
0.0
  0
LINE
  5
4FB
330
1E
100
AcDbEntity
  8
0
100
AcDbLine
 10
257.4708
 20
40.979985
 30
0.0
 11
256.3747
 21
40.979985
 31
0.0
  0
LINE
  5
4FC
330
1E
100
AcDbEntity
  8
0
100
AcDbLine
 10
258.1245999999999
 20
40.979985
 30
0.0
 11
257.4708
 21
40.979985
 31
0.0
  0
LINE
  5
4FD
330
1E
100
AcDbEntity
  8
0
100
AcDbLine
 10
258.9
 20
47.87998499999999
 30
0.0
 11
256.0
 21
55.079985
 31
0.0
  0
LINE
  5
4FE
330
1E
100
AcDbEntity
  8
0
100
AcDbLine
 10
258.9
 20
47.87998499999999
 30
0.0
 11
256.0
 21
55.079985
 31
0.0
  0
LINE
  5
4FF
330
1E
100
AcDbEntity
  8
0
100
AcDbLine
 10
245.9
 20
44.37998499999999
 30
0.0
 11
244.3
 21
48.379985
 31
0.0
  0
LINE
  5
500
330
1E
100
AcDbEntity
  8
0
100
AcDbLine
 10
239.1
 20
45.37998499999999
 30
0.0
 11
237.4
 21
47.579985
 31
0.0
  0
LINE
  5
501
330
1E
100
AcDbEntity
  8
0
100
AcDbLine
 10
243.3927999999999
 20
44.930785
 30
0.0
 11
241.4
 21
46.779985
 31
0.0
  0
LINE
  5
502
330
1E
100
AcDbEntity
  8
0
100
AcDbLine
 10
242.704
 20
44.170185
 30
0.0
 11
240.4222999999999
 21
46.17998499999999
 31
0.0
  0
LINE
  5
503
330
1E
100
AcDbEntity
  8
0
100
AcDbLine
 10
246.3999999999999
 20
44.579985
 30
0.0
 11
244.7
 21
48.67998499999999
 31
0.0
  0
LINE
  5
504
330
1E
100
AcDbEntity
  8
0
100
AcDbLine
 10
249.002
 20
39.079985
 30
0.0
 11
245.4578999999999
 21
38.03358499999999
 31
0.0
  0
LINE
  5
505
330
1E
100
AcDbEntity
  8
0
100
AcDbLine
 10
249.0
 20
37.879985
 30
0.0
 11
246.1139
 21
36.95038499999999
 31
0.0
  0
LINE
  5
506
330
1E
100
AcDbEntity
  8
0
100
AcDbLine
 10
253.0
 20
38.17998499999999
 30
0.0
 11
249.0
 21
37.879985
 31
0.0
  0
LINE
  5
507
330
1E
100
AcDbEntity
  8
0
100
AcDbLine
 10
252.9771
 20
39.37998499999999
 30
0.0
 11
249.002
 21
39.079985
 31
0.0
  0
LINE
  5
508
330
1E
100
AcDbEntity
  8
0
100
AcDbLine
 10
254.8748
 20
39.37998499999999
 30
0.0
 11
252.9771
 21
39.37998499999999
 31
0.0
  0
LINE
  5
509
330
1E
100
AcDbEntity
  8
0
100
AcDbLine
 10
245.4578999999999
 20
38.03358499999999
 30
0.0
 11
242.704
 21
36.189785
 31
0.0
  0
LINE
  5
50A
330
1E
100
AcDbEntity
  8
0
100
AcDbLine
 10
246.1139
 20
36.95038499999999
 30
0.0
 11
243.3927999999999
 21
35.42918499999999
 31
0.0
  0
LINE
  5
50B
330
1E
100
AcDbEntity
  8
0
100
AcDbLine
 10
246.5800754133899
 20
37.100538031526
 30
0.0
 11
246.3999999999999
 21
35.77998499999999
 31
0.0
  0
LINE
  5
50C
330
1E
100
AcDbEntity
  8
0
100
AcDbLine
 10
246.0320954417595
 20
36.90465309231729
 30
0.0
 11
245.9
 21
35.979985
 31
0.0
  0
LINE
  5
50D
330
1E
100
AcDbEntity
  8
0
100
AcDbLine
 10
249.002
 20
41.27998499999999
 30
0.0
 11
245.4578999999999
 21
42.32638499999999
 31
0.0
  0
LINE
  5
50E
330
1E
100
AcDbEntity
  8
0
100
AcDbLine
 10
249.0
 20
42.479985
 30
0.0
 11
246.1139
 21
43.409585
 31
0.0
  0
LINE
  5
50F
330
1E
100
AcDbEntity
  8
0
100
AcDbLine
 10
253.0
 20
42.17998499999999
 30
0.0
 11
249.0
 21
42.479985
 31
0.0
  0
LINE
  5
510
330
1E
100
AcDbEntity
  8
0
100
AcDbLine
 10
252.9771
 20
40.979985
 30
0.0
 11
249.002
 21
41.27998499999999
 31
0.0
  0
LINE
  5
511
330
1E
100
AcDbEntity
  8
0
100
AcDbLine
 10
254.8748
 20
40.979985
 30
0.0
 11
252.9771
 21
40.979985
 31
0.0
  0
LINE
  5
512
330
1E
100
AcDbEntity
  8
0
100
AcDbLine
 10
245.4578999999999
 20
42.32638499999999
 30
0.0
 11
242.704
 21
44.170185
 31
0.0
  0
LINE
  5
513
330
1E
100
AcDbEntity
  8
0
100
AcDbLine
 10
246.1139
 20
43.409585
 30
0.0
 11
243.3927999999999
 21
44.930785
 31
0.0
  0
LINE
  5
514
330
1E
100
AcDbEntity
  8
0
100
AcDbLine
 10
246.0320954417595
 20
43.45531690768271
 30
0.0
 11
245.9
 21
44.37998499999999
 31
0.0
  0
LINE
  5
515
330
1E
100
AcDbEntity
  8
0
100
AcDbLine
 10
246.5800754133899
 20
43.259431968474
 30
0.0
 11
246.3999999999999
 21
44.579985
 31
0.0
  0
LINE
  5
516
330
1E
100
AcDbEntity
  8
0
100
AcDbLine
 10
240.5
 20
40.179985
 30
0.0
 11
240.0999999999999
 21
42.87998499999999
 31
0.0
  0
LINE
  5
517
330
1E
100
AcDbEntity
  8
0
100
AcDbLine
 10
240.5
 20
40.179985
 30
0.0
 11
240.0999999999999
 21
37.479985
 31
0.0
  0
LINE
  5
518
330
1E
100
AcDbEntity
  8
0
100
AcDbLine
 10
240.0999999999999
 20
42.87998499999999
 30
0.0
 11
239.1
 21
45.37998499999999
 31
0.0
  0
LINE
  5
519
330
1E
100
AcDbEntity
  8
0
100
AcDbLine
 10
244.7
 20
48.67998499999999
 30
0.0
 11
242.0
 21
52.179985
 31
0.0
  0
LINE
  5
51A
330
1E
100
AcDbEntity
  8
0
100
AcDbLine
 10
244.3
 20
48.379985
 30
0.0
 11
241.6999999999999
 21
51.87998499999999
 31
0.0
  0
LINE
  5
51B
330
1E
100
AcDbEntity
  8
0
100
AcDbLine
 10
236.0
 20
50.602285
 30
0.0
 11
233.9902
 21
52.88398499999999
 31
0.0
  0
LINE
  5
51C
330
1E
100
AcDbEntity
  8
0
100
AcDbLine
 10
239.3
 20
49.479985
 30
0.0
 11
236.6
 21
51.579985
 31
0.0
  0
LINE
  5
51D
330
1E
100
AcDbEntity
  8
0
100
AcDbLine
 10
238.5
 20
48.67998499999999
 30
0.0
 11
236.0
 21
50.602285
 31
0.0
  0
LINE
  5
51E
330
1E
100
AcDbEntity
  8
0
100
AcDbLine
 10
237.4
 20
47.579985
 30
0.0
 11
235.1999999999999
 21
49.279985
 31
0.0
  0
LINE
  5
51F
330
1E
100
AcDbEntity
  8
0
100
AcDbLine
 10
241.4
 20
46.779985
 30
0.0
 11
239.3
 21
49.479985
 31
0.0
  0
LINE
  5
520
330
1E
100
AcDbEntity
  8
0
100
AcDbLine
 10
240.4222999999999
 20
46.17998499999999
 30
0.0
 11
238.5
 21
48.67998499999999
 31
0.0
  0
LINE
  5
521
330
1E
100
AcDbEntity
  8
0
100
AcDbLine
 10
235.1999999999999
 20
49.279985
 30
0.0
 11
232.6999999999999
 21
50.27998499999999
 31
0.0
  0
LINE
  5
522
330
1E
100
AcDbEntity
  8
0
100
AcDbLine
 10
232.6999999999999
 20
50.27998499999999
 30
0.0
 11
230.0
 21
50.67998499999999
 31
0.0
  0
LINE
  5
523
330
1E
100
AcDbEntity
  8
0
100
AcDbLine
 10
238.5
 20
54.87998499999999
 30
0.0
 11
234.4
 21
56.579985
 31
0.0
  0
LINE
  5
524
330
1E
100
AcDbEntity
  8
0
100
AcDbLine
 10
238.2
 20
54.479985
 30
0.0
 11
234.2
 21
56.079985
 31
0.0
  0
LINE
  5
525
330
1E
100
AcDbEntity
  8
0
100
AcDbLine
 10
236.6
 20
51.579985
 30
0.0
 11
234.7507999999999
 21
53.57278499999999
 31
0.0
  0
LINE
  5
526
330
1E
100
AcDbEntity
  8
0
100
AcDbLine
 10
241.6999999999999
 20
51.87998499999999
 30
0.0
 11
238.2
 21
54.479985
 31
0.0
  0
LINE
  5
527
330
1E
100
AcDbEntity
  8
0
100
AcDbLine
 10
242.0
 20
52.179985
 30
0.0
 11
238.5
 21
54.87998499999999
 31
0.0
  0
LINE
  5
528
330
1E
100
AcDbEntity
  8
0
100
AcDbLine
 10
234.7507999999999
 20
53.57278499999999
 30
0.0
 11
233.2295999999999
 21
56.293885
 31
0.0
  0
LINE
  5
529
330
1E
100
AcDbEntity
  8
0
100
AcDbLine
 10
233.9902
 20
52.88398499999999
 30
0.0
 11
232.1464
 21
55.637885
 31
0.0
  0
LINE
  5
52A
330
1E
100
AcDbEntity
  8
0
100
AcDbLine
 10
234.4
 20
56.579985
 30
0.0
 11
233.079446968474
 21
56.7600604133899
 31
0.0
  0
LINE
  5
52B
330
1E
100
AcDbEntity
  8
0
100
AcDbLine
 10
234.2
 20
56.079985
 30
0.0
 11
233.2753319076827
 21
56.2120804417596
 31
0.0
  0
LINE
  5
52C
330
1E
100
AcDbEntity
  8
0
100
AcDbLine
 10
230.8
 20
68.304585
 30
0.0
 11
230.8
 21
67.650785
 31
0.0
  0
LINE
  5
52D
330
1E
100
AcDbEntity
  8
0
100
AcDbLine
 10
230.8
 20
67.650785
 30
0.0
 11
230.8
 21
68.304585
 31
0.0
  0
LINE
  5
52E
330
1E
100
AcDbEntity
  8
0
100
AcDbLine
 10
231.8
 20
66.179985
 30
0.0
 11
231.3
 21
68.679985
 31
0.0
  0
LINE
  5
52F
330
1E
100
AcDbEntity
  8
0
100
AcDbLine
 10
244.9
 20
66.179985
 30
0.0
 11
237.6999999999999
 21
69.07998499999999
 31
0.0
  0
LINE
  5
530
330
1E
100
AcDbEntity
  8
0
100
AcDbLine
 10
243.1999999999999
 20
63.17998499999999
 30
0.0
 11
236.8
 21
65.679985
 31
0.0
  0
LINE
  5
531
330
1E
100
AcDbEntity
  8
0
100
AcDbLine
 10
248.7
 20
58.879985
 30
0.0
 11
243.1999999999999
 21
63.17998499999999
 31
0.0
  0
LINE
  5
532
330
1E
100
AcDbEntity
  8
0
100
AcDbLine
 10
251.2
 20
61.379985
 30
0.0
 11
244.9
 21
66.179985
 31
0.0
  0
LINE
  5
533
330
1E
100
AcDbEntity
  8
0
100
AcDbLine
 10
231.0999999999999
 20
59.18198499999999
 30
0.0
 11
230.8
 21
63.15708499999999
 31
0.0
  0
LINE
  5
534
330
1E
100
AcDbEntity
  8
0
100
AcDbLine
 10
232.2999999999999
 20
59.17998499999999
 30
0.0
 11
232.0
 21
63.17998499999999
 31
0.0
  0
LINE
  5
535
330
1E
100
AcDbEntity
  8
0
100
AcDbLine
 10
236.8
 20
65.679985
 30
0.0
 11
231.7515151515152
 21
66.42240924242421
 31
0.0
  0
LINE
  5
536
330
1E
100
AcDbEntity
  8
0
100
AcDbLine
 10
230.8
 20
66.55468499999999
 30
0.0
 11
230.8
 21
65.05478499999999
 31
0.0
  0
LINE
  5
537
330
1E
100
AcDbEntity
  8
0
100
AcDbLine
 10
230.8
 20
65.05478499999999
 30
0.0
 11
230.8
 21
66.55468499999999
 31
0.0
  0
LINE
  5
538
330
1E
100
AcDbEntity
  8
0
100
AcDbLine
 10
232.0
 20
63.17998499999999
 30
0.0
 11
231.8
 21
66.179985
 31
0.0
  0
LINE
  5
539
330
1E
100
AcDbEntity
  8
0
100
AcDbLine
 10
230.8
 20
65.05478499999999
 30
0.0
 11
230.8
 21
63.15708499999999
 31
0.0
  0
LINE
  5
53A
330
1E
100
AcDbEntity
  8
0
100
AcDbLine
 10
230.8
 20
63.15708499999999
 30
0.0
 11
230.8
 21
65.05478499999999
 31
0.0
  0
LINE
  5
53B
330
1E
100
AcDbEntity
  8
0
100
AcDbLine
 10
230.8
 20
67.650785
 30
0.0
 11
230.8
 21
66.55468499999999
 31
0.0
  0
LINE
  5
53C
330
1E
100
AcDbEntity
  8
0
100
AcDbLine
 10
230.8
 20
66.55468499999999
 30
0.0
 11
230.8
 21
67.650785
 31
0.0
  0
LINE
  5
53D
330
1E
100
AcDbEntity
  8
0
100
AcDbLine
 10
237.6999999999999
 20
69.07998499999999
 30
0.0
 11
230.0
 21
70.179985
 31
0.0
  0
LINE
  5
53E
330
1E
100
AcDbEntity
  8
0
100
AcDbLine
 10
230.8
 20
69.179985
 30
0.0
 11
230.8
 21
68.823785
 31
0.0
  0
LINE
  5
53F
330
1E
100
AcDbEntity
  8
0
100
AcDbLine
 10
230.8
 20
69.179985
 30
0.0
 11
230.0
 21
69.179985
 31
0.0
  0
LINE
  5
540
330
1E
100
AcDbEntity
  8
0
100
AcDbLine
 10
230.8
 20
68.823785
 30
0.0
 11
230.8
 21
68.304585
 31
0.0
  0
LINE
  5
541
330
1E
100
AcDbEntity
  8
0
100
AcDbLine
 10
230.8
 20
68.823785
 30
0.0
 11
230.8
 21
69.179985
 31
0.0
  0
LINE
  5
542
330
1E
100
AcDbEntity
  8
0
100
AcDbLine
 10
230.8
 20
68.304585
 30
0.0
 11
230.8
 21
68.823785
 31
0.0
  0
LINE
  5
543
330
1E
100
AcDbEntity
  8
0
100
AcDbLine
 10
231.3
 20
68.679985
 30
0.0
 11
230.8
 21
69.179985
 31
0.0
  0
LINE
  5
544
330
1E
100
AcDbEntity
  8
0
100
AcDbLine
 10
208.8
 20
61.379985
 30
0.0
 11
204.0
 21
55.079985
 31
0.0
  0
LINE
  5
545
330
1E
100
AcDbEntity
  8
0
100
AcDbLine
 10
227.7
 20
59.17998499999999
 30
0.0
 11
226.7704
 21
56.293885
 31
0.0
  0
LINE
  5
546
330
1E
100
AcDbEntity
  8
0
100
AcDbLine
 10
228.9
 20
59.18198499999999
 30
0.0
 11
227.8535999999999
 21
55.637885
 31
0.0
  0
LINE
  5
547
330
1E
100
AcDbEntity
  8
0
100
AcDbLine
 10
211.2999999999999
 20
58.879985
 30
0.0
 11
207.0
 21
53.379985
 31
0.0
  0
LINE
  5
548
330
1E
100
AcDbEntity
  8
0
100
AcDbLine
 10
207.0
 20
53.379985
 30
0.0
 11
204.4999999999999
 21
46.97998499999999
 31
0.0
  0
LINE
  5
549
330
1E
100
AcDbEntity
  8
0
100
AcDbLine
 10
205.1252
 20
40.979985
 30
0.0
 11
203.6253
 21
40.979985
 31
0.0
  0
LINE
  5
54A
330
1E
100
AcDbEntity
  8
0
100
AcDbLine
 10
207.0
 20
42.17998499999999
 30
0.0
 11
204.0
 21
41.97998499999999
 31
0.0
  0
LINE
  5
54B
330
1E
100
AcDbEntity
  8
0
100
AcDbLine
 10
205.1252
 20
39.37998499999999
 30
0.0
 11
203.6253
 21
39.37998499999999
 31
0.0
  0
LINE
  5
54C
330
1E
100
AcDbEntity
  8
0
100
AcDbLine
 10
207.0
 20
38.17998499999999
 30
0.0
 11
204.0
 21
38.37998499999999
 31
0.0
  0
LINE
  5
54D
330
1E
100
AcDbEntity
  8
0
100
AcDbLine
 10
215.3
 20
48.67998499999999
 30
0.0
 11
213.6
 21
44.579985
 31
0.0
  0
LINE
  5
54E
330
1E
100
AcDbEntity
  8
0
100
AcDbLine
 10
215.7
 20
48.379985
 30
0.0
 11
214.1
 21
44.37998499999999
 31
0.0
  0
LINE
  5
54F
330
1E
100
AcDbEntity
  8
0
100
AcDbLine
 10
218.5999999999999
 20
46.779985
 30
0.0
 11
216.6072
 21
44.930785
 31
0.0
  0
LINE
  5
550
330
1E
100
AcDbEntity
  8
0
100
AcDbLine
 10
219.5777
 20
46.17998499999999
 30
0.0
 11
217.2959999999999
 21
44.170185
 31
0.0
  0
LINE
  5
551
330
1E
100
AcDbEntity
  8
0
100
AcDbLine
 10
222.5999999999999
 20
47.579985
 30
0.0
 11
220.9
 21
45.37998499999999
 31
0.0
  0
LINE
  5
552
330
1E
100
AcDbEntity
  8
0
100
AcDbLine
 10
219.9
 20
42.87998499999999
 30
0.0
 11
219.4999999999999
 21
40.179985
 31
0.0
  0
LINE
  5
553
330
1E
100
AcDbEntity
  8
0
100
AcDbLine
 10
219.9
 20
37.479985
 30
0.0
 11
219.4999999999999
 21
40.179985
 31
0.0
  0
LINE
  5
554
330
1E
100
AcDbEntity
  8
0
100
AcDbLine
 10
220.9
 20
45.37998499999999
 30
0.0
 11
219.9
 21
42.87998499999999
 31
0.0
  0
LINE
  5
555
330
1E
100
AcDbEntity
  8
0
100
AcDbLine
 10
213.8860999999999
 20
36.95038499999999
 30
0.0
 11
211.0
 21
37.879985
 31
0.0
  0
LINE
  5
556
330
1E
100
AcDbEntity
  8
0
100
AcDbLine
 10
214.5421
 20
38.03358499999999
 30
0.0
 11
210.9979999999999
 21
39.079985
 31
0.0
  0
LINE
  5
557
330
1E
100
AcDbEntity
  8
0
100
AcDbLine
 10
217.2959999999999
 20
36.189785
 30
0.0
 11
214.5421
 21
38.03358499999999
 31
0.0
  0
LINE
  5
558
330
1E
100
AcDbEntity
  8
0
100
AcDbLine
 10
216.6072
 20
35.42918499999999
 30
0.0
 11
213.8860999999999
 21
36.95038499999999
 31
0.0
  0
LINE
  5
559
330
1E
100
AcDbEntity
  8
0
100
AcDbLine
 10
214.1
 20
35.979985
 30
0.0
 11
213.9679045582403
 21
36.9046530923174
 31
0.0
  0
LINE
  5
55A
330
1E
100
AcDbEntity
  8
0
100
AcDbLine
 10
213.6
 20
35.77998499999999
 30
0.0
 11
213.41992458661
 21
37.100538031526
 31
0.0
  0
LINE
  5
55B
330
1E
100
AcDbEntity
  8
0
100
AcDbLine
 10
211.0
 20
37.879985
 30
0.0
 11
207.0
 21
38.17998499999999
 31
0.0
  0
LINE
  5
55C
330
1E
100
AcDbEntity
  8
0
100
AcDbLine
 10
210.9979999999999
 20
39.079985
 30
0.0
 11
207.0228999999999
 21
39.37998499999999
 31
0.0
  0
LINE
  5
55D
330
1E
100
AcDbEntity
  8
0
100
AcDbLine
 10
207.0228999999999
 20
39.37998499999999
 30
0.0
 11
205.1252
 21
39.37998499999999
 31
0.0
  0
LINE
  5
55E
330
1E
100
AcDbEntity
  8
0
100
AcDbLine
 10
213.8860999999999
 20
43.409585
 30
0.0
 11
211.0
 21
42.479985
 31
0.0
  0
LINE
  5
55F
330
1E
100
AcDbEntity
  8
0
100
AcDbLine
 10
214.5421
 20
42.32638499999999
 30
0.0
 11
210.9979999999999
 21
41.27998499999999
 31
0.0
  0
LINE
  5
560
330
1E
100
AcDbEntity
  8
0
100
AcDbLine
 10
217.2959999999999
 20
44.170185
 30
0.0
 11
214.5421
 21
42.32638499999999
 31
0.0
  0
LINE
  5
561
330
1E
100
AcDbEntity
  8
0
100
AcDbLine
 10
216.6072
 20
44.930785
 30
0.0
 11
213.8860999999999
 21
43.409585
 31
0.0
  0
LINE
  5
562
330
1E
100
AcDbEntity
  8
0
100
AcDbLine
 10
213.6
 20
44.579985
 30
0.0
 11
213.41992458661
 21
43.259431968474
 31
0.0
  0
LINE
  5
563
330
1E
100
AcDbEntity
  8
0
100
AcDbLine
 10
214.1
 20
44.37998499999999
 30
0.0
 11
213.9679045582403
 21
43.45531690768271
 31
0.0
  0
LINE
  5
564
330
1E
100
AcDbEntity
  8
0
100
AcDbLine
 10
211.0
 20
42.479985
 30
0.0
 11
207.0
 21
42.17998499999999
 31
0.0
  0
LINE
  5
565
330
1E
100
AcDbEntity
  8
0
100
AcDbLine
 10
210.9979999999999
 20
41.27998499999999
 30
0.0
 11
207.0228999999999
 21
40.979985
 31
0.0
  0
LINE
  5
566
330
1E
100
AcDbEntity
  8
0
100
AcDbLine
 10
207.0228999999999
 20
40.979985
 30
0.0
 11
205.1252
 21
40.979985
 31
0.0
  0
LINE
  5
567
330
1E
100
AcDbEntity
  8
0
100
AcDbLine
 10
218.0
 20
52.179985
 30
0.0
 11
215.3
 21
48.67998499999999
 31
0.0
  0
LINE
  5
568
330
1E
100
AcDbEntity
  8
0
100
AcDbLine
 10
218.3
 20
51.87998499999999
 30
0.0
 11
215.7
 21
48.379985
 31
0.0
  0
LINE
  5
569
330
1E
100
AcDbEntity
  8
0
100
AcDbLine
 10
226.0097999999999
 20
52.88398499999999
 30
0.0
 11
224.0
 21
50.602285
 31
0.0
  0
LINE
  5
56A
330
1E
100
AcDbEntity
  8
0
100
AcDbLine
 10
223.3999999999999
 20
51.579985
 30
0.0
 11
220.6999999999999
 21
49.479985
 31
0.0
  0
LINE
  5
56B
330
1E
100
AcDbEntity
  8
0
100
AcDbLine
 10
224.0
 20
50.602285
 30
0.0
 11
221.4999999999999
 21
48.67998499999999
 31
0.0
  0
LINE
  5
56C
330
1E
100
AcDbEntity
  8
0
100
AcDbLine
 10
224.8
 20
49.279985
 30
0.0
 11
222.5999999999999
 21
47.579985
 31
0.0
  0
LINE
  5
56D
330
1E
100
AcDbEntity
  8
0
100
AcDbLine
 10
227.3
 20
50.27998499999999
 30
0.0
 11
224.8
 21
49.279985
 31
0.0
  0
LINE
  5
56E
330
1E
100
AcDbEntity
  8
0
100
AcDbLine
 10
220.6999999999999
 20
49.479985
 30
0.0
 11
218.5999999999999
 21
46.779985
 31
0.0
  0
LINE
  5
56F
330
1E
100
AcDbEntity
  8
0
100
AcDbLine
 10
221.4999999999999
 20
48.67998499999999
 30
0.0
 11
219.5777
 21
46.17998499999999
 31
0.0
  0
LINE
  5
570
330
1E
100
AcDbEntity
  8
0
100
AcDbLine
 10
225.5999999999999
 20
56.579985
 30
0.0
 11
221.4999999999999
 21
54.87998499999999
 31
0.0
  0
LINE
  5
571
330
1E
100
AcDbEntity
  8
0
100
AcDbLine
 10
225.8
 20
56.079985
 30
0.0
 11
221.7999999999999
 21
54.479985
 31
0.0
  0
LINE
  5
572
330
1E
100
AcDbEntity
  8
0
100
AcDbLine
 10
225.2492
 20
53.57278499999999
 30
0.0
 11
223.3999999999999
 21
51.579985
 31
0.0
  0
LINE
  5
573
330
1E
100
AcDbEntity
  8
0
100
AcDbLine
 10
226.7704
 20
56.293885
 30
0.0
 11
225.2492
 21
53.57278499999999
 31
0.0
  0
LINE
  5
574
330
1E
100
AcDbEntity
  8
0
100
AcDbLine
 10
227.8535999999999
 20
55.637885
 30
0.0
 11
226.0097999999999
 21
52.88398499999999
 31
0.0
  0
LINE
  5
575
330
1E
100
AcDbEntity
  8
0
100
AcDbLine
 10
226.920553031526
 20
56.7600604133899
 30
0.0
 11
225.5999999999999
 21
56.579985
 31
0.0
  0
LINE
  5
576
330
1E
100
AcDbEntity
  8
0
100
AcDbLine
 10
226.7246680923174
 20
56.2120804417596
 30
0.0
 11
225.8
 21
56.079985
 31
0.0
  0
LINE
  5
577
330
1E
100
AcDbEntity
  8
0
100
AcDbLine
 10
221.4999999999999
 20
54.87998499999999
 30
0.0
 11
218.0
 21
52.179985
 31
0.0
  0
LINE
  5
578
330
1E
100
AcDbEntity
  8
0
100
AcDbLine
 10
221.7999999999999
 20
54.479985
 30
0.0
 11
218.3
 21
51.87998499999999
 31
0.0
  0
LINE
  5
579
330
1E
100
AcDbEntity
  8
0
100
AcDbLine
 10
201.1
 20
47.87998499999999
 30
0.0
 11
200.0
 21
40.179985
 31
0.0
  0
LINE
  5
57A
330
1E
100
AcDbEntity
  8
0
100
AcDbLine
 10
204.4999999999999
 20
46.97998499999999
 30
0.0
 11
203.7575757575758
 21
41.9315001515152
 31
0.0
  0
LINE
  5
57B
330
1E
100
AcDbEntity
  8
0
100
AcDbLine
 10
201.0
 20
40.179985
 30
0.0
 11
201.0
 21
40.979985
 31
0.0
  0
LINE
  5
57C
330
1E
100
AcDbEntity
  8
0
100
AcDbLine
 10
201.0
 20
40.979985
 30
0.0
 11
201.0
 21
40.179985
 31
0.0
  0
LINE
  5
57D
330
1E
100
AcDbEntity
  8
0
100
AcDbLine
 10
201.8754
 20
39.37998499999999
 30
0.0
 11
201.3561999999999
 21
39.37998499999999
 31
0.0
  0
LINE
  5
57E
330
1E
100
AcDbEntity
  8
0
100
AcDbLine
 10
204.0
 20
38.37998499999999
 30
0.0
 11
201.5
 21
38.879985
 31
0.0
  0
LINE
  5
57F
330
1E
100
AcDbEntity
  8
0
100
AcDbLine
 10
203.6253
 20
39.37998499999999
 30
0.0
 11
202.5291999999999
 21
39.37998499999999
 31
0.0
  0
LINE
  5
580
330
1E
100
AcDbEntity
  8
0
100
AcDbLine
 10
202.5291999999999
 20
39.37998499999999
 30
0.0
 11
201.8754
 21
39.37998499999999
 31
0.0
  0
LINE
  5
581
330
1E
100
AcDbEntity
  8
0
100
AcDbLine
 10
201.5
 20
38.879985
 30
0.0
 11
201.0
 21
39.37998499999999
 31
0.0
  0
LINE
  5
582
330
1E
100
AcDbEntity
  8
0
100
AcDbLine
 10
201.0
 20
39.37998499999999
 30
0.0
 11
201.0
 21
40.179985
 31
0.0
  0
LINE
  5
583
330
1E
100
AcDbEntity
  8
0
100
AcDbLine
 10
201.0
 20
40.179985
 30
0.0
 11
201.0
 21
39.37998499999999
 31
0.0
  0
LINE
  5
584
330
1E
100
AcDbEntity
  8
0
100
AcDbLine
 10
201.3561999999999
 20
39.37998499999999
 30
0.0
 11
201.0
 21
39.37998499999999
 31
0.0
  0
LINE
  5
585
330
1E
100
AcDbEntity
  8
0
100
AcDbLine
 10
201.8754
 20
40.979985
 30
0.0
 11
201.3561999999999
 21
40.979985
 31
0.0
  0
LINE
  5
586
330
1E
100
AcDbEntity
  8
0
100
AcDbLine
 10
204.0
 20
41.97998499999999
 30
0.0
 11
201.5
 21
41.47998499999999
 31
0.0
  0
LINE
  5
587
330
1E
100
AcDbEntity
  8
0
100
AcDbLine
 10
203.6253
 20
40.979985
 30
0.0
 11
202.5291999999999
 21
40.979985
 31
0.0
  0
LINE
  5
588
330
1E
100
AcDbEntity
  8
0
100
AcDbLine
 10
202.5291999999999
 20
40.979985
 30
0.0
 11
201.8754
 21
40.979985
 31
0.0
  0
LINE
  5
589
330
1E
100
AcDbEntity
  8
0
100
AcDbLine
 10
201.5
 20
41.47998499999999
 30
0.0
 11
201.0
 21
40.979985
 31
0.0
  0
LINE
  5
58A
330
1E
100
AcDbEntity
  8
0
100
AcDbLine
 10
201.3561999999999
 20
40.979985
 30
0.0
 11
201.0
 21
40.979985
 31
0.0
  0
LINE
  5
58B
330
1E
100
AcDbEntity
  8
0
100
AcDbLine
 10
204.0
 20
55.079985
 30
0.0
 11
201.1
 21
47.87998499999999
 31
0.0
  0
LINE
  5
58C
330
1E
100
AcDbEntity
  8
0
100
AcDbLine
 10
222.3
 20
69.07998499999999
 30
0.0
 11
215.0999999999999
 21
66.179985
 31
0.0
  0
LINE
  5
58D
330
1E
100
AcDbEntity
  8
0
100
AcDbLine
 10
228.6999999999999
 20
68.679985
 30
0.0
 11
228.2
 21
66.179985
 31
0.0
  0
LINE
  5
58E
330
1E
100
AcDbEntity
  8
0
100
AcDbLine
 10
229.1999999999999
 20
68.304585
 30
0.0
 11
229.1999999999999
 21
67.650785
 31
0.0
  0
LINE
  5
58F
330
1E
100
AcDbEntity
  8
0
100
AcDbLine
 10
229.1999999999999
 20
67.650785
 30
0.0
 11
229.1999999999999
 21
68.304585
 31
0.0
  0
LINE
  5
590
330
1E
100
AcDbEntity
  8
0
100
AcDbLine
 10
223.1999999999999
 20
65.679985
 30
0.0
 11
216.8
 21
63.17998499999999
 31
0.0
  0
LINE
  5
591
330
1E
100
AcDbEntity
  8
0
100
AcDbLine
 10
228.0
 20
63.17998499999999
 30
0.0
 11
227.7
 21
59.17998499999999
 31
0.0
  0
LINE
  5
592
330
1E
100
AcDbEntity
  8
0
100
AcDbLine
 10
229.1999999999999
 20
63.15708499999999
 30
0.0
 11
228.9
 21
59.18198499999999
 31
0.0
  0
LINE
  5
593
330
1E
100
AcDbEntity
  8
0
100
AcDbLine
 10
228.2484848484849
 20
66.42240924242421
 30
0.0
 11
223.1999999999999
 21
65.679985
 31
0.0
  0
LINE
  5
594
330
1E
100
AcDbEntity
  8
0
100
AcDbLine
 10
228.2
 20
66.179985
 30
0.0
 11
228.0
 21
63.17998499999999
 31
0.0
  0
LINE
  5
595
330
1E
100
AcDbEntity
  8
0
100
AcDbLine
 10
229.1999999999999
 20
66.55468499999999
 30
0.0
 11
229.1999999999999
 21
65.05478499999999
 31
0.0
  0
LINE
  5
596
330
1E
100
AcDbEntity
  8
0
100
AcDbLine
 10
229.1999999999999
 20
65.05478499999999
 30
0.0
 11
229.1999999999999
 21
66.55468499999999
 31
0.0
  0
LINE
  5
597
330
1E
100
AcDbEntity
  8
0
100
AcDbLine
 10
229.1999999999999
 20
63.15708499999999
 30
0.0
 11
229.1999999999999
 21
65.05478499999999
 31
0.0
  0
LINE
  5
598
330
1E
100
AcDbEntity
  8
0
100
AcDbLine
 10
229.1999999999999
 20
65.05478499999999
 30
0.0
 11
229.1999999999999
 21
63.15708499999999
 31
0.0
  0
LINE
  5
599
330
1E
100
AcDbEntity
  8
0
100
AcDbLine
 10
229.1999999999999
 20
67.650785
 30
0.0
 11
229.1999999999999
 21
66.55468499999999
 31
0.0
  0
LINE
  5
59A
330
1E
100
AcDbEntity
  8
0
100
AcDbLine
 10
229.1999999999999
 20
66.55468499999999
 30
0.0
 11
229.1999999999999
 21
67.650785
 31
0.0
  0
LINE
  5
59B
330
1E
100
AcDbEntity
  8
0
100
AcDbLine
 10
216.8
 20
63.17998499999999
 30
0.0
 11
211.2999999999999
 21
58.879985
 31
0.0
  0
LINE
  5
59C
330
1E
100
AcDbEntity
  8
0
100
AcDbLine
 10
215.0999999999999
 20
66.179985
 30
0.0
 11
208.8
 21
61.379985
 31
0.0
  0
LINE
  5
59D
330
1E
100
AcDbEntity
  8
0
100
AcDbLine
 10
229.1999999999999
 20
69.179985
 30
0.0
 11
229.1999999999999
 21
68.823785
 31
0.0
  0
LINE
  5
59E
330
1E
100
AcDbEntity
  8
0
100
AcDbLine
 10
229.1999999999999
 20
68.823785
 30
0.0
 11
229.1999999999999
 21
69.179985
 31
0.0
  0
LINE
  5
59F
330
1E
100
AcDbEntity
  8
0
100
AcDbLine
 10
229.1999999999999
 20
68.823785
 30
0.0
 11
229.1999999999999
 21
68.304585
 31
0.0
  0
LINE
  5
5A0
330
1E
100
AcDbEntity
  8
0
100
AcDbLine
 10
229.1999999999999
 20
68.304585
 30
0.0
 11
229.1999999999999
 21
68.823785
 31
0.0
  0
LINE
  5
5A1
330
1E
100
AcDbEntity
  8
0
100
AcDbLine
 10
229.1999999999999
 20
69.179985
 30
0.0
 11
228.6999999999999
 21
68.679985
 31
0.0
  0
ENDSEC
  0
SECTION
  2
OBJECTS
  0
DICTIONARY
  5
C
330
0
100
AcDbDictionary
281
     1
  3
ACAD_GROUP
350
D
  3
ACAD_LAYOUT
350
19
  3
ACAD_MLINESTYLE
350
16
  3
ACAD_PLOTSETTINGS
350
18
  3
ACAD_PLOTSTYLENAME
350
E
  3
AcDbVariableDictionary
350
5A2
  0
DICTIONARY
  5
D
102
{ACAD_REACTORS
330
C
102
}
330
C
100
AcDbDictionary
281
     1
  0
DICTIONARY
  5
19
102
{ACAD_REACTORS
330
C
102
}
330
C
100
AcDbDictionary
281
     1
  3
Layout1
350
1D
  3
Model
350
21
  0
DICTIONARY
  5
16
102
{ACAD_REACTORS
330
C
102
}
330
C
100
AcDbDictionary
281
     1
  3
Standard
350
17
  0
DICTIONARY
  5
18
102
{ACAD_REACTORS
330
C
102
}
330
C
100
AcDbDictionary
281
     1
  0
ACDBDICTIONARYWDFLT
  5
E
102
{ACAD_REACTORS
330
C
102
}
330
C
100
AcDbDictionary
281
     1
  3
Normal
350
F
100
AcDbDictionaryWithDefault
340
F
  0
DICTIONARY
  5
5A2
102
{ACAD_REACTORS
330
C
102
}
330
C
100
AcDbDictionary
281
     1
  3
DIMASSOC
350
5A3
  0
LAYOUT
  5
1D
102
{ACAD_REACTORS
330
19
102
}
330
19
100
AcDbPlotSettings
  1

  2
hp deskjet 980c series
  4

  6

 40
0.0
 41
0.0
 42
0.0
 43
0.0
 44
0.0
 45
0.0
 46
0.0
 47
0.0
 48
0.0
 49
0.0
140
0.0
141
0.0
142
1.0
143
1.0
 70
   688
 72
     0
 73
     0
 74
     5
  7

 75
    16
147
1.0
148
0.0
149
0.0
100
AcDbLayout
  1
Layout1
 70
     1
 71
     1
 10
0.0
 20
0.0
 11
12.0
 21
9.0
 12
0.0
 22
0.0
 32
0.0
 14
1.000000000000000E+20
 24
1.000000000000000E+20
 34
1.000000000000000E+20
 15
-1.000000000000000E+20
 25
-1.000000000000000E+20
 35
-1.000000000000000E+20
146
0.0
 13
0.0
 23
0.0
 33
0.0
 16
1.0
 26
0.0
 36
0.0
 17
0.0
 27
1.0
 37
0.0
 76
     0
330
1A
  0
LAYOUT
  5
21
102
{ACAD_REACTORS
330
19
102
}
330
19
100
AcDbPlotSettings
  1

  2
hp deskjet 980c series
  4

  6

 40
0.0
 41
0.0
 42
0.0
 43
0.0
 44
0.0
 45
0.0
 46
0.0
 47
0.0
 48
0.0
 49
0.0
140
0.0
141
0.0
142
1.0
143
1.0
 70
  1712
 72
     0
 73
     0
 74
     0
  7

 75
     0
147
1.0
148
0.0
149
0.0
100
AcDbLayout
  1
Model
 70
     1
 71
     0
 10
0.0
 20
0.0
 11
12.0
 21
9.0
 12
0.0
 22
0.0
 32
0.0
 14
0.0
 24
0.0
 34
0.0
 15
0.0
 25
0.0
 35
0.0
146
0.0
 13
0.0
 23
0.0
 33
0.0
 16
1.0
 26
0.0
 36
0.0
 17
0.0
 27
1.0
 37
0.0
 76
     0
330
1E
  0
MLINESTYLE
  5
17
102
{ACAD_REACTORS
330
16
102
}
330
16
100
AcDbMlineStyle
  2
STANDARD
 70
     0
  3

 62
   256
 51
90.0
 52
90.0
 71
     2
 49
0.5
 62
   256
  6
BYLAYER
 49
-0.5
 62
   256
  6
BYLAYER
  0
ACDBPLACEHOLDER
  5
F
102
{ACAD_REACTORS
330
E
102
}
330
E
  0
DICTIONARYVAR
  5
5A3
102
{ACAD_REACTORS
330
5A2
102
}
330
5A2
100
DictionaryVariables
280
     0
  1
1
  0
ENDSEC
  0
EOF
