  0
SECTION
  2
HEADER
  9
$ACADVER
  1
AC1015
  9
$ACADMAINTVER
 70
    13
  9
$DWGCODEPAGE
  3
ANSI_1252
  9
$INSBASE
 10
0.0
 20
0.0
 30
0.0
  9
$EXTMIN
 10
0.0000000000000018
 20
0.185349999999997
 30
0.0
  9
$EXTMAX
 10
258.0
 20
226.8146499999999
 30
0.0
  9
$LIMMIN
 10
0.0
 20
0.0
  9
$LIMMAX
 10
12.0
 20
9.0
  9
$ORTHOMODE
 70
     0
  9
$REGENMODE
 70
     1
  9
$FILLMODE
 70
     1
  9
$QTEXTMODE
 70
     0
  9
$MIRRTEXT
 70
     1
  9
$LTSCALE
 40
1.0
  9
$ATTMODE
 70
     1
  9
$TEXTSIZE
 40
0.2
  9
$TRACEWID
 40
0.05
  9
$TEXTSTYLE
  7
Standard
  9
$CLAYER
  8
0
  9
$CELTYPE
  6
Continuous
  9
$CECOLOR
 62
   256
  9
$CELTSCALE
 40
1.0
  9
$DISPSILH
 70
     0
  9
$DIMSCALE
 40
1.0
  9
$DIMASZ
 40
0.18
  9
$DIMEXO
 40
0.0625
  9
$DIMDLI
 40
0.38
  9
$DIMRND
 40
0.0
  9
$DIMDLE
 40
0.0
  9
$DIMEXE
 40
0.18
  9
$DIMTP
 40
0.0
  9
$DIMTM
 40
0.0
  9
$DIMTXT
 40
0.18
  9
$DIMCEN
 40
0.09
  9
$DIMTSZ
 40
0.0
  9
$DIMTOL
 70
     0
  9
$DIMLIM
 70
     0
  9
$DIMTIH
 70
     1
  9
$DIMTOH
 70
     1
  9
$DIMSE1
 70
     0
  9
$DIMSE2
 70
     0
  9
$DIMTAD
 70
     0
  9
$DIMZIN
 70
     0
  9
$DIMBLK
  1

  9
$DIMASO
 70
     1
  9
$DIMSHO
 70
     1
  9
$DIMPOST
  1

  9
$DIMAPOST
  1

  9
$DIMALT
 70
     0
  9
$DIMALTD
 70
     2
  9
$DIMALTF
 40
25.4
  9
$DIMLFAC
 40
1.0
  9
$DIMTOFL
 70
     0
  9
$DIMTVP
 40
0.0
  9
$DIMTIX
 70
     0
  9
$DIMSOXD
 70
     0
  9
$DIMSAH
 70
     0
  9
$DIMBLK1
  1

  9
$DIMBLK2
  1

  9
$DIMSTYLE
  2
Standard
  9
$DIMCLRD
 70
     0
  9
$DIMCLRE
 70
     0
  9
$DIMCLRT
 70
     0
  9
$DIMTFAC
 40
1.0
  9
$DIMGAP
 40
0.09
  9
$DIMJUST
 70
     0
  9
$DIMSD1
 70
     0
  9
$DIMSD2
 70
     0
  9
$DIMTOLJ
 70
     1
  9
$DIMTZIN
 70
     0
  9
$DIMALTZ
 70
     0
  9
$DIMALTTZ
 70
     0
  9
$DIMUPT
 70
     0
  9
$DIMDEC
 70
     4
  9
$DIMTDEC
 70
     4
  9
$DIMALTU
 70
     2
  9
$DIMALTTD
 70
     2
  9
$DIMTXSTY
  7
Standard
  9
$DIMAUNIT
 70
     0
  9
$DIMADEC
 70
     0
  9
$DIMALTRND
 40
0.0
  9
$DIMAZIN
 70
     0
  9
$DIMDSEP
 70
    46
  9
$DIMATFIT
 70
     3
  9
$DIMFRAC
 70
     0
  9
$DIMLDRBLK
  1

  9
$DIMLUNIT
 70
     2
  9
$DIMLWD
 70
    -2
  9
$DIMLWE
 70
    -2
  9
$DIMTMOVE
 70
     0
  9
$LUNITS
 70
     2
  9
$LUPREC
 70
     4
  9
$SKETCHINC
 40
0.1
  9
$FILLETRAD
 40
0.0
  9
$AUNITS
 70
     0
  9
$AUPREC
 70
     0
  9
$MENU
  1
.
  9
$ELEVATION
 40
0.0
  9
$PELEVATION
 40
0.0
  9
$THICKNESS
 40
0.0
  9
$LIMCHECK
 70
     0
  9
$CHAMFERA
 40
0.0
  9
$CHAMFERB
 40
0.0
  9
$CHAMFERC
 40
0.0
  9
$CHAMFERD
 40
0.0
  9
$SKPOLY
 70
     0
  9
$TDCREATE
 40
2454750.874936701
  9
$TDUCREATE
 40
2454750.791603368
  9
$TDUPDATE
 40
2454750.879197951
  9
$TDUUPDATE
 40
2454750.795864618
  9
$TDINDWG
 40
0.0042612500
  9
$TDUSRTIMER
 40
0.0042612500
  9
$USRTIMER
 70
     1
  9
$ANGBASE
 50
0.0
  9
$ANGDIR
 70
     0
  9
$PDMODE
 70
     0
  9
$PDSIZE
 40
0.0
  9
$PLINEWID
 40
0.0
  9
$SPLFRAME
 70
     0
  9
$SPLINETYPE
 70
     6
  9
$SPLINESEGS
 70
     8
  9
$HANDSEED
  5
566
  9
$SURFTAB1
 70
     6
  9
$SURFTAB2
 70
     6
  9
$SURFTYPE
 70
     6
  9
$SURFU
 70
     6
  9
$SURFV
 70
     6
  9
$UCSBASE
  2

  9
$UCSNAME
  2

  9
$UCSORG
 10
0.0
 20
0.0
 30
0.0
  9
$UCSXDIR
 10
1.0
 20
0.0
 30
0.0
  9
$UCSYDIR
 10
0.0
 20
1.0
 30
0.0
  9
$UCSORTHOREF
  2

  9
$UCSORTHOVIEW
 70
     1
  9
$UCSORGTOP
 10
0.0
 20
0.0
 30
0.0
  9
$UCSORGBOTTOM
 10
0.0
 20
0.0
 30
0.0
  9
$UCSORGLEFT
 10
0.0
 20
0.0
 30
0.0
  9
$UCSORGRIGHT
 10
0.0
 20
0.0
 30
0.0
  9
$UCSORGFRONT
 10
0.0
 20
0.0
 30
0.0
  9
$UCSORGBACK
 10
0.0
 20
0.0
 30
0.0
  9
$PUCSBASE
  2

  9
$PUCSNAME
  2

  9
$PUCSORG
 10
0.0
 20
0.0
 30
0.0
  9
$PUCSXDIR
 10
1.0
 20
0.0
 30
0.0
  9
$PUCSYDIR
 10
0.0
 20
1.0
 30
0.0
  9
$PUCSORTHOREF
  2

  9
$PUCSORTHOVIEW
 70
     0
  9
$PUCSORGTOP
 10
0.0
 20
0.0
 30
0.0
  9
$PUCSORGBOTTOM
 10
0.0
 20
0.0
 30
0.0
  9
$PUCSORGLEFT
 10
0.0
 20
0.0
 30
0.0
  9
$PUCSORGRIGHT
 10
0.0
 20
0.0
 30
0.0
  9
$PUCSORGFRONT
 10
0.0
 20
0.0
 30
0.0
  9
$PUCSORGBACK
 10
0.0
 20
0.0
 30
0.0
  9
$USERI1
 70
     0
  9
$USERI2
 70
     0
  9
$USERI3
 70
     0
  9
$USERI4
 70
     0
  9
$USERI5
 70
     0
  9
$USERR1
 40
0.0
  9
$USERR2
 40
0.0
  9
$USERR3
 40
0.0
  9
$USERR4
 40
0.0
  9
$USERR5
 40
0.0
  9
$WORLDVIEW
 70
     1
  9
$SHADEDGE
 70
     3
  9
$SHADEDIF
 70
    70
  9
$TILEMODE
 70
     1
  9
$MAXACTVP
 70
    64
  9
$PINSBASE
 10
0.0
 20
0.0
 30
0.0
  9
$PLIMCHECK
 70
     0
  9
$PEXTMIN
 10
1.000000000000000E+20
 20
1.000000000000000E+20
 30
1.000000000000000E+20
  9
$PEXTMAX
 10
-1.000000000000000E+20
 20
-1.000000000000000E+20
 30
-1.000000000000000E+20
  9
$PLIMMIN
 10
0.0
 20
0.0
  9
$PLIMMAX
 10
12.0
 20
9.0
  9
$UNITMODE
 70
     0
  9
$VISRETAIN
 70
     1
  9
$PLINEGEN
 70
     0
  9
$PSLTSCALE
 70
     1
  9
$TREEDEPTH
 70
  3020
  9
$CMLSTYLE
  2
Standard
  9
$CMLJUST
 70
     0
  9
$CMLSCALE
 40
1.0
  9
$PROXYGRAPHICS
 70
     1
  9
$MEASUREMENT
 70
     0
  9
$CELWEIGHT
370
    -1
  9
$ENDCAPS
280
     0
  9
$JOINSTYLE
280
     0
  9
$LWDISPLAY
290
     0
  9
$INSUNITS
 70
     0
  9
$HYPERLINKBASE
  1

  9
$STYLESHEET
  1

  9
$XEDIT
290
     1
  9
$CEPSNTYPE
380
     0
  9
$PSTYLEMODE
290
     1
  9
$FINGERPRINTGUID
  2
{E63FE4E1-D278-43E3-B76C-F6082E4FAC91}
  9
$VERSIONGUID
  2
{C286C015-0AE1-449C-AD9F-6154D127F8C2}
  9
$EXTNAMES
290
     1
  9
$PSVPSCALE
 40
0.0
  9
$OLESTARTUP
290
     0
  0
ENDSEC
  0
SECTION
  2
CLASSES
  0
CLASS
  1
ACDBDICTIONARYWDFLT
  2
AcDbDictionaryWithDefault
  3
AutoCAD 2000
 90
        0
280
     0
281
     0
  0
CLASS
  1
ACDBPLACEHOLDER
  2
AcDbPlaceHolder
  3
AutoCAD 2000
 90
        0
280
     0
281
     0
  0
CLASS
  1
LAYOUT
  2
AcDbLayout
  3
AutoCAD 2000
 90
        0
280
     0
281
     0
  0
CLASS
  1
DICTIONARYVAR
  2
AcDbDictionaryVar
  3
AutoCAD 2000
 90
        0
280
     0
281
     0
  0
ENDSEC
  0
SECTION
  2
TABLES
  0
TABLE
  2
VPORT
  5
8
330
0
100
AcDbSymbolTable
 70
     2
  0
VPORT
  5
565
330
8
100
AcDbSymbolTableRecord
100
AcDbViewportTableRecord
  2
*Active
 70
     0
 10
0.0
 20
0.0
 11
1.0
 21
1.0
 12
129.0
 22
113.5
 13
0.0
 23
0.0
 14
1.0
 24
1.0
 15
0.0
 25
0.0
 16
0.0
 26
0.0
 36
1.0
 17
0.0
 27
0.0
 37
0.0
 40
228.3681437340153
 41
2.078104993597951
 42
50.0
 43
0.0
 44
0.0
 50
0.0
 51
0.0
 71
     0
 72
   100
 73
     1
 74
     3
 75
     0
 76
     0
 77
     0
 78
     0
281
     0
 65
     1
110
0.0
120
0.0
130
0.0
111
1.0
121
0.0
131
0.0
112
0.0
122
1.0
132
0.0
 79
     1
146
0.0
  0
ENDTAB
  0
TABLE
  2
LTYPE
  5
5
330
0
100
AcDbSymbolTable
 70
     1
  0
LTYPE
  5
13
330
5
100
AcDbSymbolTableRecord
100
AcDbLinetypeTableRecord
  2
ByBlock
 70
     0
  3

 72
    65
 73
     0
 40
0.0
  0
LTYPE
  5
14
330
5
100
AcDbSymbolTableRecord
100
AcDbLinetypeTableRecord
  2
ByLayer
 70
     0
  3

 72
    65
 73
     0
 40
0.0
  0
LTYPE
  5
15
330
5
100
AcDbSymbolTableRecord
100
AcDbLinetypeTableRecord
  2
Continuous
 70
     0
  3
Solid line
 72
    65
 73
     0
 40
0.0
  0
ENDTAB
  0
TABLE
  2
LAYER
  5
2
330
0
100
AcDbSymbolTable
 70
     1
  0
LAYER
  5
10
330
2
100
AcDbSymbolTableRecord
100
AcDbLayerTableRecord
  2
0
 70
     0
 62
     7
  6
Continuous
370
    -3
390
F
  0
ENDTAB
  0
TABLE
  2
STYLE
  5
3
330
0
100
AcDbSymbolTable
 70
     1
  0
STYLE
  5
11
330
3
100
AcDbSymbolTableRecord
100
AcDbTextStyleTableRecord
  2
Standard
 70
     0
 40
0.0
 41
1.0
 50
0.0
 71
     0
 42
0.2
  3
txt
  4

  0
ENDTAB
  0
TABLE
  2
VIEW
  5
6
330
0
100
AcDbSymbolTable
 70
     0
  0
ENDTAB
  0
TABLE
  2
UCS
  5
7
330
0
100
AcDbSymbolTable
 70
     0
  0
ENDTAB
  0
TABLE
  2
APPID
  5
9
330
0
100
AcDbSymbolTable
 70
     1
  0
APPID
  5
12
330
9
100
AcDbSymbolTableRecord
100
AcDbRegAppTableRecord
  2
ACAD
 70
     0
  0
ENDTAB
  0
TABLE
  2
DIMSTYLE
  5
A
330
0
100
AcDbSymbolTable
 70
     1
100
AcDbDimStyleTable
 71
     0
  0
DIMSTYLE
105
421
330
A
100
AcDbSymbolTableRecord
100
AcDbDimStyleTableRecord
  2
Standard
 70
     0
340
11
  0
ENDTAB
  0
TABLE
  2
BLOCK_RECORD
  5
1
330
0
100
AcDbSymbolTable
 70
     0
  0
BLOCK_RECORD
  5
1E
330
1
100
AcDbSymbolTableRecord
100
AcDbBlockTableRecord
  2
*Model_Space
340
21
  0
BLOCK_RECORD
  5
1A
330
1
100
AcDbSymbolTableRecord
100
AcDbBlockTableRecord
  2
*Paper_Space
340
1D
  0
ENDTAB
  0
ENDSEC
  0
SECTION
  2
BLOCKS
  0
BLOCK
  5
1F
330
1E
100
AcDbEntity
  8
0
100
AcDbBlockBegin
  2
*Model_Space
 70
     0
 10
0.0
 20
0.0
 30
0.0
  3
*Model_Space
  1

  0
ENDBLK
  5
20
330
1E
100
AcDbEntity
  8
0
100
AcDbBlockEnd
  0
BLOCK
  5
1B
330
1A
100
AcDbEntity
 67
     1
  8
0
100
AcDbBlockBegin
  2
*Paper_Space
 70
     0
 10
0.0
 20
0.0
 30
0.0
  3
*Paper_Space
  1

  0
ENDBLK
  5
1C
330
1A
100
AcDbEntity
 67
     1
  8
0
100
AcDbBlockEnd
  0
ENDSEC
  0
SECTION
  2
ENTITIES
  0
LINE
  5
22
330
1E
100
AcDbEntity
  8
0
100
AcDbLine
 10
0.500000000000002
 20
187.87365
 30
0.0
 11
3.0
 21
187.3736499999999
 31
0.0
  0
LINE
  5
24
330
1E
100
AcDbEntity
  8
0
100
AcDbLine
 10
3.0
 20
187.3736499999999
 30
0.0
 11
6.0
 21
187.17365
 31
0.0
  0
LINE
  5
27
330
1E
100
AcDbEntity
  8
0
100
AcDbLine
 10
4.1252
 20
188.3736499999999
 30
0.0
 11
6.022899999999999
 21
188.3736499999999
 31
0.0
  0
LINE
  5
28
330
1E
100
AcDbEntity
  8
0
100
AcDbLine
 10
2.6253
 20
188.3736499999999
 30
0.0
 11
4.1252
 21
188.3736499999999
 31
0.0
  0
LINE
  5
29
330
1E
100
AcDbEntity
  8
0
100
AcDbLine
 10
1.529199999999999
 20
188.3736499999999
 30
0.0
 11
2.6253
 21
188.3736499999999
 31
0.0
  0
LINE
  5
2A
330
1E
100
AcDbEntity
  8
0
100
AcDbLine
 10
0.875400000000001
 20
188.3736499999999
 30
0.0
 11
1.529199999999999
 21
188.3736499999999
 31
0.0
  0
LINE
  5
2B
330
1E
100
AcDbEntity
  8
0
100
AcDbLine
 10
0.356199999999999
 20
188.3736499999999
 30
0.0
 11
0.875400000000001
 21
188.3736499999999
 31
0.0
  0
LINE
  5
2C
330
1E
100
AcDbEntity
  8
0
100
AcDbLine
 10
0.0000000000000018
 20
189.9736499999999
 30
0.0
 11
0.0000000000000018
 21
189.17365
 31
0.0
  0
LINE
  5
2D
330
1E
100
AcDbEntity
  8
0
100
AcDbLine
 10
0.0000000000000018
 20
189.9736499999999
 30
0.0
 11
0.500000000000002
 21
190.47365
 31
0.0
  0
LINE
  5
2E
330
1E
100
AcDbEntity
  8
0
100
AcDbLine
 10
0.0000000000000018
 20
189.9736499999999
 30
0.0
 11
0.356199999999999
 21
189.9736499999999
 31
0.0
  0
LINE
  5
2F
330
1E
100
AcDbEntity
  8
0
100
AcDbLine
 10
4.1252
 20
189.9736499999999
 30
0.0
 11
6.022899999999999
 21
189.9736499999999
 31
0.0
  0
LINE
  5
30
330
1E
100
AcDbEntity
  8
0
100
AcDbLine
 10
2.6253
 20
189.9736499999999
 30
0.0
 11
4.1252
 21
189.9736499999999
 31
0.0
  0
LINE
  5
31
330
1E
100
AcDbEntity
  8
0
100
AcDbLine
 10
1.529199999999999
 20
189.9736499999999
 30
0.0
 11
2.6253
 21
189.9736499999999
 31
0.0
  0
LINE
  5
35
330
1E
100
AcDbEntity
  8
0
100
AcDbLine
 10
0.875400000000001
 20
189.9736499999999
 30
0.0
 11
1.529199999999999
 21
189.9736499999999
 31
0.0
  0
LINE
  5
36
330
1E
100
AcDbEntity
  8
0
100
AcDbLine
 10
0.356199999999999
 20
189.9736499999999
 30
0.0
 11
0.875400000000001
 21
189.9736499999999
 31
0.0
  0
LINE
  5
37
330
1E
100
AcDbEntity
  8
0
100
AcDbLine
 10
3.0
 20
190.9736499999999
 30
0.0
 11
6.0
 21
191.17365
 31
0.0
  0
LINE
  5
38
330
1E
100
AcDbEntity
  8
0
100
AcDbLine
 10
0.500000000000002
 20
190.47365
 30
0.0
 11
3.0
 21
190.9736499999999
 31
0.0
  0
LINE
  5
39
330
1E
100
AcDbEntity
  8
0
100
AcDbLine
 10
0.0000000000000018
 20
189.17365
 30
0.0
 11
0.0000000000000018
 21
188.3736499999999
 31
0.0
  0
LINE
  5
3A
330
1E
100
AcDbEntity
  8
0
100
AcDbLine
 10
0.0000000000000018
 20
189.17365
 30
0.0
 11
0.0000000000000018
 21
189.9736499999999
 31
0.0
  0
LINE
  5
3B
330
1E
100
AcDbEntity
  8
0
100
AcDbLine
 10
0.0000000000000018
 20
188.3736499999999
 30
0.0
 11
0.0000000000000018
 21
189.17365
 31
0.0
  0
LINE
  5
3C
330
1E
100
AcDbEntity
  8
0
100
AcDbLine
 10
0.0000000000000018
 20
188.3736499999999
 30
0.0
 11
0.356199999999999
 21
188.3736499999999
 31
0.0
  0
LINE
  5
3D
330
1E
100
AcDbEntity
  8
0
100
AcDbLine
 10
0.0000000000000018
 20
188.3736499999999
 30
0.0
 11
0.500000000000002
 21
187.87365
 31
0.0
  0
LINE
  5
3E
330
1E
100
AcDbEntity
  8
0
100
AcDbLine
 10
11.4
 20
171.57365
 30
0.0
 11
16.6
 21
167.4736499999999
 31
0.0
  0
LINE
  5
3F
330
1E
100
AcDbEntity
  8
0
100
AcDbLine
 10
7.299999999999999
 20
176.7736499999999
 30
0.0
 11
11.4
 21
171.57365
 31
0.0
  0
LINE
  5
40
330
1E
100
AcDbEntity
  8
0
100
AcDbLine
 10
6.022899999999999
 20
189.9736499999999
 30
0.0
 11
9.997999999999999
 21
190.2736499999999
 31
0.0
  0
LINE
  5
41
330
1E
100
AcDbEntity
  8
0
100
AcDbLine
 10
9.997999999999999
 20
190.2736499999999
 30
0.0
 11
13.5421
 21
191.3196499999999
 31
0.0
  0
LINE
  5
42
330
1E
100
AcDbEntity
  8
0
100
AcDbLine
 10
9.997999999999999
 20
188.0736499999999
 30
0.0
 11
13.5421
 21
187.0276499999999
 31
0.0
  0
LINE
  5
43
330
1E
100
AcDbEntity
  8
0
100
AcDbLine
 10
6.022899999999999
 20
188.3736499999999
 30
0.0
 11
9.997999999999999
 21
188.0736499999999
 31
0.0
  0
LINE
  5
44
330
1E
100
AcDbEntity
  8
0
100
AcDbLine
 10
10.0
 20
186.8736499999999
 30
0.0
 11
12.8861
 21
185.9436499999999
 31
0.0
  0
LINE
  5
45
330
1E
100
AcDbEntity
  8
0
100
AcDbLine
 10
6.0
 20
187.17365
 30
0.0
 11
10.0
 21
186.8736499999999
 31
0.0
  0
LINE
  5
46
330
1E
100
AcDbEntity
  8
0
100
AcDbLine
 10
10.0
 20
191.47365
 30
0.0
 11
12.8861
 21
192.4036499999999
 31
0.0
  0
LINE
  5
47
330
1E
100
AcDbEntity
  8
0
100
AcDbLine
 10
6.0
 20
191.17365
 30
0.0
 11
10.0
 21
191.47365
 31
0.0
  0
LINE
  5
48
330
1E
100
AcDbEntity
  8
0
100
AcDbLine
 10
11.8877740366629
 20
192.0819552749719
 30
0.0
 11
12.09999999999999
 21
193.67365
 31
0.0
  0
LINE
  5
49
330
1E
100
AcDbEntity
  8
0
100
AcDbLine
 10
4.264984227129339
 20
191.057982281809
 30
0.0
 11
4.9
 21
195.57365
 31
0.0
  0
LINE
  5
4C
330
1E
100
AcDbEntity
  8
0
100
AcDbLine
 10
4.9
 20
182.77365
 30
0.0
 11
7.299999999999999
 21
176.7736499999999
 31
0.0
  0
LINE
  5
4D
330
1E
100
AcDbEntity
  8
0
100
AcDbLine
 10
4.264984227129339
 20
187.2893177181909
 30
0.0
 11
4.9
 21
182.77365
 31
0.0
  0
LINE
  5
4E
330
1E
100
AcDbEntity
  8
0
100
AcDbLine
 10
7.299999999999999
 20
201.57365
 30
0.0
 11
11.4
 21
206.77365
 31
0.0
  0
LINE
  5
4F
330
1E
100
AcDbEntity
  8
0
100
AcDbLine
 10
4.9
 20
195.57365
 30
0.0
 11
7.299999999999999
 21
201.57365
 31
0.0
  0
LINE
  5
50
330
1E
100
AcDbEntity
  8
0
100
AcDbLine
 10
12.09999999999999
 20
193.67365
 30
0.0
 11
13.8
 21
197.87365
 31
0.0
  0
LINE
  5
51
330
1E
100
AcDbEntity
  8
0
100
AcDbLine
 10
11.4
 20
206.77365
 30
0.0
 11
16.6
 21
210.87365
 31
0.0
  0
LINE
  5
52
330
1E
100
AcDbEntity
  8
0
100
AcDbLine
 10
12.4199724236544
 20
192.253447773465
 30
0.0
 11
12.6
 21
193.5736499999999
 31
0.0
  0
LINE
  5
55
330
1E
100
AcDbEntity
  8
0
100
AcDbLine
 10
16.6
 20
167.4736499999999
 30
0.0
 11
22.6
 21
165.0736499999999
 31
0.0
  0
LINE
  5
56
330
1E
100
AcDbEntity
  8
0
100
AcDbLine
 10
22.6
 20
165.0736499999999
 30
0.0
 11
27.1156677181914
 21
164.438634227129
 31
0.0
  0
LINE
  5
57
330
1E
100
AcDbEntity
  8
0
100
AcDbLine
 10
22.6
 20
165.0736499999999
 30
0.0
 11
27.1156677181914
 21
164.438634227129
 31
0.0
  0
LINE
  5
59
330
1E
100
AcDbEntity
  8
0
100
AcDbLine
 10
22.39999999999999
 20
177.77365
 30
0.0
 11
24.2492
 21
175.78065
 31
0.0
  0
LINE
  5
5A
330
1E
100
AcDbEntity
  8
0
100
AcDbLine
 10
24.2492
 20
175.78065
 30
0.0
 11
25.7704
 21
173.05965
 31
0.0
  0
LINE
  5
5B
330
1E
100
AcDbEntity
  8
0
100
AcDbLine
 10
20.5
 20
180.67365
 30
0.0
 11
23.0
 21
178.75165
 31
0.0
  0
LINE
  5
5C
330
1E
100
AcDbEntity
  8
0
100
AcDbLine
 10
19.69999999999999
 20
179.8736499999999
 30
0.0
 11
22.39999999999999
 21
177.77365
 31
0.0
  0
LINE
  5
5D
330
1E
100
AcDbEntity
  8
0
100
AcDbLine
 10
23.0
 20
178.75165
 30
0.0
 11
25.0098
 21
176.46965
 31
0.0
  0
LINE
  5
5E
330
1E
100
AcDbEntity
  8
0
100
AcDbLine
 10
23.8
 20
180.07365
 30
0.0
 11
26.3
 21
179.0736499999999
 31
0.0
  0
LINE
  5
5F
330
1E
100
AcDbEntity
  8
0
100
AcDbLine
 10
17.6585
 20
177.83265
 30
0.0
 11
23.898876201174
 21
176.158216153504
 31
0.0
  0
LINE
  5
60
330
1E
100
AcDbEntity
  8
0
100
AcDbLine
 10
17.3
 20
177.4736499999999
 30
0.0
 11
20.8
 21
174.8736499999999
 31
0.0
  0
LINE
  5
61
330
1E
100
AcDbEntity
  8
0
100
AcDbLine
 10
20.8
 20
174.8736499999999
 30
0.0
 11
24.8
 21
173.27365
 31
0.0
  0
LINE
  5
62
330
1E
100
AcDbEntity
  8
0
100
AcDbLine
 10
17.0
 20
177.17365
 30
0.0
 11
20.5
 21
174.4736499999999
 31
0.0
  0
LINE
  5
63
330
1E
100
AcDbEntity
  8
0
100
AcDbLine
 10
20.5
 20
174.4736499999999
 30
0.0
 11
24.6
 21
172.7736499999999
 31
0.0
  0
LINE
  5
64
330
1E
100
AcDbEntity
  8
0
100
AcDbLine
 10
29.8
 20
160.17365
 30
0.0
 11
29.8
 21
160.52965
 31
0.0
  0
LINE
  5
65
330
1E
100
AcDbEntity
  8
0
100
AcDbLine
 10
29.8
 20
160.17365
 30
0.0
 11
30.3
 21
160.67365
 31
0.0
  0
LINE
  5
66
330
1E
100
AcDbEntity
  8
0
100
AcDbLine
 10
29.0
 20
160.17365
 30
0.0
 11
29.8
 21
160.17365
 31
0.0
  0
LINE
  5
6D
330
1E
100
AcDbEntity
  8
0
100
AcDbLine
 10
27.2
 20
163.17365
 30
0.0
 11
27.7
 21
160.67365
 31
0.0
  0
LINE
  5
6E
330
1E
100
AcDbEntity
  8
0
100
AcDbLine
 10
29.8
 20
160.52965
 30
0.0
 11
29.8
 21
160.17365
 31
0.0
  0
LINE
  5
6F
330
1E
100
AcDbEntity
  8
0
100
AcDbLine
 10
29.8
 20
160.52965
 30
0.0
 11
29.8
 21
161.04865
 31
0.0
  0
LINE
  5
70
330
1E
100
AcDbEntity
  8
0
100
AcDbLine
 10
28.2
 20
164.29865
 30
0.0
 11
28.2
 21
166.19665
 31
0.0
  0
LINE
  5
71
330
1E
100
AcDbEntity
  8
0
100
AcDbLine
 10
28.2
 20
164.29865
 30
0.0
 11
28.2
 21
162.79865
 31
0.0
  0
LINE
  5
72
330
1E
100
AcDbEntity
  8
0
100
AcDbLine
 10
28.2
 20
162.79865
 30
0.0
 11
28.2
 21
164.29865
 31
0.0
  0
LINE
  5
73
330
1E
100
AcDbEntity
  8
0
100
AcDbLine
 10
28.2
 20
162.79865
 30
0.0
 11
28.2
 21
161.70265
 31
0.0
  0
LINE
  5
74
330
1E
100
AcDbEntity
  8
0
100
AcDbLine
 10
28.2
 20
161.70265
 30
0.0
 11
28.2
 21
162.79865
 31
0.0
  0
LINE
  5
75
330
1E
100
AcDbEntity
  8
0
100
AcDbLine
 10
28.2
 20
161.70265
 30
0.0
 11
28.2
 21
161.04865
 31
0.0
  0
LINE
  5
76
330
1E
100
AcDbEntity
  8
0
100
AcDbLine
 10
30.3
 20
160.67365
 30
0.0
 11
30.8
 21
163.17365
 31
0.0
  0
LINE
  5
77
330
1E
100
AcDbEntity
  8
0
100
AcDbLine
 10
29.8
 20
164.29865
 30
0.0
 11
29.8
 21
162.79865
 31
0.0
  0
LINE
  5
78
330
1E
100
AcDbEntity
  8
0
100
AcDbLine
 10
29.8
 20
164.29865
 30
0.0
 11
29.8
 21
166.19665
 31
0.0
  0
LINE
  5
79
330
1E
100
AcDbEntity
  8
0
100
AcDbLine
 10
29.8
 20
162.79865
 30
0.0
 11
29.8
 21
161.70265
 31
0.0
  0
LINE
  5
7A
330
1E
100
AcDbEntity
  8
0
100
AcDbLine
 10
29.8
 20
162.79865
 30
0.0
 11
29.8
 21
164.29865
 31
0.0
  0
LINE
  5
7D
330
1E
100
AcDbEntity
  8
0
100
AcDbLine
 10
30.8
 20
163.17365
 30
0.0
 11
31.0
 21
166.17365
 31
0.0
  0
LINE
  5
82
330
1E
100
AcDbEntity
  8
0
100
AcDbLine
 10
29.8
 20
161.70265
 30
0.0
 11
29.8
 21
161.04865
 31
0.0
  0
LINE
  5
83
330
1E
100
AcDbEntity
  8
0
100
AcDbLine
 10
29.8
 20
161.70265
 30
0.0
 11
29.8
 21
162.79865
 31
0.0
  0
LINE
  5
84
330
1E
100
AcDbEntity
  8
0
100
AcDbLine
 10
29.8
 20
161.04865
 30
0.0
 11
29.8
 21
160.52965
 31
0.0
  0
LINE
  5
85
330
1E
100
AcDbEntity
  8
0
100
AcDbLine
 10
29.8
 20
161.04865
 30
0.0
 11
29.8
 21
161.70265
 31
0.0
  0
LINE
  5
86
330
1E
100
AcDbEntity
  8
0
100
AcDbLine
 10
28.2
 20
161.04865
 30
0.0
 11
28.2
 21
161.70265
 31
0.0
  0
LINE
  5
87
330
1E
100
AcDbEntity
  8
0
100
AcDbLine
 10
28.2
 20
161.04865
 30
0.0
 11
28.2
 21
160.52965
 31
0.0
  0
LINE
  5
88
330
1E
100
AcDbEntity
  8
0
100
AcDbLine
 10
28.2
 20
160.52965
 30
0.0
 11
28.2
 21
161.04865
 31
0.0
  0
LINE
  5
89
330
1E
100
AcDbEntity
  8
0
100
AcDbLine
 10
28.2
 20
160.52965
 30
0.0
 11
28.2
 21
160.17365
 31
0.0
  0
LINE
  5
8A
330
1E
100
AcDbEntity
  8
0
100
AcDbLine
 10
27.7
 20
160.67365
 30
0.0
 11
28.2
 21
160.17365
 31
0.0
  0
LINE
  5
8B
330
1E
100
AcDbEntity
  8
0
100
AcDbLine
 10
28.2
 20
160.17365
 30
0.0
 11
29.0
 21
160.17365
 31
0.0
  0
LINE
  5
8C
330
1E
100
AcDbEntity
  8
0
100
AcDbLine
 10
28.2
 20
160.17365
 30
0.0
 11
28.2
 21
160.52965
 31
0.0
  0
LINE
  5
8D
330
1E
100
AcDbEntity
  8
0
100
AcDbLine
 10
30.8843322818086
 20
164.438634227129
 30
0.0
 11
35.4
 21
165.0736499999999
 31
0.0
  0
LINE
  5
8E
330
1E
100
AcDbEntity
  8
0
100
AcDbLine
 10
25.7704
 20
173.05965
 30
0.0
 11
26.69999999999999
 21
170.17365
 31
0.0
  0
LINE
  5
8F
330
1E
100
AcDbEntity
  8
0
100
AcDbLine
 10
29.8
 20
166.19665
 30
0.0
 11
30.1
 21
170.17165
 31
0.0
  0
LINE
  5
90
330
1E
100
AcDbEntity
  8
0
100
AcDbLine
 10
29.8
 20
166.19665
 30
0.0
 11
29.8
 21
164.29865
 31
0.0
  0
LINE
  5
91
330
1E
100
AcDbEntity
  8
0
100
AcDbLine
 10
31.0
 20
166.17365
 30
0.0
 11
31.3
 21
170.17365
 31
0.0
  0
LINE
  5
92
330
1E
100
AcDbEntity
  8
0
100
AcDbLine
 10
30.1
 20
170.17165
 30
0.0
 11
31.1464
 21
173.71565
 31
0.0
  0
LINE
  5
93
330
1E
100
AcDbEntity
  8
0
100
AcDbLine
 10
28.2
 20
166.19665
 30
0.0
 11
28.2
 21
164.29865
 31
0.0
  0
LINE
  5
94
330
1E
100
AcDbEntity
  8
0
100
AcDbLine
 10
27.0
 20
166.17365
 30
0.0
 11
27.2
 21
163.17365
 31
0.0
  0
LINE
  5
95
330
1E
100
AcDbEntity
  8
0
100
AcDbLine
 10
31.3
 20
170.17365
 30
0.0
 11
32.2296
 21
173.05965
 31
0.0
  0
LINE
  5
96
330
1E
100
AcDbEntity
  8
0
100
AcDbLine
 10
27.9
 20
170.17165
 30
0.0
 11
28.2
 21
166.19665
 31
0.0
  0
LINE
  5
97
330
1E
100
AcDbEntity
  8
0
100
AcDbLine
 10
26.69999999999999
 20
170.17365
 30
0.0
 11
27.0
 21
166.17365
 31
0.0
  0
LINE
  5
98
330
1E
100
AcDbEntity
  8
0
100
AcDbLine
 10
30.8843322818086
 20
164.438634227129
 30
0.0
 11
35.4
 21
165.0736499999999
 31
0.0
  0
LINE
  5
99
330
1E
100
AcDbEntity
  8
0
100
AcDbLine
 10
119.7999999999999
 20
4.24213
 30
0.0
 11
122.5
 21
2.174049999999999
 31
0.0
  0
LINE
  5
9A
330
1E
100
AcDbEntity
  8
0
100
AcDbLine
 10
119.9
 20
8.78913
 30
0.0
 11
121.5999999999999
 21
6.62255
 31
0.0
  0
LINE
  5
9B
330
1E
100
AcDbEntity
  8
0
100
AcDbLine
 10
118.9
 20
11.25115
 30
0.0
 11
119.9
 21
8.78913
 31
0.0
  0
LINE
  5
9C
330
1E
100
AcDbEntity
  8
0
100
AcDbLine
 10
117.7
 20
6.90111
 30
0.0
 11
119.7999999999999
 21
4.24213
 31
0.0
  0
LINE
  5
9D
330
1E
100
AcDbEntity
  8
0
100
AcDbLine
 10
116.5
 20
10.05249999999999
 30
0.0
 11
117.7
 21
6.90111
 31
0.0
  0
LINE
  5
9E
330
1E
100
AcDbEntity
  8
0
100
AcDbLine
 10
118.5
 20
14.922225
 30
0.0
 11
118.5
 21
17.15513999999999
 31
0.0
  0
LINE
  5
9F
330
1E
100
AcDbEntity
  8
0
100
AcDbLine
 10
118.5
 20
14.922225
 30
0.0
 11
118.5
 21
13.910132
 31
0.0
  0
LINE
  5
A0
330
1E
100
AcDbEntity
  8
0
100
AcDbLine
 10
118.5
 20
17.15513999999999
 30
0.0
 11
118.5
 21
14.922225
 31
0.0
  0
LINE
  5
A1
330
1E
100
AcDbEntity
  8
0
100
AcDbLine
 10
118.5
 20
17.15513999999999
 30
0.0
 11
118.5
 21
20.83419
 31
0.0
  0
LINE
  5
A2
330
1E
100
AcDbEntity
  8
0
100
AcDbLine
 10
118.5
 20
32.25524999999999
 30
0.0
 11
118.5
 21
25.89645
 31
0.0
  0
LINE
  5
A3
330
1E
100
AcDbEntity
  8
0
100
AcDbLine
 10
118.5
 20
32.25524999999999
 30
0.0
 11
118.5
 21
39.80185
 31
0.0
  0
LINE
  5
A4
330
1E
100
AcDbEntity
  8
0
100
AcDbLine
 10
118.5
 20
20.83419
 30
0.0
 11
118.5
 21
25.89645
 31
0.0
  0
LINE
  5
A5
330
1E
100
AcDbEntity
  8
0
100
AcDbLine
 10
118.5
 20
20.83419
 30
0.0
 11
118.5
 21
17.15513999999999
 31
0.0
  0
LINE
  5
A6
330
1E
100
AcDbEntity
  8
0
100
AcDbLine
 10
118.5
 20
25.89645
 30
0.0
 11
118.5
 21
20.83419
 31
0.0
  0
LINE
  5
A7
330
1E
100
AcDbEntity
  8
0
100
AcDbLine
 10
118.5
 20
25.89645
 30
0.0
 11
118.5
 21
32.25524999999999
 31
0.0
  0
LINE
  5
A8
330
1E
100
AcDbEntity
  8
0
100
AcDbLine
 10
118.5
 20
68.18885
 30
0.0
 11
118.5
 21
79.02695
 31
0.0
  0
LINE
  5
A9
330
1E
100
AcDbEntity
  8
0
100
AcDbLine
 10
118.5
 20
68.18885
 30
0.0
 11
118.5
 21
57.92365
 31
0.0
  0
LINE
  5
AA
330
1E
100
AcDbEntity
  8
0
100
AcDbLine
 10
118.5
 20
57.92365
 30
0.0
 11
118.5
 21
48.40704999999999
 31
0.0
  0
LINE
  5
AB
330
1E
100
AcDbEntity
  8
0
100
AcDbLine
 10
118.5
 20
57.92365
 30
0.0
 11
118.5
 21
68.18885
 31
0.0
  0
LINE
  5
AC
330
1E
100
AcDbEntity
  8
0
100
AcDbLine
 10
118.5
 20
39.80185
 30
0.0
 11
118.5
 21
48.40704999999999
 31
0.0
  0
LINE
  5
AD
330
1E
100
AcDbEntity
  8
0
100
AcDbLine
 10
118.5
 20
39.80185
 30
0.0
 11
118.5
 21
32.25524999999999
 31
0.0
  0
LINE
  5
AE
330
1E
100
AcDbEntity
  8
0
100
AcDbLine
 10
118.5
 20
48.40704999999999
 30
0.0
 11
118.5
 21
39.80185
 31
0.0
  0
LINE
  5
AF
330
1E
100
AcDbEntity
  8
0
100
AcDbLine
 10
118.5
 20
48.40704999999999
 30
0.0
 11
118.5
 21
57.92365
 31
0.0
  0
LINE
  5
B0
330
1E
100
AcDbEntity
  8
0
100
AcDbLine
 10
118.5
 20
90.25265
 30
0.0
 11
118.5
 21
79.02695
 31
0.0
  0
LINE
  5
B1
330
1E
100
AcDbEntity
  8
0
100
AcDbLine
 10
118.5
 20
90.25265
 30
0.0
 11
118.5
 21
101.6736499999999
 31
0.0
  0
LINE
  5
B2
330
1E
100
AcDbEntity
  8
0
100
AcDbLine
 10
118.5
 20
79.02695
 30
0.0
 11
118.5
 21
90.25265
 31
0.0
  0
LINE
  5
B3
330
1E
100
AcDbEntity
  8
0
100
AcDbLine
 10
118.5
 20
79.02695
 30
0.0
 11
118.5
 21
68.18885
 31
0.0
  0
LINE
  5
B4
330
1E
100
AcDbEntity
  8
0
100
AcDbLine
 10
118.5
 20
101.6736499999999
 30
0.0
 11
118.5
 21
113.09465
 31
0.0
  0
LINE
  5
B5
330
1E
100
AcDbEntity
  8
0
100
AcDbLine
 10
118.5
 20
101.6736499999999
 30
0.0
 11
118.5
 21
90.25265
 31
0.0
  0
LINE
  5
B6
330
1E
100
AcDbEntity
  8
0
100
AcDbLine
 10
118.5
 20
113.09465
 30
0.0
 11
118.5
 21
124.32065
 31
0.0
  0
LINE
  5
B7
330
1E
100
AcDbEntity
  8
0
100
AcDbLine
 10
118.5
 20
113.09465
 30
0.0
 11
118.5
 21
101.6736499999999
 31
0.0
  0
LINE
  5
B8
330
1E
100
AcDbEntity
  8
0
100
AcDbLine
 10
118.5
 20
124.32065
 30
0.0
 11
118.5
 21
113.09465
 31
0.0
  0
LINE
  5
B9
330
1E
100
AcDbEntity
  8
0
100
AcDbLine
 10
118.5
 20
124.32065
 30
0.0
 11
118.5
 21
135.15865
 31
0.0
  0
LINE
  5
BA
330
1E
100
AcDbEntity
  8
0
100
AcDbLine
 10
118.5
 20
154.94065
 30
0.0
 11
118.5
 21
145.42365
 31
0.0
  0
LINE
  5
BB
330
1E
100
AcDbEntity
  8
0
100
AcDbLine
 10
118.5
 20
154.94065
 30
0.0
 11
118.5
 21
163.54565
 31
0.0
  0
LINE
  5
BC
330
1E
100
AcDbEntity
  8
0
100
AcDbLine
 10
118.5
 20
135.15865
 30
0.0
 11
118.5
 21
145.42365
 31
0.0
  0
LINE
  5
BD
330
1E
100
AcDbEntity
  8
0
100
AcDbLine
 10
118.5
 20
135.15865
 30
0.0
 11
118.5
 21
124.32065
 31
0.0
  0
LINE
  5
BE
330
1E
100
AcDbEntity
  8
0
100
AcDbLine
 10
118.5
 20
145.42365
 30
0.0
 11
118.5
 21
135.15865
 31
0.0
  0
LINE
  5
BF
330
1E
100
AcDbEntity
  8
0
100
AcDbLine
 10
118.5
 20
145.42365
 30
0.0
 11
118.5
 21
154.94065
 31
0.0
  0
LINE
  5
C0
330
1E
100
AcDbEntity
  8
0
100
AcDbLine
 10
117.7
 20
19.79044
 30
0.0
 11
118.5
 21
20.80338476190479
 31
0.0
  0
LINE
  5
C1
330
1E
100
AcDbEntity
  8
0
100
AcDbLine
 10
116.5
 20
16.63905
 30
0.0
 11
117.7
 21
19.79044
 31
0.0
  0
LINE
  5
C2
330
1E
100
AcDbEntity
  8
0
100
AcDbLine
 10
118.5
 20
13.910132
 30
0.0
 11
118.9
 21
11.25115
 31
0.0
  0
LINE
  5
C3
330
1E
100
AcDbEntity
  8
0
100
AcDbLine
 10
118.5
 20
13.910132
 30
0.0
 11
118.5
 21
14.922225
 31
0.0
  0
LINE
  5
C4
330
1E
100
AcDbEntity
  8
0
100
AcDbLine
 10
116.0
 20
13.389187
 30
0.0
 11
116.0
 21
13.302363
 31
0.0
  0
LINE
  5
C5
330
1E
100
AcDbEntity
  8
0
100
AcDbLine
 10
116.0
 20
13.389187
 30
0.0
 11
116.5
 21
16.63905
 31
0.0
  0
LINE
  5
C6
330
1E
100
AcDbEntity
  8
0
100
AcDbLine
 10
116.0
 20
13.302363
 30
0.0
 11
116.5
 21
10.05249999999999
 31
0.0
  0
LINE
  5
C7
330
1E
100
AcDbEntity
  8
0
100
AcDbLine
 10
116.0
 20
13.302363
 30
0.0
 11
116.0
 21
13.389187
 31
0.0
  0
LINE
  5
C8
330
1E
100
AcDbEntity
  8
0
100
AcDbLine
 10
122.5
 20
2.174049999999999
 30
0.0
 11
125.7
 21
0.992249999999996
 31
0.0
  0
LINE
  5
C9
330
1E
100
AcDbEntity
  8
0
100
AcDbLine
 10
129.0
 20
0.185349999999997
 30
0.0
 11
132.0999999999999
 21
0.5792499999999951
 31
0.0
  0
LINE
  5
CA
330
1E
100
AcDbEntity
  8
0
100
AcDbLine
 10
129.0
 20
0.185349999999997
 30
0.0
 11
132.0999999999999
 21
0.5792499999999951
 31
0.0
  0
LINE
  5
CB
330
1E
100
AcDbEntity
  8
0
100
AcDbLine
 10
132.0999999999999
 20
0.5792499999999951
 30
0.0
 11
135.0
 21
1.761049999999989
 31
0.0
  0
LINE
  5
CC
330
1E
100
AcDbEntity
  8
0
100
AcDbLine
 10
129.0
 20
0.4998499999999961
 30
0.0
 11
132.3
 21
0.992249999999996
 31
0.0
  0
LINE
  5
CD
330
1E
100
AcDbEntity
  8
0
100
AcDbLine
 10
132.0999999999999
 20
0.579249999999996
 30
0.0
 11
135.0
 21
1.761049999999989
 31
0.0
  0
LINE
  5
CE
330
1E
100
AcDbEntity
  8
0
100
AcDbLine
 10
135.0
 20
1.761049999999989
 30
0.0
 11
137.5
 21
3.63215
 31
0.0
  0
LINE
  5
CF
330
1E
100
AcDbEntity
  8
0
100
AcDbLine
 10
132.3
 20
0.992249999999996
 30
0.0
 11
135.4999999999999
 21
2.174049999999999
 31
0.0
  0
LINE
  5
D0
330
1E
100
AcDbEntity
  8
0
100
AcDbLine
 10
137.5
 20
3.63215
 30
0.0
 11
137.639305750389
 21
3.81266312454261
 31
0.0
  0
LINE
  5
D1
330
1E
100
AcDbEntity
  8
0
100
AcDbLine
 10
129.0
 20
3.56965
 30
0.0
 11
131.6999999999999
 21
3.96355
 31
0.0
  0
LINE
  5
D2
330
1E
100
AcDbEntity
  8
0
100
AcDbLine
 10
135.4999999999999
 20
2.174049999999999
 30
0.0
 11
138.1999999999999
 21
4.24213
 31
0.0
  0
LINE
  5
D3
330
1E
100
AcDbEntity
  8
0
100
AcDbLine
 10
125.7
 20
0.992249999999996
 30
0.0
 11
129.0
 21
0.4998499999999961
 31
0.0
  0
LINE
  5
D4
330
1E
100
AcDbEntity
  8
0
100
AcDbLine
 10
125.9
 20
0.5792499999999951
 30
0.0
 11
129.0
 21
0.185349999999997
 31
0.0
  0
LINE
  5
D5
330
1E
100
AcDbEntity
  8
0
100
AcDbLine
 10
125.9
 20
0.5792499999999951
 30
0.0
 11
129.0
 21
0.185349999999997
 31
0.0
  0
LINE
  5
D6
330
1E
100
AcDbEntity
  8
0
100
AcDbLine
 10
123.0
 20
1.761049999999989
 30
0.0
 11
125.9
 21
0.5792499999999951
 31
0.0
  0
LINE
  5
D7
330
1E
100
AcDbEntity
  8
0
100
AcDbLine
 10
123.0
 20
1.761049999999989
 30
0.0
 11
125.9
 21
0.579249999999996
 31
0.0
  0
LINE
  5
D8
330
1E
100
AcDbEntity
  8
0
100
AcDbLine
 10
131.6999999999999
 20
3.96355
 30
0.0
 11
134.1999999999999
 21
4.94838
 31
0.0
  0
LINE
  5
D9
330
1E
100
AcDbEntity
  8
0
100
AcDbLine
 10
134.1999999999999
 20
4.94838
 30
0.0
 11
136.4
 21
6.62255
 31
0.0
  0
LINE
  5
DA
330
1E
100
AcDbEntity
  8
0
100
AcDbLine
 10
138.1999999999999
 20
4.24213
 30
0.0
 11
140.3
 21
6.90111
 31
0.0
  0
LINE
  5
DB
330
1E
100
AcDbEntity
  8
0
100
AcDbLine
 10
126.2999999999999
 20
3.96355
 30
0.0
 11
129.0
 21
3.56965
 31
0.0
  0
LINE
  5
DC
330
1E
100
AcDbEntity
  8
0
100
AcDbLine
 10
136.4
 20
6.62255
 30
0.0
 11
138.1
 21
8.78913
 31
0.0
  0
LINE
  5
DD
330
1E
100
AcDbEntity
  8
0
100
AcDbLine
 10
138.1
 20
8.78913
 30
0.0
 11
139.1
 21
11.25115
 31
0.0
  0
LINE
  5
DE
330
1E
100
AcDbEntity
  8
0
100
AcDbLine
 10
139.5
 20
17.15513999999999
 30
0.0
 11
139.5
 21
14.922225
 31
0.0
  0
LINE
  5
DF
330
1E
100
AcDbEntity
  8
0
100
AcDbLine
 10
139.5
 20
17.15513999999999
 30
0.0
 11
139.5
 21
20.83419
 31
0.0
  0
LINE
  5
E0
330
1E
100
AcDbEntity
  8
0
100
AcDbLine
 10
139.5
 20
20.80338476190479
 30
0.0
 11
140.3
 21
19.79044
 31
0.0
  0
LINE
  5
E1
330
1E
100
AcDbEntity
  8
0
100
AcDbLine
 10
139.5
 20
13.910132
 30
0.0
 11
139.5
 21
14.922225
 31
0.0
  0
LINE
  5
E2
330
1E
100
AcDbEntity
  8
0
100
AcDbLine
 10
139.1
 20
11.25115
 30
0.0
 11
139.5
 21
13.910132
 31
0.0
  0
LINE
  5
E3
330
1E
100
AcDbEntity
  8
0
100
AcDbLine
 10
139.5
 20
14.922225
 30
0.0
 11
139.5
 21
17.15513999999999
 31
0.0
  0
LINE
  5
E4
330
1E
100
AcDbEntity
  8
0
100
AcDbLine
 10
139.5
 20
14.922225
 30
0.0
 11
139.5
 21
13.910132
 31
0.0
  0
LINE
  5
E5
330
1E
100
AcDbEntity
  8
0
100
AcDbLine
 10
139.5
 20
25.89645
 30
0.0
 11
139.5
 21
20.83419
 31
0.0
  0
LINE
  5
E6
330
1E
100
AcDbEntity
  8
0
100
AcDbLine
 10
139.5
 20
25.89645
 30
0.0
 11
139.5
 21
32.25524999999999
 31
0.0
  0
LINE
  5
E7
330
1E
100
AcDbEntity
  8
0
100
AcDbLine
 10
139.5
 20
20.83419
 30
0.0
 11
139.5
 21
25.89645
 31
0.0
  0
LINE
  5
E8
330
1E
100
AcDbEntity
  8
0
100
AcDbLine
 10
139.5
 20
20.83419
 30
0.0
 11
139.5
 21
17.15513999999999
 31
0.0
  0
LINE
  5
E9
330
1E
100
AcDbEntity
  8
0
100
AcDbLine
 10
139.5
 20
32.25524999999999
 30
0.0
 11
139.5
 21
25.89645
 31
0.0
  0
LINE
  5
EA
330
1E
100
AcDbEntity
  8
0
100
AcDbLine
 10
139.5
 20
32.25524999999999
 30
0.0
 11
139.5
 21
39.80185
 31
0.0
  0
LINE
  5
EB
330
1E
100
AcDbEntity
  8
0
100
AcDbLine
 10
139.5
 20
57.92365
 30
0.0
 11
139.5
 21
68.18885
 31
0.0
  0
LINE
  5
EC
330
1E
100
AcDbEntity
  8
0
100
AcDbLine
 10
139.5
 20
57.92365
 30
0.0
 11
139.5
 21
48.40704999999999
 31
0.0
  0
LINE
  5
ED
330
1E
100
AcDbEntity
  8
0
100
AcDbLine
 10
139.5
 20
90.25265
 30
0.0
 11
139.5
 21
101.6736499999999
 31
0.0
  0
LINE
  5
EE
330
1E
100
AcDbEntity
  8
0
100
AcDbLine
 10
139.5
 20
90.25265
 30
0.0
 11
139.5
 21
79.02695
 31
0.0
  0
LINE
  5
EF
330
1E
100
AcDbEntity
  8
0
100
AcDbLine
 10
139.5
 20
79.02695
 30
0.0
 11
139.5
 21
68.18885
 31
0.0
  0
LINE
  5
F0
330
1E
100
AcDbEntity
  8
0
100
AcDbLine
 10
139.5
 20
79.02695
 30
0.0
 11
139.5
 21
90.25265
 31
0.0
  0
LINE
  5
F1
330
1E
100
AcDbEntity
  8
0
100
AcDbLine
 10
139.5
 20
68.18885
 30
0.0
 11
139.5
 21
79.02695
 31
0.0
  0
LINE
  5
F2
330
1E
100
AcDbEntity
  8
0
100
AcDbLine
 10
139.5
 20
68.18885
 30
0.0
 11
139.5
 21
57.92365
 31
0.0
  0
LINE
  5
F3
330
1E
100
AcDbEntity
  8
0
100
AcDbLine
 10
139.5
 20
48.40704999999999
 30
0.0
 11
139.5
 21
39.80185
 31
0.0
  0
LINE
  5
F4
330
1E
100
AcDbEntity
  8
0
100
AcDbLine
 10
139.5
 20
48.40704999999999
 30
0.0
 11
139.5
 21
57.92365
 31
0.0
  0
LINE
  5
F5
330
1E
100
AcDbEntity
  8
0
100
AcDbLine
 10
139.5
 20
39.80185
 30
0.0
 11
139.5
 21
32.25524999999999
 31
0.0
  0
LINE
  5
F6
330
1E
100
AcDbEntity
  8
0
100
AcDbLine
 10
139.5
 20
39.80185
 30
0.0
 11
139.5
 21
48.40704999999999
 31
0.0
  0
LINE
  5
F7
330
1E
100
AcDbEntity
  8
0
100
AcDbLine
 10
139.5
 20
124.32065
 30
0.0
 11
139.5
 21
135.15865
 31
0.0
  0
LINE
  5
F8
330
1E
100
AcDbEntity
  8
0
100
AcDbLine
 10
139.5
 20
124.32065
 30
0.0
 11
139.5
 21
113.09465
 31
0.0
  0
LINE
  5
F9
330
1E
100
AcDbEntity
  8
0
100
AcDbLine
 10
139.5
 20
135.15865
 30
0.0
 11
139.5
 21
145.42365
 31
0.0
  0
LINE
  5
FA
330
1E
100
AcDbEntity
  8
0
100
AcDbLine
 10
139.5
 20
135.15865
 30
0.0
 11
139.5
 21
124.32065
 31
0.0
  0
LINE
  5
FB
330
1E
100
AcDbEntity
  8
0
100
AcDbLine
 10
139.5
 20
145.42365
 30
0.0
 11
139.5
 21
135.15865
 31
0.0
  0
LINE
  5
FC
330
1E
100
AcDbEntity
  8
0
100
AcDbLine
 10
139.5
 20
145.42365
 30
0.0
 11
139.5
 21
154.94065
 31
0.0
  0
LINE
  5
FD
330
1E
100
AcDbEntity
  8
0
100
AcDbLine
 10
139.5
 20
154.94065
 30
0.0
 11
139.5
 21
145.42365
 31
0.0
  0
LINE
  5
FE
330
1E
100
AcDbEntity
  8
0
100
AcDbLine
 10
139.5
 20
154.94065
 30
0.0
 11
139.5
 21
163.54565
 31
0.0
  0
LINE
  5
FF
330
1E
100
AcDbEntity
  8
0
100
AcDbLine
 10
139.5
 20
113.09465
 30
0.0
 11
139.5
 21
101.6736499999999
 31
0.0
  0
LINE
  5
100
330
1E
100
AcDbEntity
  8
0
100
AcDbLine
 10
139.5
 20
113.09465
 30
0.0
 11
139.5
 21
124.32065
 31
0.0
  0
LINE
  5
101
330
1E
100
AcDbEntity
  8
0
100
AcDbLine
 10
140.3
 20
6.90111
 30
0.0
 11
141.5
 21
10.05249999999999
 31
0.0
  0
LINE
  5
102
330
1E
100
AcDbEntity
  8
0
100
AcDbLine
 10
140.3
 20
19.79044
 30
0.0
 11
141.5
 21
16.63905
 31
0.0
  0
LINE
  5
103
330
1E
100
AcDbEntity
  8
0
100
AcDbLine
 10
141.5
 20
16.63905
 30
0.0
 11
142.0
 21
13.389187
 31
0.0
  0
LINE
  5
104
330
1E
100
AcDbEntity
  8
0
100
AcDbLine
 10
142.0
 20
13.389187
 30
0.0
 11
142.0
 21
13.302363
 31
0.0
  0
LINE
  5
105
330
1E
100
AcDbEntity
  8
0
100
AcDbLine
 10
142.0
 20
13.302363
 30
0.0
 11
142.0
 21
13.389187
 31
0.0
  0
LINE
  5
106
330
1E
100
AcDbEntity
  8
0
100
AcDbLine
 10
141.5
 20
10.05249999999999
 30
0.0
 11
142.0
 21
13.302363
 31
0.0
  0
LINE
  5
107
330
1E
100
AcDbEntity
  8
0
100
AcDbLine
 10
139.5
 20
101.6736499999999
 30
0.0
 11
139.5
 21
113.09465
 31
0.0
  0
LINE
  5
108
330
1E
100
AcDbEntity
  8
0
100
AcDbLine
 10
139.5
 20
101.6736499999999
 30
0.0
 11
139.5
 21
90.25265
 31
0.0
  0
LINE
  5
109
330
1E
100
AcDbEntity
  8
0
100
AcDbLine
 10
123.7999999999999
 20
4.94838
 30
0.0
 11
126.2999999999999
 21
3.96355
 31
0.0
  0
LINE
  5
10A
330
1E
100
AcDbEntity
  8
0
100
AcDbLine
 10
121.5999999999999
 20
6.62255
 30
0.0
 11
123.7999999999999
 21
4.94838
 31
0.0
  0
LINE
  5
10B
330
1E
100
AcDbEntity
  8
0
100
AcDbLine
 10
120.5
 20
3.63215
 30
0.0
 11
123.0
 21
1.761049999999989
 31
0.0
  0
LINE
  5
10C
330
1E
100
AcDbEntity
  8
0
100
AcDbLine
 10
120.3606942496109
 20
3.81266312454266
 30
0.0
 11
120.5
 21
3.63215
 31
0.0
  0
LINE
  5
111
330
1E
100
AcDbEntity
  8
0
100
AcDbLine
 10
139.5
 20
163.54565
 30
0.0
 11
139.5
 21
171.0916499999999
 31
0.0
  0
LINE
  5
112
330
1E
100
AcDbEntity
  8
0
100
AcDbLine
 10
139.5
 20
163.54565
 30
0.0
 11
139.5
 21
154.94065
 31
0.0
  0
LINE
  5
113
330
1E
100
AcDbEntity
  8
0
100
AcDbLine
 10
118.5
 20
163.54565
 30
0.0
 11
118.5
 21
171.0916499999999
 31
0.0
  0
LINE
  5
114
330
1E
100
AcDbEntity
  8
0
100
AcDbLine
 10
118.5
 20
163.54565
 30
0.0
 11
118.5
 21
154.94065
 31
0.0
  0
LINE
  5
13E
330
1E
100
AcDbEntity
  8
0
100
AcDbLine
 10
141.4
 20
167.4736499999999
 30
0.0
 11
146.6
 21
171.57365
 31
0.0
  0
LINE
  5
13F
330
1E
100
AcDbEntity
  8
0
100
AcDbLine
 10
139.5
 20
166.7136499999999
 30
0.0
 11
141.4
 21
167.4736499999999
 31
0.0
  0
LINE
  5
140
330
1E
100
AcDbEntity
  8
0
100
AcDbLine
 10
116.5999999999999
 20
167.4736499999999
 30
0.0
 11
118.5
 21
166.7136499999999
 31
0.0
  0
LINE
  5
14A
330
1E
100
AcDbEntity
  8
0
100
AcDbLine
 10
139.5
 20
171.0916499999999
 30
0.0
 11
139.5
 21
177.45065
 31
0.0
  0
LINE
  5
14B
330
1E
100
AcDbEntity
  8
0
100
AcDbLine
 10
139.5
 20
171.0916499999999
 30
0.0
 11
139.5
 21
163.54565
 31
0.0
  0
LINE
  5
14C
330
1E
100
AcDbEntity
  8
0
100
AcDbLine
 10
118.5
 20
171.0916499999999
 30
0.0
 11
118.5
 21
177.45065
 31
0.0
  0
LINE
  5
14D
330
1E
100
AcDbEntity
  8
0
100
AcDbLine
 10
118.5
 20
171.0916499999999
 30
0.0
 11
118.5
 21
163.54565
 31
0.0
  0
LINE
  5
14E
330
1E
100
AcDbEntity
  8
0
100
AcDbLine
 10
146.6
 20
171.57365
 30
0.0
 11
150.6999999999999
 21
176.7736499999999
 31
0.0
  0
LINE
  5
14F
330
1E
100
AcDbEntity
  8
0
100
AcDbLine
 10
111.4
 20
171.57365
 30
0.0
 11
116.5999999999999
 21
167.4736499999999
 31
0.0
  0
LINE
  5
157
330
1E
100
AcDbEntity
  8
0
100
AcDbLine
 10
46.6
 20
171.57365
 30
0.0
 11
50.7
 21
176.7736499999999
 31
0.0
  0
LINE
  5
158
330
1E
100
AcDbEntity
  8
0
100
AcDbLine
 10
41.39999999999999
 20
167.4736499999999
 30
0.0
 11
46.6
 21
171.57365
 31
0.0
  0
LINE
  5
159
330
1E
100
AcDbEntity
  8
0
100
AcDbLine
 10
35.4
 20
165.0736499999999
 30
0.0
 11
41.39999999999999
 21
167.4736499999999
 31
0.0
  0
LINE
  5
15A
330
1E
100
AcDbEntity
  8
0
100
AcDbLine
 10
32.2296
 20
173.05965
 30
0.0
 11
33.7508
 21
175.78065
 31
0.0
  0
LINE
  5
160
330
1E
100
AcDbEntity
  8
0
100
AcDbLine
 10
33.2
 20
173.27365
 30
0.0
 11
37.2
 21
174.8736499999999
 31
0.0
  0
LINE
  5
161
330
1E
100
AcDbEntity
  8
0
100
AcDbLine
 10
32.2753944926908
 20
173.1415634989559
 30
0.0
 11
33.2
 21
173.27365
 31
0.0
  0
LINE
  5
162
330
1E
100
AcDbEntity
  8
0
100
AcDbLine
 10
33.39999999999999
 20
172.7736499999999
 30
0.0
 11
37.5
 21
174.4736499999999
 31
0.0
  0
LINE
  5
163
330
1E
100
AcDbEntity
  8
0
100
AcDbLine
 10
32.079475217122
 20
172.593578438698
 30
0.0
 11
33.39999999999999
 21
172.7736499999999
 31
0.0
  0
LINE
  5
164
330
1E
100
AcDbEntity
  8
0
100
AcDbLine
 10
31.1464
 20
173.71565
 30
0.0
 11
32.9902
 21
176.46965
 31
0.0
  0
LINE
  5
165
330
1E
100
AcDbEntity
  8
0
100
AcDbLine
 10
26.8536
 20
173.71565
 30
0.0
 11
27.9
 21
170.17165
 31
0.0
  0
LINE
  5
166
330
1E
100
AcDbEntity
  8
0
100
AcDbLine
 10
33.15849999999999
 20
173.67365
 30
0.0
 11
44.5
 21
185.0156499999999
 31
0.0
  0
LINE
  5
167
330
1E
100
AcDbEntity
  8
0
100
AcDbLine
 10
32.64925348293479
 20
173.8102923396439
 30
0.0
 11
33.15849999999999
 21
173.67365
 31
0.0
  0
LINE
  5
168
330
1E
100
AcDbEntity
  8
0
100
AcDbLine
 10
32.9902
 20
176.46965
 30
0.0
 11
35.0
 21
178.75165
 31
0.0
  0
LINE
  5
169
330
1E
100
AcDbEntity
  8
0
100
AcDbLine
 10
33.7508
 20
175.78065
 30
0.0
 11
35.6
 21
177.77365
 31
0.0
  0
LINE
  5
16A
330
1E
100
AcDbEntity
  8
0
100
AcDbLine
 10
25.0098
 20
176.46965
 30
0.0
 11
26.8536
 21
173.71565
 31
0.0
  0
LINE
  5
16B
330
1E
100
AcDbEntity
  8
0
100
AcDbLine
 10
37.2
 20
174.8736499999999
 30
0.0
 11
40.7
 21
177.4736499999999
 31
0.0
  0
LINE
  5
16D
330
1E
100
AcDbEntity
  8
0
100
AcDbLine
 10
37.5
 20
174.4736499999999
 30
0.0
 11
41.0
 21
177.17365
 31
0.0
  0
LINE
  5
16E
330
1E
100
AcDbEntity
  8
0
100
AcDbLine
 10
35.6
 20
177.77365
 30
0.0
 11
38.3
 21
179.8736499999999
 31
0.0
  0
LINE
  5
16F
330
1E
100
AcDbEntity
  8
0
100
AcDbLine
 10
35.0
 20
178.75165
 30
0.0
 11
37.5
 21
180.67365
 31
0.0
  0
LINE
  5
170
330
1E
100
AcDbEntity
  8
0
100
AcDbLine
 10
38.3
 20
179.8736499999999
 30
0.0
 11
40.4
 21
182.5736499999999
 31
0.0
  0
LINE
  5
171
330
1E
100
AcDbEntity
  8
0
100
AcDbLine
 10
37.5
 20
180.67365
 30
0.0
 11
39.4223
 21
183.17365
 31
0.0
  0
LINE
  5
172
330
1E
100
AcDbEntity
  8
0
100
AcDbLine
 10
34.2
 20
180.07365
 30
0.0
 11
36.4
 21
181.77365
 31
0.0
  0
LINE
  5
173
330
1E
100
AcDbEntity
  8
0
100
AcDbLine
 10
31.69999999999999
 20
179.0736499999999
 30
0.0
 11
34.2
 21
180.07365
 31
0.0
  0
LINE
  5
174
330
1E
100
AcDbEntity
  8
0
100
AcDbLine
 10
29.0
 20
178.67365
 30
0.0
 11
31.69999999999999
 21
179.0736499999999
 31
0.0
  0
LINE
  5
175
330
1E
100
AcDbEntity
  8
0
100
AcDbLine
 10
26.3
 20
179.0736499999999
 30
0.0
 11
29.0
 21
178.67365
 31
0.0
  0
LINE
  5
176
330
1E
100
AcDbEntity
  8
0
100
AcDbLine
 10
40.7
 20
177.4736499999999
 30
0.0
 11
43.3
 21
180.9736499999999
 31
0.0
  0
LINE
  5
177
330
1E
100
AcDbEntity
  8
0
100
AcDbLine
 10
43.3
 20
180.9736499999999
 30
0.0
 11
44.9
 21
184.9736499999999
 31
0.0
  0
LINE
  5
178
330
1E
100
AcDbEntity
  8
0
100
AcDbLine
 10
41.0
 20
177.17365
 30
0.0
 11
43.7
 21
180.67365
 31
0.0
  0
LINE
  5
179
330
1E
100
AcDbEntity
  8
0
100
AcDbLine
 10
139.5
 20
175.335812162162
 30
0.0
 11
141.4
 21
176.7736499999999
 31
0.0
  0
LINE
  5
17D
330
1E
100
AcDbEntity
  8
0
100
AcDbLine
 10
139.5
 20
176.582221428571
 30
0.0
 11
140.6999999999999
 21
177.4736499999999
 31
0.0
  0
LINE
  5
17E
330
1E
100
AcDbEntity
  8
0
100
AcDbLine
 10
139.5
 20
176.016507142857
 30
0.0
 11
141.0
 21
177.17365
 31
0.0
  0
LINE
  5
17F
330
1E
100
AcDbEntity
  8
0
100
AcDbLine
 10
141.4
 20
176.7736499999999
 30
0.0
 11
144.1999999999999
 21
180.4736499999999
 31
0.0
  0
LINE
  5
180
330
1E
100
AcDbEntity
  8
0
100
AcDbLine
 10
150.6999999999999
 20
176.7736499999999
 30
0.0
 11
153.0999999999999
 21
182.77365
 31
0.0
  0
LINE
  5
181
330
1E
100
AcDbEntity
  8
0
100
AcDbLine
 10
107.2999999999999
 20
176.7736499999999
 30
0.0
 11
111.4
 21
171.57365
 31
0.0
  0
LINE
  5
182
330
1E
100
AcDbEntity
  8
0
100
AcDbLine
 10
116.5999999999999
 20
176.7736499999999
 30
0.0
 11
118.5
 21
175.335812162162
 31
0.0
  0
LINE
  5
192
330
1E
100
AcDbEntity
  8
0
100
AcDbLine
 10
141.0
 20
177.17365
 30
0.0
 11
143.6999999999999
 21
180.67365
 31
0.0
  0
LINE
  5
193
330
1E
100
AcDbEntity
  8
0
100
AcDbLine
 10
139.5
 20
177.45065
 30
0.0
 11
139.5
 21
171.0916499999999
 31
0.0
  0
LINE
  5
194
330
1E
100
AcDbEntity
  8
0
100
AcDbLine
 10
139.5
 20
177.45065
 30
0.0
 11
139.5
 21
182.51265
 31
0.0
  0
LINE
  5
195
330
1E
100
AcDbEntity
  8
0
100
AcDbLine
 10
118.5
 20
177.45065
 30
0.0
 11
118.5
 21
171.0916499999999
 31
0.0
  0
LINE
  5
196
330
1E
100
AcDbEntity
  8
0
100
AcDbLine
 10
118.5
 20
177.45065
 30
0.0
 11
118.5
 21
182.51265
 31
0.0
  0
LINE
  5
197
330
1E
100
AcDbEntity
  8
0
100
AcDbLine
 10
140.6999999999999
 20
177.4736499999999
 30
0.0
 11
143.3
 21
180.9736499999999
 31
0.0
  0
LINE
  5
198
330
1E
100
AcDbEntity
  8
0
100
AcDbLine
 10
117.3
 20
177.4736499999999
 30
0.0
 11
118.5
 21
176.582221428571
 31
0.0
  0
LINE
  5
199
330
1E
100
AcDbEntity
  8
0
100
AcDbLine
 10
117.0
 20
177.17365
 30
0.0
 11
118.5
 21
176.016507142857
 31
0.0
  0
LINE
  5
1A1
330
1E
100
AcDbEntity
  8
0
100
AcDbLine
 10
113.7999999999999
 20
180.4736499999999
 30
0.0
 11
116.5999999999999
 21
176.7736499999999
 31
0.0
  0
LINE
  5
1A2
330
1E
100
AcDbEntity
  8
0
100
AcDbLine
 10
143.6999999999999
 20
180.67365
 30
0.0
 11
145.4
 21
184.77365
 31
0.0
  0
LINE
  5
1A3
330
1E
100
AcDbEntity
  8
0
100
AcDbLine
 10
114.3
 20
180.67365
 30
0.0
 11
117.0
 21
177.17365
 31
0.0
  0
LINE
  5
1AE
330
1E
100
AcDbEntity
  8
0
100
AcDbLine
 10
143.3
 20
180.9736499999999
 30
0.0
 11
144.9
 21
184.9736499999999
 31
0.0
  0
LINE
  5
1AF
330
1E
100
AcDbEntity
  8
0
100
AcDbLine
 10
114.7
 20
180.9736499999999
 30
0.0
 11
117.3
 21
177.4736499999999
 31
0.0
  0
LINE
  5
1B8
330
1E
100
AcDbEntity
  8
0
100
AcDbLine
 10
50.7
 20
176.7736499999999
 30
0.0
 11
53.1
 21
182.77365
 31
0.0
  0
LINE
  5
1B9
330
1E
100
AcDbEntity
  8
0
100
AcDbLine
 10
43.7
 20
180.67365
 30
0.0
 11
45.4
 21
184.77365
 31
0.0
  0
LINE
  5
1BA
330
1E
100
AcDbEntity
  8
0
100
AcDbLine
 10
24.8
 20
173.27365
 30
0.0
 11
25.72460550730919
 21
173.1415634989559
 31
0.0
  0
LINE
  5
1BB
330
1E
100
AcDbEntity
  8
0
100
AcDbLine
 10
24.6
 20
172.7736499999999
 30
0.0
 11
25.92052478287799
 21
172.593578438698
 31
0.0
  0
LINE
  5
1BC
330
1E
100
AcDbEntity
  8
0
100
AcDbLine
 10
18.5777
 20
183.17365
 30
0.0
 11
20.5
 21
180.67365
 31
0.0
  0
LINE
  5
1BD
330
1E
100
AcDbEntity
  8
0
100
AcDbLine
 10
17.6
 20
182.5736499999999
 30
0.0
 11
19.69999999999999
 21
179.8736499999999
 31
0.0
  0
LINE
  5
1BE
330
1E
100
AcDbEntity
  8
0
100
AcDbLine
 10
36.4
 20
181.77365
 30
0.0
 11
38.1
 21
183.9736499999999
 31
0.0
  0
LINE
  5
1C1
330
1E
100
AcDbEntity
  8
0
100
AcDbLine
 10
39.4223
 20
183.17365
 30
0.0
 11
41.70399999999999
 21
185.18365
 31
0.0
  0
LINE
  5
1C2
330
1E
100
AcDbEntity
  8
0
100
AcDbLine
 10
40.4
 20
182.5736499999999
 30
0.0
 11
42.39279999999999
 21
184.4226499999999
 31
0.0
  0
LINE
  5
1C3
330
1E
100
AcDbEntity
  8
0
100
AcDbLine
 10
38.1
 20
183.9736499999999
 30
0.0
 11
39.1
 21
186.47365
 31
0.0
  0
LINE
  5
1C4
330
1E
100
AcDbEntity
  8
0
100
AcDbLine
 10
21.6
 20
181.77365
 30
0.0
 11
23.8
 21
180.07365
 31
0.0
  0
LINE
  5
1C5
330
1E
100
AcDbEntity
  8
0
100
AcDbLine
 10
19.9
 20
183.9736499999999
 30
0.0
 11
21.6
 21
181.77365
 31
0.0
  0
LINE
  5
1C6
330
1E
100
AcDbEntity
  8
0
100
AcDbLine
 10
42.39279999999999
 20
184.4226499999999
 30
0.0
 11
45.1139
 21
185.9436499999999
 31
0.0
  0
LINE
  5
1C7
330
1E
100
AcDbEntity
  8
0
100
AcDbLine
 10
15.6072
 20
184.4226499999999
 30
0.0
 11
17.6
 21
182.5736499999999
 31
0.0
  0
LINE
  5
1C8
330
1E
100
AcDbEntity
  8
0
100
AcDbLine
 10
15.9842074212584
 20
184.0728473495049
 30
0.0
 11
17.6585
 21
177.83265
 31
0.0
  0
LINE
  5
1CA
330
1E
100
AcDbEntity
  8
0
100
AcDbLine
 10
139.5
 20
182.523161387164
 30
0.0
 11
139.7959999999999
 21
182.92365
 31
0.0
  0
LINE
  5
1CB
330
1E
100
AcDbEntity
  8
0
100
AcDbLine
 10
139.5
 20
182.51265
 30
0.0
 11
139.5
 21
177.45065
 31
0.0
  0
LINE
  5
1CC
330
1E
100
AcDbEntity
  8
0
100
AcDbLine
 10
139.5
 20
182.51265
 30
0.0
 11
139.5
 21
186.1926499999999
 31
0.0
  0
LINE
  5
1CD
330
1E
100
AcDbEntity
  8
0
100
AcDbLine
 10
118.5
 20
182.51265
 30
0.0
 11
118.5
 21
177.45065
 31
0.0
  0
LINE
  5
1CE
330
1E
100
AcDbEntity
  8
0
100
AcDbLine
 10
118.5
 20
182.51265
 30
0.0
 11
118.5
 21
186.1926499999999
 31
0.0
  0
LINE
  5
1CF
330
1E
100
AcDbEntity
  8
0
100
AcDbLine
 10
153.0999999999999
 20
182.77365
 30
0.0
 11
154.0
 21
189.17365
 31
0.0
  0
LINE
  5
1D0
330
1E
100
AcDbEntity
  8
0
100
AcDbLine
 10
104.9
 20
182.77365
 30
0.0
 11
107.2999999999999
 21
176.7736499999999
 31
0.0
  0
LINE
  5
1D8
330
1E
100
AcDbEntity
  8
0
100
AcDbLine
 10
139.7959999999999
 20
182.92365
 30
0.0
 11
141.046
 21
185.9916499999999
 31
0.0
  0
LINE
  5
1D9
330
1E
100
AcDbEntity
  8
0
100
AcDbLine
 10
118.2045999999999
 20
182.92365
 30
0.0
 11
118.5
 21
182.523931809711
 31
0.0
  0
LINE
  5
1DA
330
1E
100
AcDbEntity
  8
0
100
AcDbLine
 10
139.5
 20
183.662289964789
 30
0.0
 11
140.477
 21
186.10565
 31
0.0
  0
LINE
  5
1E0
330
1E
100
AcDbEntity
  8
0
100
AcDbLine
 10
145.9
 20
184.67365
 30
0.0
 11
146.5
 21
189.17365
 31
0.0
  0
LINE
  5
1E1
330
1E
100
AcDbEntity
  8
0
100
AcDbLine
 10
145.4
 20
184.77365
 30
0.0
 11
146.0
 21
189.17365
 31
0.0
  0
LINE
  5
1E2
330
1E
100
AcDbEntity
  8
0
100
AcDbLine
 10
112.5999999999999
 20
184.77365
 30
0.0
 11
114.3
 21
180.67365
 31
0.0
  0
LINE
  5
1E3
330
1E
100
AcDbEntity
  8
0
100
AcDbLine
 10
112.0999999999999
 20
184.67365
 30
0.0
 11
113.7999999999999
 21
180.4736499999999
 31
0.0
  0
LINE
  5
1EA
330
1E
100
AcDbEntity
  8
0
100
AcDbLine
 10
53.1
 20
182.77365
 30
0.0
 11
53.7350157728707
 21
187.2893177181909
 31
0.0
  0
LINE
  5
1EB
330
1E
100
AcDbEntity
  8
0
100
AcDbLine
 10
45.4
 20
184.77365
 30
0.0
 11
45.5800275763456
 21
186.093852226535
 31
0.0
  0
LINE
  5
1EC
330
1E
100
AcDbEntity
  8
0
100
AcDbLine
 10
14.69999999999999
 20
180.9736499999999
 30
0.0
 11
17.3
 21
177.4736499999999
 31
0.0
  0
LINE
  5
1ED
330
1E
100
AcDbEntity
  8
0
100
AcDbLine
 10
14.3
 20
180.67365
 30
0.0
 11
17.0
 21
177.17365
 31
0.0
  0
LINE
  5
1EE
330
1E
100
AcDbEntity
  8
0
100
AcDbLine
 10
12.8861
 20
192.4036499999999
 30
0.0
 11
15.6072
 21
193.92465
 31
0.0
  0
LINE
  5
1EF
330
1E
100
AcDbEntity
  8
0
100
AcDbLine
 10
12.8861
 20
185.9436499999999
 30
0.0
 11
15.6072
 21
184.4226499999999
 31
0.0
  0
LINE
  5
1F0
330
1E
100
AcDbEntity
  8
0
100
AcDbLine
 10
12.96796572657719
 20
192.44941008604
 30
0.0
 11
13.1
 21
193.37365
 31
0.0
  0
LINE
  5
1F1
330
1E
100
AcDbEntity
  8
0
100
AcDbLine
 10
12.6
 20
193.5736499999999
 30
0.0
 11
14.3
 21
197.67365
 31
0.0
  0
LINE
  5
1F2
330
1E
100
AcDbEntity
  8
0
100
AcDbLine
 10
144.9
 20
184.9736499999999
 30
0.0
 11
145.5
 21
189.17365
 31
0.0
  0
LINE
  5
1F3
330
1E
100
AcDbEntity
  8
0
100
AcDbLine
 10
113.1
 20
184.9736499999999
 30
0.0
 11
114.7
 21
180.9736499999999
 31
0.0
  0
LINE
  5
1F6
330
1E
100
AcDbEntity
  8
0
100
AcDbLine
 10
44.9
 20
184.9736499999999
 30
0.0
 11
45.03203427342279
 21
185.89788991396
 31
0.0
  0
LINE
  5
1F7
330
1E
100
AcDbEntity
  8
0
100
AcDbLine
 10
13.5421
 20
191.3196499999999
 30
0.0
 11
16.29599999999999
 21
193.1636499999999
 31
0.0
  0
LINE
  5
1F8
330
1E
100
AcDbEntity
  8
0
100
AcDbLine
 10
41.70399999999999
 20
185.18365
 30
0.0
 11
44.4579
 21
187.0276499999999
 31
0.0
  0
LINE
  5
1F9
330
1E
100
AcDbEntity
  8
0
100
AcDbLine
 10
16.29599999999999
 20
193.1636499999999
 30
0.0
 11
18.5777
 21
195.17365
 31
0.0
  0
LINE
  5
1FA
330
1E
100
AcDbEntity
  8
0
100
AcDbLine
 10
39.1
 20
186.47365
 30
0.0
 11
39.5
 21
189.17365
 31
0.0
  0
LINE
  5
1FB
330
1E
100
AcDbEntity
  8
0
100
AcDbLine
 10
18.89999999999999
 20
191.8736499999999
 30
0.0
 11
19.9
 21
194.3736499999999
 31
0.0
  0
LINE
  5
1FC
330
1E
100
AcDbEntity
  8
0
100
AcDbLine
 10
39.1
 20
191.8736499999999
 30
0.0
 11
39.5
 21
189.17365
 31
0.0
  0
LINE
  5
1FD
330
1E
100
AcDbEntity
  8
0
100
AcDbLine
 10
41.70399999999999
 20
193.1636499999999
 30
0.0
 11
44.4579
 21
191.3196499999999
 31
0.0
  0
LINE
  5
1FE
330
1E
100
AcDbEntity
  8
0
100
AcDbLine
 10
18.89999999999999
 20
186.47365
 30
0.0
 11
19.9
 21
183.9736499999999
 31
0.0
  0
LINE
  5
1FF
330
1E
100
AcDbEntity
  8
0
100
AcDbLine
 10
18.5
 20
189.17365
 30
0.0
 11
18.89999999999999
 21
186.47365
 31
0.0
  0
LINE
  5
200
330
1E
100
AcDbEntity
  8
0
100
AcDbLine
 10
18.5
 20
189.17365
 30
0.0
 11
18.89999999999999
 21
191.8736499999999
 31
0.0
  0
LINE
  5
201
330
1E
100
AcDbEntity
  8
0
100
AcDbLine
 10
16.29599999999999
 20
185.18365
 30
0.0
 11
18.5777
 21
183.17365
 31
0.0
  0
LINE
  5
202
330
1E
100
AcDbEntity
  8
0
100
AcDbLine
 10
13.5421
 20
187.0276499999999
 30
0.0
 11
16.29599999999999
 21
185.18365
 31
0.0
  0
LINE
  5
203
330
1E
100
AcDbEntity
  8
0
100
AcDbLine
 10
15.6072
 20
193.92465
 30
0.0
 11
17.6
 21
195.77365
 31
0.0
  0
LINE
  5
204
330
1E
100
AcDbEntity
  8
0
100
AcDbLine
 10
19.9
 20
194.3736499999999
 30
0.0
 11
21.6
 21
196.57365
 31
0.0
  0
LINE
  5
205
330
1E
100
AcDbEntity
  8
0
100
AcDbLine
 10
18.5777
 20
195.17365
 30
0.0
 11
20.5
 21
197.67365
 31
0.0
  0
LINE
  5
206
330
1E
100
AcDbEntity
  8
0
100
AcDbLine
 10
17.6
 20
195.77365
 30
0.0
 11
19.69999999999999
 21
198.4736499999999
 31
0.0
  0
LINE
  5
208
330
1E
100
AcDbEntity
  8
0
100
AcDbLine
 10
21.6
 20
196.57365
 30
0.0
 11
23.8
 21
198.27365
 31
0.0
  0
LINE
  5
209
330
1E
100
AcDbEntity
  8
0
100
AcDbLine
 10
39.4223
 20
195.17365
 30
0.0
 11
41.70399999999999
 21
193.1636499999999
 31
0.0
  0
LINE
  5
20A
330
1E
100
AcDbEntity
  8
0
100
AcDbLine
 10
40.4
 20
195.77365
 30
0.0
 11
42.39279999999999
 21
193.92465
 31
0.0
  0
LINE
  5
20C
330
1E
100
AcDbEntity
  8
0
100
AcDbLine
 10
36.4
 20
196.57365
 30
0.0
 11
38.1
 21
194.3736499999999
 31
0.0
  0
LINE
  5
20D
330
1E
100
AcDbEntity
  8
0
100
AcDbLine
 10
38.1
 20
194.3736499999999
 30
0.0
 11
39.1
 21
191.8736499999999
 31
0.0
  0
LINE
  5
20E
330
1E
100
AcDbEntity
  8
0
100
AcDbLine
 10
42.39279999999999
 20
193.92465
 30
0.0
 11
45.1139
 21
192.4036499999999
 31
0.0
  0
LINE
  5
20F
330
1E
100
AcDbEntity
  8
0
100
AcDbLine
 10
13.5
 20
193.33165
 30
0.0
 11
24.8415
 21
204.67365
 31
0.0
  0
LINE
  5
210
330
1E
100
AcDbEntity
  8
0
100
AcDbLine
 10
13.5
 20
193.33165
 30
0.0
 11
13.63645524802119
 21
192.823072414553
 31
0.0
  0
LINE
  5
211
330
1E
100
AcDbEntity
  8
0
100
AcDbLine
 10
44.4579
 20
191.3196499999999
 30
0.0
 11
48.002
 21
190.2736499999999
 31
0.0
  0
LINE
  5
212
330
1E
100
AcDbEntity
  8
0
100
AcDbLine
 10
44.4579
 20
187.0276499999999
 30
0.0
 11
48.002
 21
188.0736499999999
 31
0.0
  0
LINE
  5
213
330
1E
100
AcDbEntity
  8
0
100
AcDbLine
 10
44.3635524074856
 20
185.5242318646079
 30
0.0
 11
44.5
 21
185.0156499999999
 31
0.0
  0
LINE
  5
214
330
1E
100
AcDbEntity
  8
0
100
AcDbLine
 10
14.69999999999999
 20
197.37365
 30
0.0
 11
17.3
 21
200.8736499999999
 31
0.0
  0
LINE
  5
215
330
1E
100
AcDbEntity
  8
0
100
AcDbLine
 10
13.1
 20
193.37365
 30
0.0
 11
14.69999999999999
 21
197.37365
 31
0.0
  0
LINE
  5
216
330
1E
100
AcDbEntity
  8
0
100
AcDbLine
 10
37.5
 20
197.67365
 30
0.0
 11
39.4223
 21
195.17365
 31
0.0
  0
LINE
  5
217
330
1E
100
AcDbEntity
  8
0
100
AcDbLine
 10
20.5
 20
197.67365
 30
0.0
 11
23.0
 21
199.59565
 31
0.0
  0
LINE
  5
218
330
1E
100
AcDbEntity
  8
0
100
AcDbLine
 10
14.3
 20
197.67365
 30
0.0
 11
17.0
 21
201.17365
 31
0.0
  0
LINE
  5
219
330
1E
100
AcDbEntity
  8
0
100
AcDbLine
 10
43.3
 20
197.37365
 30
0.0
 11
44.9
 21
193.37365
 31
0.0
  0
LINE
  5
21A
330
1E
100
AcDbEntity
  8
0
100
AcDbLine
 10
45.1139
 20
192.4036499999999
 30
0.0
 11
48.0
 21
191.47365
 31
0.0
  0
LINE
  5
21B
330
1E
100
AcDbEntity
  8
0
100
AcDbLine
 10
45.1139
 20
185.9436499999999
 30
0.0
 11
48.0
 21
186.8736499999999
 31
0.0
  0
LINE
  5
21C
330
1E
100
AcDbEntity
  8
0
100
AcDbLine
 10
44.9
 20
193.37365
 30
0.0
 11
45.03203427342279
 21
192.44941008604
 31
0.0
  0
LINE
  5
21D
330
1E
100
AcDbEntity
  8
0
100
AcDbLine
 10
13.8
 20
197.87365
 30
0.0
 11
16.6
 21
201.57365
 31
0.0
  0
LINE
  5
21E
330
1E
100
AcDbEntity
  8
0
100
AcDbLine
 10
19.69999999999999
 20
198.4736499999999
 30
0.0
 11
22.39999999999999
 21
200.5736499999999
 31
0.0
  0
LINE
  5
21F
330
1E
100
AcDbEntity
  8
0
100
AcDbLine
 10
23.8
 20
198.27365
 30
0.0
 11
26.3
 21
199.27365
 31
0.0
  0
LINE
  5
220
330
1E
100
AcDbEntity
  8
0
100
AcDbLine
 10
26.3
 20
199.27365
 30
0.0
 11
29.0
 21
199.67365
 31
0.0
  0
LINE
  5
221
330
1E
100
AcDbEntity
  8
0
100
AcDbLine
 10
23.0
 20
199.59565
 30
0.0
 11
25.0098
 21
201.8776499999999
 31
0.0
  0
LINE
  5
222
330
1E
100
AcDbEntity
  8
0
100
AcDbLine
 10
38.3
 20
198.4736499999999
 30
0.0
 11
40.4
 21
195.77365
 31
0.0
  0
LINE
  5
223
330
1E
100
AcDbEntity
  8
0
100
AcDbLine
 10
34.2
 20
198.27365
 30
0.0
 11
36.4
 21
196.57365
 31
0.0
  0
LINE
  5
224
330
1E
100
AcDbEntity
  8
0
100
AcDbLine
 10
35.0
 20
199.59565
 30
0.0
 11
37.5
 21
197.67365
 31
0.0
  0
LINE
  5
225
330
1E
100
AcDbEntity
  8
0
100
AcDbLine
 10
31.69999999999999
 20
199.27365
 30
0.0
 11
34.2
 21
198.27365
 31
0.0
  0
LINE
  5
226
330
1E
100
AcDbEntity
  8
0
100
AcDbLine
 10
29.0
 20
199.67365
 30
0.0
 11
31.69999999999999
 21
199.27365
 31
0.0
  0
LINE
  5
227
330
1E
100
AcDbEntity
  8
0
100
AcDbLine
 10
35.6
 20
200.5736499999999
 30
0.0
 11
38.3
 21
198.4736499999999
 31
0.0
  0
LINE
  5
228
330
1E
100
AcDbEntity
  8
0
100
AcDbLine
 10
22.39999999999999
 20
200.5736499999999
 30
0.0
 11
24.2492
 21
202.56665
 31
0.0
  0
LINE
  5
229
330
1E
100
AcDbEntity
  8
0
100
AcDbLine
 10
40.3415
 20
200.51565
 30
0.0
 11
42.0160059697232
 21
194.274254657759
 31
0.0
  0
LINE
  5
22A
330
1E
100
AcDbEntity
  8
0
100
AcDbLine
 10
17.3
 20
200.8736499999999
 30
0.0
 11
20.8
 21
203.47365
 31
0.0
  0
LINE
  5
22B
330
1E
100
AcDbEntity
  8
0
100
AcDbLine
 10
16.6
 20
201.57365
 30
0.0
 11
20.3
 21
204.37365
 31
0.0
  0
LINE
  5
22C
330
1E
100
AcDbEntity
  8
0
100
AcDbLine
 10
20.3
 20
204.37365
 30
0.0
 11
24.5
 21
206.0736499999999
 31
0.0
  0
LINE
  5
22D
330
1E
100
AcDbEntity
  8
0
100
AcDbLine
 10
17.0
 20
201.17365
 30
0.0
 11
20.5
 21
203.87365
 31
0.0
  0
LINE
  5
22E
330
1E
100
AcDbEntity
  8
0
100
AcDbLine
 10
25.0098
 20
201.8776499999999
 30
0.0
 11
26.8536
 21
204.63165
 31
0.0
  0
LINE
  5
22F
330
1E
100
AcDbEntity
  8
0
100
AcDbLine
 10
26.8536
 20
204.63165
 30
0.0
 11
27.9
 21
208.17565
 31
0.0
  0
LINE
  5
230
330
1E
100
AcDbEntity
  8
0
100
AcDbLine
 10
24.2492
 20
202.56665
 30
0.0
 11
25.7704
 21
205.2876499999999
 31
0.0
  0
LINE
  5
231
330
1E
100
AcDbEntity
  8
0
100
AcDbLine
 10
31.1464
 20
204.63165
 30
0.0
 11
32.9902
 21
201.8776499999999
 31
0.0
  0
LINE
  5
232
330
1E
100
AcDbEntity
  8
0
100
AcDbLine
 10
24.8415
 20
204.67365
 30
0.0
 11
25.350762489342
 21
204.5370362302779
 31
0.0
  0
LINE
  5
233
330
1E
100
AcDbEntity
  8
0
100
AcDbLine
 10
20.8
 20
203.47365
 30
0.0
 11
24.8
 21
205.0736499999999
 31
0.0
  0
LINE
  5
234
330
1E
100
AcDbEntity
  8
0
100
AcDbLine
 10
25.7704
 20
205.2876499999999
 30
0.0
 11
26.69999999999999
 21
208.17365
 31
0.0
  0
LINE
  5
235
330
1E
100
AcDbEntity
  8
0
100
AcDbLine
 10
24.8
 20
205.0736499999999
 30
0.0
 11
25.72460550730919
 21
205.205736501044
 31
0.0
  0
LINE
  5
236
330
1E
100
AcDbEntity
  8
0
100
AcDbLine
 10
20.5
 20
203.87365
 30
0.0
 11
24.6
 21
205.57365
 31
0.0
  0
LINE
  5
237
330
1E
100
AcDbEntity
  8
0
100
AcDbLine
 10
16.6
 20
210.87365
 30
0.0
 11
22.6
 21
213.27365
 31
0.0
  0
LINE
  5
238
330
1E
100
AcDbEntity
  8
0
100
AcDbLine
 10
28.2
 20
212.15065
 30
0.0
 11
28.2
 21
214.04865
 31
0.0
  0
LINE
  5
239
330
1E
100
AcDbEntity
  8
0
100
AcDbLine
 10
27.9
 20
208.17565
 30
0.0
 11
28.2
 21
212.15065
 31
0.0
  0
LINE
  5
23A
330
1E
100
AcDbEntity
  8
0
100
AcDbLine
 10
26.69999999999999
 20
208.17365
 30
0.0
 11
27.0
 21
212.1736499999999
 31
0.0
  0
LINE
  5
23B
330
1E
100
AcDbEntity
  8
0
100
AcDbLine
 10
30.1
 20
208.17565
 30
0.0
 11
31.1464
 21
204.63165
 31
0.0
  0
LINE
  5
23C
330
1E
100
AcDbEntity
  8
0
100
AcDbLine
 10
27.0
 20
212.1736499999999
 30
0.0
 11
27.2
 21
215.17365
 31
0.0
  0
LINE
  5
23D
330
1E
100
AcDbEntity
  8
0
100
AcDbLine
 10
27.2
 20
215.17365
 30
0.0
 11
27.7
 21
217.67365
 31
0.0
  0
LINE
  5
241
330
1E
100
AcDbEntity
  8
0
100
AcDbLine
 10
28.2
 20
214.04865
 30
0.0
 11
28.2
 21
215.54865
 31
0.0
  0
LINE
  5
242
330
1E
100
AcDbEntity
  8
0
100
AcDbLine
 10
28.2
 20
214.04865
 30
0.0
 11
28.2
 21
212.15065
 31
0.0
  0
LINE
  5
246
330
1E
100
AcDbEntity
  8
0
100
AcDbLine
 10
28.2
 20
215.54865
 30
0.0
 11
28.2
 21
216.64465
 31
0.0
  0
LINE
  5
247
330
1E
100
AcDbEntity
  8
0
100
AcDbLine
 10
28.2
 20
215.54865
 30
0.0
 11
28.2
 21
214.04865
 31
0.0
  0
LINE
  5
248
330
1E
100
AcDbEntity
  8
0
100
AcDbLine
 10
28.2
 20
216.64465
 30
0.0
 11
28.2
 21
217.2986499999999
 31
0.0
  0
LINE
  5
249
330
1E
100
AcDbEntity
  8
0
100
AcDbLine
 10
28.2
 20
216.64465
 30
0.0
 11
28.2
 21
215.54865
 31
0.0
  0
LINE
  5
24A
330
1E
100
AcDbEntity
  8
0
100
AcDbLine
 10
27.7
 20
217.67365
 30
0.0
 11
28.2
 21
218.1736499999999
 31
0.0
  0
LINE
  5
24B
330
1E
100
AcDbEntity
  8
0
100
AcDbLine
 10
28.2
 20
217.2986499999999
 30
0.0
 11
28.2
 21
217.8176499999999
 31
0.0
  0
LINE
  5
24C
330
1E
100
AcDbEntity
  8
0
100
AcDbLine
 10
28.2
 20
217.2986499999999
 30
0.0
 11
28.2
 21
216.64465
 31
0.0
  0
LINE
  5
24D
330
1E
100
AcDbEntity
  8
0
100
AcDbLine
 10
28.2
 20
217.8176499999999
 30
0.0
 11
28.2
 21
218.1736499999999
 31
0.0
  0
LINE
  5
24E
330
1E
100
AcDbEntity
  8
0
100
AcDbLine
 10
28.2
 20
217.8176499999999
 30
0.0
 11
28.2
 21
217.2986499999999
 31
0.0
  0
LINE
  5
24F
330
1E
100
AcDbEntity
  8
0
100
AcDbLine
 10
28.2
 20
218.1736499999999
 30
0.0
 11
29.0
 21
218.1736499999999
 31
0.0
  0
LINE
  5
250
330
1E
100
AcDbEntity
  8
0
100
AcDbLine
 10
28.2
 20
218.1736499999999
 30
0.0
 11
28.2
 21
217.8176499999999
 31
0.0
  0
LINE
  5
251
330
1E
100
AcDbEntity
  8
0
100
AcDbLine
 10
29.8
 20
214.04865
 30
0.0
 11
29.8
 21
212.15065
 31
0.0
  0
LINE
  5
252
330
1E
100
AcDbEntity
  8
0
100
AcDbLine
 10
29.8
 20
214.04865
 30
0.0
 11
29.8
 21
215.54865
 31
0.0
  0
LINE
  5
253
330
1E
100
AcDbEntity
  8
0
100
AcDbLine
 10
29.8
 20
215.54865
 30
0.0
 11
29.8
 21
214.04865
 31
0.0
  0
LINE
  5
254
330
1E
100
AcDbEntity
  8
0
100
AcDbLine
 10
29.8
 20
215.54865
 30
0.0
 11
29.8
 21
216.64465
 31
0.0
  0
LINE
  5
255
330
1E
100
AcDbEntity
  8
0
100
AcDbLine
 10
29.8
 20
216.64465
 30
0.0
 11
29.8
 21
215.54865
 31
0.0
  0
LINE
  5
256
330
1E
100
AcDbEntity
  8
0
100
AcDbLine
 10
29.8
 20
216.64465
 30
0.0
 11
29.8
 21
217.2986499999999
 31
0.0
  0
LINE
  5
25D
330
1E
100
AcDbEntity
  8
0
100
AcDbLine
 10
29.8
 20
217.2986499999999
 30
0.0
 11
29.8
 21
216.64465
 31
0.0
  0
LINE
  5
25E
330
1E
100
AcDbEntity
  8
0
100
AcDbLine
 10
29.8
 20
217.2986499999999
 30
0.0
 11
29.8
 21
217.8176499999999
 31
0.0
  0
LINE
  5
25F
330
1E
100
AcDbEntity
  8
0
100
AcDbLine
 10
29.8
 20
217.8176499999999
 30
0.0
 11
29.8
 21
217.2986499999999
 31
0.0
  0
LINE
  5
260
330
1E
100
AcDbEntity
  8
0
100
AcDbLine
 10
29.8
 20
217.8176499999999
 30
0.0
 11
29.8
 21
218.1736499999999
 31
0.0
  0
LINE
  5
261
330
1E
100
AcDbEntity
  8
0
100
AcDbLine
 10
30.8
 20
215.17365
 30
0.0
 11
31.0
 21
212.1736499999999
 31
0.0
  0
LINE
  5
262
330
1E
100
AcDbEntity
  8
0
100
AcDbLine
 10
30.3
 20
217.67365
 30
0.0
 11
30.8
 21
215.17365
 31
0.0
  0
LINE
  5
263
330
1E
100
AcDbEntity
  8
0
100
AcDbLine
 10
29.8
 20
218.1736499999999
 30
0.0
 11
30.3
 21
217.67365
 31
0.0
  0
LINE
  5
264
330
1E
100
AcDbEntity
  8
0
100
AcDbLine
 10
29.8
 20
218.1736499999999
 30
0.0
 11
29.8
 21
217.8176499999999
 31
0.0
  0
LINE
  5
265
330
1E
100
AcDbEntity
  8
0
100
AcDbLine
 10
29.0
 20
218.1736499999999
 30
0.0
 11
29.8
 21
218.1736499999999
 31
0.0
  0
LINE
  5
266
330
1E
100
AcDbEntity
  8
0
100
AcDbLine
 10
29.8
 20
212.15065
 30
0.0
 11
30.1
 21
208.17565
 31
0.0
  0
LINE
  5
267
330
1E
100
AcDbEntity
  8
0
100
AcDbLine
 10
29.8
 20
212.15065
 30
0.0
 11
29.8
 21
214.04865
 31
0.0
  0
LINE
  5
268
330
1E
100
AcDbEntity
  8
0
100
AcDbLine
 10
31.3
 20
208.17365
 30
0.0
 11
32.2296
 21
205.2876499999999
 31
0.0
  0
LINE
  5
269
330
1E
100
AcDbEntity
  8
0
100
AcDbLine
 10
31.0
 20
212.1736499999999
 30
0.0
 11
31.3
 21
208.17365
 31
0.0
  0
LINE
  5
26A
330
1E
100
AcDbEntity
  8
0
100
AcDbLine
 10
31.90805391158269
 20
206.285909478456
 30
0.0
 11
33.5
 21
206.0736499999999
 31
0.0
  0
LINE
  5
26B
330
1E
100
AcDbEntity
  8
0
100
AcDbLine
 10
30.8843322818086
 20
213.908665772871
 30
0.0
 11
35.4
 21
213.27365
 31
0.0
  0
LINE
  5
26C
330
1E
100
AcDbEntity
  8
0
100
AcDbLine
 10
24.5
 20
206.0736499999999
 30
0.0
 11
26.0919460884173
 21
206.285909478456
 31
0.0
  0
LINE
  5
26D
330
1E
100
AcDbEntity
  8
0
100
AcDbLine
 10
22.6
 20
213.27365
 30
0.0
 11
27.1156677181914
 21
213.908665772871
 31
0.0
  0
LINE
  5
26E
330
1E
100
AcDbEntity
  8
0
100
AcDbLine
 10
24.6
 20
205.57365
 30
0.0
 11
25.92052478287799
 21
205.7537215613019
 31
0.0
  0
LINE
  5
26F
330
1E
100
AcDbEntity
  8
0
100
AcDbLine
 10
32.9902
 20
201.8776499999999
 30
0.0
 11
35.0
 21
199.59565
 31
0.0
  0
LINE
  5
270
330
1E
100
AcDbEntity
  8
0
100
AcDbLine
 10
33.7508
 20
202.56665
 30
0.0
 11
35.6
 21
200.5736499999999
 31
0.0
  0
LINE
  5
271
330
1E
100
AcDbEntity
  8
0
100
AcDbLine
 10
34.10038582331269
 20
202.189879209462
 30
0.0
 11
40.3415
 21
200.51565
 31
0.0
  0
LINE
  5
272
330
1E
100
AcDbEntity
  8
0
100
AcDbLine
 10
37.2
 20
203.47365
 30
0.0
 11
40.7
 21
200.8736499999999
 31
0.0
  0
LINE
  5
273
330
1E
100
AcDbEntity
  8
0
100
AcDbLine
 10
33.2
 20
205.0736499999999
 30
0.0
 11
37.2
 21
203.47365
 31
0.0
  0
LINE
  5
274
330
1E
100
AcDbEntity
  8
0
100
AcDbLine
 10
32.2296
 20
205.2876499999999
 30
0.0
 11
33.7508
 21
202.56665
 31
0.0
  0
LINE
  5
275
330
1E
100
AcDbEntity
  8
0
100
AcDbLine
 10
32.2753944926908
 20
205.205736501044
 30
0.0
 11
33.2
 21
205.0736499999999
 31
0.0
  0
LINE
  5
276
330
1E
100
AcDbEntity
  8
0
100
AcDbLine
 10
37.7
 20
204.37365
 30
0.0
 11
41.39999999999999
 21
201.57365
 31
0.0
  0
LINE
  5
277
330
1E
100
AcDbEntity
  8
0
100
AcDbLine
 10
37.5
 20
203.87365
 30
0.0
 11
41.0
 21
201.17365
 31
0.0
  0
LINE
  5
278
330
1E
100
AcDbEntity
  8
0
100
AcDbLine
 10
33.5
 20
206.0736499999999
 30
0.0
 11
37.7
 21
204.37365
 31
0.0
  0
LINE
  5
279
330
1E
100
AcDbEntity
  8
0
100
AcDbLine
 10
35.4
 20
213.27365
 30
0.0
 11
41.39999999999999
 21
210.87365
 31
0.0
  0
LINE
  5
27A
330
1E
100
AcDbEntity
  8
0
100
AcDbLine
 10
33.39999999999999
 20
205.57365
 30
0.0
 11
37.5
 21
203.87365
 31
0.0
  0
LINE
  5
27B
330
1E
100
AcDbEntity
  8
0
100
AcDbLine
 10
32.079475217122
 20
205.7537215613019
 30
0.0
 11
33.39999999999999
 21
205.57365
 31
0.0
  0
LINE
  5
27C
330
1E
100
AcDbEntity
  8
0
100
AcDbLine
 10
40.7
 20
200.8736499999999
 30
0.0
 11
43.3
 21
197.37365
 31
0.0
  0
LINE
  5
27D
330
1E
100
AcDbEntity
  8
0
100
AcDbLine
 10
41.39999999999999
 20
210.87365
 30
0.0
 11
46.6
 21
206.77365
 31
0.0
  0
LINE
  5
27E
330
1E
100
AcDbEntity
  8
0
100
AcDbLine
 10
44.2
 20
197.87365
 30
0.0
 11
45.89999999999999
 21
193.67365
 31
0.0
  0
LINE
  5
27F
330
1E
100
AcDbEntity
  8
0
100
AcDbLine
 10
41.0
 20
201.17365
 30
0.0
 11
43.7
 21
197.67365
 31
0.0
  0
LINE
  5
280
330
1E
100
AcDbEntity
  8
0
100
AcDbLine
 10
43.7
 20
197.67365
 30
0.0
 11
45.4
 21
193.5736499999999
 31
0.0
  0
LINE
  5
281
330
1E
100
AcDbEntity
  8
0
100
AcDbLine
 10
117.5227
 20
186.10565
 30
0.0
 11
118.5
 21
183.6624
 31
0.0
  0
LINE
  5
282
330
1E
100
AcDbEntity
  8
0
100
AcDbLine
 10
116.9545
 20
185.9916499999999
 30
0.0
 11
118.2045999999999
 21
182.92365
 31
0.0
  0
LINE
  5
283
330
1E
100
AcDbEntity
  8
0
100
AcDbLine
 10
140.477
 20
186.10565
 30
0.0
 11
140.932
 21
189.17365
 31
0.0
  0
LINE
  5
284
330
1E
100
AcDbEntity
  8
0
100
AcDbLine
 10
141.046
 20
185.9916499999999
 30
0.0
 11
141.5
 21
189.17365
 31
0.0
  0
LINE
  5
285
330
1E
100
AcDbEntity
  8
0
100
AcDbLine
 10
139.5
 20
186.1926499999999
 30
0.0
 11
139.5
 21
182.51265
 31
0.0
  0
LINE
  5
286
330
1E
100
AcDbEntity
  8
0
100
AcDbLine
 10
139.5
 20
186.1926499999999
 30
0.0
 11
139.5
 21
188.42465
 31
0.0
  0
LINE
  5
287
330
1E
100
AcDbEntity
  8
0
100
AcDbLine
 10
118.5
 20
186.1926499999999
 30
0.0
 11
118.5
 21
188.42465
 31
0.0
  0
LINE
  5
288
330
1E
100
AcDbEntity
  8
0
100
AcDbLine
 10
118.5
 20
186.1926499999999
 30
0.0
 11
118.5
 21
182.51265
 31
0.0
  0
LINE
  5
296
330
1E
100
AcDbEntity
  8
0
100
AcDbLine
 10
48.002
 20
190.2736499999999
 30
0.0
 11
51.9771
 21
189.9736499999999
 31
0.0
  0
LINE
  5
297
330
1E
100
AcDbEntity
  8
0
100
AcDbLine
 10
48.0
 20
191.47365
 30
0.0
 11
52.0
 21
191.17365
 31
0.0
  0
LINE
  5
298
330
1E
100
AcDbEntity
  8
0
100
AcDbLine
 10
52.0
 20
187.17365
 30
0.0
 11
55.0
 21
187.3736499999999
 31
0.0
  0
LINE
  5
29B
330
1E
100
AcDbEntity
  8
0
100
AcDbLine
 10
51.9771
 20
188.3736499999999
 30
0.0
 11
53.8748
 21
188.3736499999999
 31
0.0
  0
LINE
  5
29C
330
1E
100
AcDbEntity
  8
0
100
AcDbLine
 10
53.8748
 20
188.3736499999999
 30
0.0
 11
55.37469999999999
 21
188.3736499999999
 31
0.0
  0
LINE
  5
29E
330
1E
100
AcDbEntity
  8
0
100
AcDbLine
 10
55.37469999999999
 20
188.3736499999999
 30
0.0
 11
56.47079999999999
 21
188.3736499999999
 31
0.0
  0
LINE
  5
29F
330
1E
100
AcDbEntity
  8
0
100
AcDbLine
 10
56.47079999999999
 20
188.3736499999999
 30
0.0
 11
57.1246
 21
188.3736499999999
 31
0.0
  0
LINE
  5
2A0
330
1E
100
AcDbEntity
  8
0
100
AcDbLine
 10
57.1246
 20
188.3736499999999
 30
0.0
 11
57.6438
 21
188.3736499999999
 31
0.0
  0
LINE
  5
2A1
330
1E
100
AcDbEntity
  8
0
100
AcDbLine
 10
55.0
 20
187.3736499999999
 30
0.0
 11
57.5
 21
187.87365
 31
0.0
  0
LINE
  5
2C3
330
1E
100
AcDbEntity
  8
0
100
AcDbLine
 10
57.6438
 20
188.3736499999999
 30
0.0
 11
58.0
 21
188.3736499999999
 31
0.0
  0
LINE
  5
2C4
330
1E
100
AcDbEntity
  8
0
100
AcDbLine
 10
57.5
 20
187.87365
 30
0.0
 11
58.0
 21
188.3736499999999
 31
0.0
  0
LINE
  5
2C5
330
1E
100
AcDbEntity
  8
0
100
AcDbLine
 10
51.9771
 20
189.9736499999999
 30
0.0
 11
53.8748
 21
189.9736499999999
 31
0.0
  0
LINE
  5
2C6
330
1E
100
AcDbEntity
  8
0
100
AcDbLine
 10
53.8748
 20
189.9736499999999
 30
0.0
 11
55.37469999999999
 21
189.9736499999999
 31
0.0
  0
LINE
  5
2C7
330
1E
100
AcDbEntity
  8
0
100
AcDbLine
 10
55.37469999999999
 20
189.9736499999999
 30
0.0
 11
56.47079999999999
 21
189.9736499999999
 31
0.0
  0
LINE
  5
2C8
330
1E
100
AcDbEntity
  8
0
100
AcDbLine
 10
56.47079999999999
 20
189.9736499999999
 30
0.0
 11
57.1246
 21
189.9736499999999
 31
0.0
  0
LINE
  5
2C9
330
1E
100
AcDbEntity
  8
0
100
AcDbLine
 10
57.1246
 20
189.9736499999999
 30
0.0
 11
57.6438
 21
189.9736499999999
 31
0.0
  0
LINE
  5
2CD
330
1E
100
AcDbEntity
  8
0
100
AcDbLine
 10
57.6438
 20
189.9736499999999
 30
0.0
 11
58.0
 21
189.9736499999999
 31
0.0
  0
LINE
  5
2CE
330
1E
100
AcDbEntity
  8
0
100
AcDbLine
 10
58.0
 20
189.9736499999999
 30
0.0
 11
58.0
 21
189.17365
 31
0.0
  0
LINE
  5
2CF
330
1E
100
AcDbEntity
  8
0
100
AcDbLine
 10
52.0
 20
191.17365
 30
0.0
 11
55.0
 21
190.9736499999999
 31
0.0
  0
LINE
  5
2D0
330
1E
100
AcDbEntity
  8
0
100
AcDbLine
 10
55.0
 20
190.9736499999999
 30
0.0
 11
57.5
 21
190.47365
 31
0.0
  0
LINE
  5
2D1
330
1E
100
AcDbEntity
  8
0
100
AcDbLine
 10
57.5
 20
190.47365
 30
0.0
 11
58.0
 21
189.9736499999999
 31
0.0
  0
LINE
  5
2D2
330
1E
100
AcDbEntity
  8
0
100
AcDbLine
 10
139.5
 20
188.42465
 30
0.0
 11
139.5
 21
186.1926499999999
 31
0.0
  0
LINE
  5
2D3
330
1E
100
AcDbEntity
  8
0
100
AcDbLine
 10
139.5
 20
188.42465
 30
0.0
 11
139.5
 21
189.17365
 31
0.0
  0
LINE
  5
2D4
330
1E
100
AcDbEntity
  8
0
100
AcDbLine
 10
117.0682
 20
189.17365
 30
0.0
 11
117.5227
 21
186.10565
 31
0.0
  0
LINE
  5
2D5
330
1E
100
AcDbEntity
  8
0
100
AcDbLine
 10
117.0682
 20
189.17365
 30
0.0
 11
117.5227
 21
192.2416499999999
 31
0.0
  0
LINE
  5
2D6
330
1E
100
AcDbEntity
  8
0
100
AcDbLine
 10
116.5
 20
189.17365
 30
0.0
 11
116.9545
 21
185.9916499999999
 31
0.0
  0
LINE
  5
2D7
330
1E
100
AcDbEntity
  8
0
100
AcDbLine
 10
116.5
 20
189.17365
 30
0.0
 11
116.9545
 21
192.35565
 31
0.0
  0
LINE
  5
2D8
330
1E
100
AcDbEntity
  8
0
100
AcDbLine
 10
118.5
 20
188.42465
 30
0.0
 11
118.5
 21
186.1926499999999
 31
0.0
  0
LINE
  5
2D9
330
1E
100
AcDbEntity
  8
0
100
AcDbLine
 10
118.5
 20
188.42465
 30
0.0
 11
118.5
 21
189.17365
 31
0.0
  0
LINE
  5
2DA
330
1E
100
AcDbEntity
  8
0
100
AcDbLine
 10
112.5
 20
189.17365
 30
0.0
 11
113.1
 21
193.37365
 31
0.0
  0
LINE
  5
2DB
330
1E
100
AcDbEntity
  8
0
100
AcDbLine
 10
112.5
 20
189.17365
 30
0.0
 11
113.1
 21
184.9736499999999
 31
0.0
  0
LINE
  5
2DC
330
1E
100
AcDbEntity
  8
0
100
AcDbLine
 10
139.5
 20
189.17365
 30
0.0
 11
139.5
 21
188.42465
 31
0.0
  0
LINE
  5
2DD
330
1E
100
AcDbEntity
  8
0
100
AcDbLine
 10
118.5
 20
189.17365
 30
0.0
 11
118.5
 21
188.42465
 31
0.0
  0
LINE
  5
2DE
330
1E
100
AcDbEntity
  8
0
100
AcDbLine
 10
112.0
 20
189.17365
 30
0.0
 11
112.5999999999999
 21
193.5736499999999
 31
0.0
  0
LINE
  5
2DF
330
1E
100
AcDbEntity
  8
0
100
AcDbLine
 10
112.0
 20
189.17365
 30
0.0
 11
112.5999999999999
 21
184.77365
 31
0.0
  0
LINE
  5
2E0
330
1E
100
AcDbEntity
  8
0
100
AcDbLine
 10
104.0
 20
189.17365
 30
0.0
 11
104.9
 21
195.57365
 31
0.0
  0
LINE
  5
2E1
330
1E
100
AcDbEntity
  8
0
100
AcDbLine
 10
104.0
 20
189.17365
 30
0.0
 11
104.9
 21
182.77365
 31
0.0
  0
LINE
  5
2E2
330
1E
100
AcDbEntity
  8
0
100
AcDbLine
 10
116.9545
 20
192.35565
 30
0.0
 11
118.2045999999999
 21
195.42365
 31
0.0
  0
LINE
  5
2E3
330
1E
100
AcDbEntity
  8
0
100
AcDbLine
 10
117.5227
 20
192.2416499999999
 30
0.0
 11
118.6590999999999
 21
195.0826499999999
 31
0.0
  0
LINE
  5
2E4
330
1E
100
AcDbEntity
  8
0
100
AcDbLine
 10
141.046
 20
192.35565
 30
0.0
 11
141.5
 21
189.17365
 31
0.0
  0
LINE
  5
2E5
330
1E
100
AcDbEntity
  8
0
100
AcDbLine
 10
140.477
 20
192.2416499999999
 30
0.0
 11
140.932
 21
189.17365
 31
0.0
  0
LINE
  5
304
330
1E
100
AcDbEntity
  8
0
100
AcDbLine
 10
144.9
 20
193.37365
 30
0.0
 11
145.5
 21
189.17365
 31
0.0
  0
LINE
  5
305
330
1E
100
AcDbEntity
  8
0
100
AcDbLine
 10
145.4
 20
193.5736499999999
 30
0.0
 11
146.0
 21
189.17365
 31
0.0
  0
LINE
  5
306
330
1E
100
AcDbEntity
  8
0
100
AcDbLine
 10
113.1
 20
193.37365
 30
0.0
 11
114.7
 21
197.37365
 31
0.0
  0
LINE
  5
307
330
1E
100
AcDbEntity
  8
0
100
AcDbLine
 10
112.5999999999999
 20
193.5736499999999
 30
0.0
 11
114.3
 21
197.67365
 31
0.0
  0
LINE
  5
30F
330
1E
100
AcDbEntity
  8
0
100
AcDbLine
 10
145.9
 20
193.67365
 30
0.0
 11
146.5
 21
189.17365
 31
0.0
  0
LINE
  5
310
330
1E
100
AcDbEntity
  8
0
100
AcDbLine
 10
118.2045999999999
 20
195.42365
 30
0.0
 11
120.1363999999999
 21
198.03765
 31
0.0
  0
LINE
  5
311
330
1E
100
AcDbEntity
  8
0
100
AcDbLine
 10
118.6590999999999
 20
195.0826499999999
 30
0.0
 11
120.5909
 21
197.58265
 31
0.0
  0
LINE
  5
312
330
1E
100
AcDbEntity
  8
0
100
AcDbLine
 10
139.7959999999999
 20
195.42365
 30
0.0
 11
141.046
 21
192.35565
 31
0.0
  0
LINE
  5
313
330
1E
100
AcDbEntity
  8
0
100
AcDbLine
 10
139.341
 20
195.0826499999999
 30
0.0
 11
140.477
 21
192.2416499999999
 31
0.0
  0
LINE
  5
314
330
1E
100
AcDbEntity
  8
0
100
AcDbLine
 10
119.9
 20
194.3736499999999
 30
0.0
 11
121.5999999999999
 21
196.57365
 31
0.0
  0
LINE
  5
315
330
1E
100
AcDbEntity
  8
0
100
AcDbLine
 10
153.0999999999999
 20
195.57365
 30
0.0
 11
154.0
 21
189.17365
 31
0.0
  0
LINE
  5
316
330
1E
100
AcDbEntity
  8
0
100
AcDbLine
 10
104.9
 20
195.57365
 30
0.0
 11
107.2999999999999
 21
201.57365
 31
0.0
  0
LINE
  5
333
330
1E
100
AcDbEntity
  8
0
100
AcDbLine
 10
58.0
 20
189.17365
 30
0.0
 11
58.0
 21
188.3736499999999
 31
0.0
  0
LINE
  5
334
330
1E
100
AcDbEntity
  8
0
100
AcDbLine
 10
58.0
 20
189.17365
 30
0.0
 11
58.0
 21
189.9736499999999
 31
0.0
  0
LINE
  5
335
330
1E
100
AcDbEntity
  8
0
100
AcDbLine
 10
58.0
 20
188.3736499999999
 30
0.0
 11
58.0
 21
189.17365
 31
0.0
  0
LINE
  5
336
330
1E
100
AcDbEntity
  8
0
100
AcDbLine
 10
48.002
 20
188.0736499999999
 30
0.0
 11
51.9771
 21
188.3736499999999
 31
0.0
  0
LINE
  5
337
330
1E
100
AcDbEntity
  8
0
100
AcDbLine
 10
48.0
 20
186.8736499999999
 30
0.0
 11
52.0
 21
187.17365
 31
0.0
  0
LINE
  5
338
330
1E
100
AcDbEntity
  8
0
100
AcDbLine
 10
45.89999999999999
 20
193.67365
 30
0.0
 11
46.1122259633371
 21
192.0819552749719
 31
0.0
  0
LINE
  5
339
330
1E
100
AcDbEntity
  8
0
100
AcDbLine
 10
46.6
 20
206.77365
 30
0.0
 11
50.7
 21
201.57365
 31
0.0
  0
LINE
  5
33A
330
1E
100
AcDbEntity
  8
0
100
AcDbLine
 10
136.4
 20
196.57365
 30
0.0
 11
138.1
 21
194.3736499999999
 31
0.0
  0
LINE
  5
33B
330
1E
100
AcDbEntity
  8
0
100
AcDbLine
 10
121.5999999999999
 20
196.57365
 30
0.0
 11
123.7999999999999
 21
198.27365
 31
0.0
  0
LINE
  5
33C
330
1E
100
AcDbEntity
  8
0
100
AcDbLine
 10
143.3
 20
197.37365
 30
0.0
 11
144.9
 21
193.37365
 31
0.0
  0
LINE
  5
33D
330
1E
100
AcDbEntity
  8
0
100
AcDbLine
 10
120.5909
 20
197.58265
 30
0.0
 11
123.0909
 21
199.5146499999999
 31
0.0
  0
LINE
  5
33E
330
1E
100
AcDbEntity
  8
0
100
AcDbLine
 10
137.409
 20
197.58265
 30
0.0
 11
139.341
 21
195.0826499999999
 31
0.0
  0
LINE
  5
33F
330
1E
100
AcDbEntity
  8
0
100
AcDbLine
 10
143.6999999999999
 20
197.67365
 30
0.0
 11
145.4
 21
193.5736499999999
 31
0.0
  0
LINE
  5
340
330
1E
100
AcDbEntity
  8
0
100
AcDbLine
 10
114.7
 20
197.37365
 30
0.0
 11
117.3
 21
200.8736499999999
 31
0.0
  0
LINE
  5
341
330
1E
100
AcDbEntity
  8
0
100
AcDbLine
 10
114.3
 20
197.67365
 30
0.0
 11
117.0
 21
201.17365
 31
0.0
  0
LINE
  5
342
330
1E
100
AcDbEntity
  8
0
100
AcDbLine
 10
120.1363999999999
 20
198.03765
 30
0.0
 11
122.75
 21
199.9696499999999
 31
0.0
  0
LINE
  5
343
330
1E
100
AcDbEntity
  8
0
100
AcDbLine
 10
122.75
 20
199.9696499999999
 30
0.0
 11
125.8182
 21
201.2196499999999
 31
0.0
  0
LINE
  5
344
330
1E
100
AcDbEntity
  8
0
100
AcDbLine
 10
123.0909
 20
199.5146499999999
 30
0.0
 11
125.9317999999999
 21
200.6506499999999
 31
0.0
  0
LINE
  5
345
330
1E
100
AcDbEntity
  8
0
100
AcDbLine
 10
131.6999999999999
 20
199.27365
 30
0.0
 11
134.1999999999999
 21
198.27365
 31
0.0
  0
LINE
  5
346
330
1E
100
AcDbEntity
  8
0
100
AcDbLine
 10
137.864
 20
198.03765
 30
0.0
 11
139.7959999999999
 21
195.42365
 31
0.0
  0
LINE
  5
347
330
1E
100
AcDbEntity
  8
0
100
AcDbLine
 10
134.1999999999999
 20
198.27365
 30
0.0
 11
136.4
 21
196.57365
 31
0.0
  0
LINE
  5
348
330
1E
100
AcDbEntity
  8
0
100
AcDbLine
 10
125.9317999999999
 20
200.6506499999999
 30
0.0
 11
129.0
 21
201.10565
 31
0.0
  0
LINE
  5
349
330
1E
100
AcDbEntity
  8
0
100
AcDbLine
 10
135.25
 20
199.9696499999999
 30
0.0
 11
137.864
 21
198.03765
 31
0.0
  0
LINE
  5
34A
330
1E
100
AcDbEntity
  8
0
100
AcDbLine
 10
134.9089999999999
 20
199.5146499999999
 30
0.0
 11
137.409
 21
197.58265
 31
0.0
  0
LINE
  5
34B
330
1E
100
AcDbEntity
  8
0
100
AcDbLine
 10
132.0679999999999
 20
200.6506499999999
 30
0.0
 11
134.9089999999999
 21
199.5146499999999
 31
0.0
  0
LINE
  5
34C
330
1E
100
AcDbEntity
  8
0
100
AcDbLine
 10
129.0
 20
199.67365
 30
0.0
 11
131.6999999999999
 21
199.27365
 31
0.0
  0
LINE
  5
34D
330
1E
100
AcDbEntity
  8
0
100
AcDbLine
 10
126.2999999999999
 20
199.27365
 30
0.0
 11
129.0
 21
199.67365
 31
0.0
  0
LINE
  5
34E
330
1E
100
AcDbEntity
  8
0
100
AcDbLine
 10
123.7999999999999
 20
198.27365
 30
0.0
 11
126.2999999999999
 21
199.27365
 31
0.0
  0
LINE
  5
34F
330
1E
100
AcDbEntity
  8
0
100
AcDbLine
 10
140.6999999999999
 20
200.8736499999999
 30
0.0
 11
143.3
 21
197.37365
 31
0.0
  0
LINE
  5
350
330
1E
100
AcDbEntity
  8
0
100
AcDbLine
 10
117.3
 20
200.8736499999999
 30
0.0
 11
120.7999999999999
 21
203.47365
 31
0.0
  0
LINE
  5
351
330
1E
100
AcDbEntity
  8
0
100
AcDbLine
 10
113.7999999999999
 20
197.87365
 30
0.0
 11
116.5999999999999
 21
201.57365
 31
0.0
  0
LINE
  5
36A
330
1E
100
AcDbEntity
  8
0
100
AcDbLine
 10
129.0
 20
201.10565
 30
0.0
 11
132.0679999999999
 21
200.6506499999999
 31
0.0
  0
LINE
  5
36B
330
1E
100
AcDbEntity
  8
0
100
AcDbLine
 10
141.0
 20
201.17365
 30
0.0
 11
143.6999999999999
 21
197.67365
 31
0.0
  0
LINE
  5
36C
330
1E
100
AcDbEntity
  8
0
100
AcDbLine
 10
117.0
 20
201.17365
 30
0.0
 11
120.5
 21
203.87365
 31
0.0
  0
LINE
  5
370
330
1E
100
AcDbEntity
  8
0
100
AcDbLine
 10
125.8182
 20
201.2196499999999
 30
0.0
 11
129.0
 21
201.6736499999999
 31
0.0
  0
LINE
  5
371
330
1E
100
AcDbEntity
  8
0
100
AcDbLine
 10
132.182
 20
201.2196499999999
 30
0.0
 11
135.25
 21
199.9696499999999
 31
0.0
  0
LINE
  5
372
330
1E
100
AcDbEntity
  8
0
100
AcDbLine
 10
141.4
 20
201.57365
 30
0.0
 11
144.1999999999999
 21
197.87365
 31
0.0
  0
LINE
  5
373
330
1E
100
AcDbEntity
  8
0
100
AcDbLine
 10
150.6999999999999
 20
201.57365
 30
0.0
 11
153.0999999999999
 21
195.57365
 31
0.0
  0
LINE
  5
374
330
1E
100
AcDbEntity
  8
0
100
AcDbLine
 10
116.5999999999999
 20
201.57365
 30
0.0
 11
120.3
 21
204.37365
 31
0.0
  0
LINE
  5
375
330
1E
100
AcDbEntity
  8
0
100
AcDbLine
 10
107.2999999999999
 20
201.57365
 30
0.0
 11
111.4
 21
206.77365
 31
0.0
  0
LINE
  5
37C
330
1E
100
AcDbEntity
  8
0
100
AcDbLine
 10
129.0
 20
201.6736499999999
 30
0.0
 11
132.182
 21
201.2196499999999
 31
0.0
  0
LINE
  5
380
330
1E
100
AcDbEntity
  8
0
100
AcDbLine
 10
137.1999999999999
 20
203.47365
 30
0.0
 11
140.6999999999999
 21
200.8736499999999
 31
0.0
  0
LINE
  5
381
330
1E
100
AcDbEntity
  8
0
100
AcDbLine
 10
137.5
 20
203.87365
 30
0.0
 11
141.0
 21
201.17365
 31
0.0
  0
LINE
  5
382
330
1E
100
AcDbEntity
  8
0
100
AcDbLine
 10
137.7
 20
204.37365
 30
0.0
 11
141.4
 21
201.57365
 31
0.0
  0
LINE
  5
383
330
1E
100
AcDbEntity
  8
0
100
AcDbLine
 10
120.7999999999999
 20
203.47365
 30
0.0
 11
124.7999999999999
 21
205.0736499999999
 31
0.0
  0
LINE
  5
384
330
1E
100
AcDbEntity
  8
0
100
AcDbLine
 10
120.5
 20
203.87365
 30
0.0
 11
124.5999999999999
 21
205.57365
 31
0.0
  0
LINE
  5
385
330
1E
100
AcDbEntity
  8
0
100
AcDbLine
 10
120.3
 20
204.37365
 30
0.0
 11
124.5
 21
206.0736499999999
 31
0.0
  0
LINE
  5
38F
330
1E
100
AcDbEntity
  8
0
100
AcDbLine
 10
133.1999999999999
 20
205.0736499999999
 30
0.0
 11
137.1999999999999
 21
203.47365
 31
0.0
  0
LINE
  5
390
330
1E
100
AcDbEntity
  8
0
100
AcDbLine
 10
124.7999999999999
 20
205.0736499999999
 30
0.0
 11
129.0
 21
205.6736499999999
 31
0.0
  0
LINE
  5
394
330
1E
100
AcDbEntity
  8
0
100
AcDbLine
 10
133.4
 20
205.57365
 30
0.0
 11
137.5
 21
203.87365
 31
0.0
  0
LINE
  5
395
330
1E
100
AcDbEntity
  8
0
100
AcDbLine
 10
124.5999999999999
 20
205.57365
 30
0.0
 11
129.0
 21
206.17365
 31
0.0
  0
LINE
  5
396
330
1E
100
AcDbEntity
  8
0
100
AcDbLine
 10
129.0
 20
205.6736499999999
 30
0.0
 11
133.1999999999999
 21
205.0736499999999
 31
0.0
  0
LINE
  5
39C
330
1E
100
AcDbEntity
  8
0
100
AcDbLine
 10
133.4999999999999
 20
206.0736499999999
 30
0.0
 11
137.7
 21
204.37365
 31
0.0
  0
LINE
  5
39D
330
1E
100
AcDbEntity
  8
0
100
AcDbLine
 10
129.0
 20
206.17365
 30
0.0
 11
133.4
 21
205.57365
 31
0.0
  0
LINE
  5
39E
330
1E
100
AcDbEntity
  8
0
100
AcDbLine
 10
124.5
 20
206.0736499999999
 30
0.0
 11
126.5074015223069
 21
206.3413035363079
 31
0.0
  0
LINE
  5
3A3
330
1E
100
AcDbEntity
  8
0
100
AcDbLine
 10
146.6
 20
206.77365
 30
0.0
 11
150.6999999999999
 21
201.57365
 31
0.0
  0
LINE
  5
3A4
330
1E
100
AcDbEntity
  8
0
100
AcDbLine
 10
131.4578445951869
 20
206.3459373873079
 30
0.0
 11
133.4999999999999
 21
206.0736499999999
 31
0.0
  0
LINE
  5
3A5
330
1E
100
AcDbEntity
  8
0
100
AcDbLine
 10
111.4
 20
206.77365
 30
0.0
 11
116.5999999999999
 21
210.87365
 31
0.0
  0
LINE
  5
3A6
330
1E
100
AcDbEntity
  8
0
100
AcDbLine
 10
116.5999999999999
 20
210.87365
 30
0.0
 11
122.5999999999999
 21
213.27365
 31
0.0
  0
LINE
  5
3A7
330
1E
100
AcDbEntity
  8
0
100
AcDbLine
 10
126.6876
 20
208.94965
 30
0.0
 11
127.2231
 21
208.2526499999999
 31
0.0
  0
LINE
  5
3A8
330
1E
100
AcDbEntity
  8
0
100
AcDbLine
 10
128.0252999999999
 20
207.78565
 30
0.0
 11
128.9723999999999
 21
207.62065
 31
0.0
  0
LINE
  5
3A9
330
1E
100
AcDbEntity
  8
0
100
AcDbLine
 10
128.9723999999999
 20
207.62065
 30
0.0
 11
129.9199999999999
 21
207.78365
 31
0.0
  0
LINE
  5
3AA
330
1E
100
AcDbEntity
  8
0
100
AcDbLine
 10
129.9199999999999
 20
207.78365
 30
0.0
 11
130.7239999999999
 21
208.2496499999999
 31
0.0
  0
LINE
  5
3AB
330
1E
100
AcDbEntity
  8
0
100
AcDbLine
 10
130.7239999999999
 20
208.23165
 30
0.0
 11
131.261
 21
208.92865
 31
0.0
  0
LINE
  5
3AC
330
1E
100
AcDbEntity
  8
0
100
AcDbLine
 10
129.9199999999999
 20
207.7656499999999
 30
0.0
 11
130.7239999999999
 21
208.23165
 31
0.0
  0
LINE
  5
3AD
330
1E
100
AcDbEntity
  8
0
100
AcDbLine
 10
128.9722999999999
 20
207.60265
 30
0.0
 11
129.9199999999999
 21
207.7656499999999
 31
0.0
  0
LINE
  5
3AE
330
1E
100
AcDbEntity
  8
0
100
AcDbLine
 10
128.0252999999999
 20
207.7676499999999
 30
0.0
 11
128.9722999999999
 21
207.60265
 31
0.0
  0
LINE
  5
3AF
330
1E
100
AcDbEntity
  8
0
100
AcDbLine
 10
130.7239999999999
 20
208.2496499999999
 30
0.0
 11
131.262
 21
208.9466499999999
 31
0.0
  0
LINE
  5
3B0
330
1E
100
AcDbEntity
  8
0
100
AcDbLine
 10
127.2231
 20
208.2526499999999
 30
0.0
 11
128.0252999999999
 21
207.78565
 31
0.0
  0
LINE
  5
3B1
330
1E
100
AcDbEntity
  8
0
100
AcDbLine
 10
131.262
 20
208.9466499999999
 30
0.0
 11
131.451
 21
209.76865
 31
0.0
  0
LINE
  5
3B2
330
1E
100
AcDbEntity
  8
0
100
AcDbLine
 10
131.261
 20
208.92865
 30
0.0
 11
131.451
 21
209.75165
 31
0.0
  0
LINE
  5
3B3
330
1E
100
AcDbEntity
  8
0
100
AcDbLine
 10
127.2231
 20
208.2346499999999
 30
0.0
 11
128.0252999999999
 21
207.7676499999999
 31
0.0
  0
LINE
  5
3B4
330
1E
100
AcDbEntity
  8
0
100
AcDbLine
 10
126.6876
 20
208.9326499999999
 30
0.0
 11
127.2231
 21
208.2346499999999
 31
0.0
  0
LINE
  5
3B5
330
1E
100
AcDbEntity
  8
0
100
AcDbLine
 10
126.5
 20
210.95565
 30
0.0
 11
126.5
 21
210.5206499999999
 31
0.0
  0
LINE
  5
3B6
330
1E
100
AcDbEntity
  8
0
100
AcDbLine
 10
126.5
 20
210.95565
 30
0.0
 11
126.5001
 21
211.42965
 31
0.0
  0
LINE
  5
3B7
330
1E
100
AcDbEntity
  8
0
100
AcDbLine
 10
126.5004
 20
211.9216499999999
 30
0.0
 11
126.5122999999999
 21
226.8146499999999
 31
0.0
  0
LINE
  5
3B8
330
1E
100
AcDbEntity
  8
0
100
AcDbLine
 10
126.5001
 20
211.42965
 30
0.0
 11
126.5004
 21
211.9216499999999
 31
0.0
  0
LINE
  5
3B9
330
1E
100
AcDbEntity
  8
0
100
AcDbLine
 10
126.5
 20
210.5206499999999
 30
0.0
 11
126.5002
 21
210.14165
 31
0.0
  0
LINE
  5
3BA
330
1E
100
AcDbEntity
  8
0
100
AcDbLine
 10
126.5
 20
210.5206499999999
 30
0.0
 11
126.5
 21
210.95565
 31
0.0
  0
LINE
  5
3BB
330
1E
100
AcDbEntity
  8
0
100
AcDbLine
 10
126.5002
 20
210.14165
 30
0.0
 11
126.5006999999999
 21
209.7726499999999
 31
0.0
  0
LINE
  5
3BC
330
1E
100
AcDbEntity
  8
0
100
AcDbLine
 10
126.5006999999999
 20
209.7726499999999
 30
0.0
 11
126.6876
 21
208.94965
 31
0.0
  0
LINE
  5
3BD
330
1E
100
AcDbEntity
  8
0
100
AcDbLine
 10
126.5006999999999
 20
209.75565
 30
0.0
 11
126.508397458092
 21
205.833886017013
 31
0.0
  0
LINE
  5
3BE
330
1E
100
AcDbEntity
  8
0
100
AcDbLine
 10
126.5006999999999
 20
209.75565
 30
0.0
 11
126.6876
 21
208.9326499999999
 31
0.0
  0
LINE
  5
3BF
330
1E
100
AcDbEntity
  8
0
100
AcDbLine
 10
131.451
 20
211.91765
 30
0.0
 11
131.451
 21
211.4256499999999
 31
0.0
  0
LINE
  5
3C0
330
1E
100
AcDbEntity
  8
0
100
AcDbLine
 10
131.451
 20
211.91765
 30
0.0
 11
131.4629999999999
 21
226.81065
 31
0.0
  0
LINE
  5
3C1
330
1E
100
AcDbEntity
  8
0
100
AcDbLine
 10
131.451
 20
211.4256499999999
 30
0.0
 11
131.451
 21
210.95165
 31
0.0
  0
LINE
  5
3C2
330
1E
100
AcDbEntity
  8
0
100
AcDbLine
 10
131.451
 20
211.4256499999999
 30
0.0
 11
131.451
 21
211.91765
 31
0.0
  0
LINE
  5
3C3
330
1E
100
AcDbEntity
  8
0
100
AcDbLine
 10
131.451
 20
210.95165
 30
0.0
 11
131.451
 21
210.51665
 31
0.0
  0
LINE
  5
3C4
330
1E
100
AcDbEntity
  8
0
100
AcDbLine
 10
131.451
 20
210.95165
 30
0.0
 11
131.451
 21
211.4256499999999
 31
0.0
  0
LINE
  5
3C5
330
1E
100
AcDbEntity
  8
0
100
AcDbLine
 10
131.451
 20
210.51665
 30
0.0
 11
131.451
 21
210.13765
 31
0.0
  0
LINE
  5
3C6
330
1E
100
AcDbEntity
  8
0
100
AcDbLine
 10
131.451
 20
210.51665
 30
0.0
 11
131.451
 21
210.95165
 31
0.0
  0
LINE
  5
3C7
330
1E
100
AcDbEntity
  8
0
100
AcDbLine
 10
131.451
 20
210.13765
 30
0.0
 11
131.451
 21
209.76865
 31
0.0
  0
LINE
  5
3C8
330
1E
100
AcDbEntity
  8
0
100
AcDbLine
 10
131.451
 20
210.13765
 30
0.0
 11
131.451
 21
210.51665
 31
0.0
  0
LINE
  5
3C9
330
1E
100
AcDbEntity
  8
0
100
AcDbLine
 10
131.451
 20
209.76865
 30
0.0
 11
131.451
 21
210.13765
 31
0.0
  0
LINE
  5
3CA
330
1E
100
AcDbEntity
  8
0
100
AcDbLine
 10
131.451
 20
209.75165
 30
0.0
 11
131.4588647130769
 21
205.838350266399
 31
0.0
  0
LINE
  5
3CB
330
1E
100
AcDbEntity
  8
0
100
AcDbLine
 10
141.4
 20
210.87365
 30
0.0
 11
146.6
 21
206.77365
 31
0.0
  0
LINE
  5
3CC
330
1E
100
AcDbEntity
  8
0
100
AcDbLine
 10
135.4
 20
213.27365
 30
0.0
 11
141.4
 21
210.87365
 31
0.0
  0
LINE
  5
3CD
330
1E
100
AcDbEntity
  8
0
100
AcDbLine
 10
122.5999999999999
 20
213.27365
 30
0.0
 11
126.501918728068
 21
213.8223573211349
 31
0.0
  0
LINE
  5
3D0
330
1E
100
AcDbEntity
  8
0
100
AcDbLine
 10
131.452539873697
 20
213.8287615802609
 30
0.0
 11
135.4
 21
213.27365
 31
0.0
  0
LINE
  5
3F0
330
1E
100
AcDbEntity
  8
0
100
AcDbLine
 10
128.9837
 20
226.81265
 30
0.0
 11
129.931
 21
226.81165
 31
0.0
  0
LINE
  5
3F1
330
1E
100
AcDbEntity
  8
0
100
AcDbLine
 10
129.931
 20
226.81165
 30
0.0
 11
130.735
 21
226.81165
 31
0.0
  0
LINE
  5
3F2
330
1E
100
AcDbEntity
  8
0
100
AcDbLine
 10
131.2729999999999
 20
226.81065
 30
0.0
 11
131.4629999999999
 21
226.81065
 31
0.0
  0
LINE
  5
3F3
330
1E
100
AcDbEntity
  8
0
100
AcDbLine
 10
130.741
 20
226.81165
 30
0.0
 11
131.276
 21
226.81065
 31
0.0
  0
LINE
  5
3F4
330
1E
100
AcDbEntity
  8
0
100
AcDbLine
 10
130.735
 20
226.81165
 30
0.0
 11
131.2729999999999
 21
226.81065
 31
0.0
  0
LINE
  5
3F5
330
1E
100
AcDbEntity
  8
0
100
AcDbLine
 10
128.9915
 20
226.81265
 30
0.0
 11
129.939
 21
226.81165
 31
0.0
  0
LINE
  5
3F6
330
1E
100
AcDbEntity
  8
0
100
AcDbLine
 10
128.0439
 20
226.81365
 30
0.0
 11
128.9915
 21
226.81265
 31
0.0
  0
LINE
  5
3F7
330
1E
100
AcDbEntity
  8
0
100
AcDbLine
 10
126.5122999999999
 20
226.8146499999999
 30
0.0
 11
126.6990999999999
 21
226.8146499999999
 31
0.0
  0
LINE
  5
3F8
330
1E
100
AcDbEntity
  8
0
100
AcDbLine
 10
126.6990999999999
 20
226.8146499999999
 30
0.0
 11
127.2345
 21
226.8146499999999
 31
0.0
  0
LINE
  5
3F9
330
1E
100
AcDbEntity
  8
0
100
AcDbLine
 10
127.2399999999999
 20
226.8146499999999
 30
0.0
 11
128.0439
 21
226.81365
 31
0.0
  0
LINE
  5
3FA
330
1E
100
AcDbEntity
  8
0
100
AcDbLine
 10
127.2345
 20
226.8146499999999
 30
0.0
 11
128.0365999999999
 21
226.81365
 31
0.0
  0
LINE
  5
3FB
330
1E
100
AcDbEntity
  8
0
100
AcDbLine
 10
128.0365999999999
 20
226.81365
 30
0.0
 11
128.9837
 21
226.81265
 31
0.0
  0
LINE
  5
3FC
330
1E
100
AcDbEntity
  8
0
100
AcDbLine
 10
128.0365999999999
 20
226.81365
 30
0.0
 11
130.735
 21
226.81165
 31
0.0
  0
LINE
  5
41A
330
1E
100
AcDbEntity
  8
0
100
AcDbLine
 10
50.7
 20
201.57365
 30
0.0
 11
53.1
 21
195.57365
 31
0.0
  0
LINE
  5
41B
330
1E
100
AcDbEntity
  8
0
100
AcDbLine
 10
53.1
 20
195.57365
 30
0.0
 11
53.7350157728707
 21
191.057982281809
 31
0.0
  0
LINE
  5
41C
330
1E
100
AcDbEntity
  8
0
100
AcDbLine
 10
45.4
 20
193.5736499999999
 30
0.0
 11
45.5800275763456
 21
192.253447773465
 31
0.0
  0
LINE
  5
41D
330
1E
100
AcDbEntity
  8
0
100
AcDbLine
 10
13.1
 20
184.9736499999999
 30
0.0
 11
14.69999999999999
 21
180.9736499999999
 31
0.0
  0
LINE
  5
41E
330
1E
100
AcDbEntity
  8
0
100
AcDbLine
 10
12.96796572657719
 20
185.89788991396
 30
0.0
 11
13.1
 21
184.9736499999999
 31
0.0
  0
LINE
  5
41F
330
1E
100
AcDbEntity
  8
0
100
AcDbLine
 10
12.6
 20
184.77365
 30
0.0
 11
14.3
 21
180.67365
 31
0.0
  0
LINE
  5
420
330
1E
100
AcDbEntity
  8
0
100
AcDbLine
 10
12.4199724236544
 20
186.093852226535
 30
0.0
 11
12.6
 21
184.77365
 31
0.0
  0
LINE
  5
425
330
1E
100
AcDbEntity
  8
0
100
AcDbLine
 10
139.5
 20
189.17365
 30
0.0
 11
138.7672652998314
 21
192.4972379834707
 31
0.0
  0
LINE
  5
426
330
1E
100
AcDbEntity
  8
0
100
AcDbLine
 10
138.7672652998314
 20
192.4972379834707
 30
0.0
 11
138.1
 21
194.3736499999999
 31
0.0
  0
LINE
  5
427
330
1E
100
AcDbEntity
  8
0
100
AcDbLine
 10
144.1999999999999
 20
197.87365
 30
0.0
 11
145.9
 21
193.67365
 31
0.0
  0
LINE
  5
428
330
1E
100
AcDbEntity
  8
0
100
AcDbLine
 10
113.7999999999999
 20
197.87365
 30
0.0
 11
112.128834681243
 21
193.6780128980548
 31
0.0
  0
LINE
  5
429
330
1E
100
AcDbEntity
  8
0
100
AcDbLine
 10
112.128834681243
 20
193.6780128980548
 30
0.0
 11
111.5155833811952
 21
189.2746140609619
 31
0.0
  0
LINE
  5
42A
330
1E
100
AcDbEntity
  8
0
100
AcDbLine
 10
111.5155833811952
 20
189.2746140609619
 30
0.0
 11
112.0999999999999
 21
184.67365
 31
0.0
  0
LINE
  5
42B
330
1E
100
AcDbEntity
  8
0
100
AcDbLine
 10
144.1999999999999
 20
180.4736499999999
 30
0.0
 11
145.9
 21
184.67365
 31
0.0
  0
LINE
  5
42C
330
1E
100
AcDbEntity
  8
0
100
AcDbLine
 10
118.5
 20
189.17365
 30
0.0
 11
118.9495478301191
 21
192.2204531537402
 31
0.0
  0
LINE
  5
42D
330
1E
100
AcDbEntity
  8
0
100
AcDbLine
 10
118.9495478301191
 20
192.2204531537402
 30
0.0
 11
119.9
 21
194.3736499999999
 31
0.0
  0
LINE
  5
42E
330
1E
100
AcDbEntity
  8
0
100
AcDbLine
 10
41.39999999999999
 20
201.57365
 30
0.0
 11
44.2
 21
197.87365
 31
0.0
  0
LINE
  5
42F
330
1E
100
AcDbEntity
  8
0
100
AcDbLine
 10
211.3999999999999
 20
206.77365
 30
0.0
 11
207.2999999999999
 21
201.57365
 31
0.0
  0
LINE
  5
430
330
1E
100
AcDbEntity
  8
0
100
AcDbLine
 10
210.0
 20
186.8736499999999
 30
0.0
 11
206.0
 21
187.17365
 31
0.0
  0
LINE
  5
431
330
1E
100
AcDbEntity
  8
0
100
AcDbLine
 10
209.9979999999999
 20
188.0736499999999
 30
0.0
 11
206.0229
 21
188.3736499999999
 31
0.0
  0
LINE
  5
432
330
1E
100
AcDbEntity
  8
0
100
AcDbLine
 10
210.0
 20
191.47365
 30
0.0
 11
206.0
 21
191.17365
 31
0.0
  0
LINE
  5
433
330
1E
100
AcDbEntity
  8
0
100
AcDbLine
 10
209.9979999999999
 20
190.2736499999999
 30
0.0
 11
206.0229
 21
189.9736499999999
 31
0.0
  0
LINE
  5
434
330
1E
100
AcDbEntity
  8
0
100
AcDbLine
 10
211.3999999999999
 20
171.57365
 30
0.0
 11
207.2999999999999
 21
176.7736499999999
 31
0.0
  0
LINE
  5
435
330
1E
100
AcDbEntity
  8
0
100
AcDbLine
 10
245.4
 20
184.77365
 30
0.0
 11
243.6999999999999
 21
180.67365
 31
0.0
  0
LINE
  5
436
330
1E
100
AcDbEntity
  8
0
100
AcDbLine
 10
244.9
 20
184.9736499999999
 30
0.0
 11
243.3
 21
180.9736499999999
 31
0.0
  0
LINE
  5
437
330
1E
100
AcDbEntity
  8
0
100
AcDbLine
 10
241.704
 20
185.18365
 30
0.0
 11
239.4223
 21
183.17365
 31
0.0
  0
LINE
  5
438
330
1E
100
AcDbEntity
  8
0
100
AcDbLine
 10
239.1
 20
186.47365
 30
0.0
 11
238.0999999999999
 21
183.9736499999999
 31
0.0
  0
LINE
  5
439
330
1E
100
AcDbEntity
  8
0
100
AcDbLine
 10
242.3928
 20
184.4226499999999
 30
0.0
 11
240.3999999999999
 21
182.5736499999999
 31
0.0
  0
LINE
  5
43A
330
1E
100
AcDbEntity
  8
0
100
AcDbLine
 10
219.9
 20
183.9736499999999
 30
0.0
 11
218.9
 21
186.47365
 31
0.0
  0
LINE
  5
43B
330
1E
100
AcDbEntity
  8
0
100
AcDbLine
 10
217.6
 20
182.5736499999999
 30
0.0
 11
215.6071999999999
 21
184.4226499999999
 31
0.0
  0
LINE
  5
43C
330
1E
100
AcDbEntity
  8
0
100
AcDbLine
 10
218.5776999999999
 20
183.17365
 30
0.0
 11
216.2959999999999
 21
185.18365
 31
0.0
  0
LINE
  5
43D
330
1E
100
AcDbEntity
  8
0
100
AcDbLine
 10
214.3
 20
180.67365
 30
0.0
 11
212.5999999999999
 21
184.77365
 31
0.0
  0
LINE
  5
43E
330
1E
100
AcDbEntity
  8
0
100
AcDbLine
 10
214.6999999999999
 20
180.9736499999999
 30
0.0
 11
213.0999999999999
 21
184.9736499999999
 31
0.0
  0
LINE
  5
43F
330
1E
100
AcDbEntity
  8
0
100
AcDbLine
 10
224.8415
 20
173.67365
 30
0.0
 11
213.5
 21
185.0156499999999
 31
0.0
  0
LINE
  5
440
330
1E
100
AcDbEntity
  8
0
100
AcDbLine
 10
253.7350157728706
 20
187.2893177181909
 30
0.0
 11
253.1
 21
182.77365
 31
0.0
  0
LINE
  5
441
330
1E
100
AcDbEntity
  8
0
100
AcDbLine
 10
250.7
 20
176.7736499999999
 30
0.0
 11
246.6
 21
171.57365
 31
0.0
  0
LINE
  5
442
330
1E
100
AcDbEntity
  8
0
100
AcDbLine
 10
253.1
 20
182.77365
 30
0.0
 11
250.7
 21
176.7736499999999
 31
0.0
  0
LINE
  5
443
330
1E
100
AcDbEntity
  8
0
100
AcDbLine
 10
231.6999999999999
 20
179.0736499999999
 30
0.0
 11
229.0
 21
178.67365
 31
0.0
  0
LINE
  5
444
330
1E
100
AcDbEntity
  8
0
100
AcDbLine
 10
229.8
 20
160.17365
 30
0.0
 11
229.0
 21
160.17365
 31
0.0
  0
LINE
  5
445
330
1E
100
AcDbEntity
  8
0
100
AcDbLine
 10
231.3
 20
170.17365
 30
0.0
 11
231.0
 21
166.17365
 31
0.0
  0
LINE
  5
446
330
1E
100
AcDbEntity
  8
0
100
AcDbLine
 10
230.1
 20
170.17165
 30
0.0
 11
229.8
 21
166.19665
 31
0.0
  0
LINE
  5
447
330
1E
100
AcDbEntity
  8
0
100
AcDbLine
 10
241.4
 20
167.4736499999999
 30
0.0
 11
235.4
 21
165.0736499999999
 31
0.0
  0
LINE
  5
448
330
1E
100
AcDbEntity
  8
0
100
AcDbLine
 10
235.4
 20
165.0736499999999
 30
0.0
 11
230.8843322818086
 21
164.438634227129
 31
0.0
  0
LINE
  5
449
330
1E
100
AcDbEntity
  8
0
100
AcDbLine
 10
235.4
 20
165.0736499999999
 30
0.0
 11
230.8843322818086
 21
164.438634227129
 31
0.0
  0
LINE
  5
44A
330
1E
100
AcDbEntity
  8
0
100
AcDbLine
 10
229.8
 20
161.70265
 30
0.0
 11
229.8
 21
162.79865
 31
0.0
  0
LINE
  5
44B
330
1E
100
AcDbEntity
  8
0
100
AcDbLine
 10
229.8
 20
162.79865
 30
0.0
 11
229.8
 21
161.70265
 31
0.0
  0
LINE
  5
44C
330
1E
100
AcDbEntity
  8
0
100
AcDbLine
 10
230.8
 20
163.17365
 30
0.0
 11
230.3
 21
160.67365
 31
0.0
  0
LINE
  5
44D
330
1E
100
AcDbEntity
  8
0
100
AcDbLine
 10
229.8
 20
160.17365
 30
0.0
 11
229.8
 21
160.52965
 31
0.0
  0
LINE
  5
44E
330
1E
100
AcDbEntity
  8
0
100
AcDbLine
 10
230.3
 20
160.67365
 30
0.0
 11
229.8
 21
160.17365
 31
0.0
  0
LINE
  5
44F
330
1E
100
AcDbEntity
  8
0
100
AcDbLine
 10
229.8
 20
160.52965
 30
0.0
 11
229.8
 21
160.17365
 31
0.0
  0
LINE
  5
450
330
1E
100
AcDbEntity
  8
0
100
AcDbLine
 10
229.8
 20
160.52965
 30
0.0
 11
229.8
 21
161.04865
 31
0.0
  0
LINE
  5
451
330
1E
100
AcDbEntity
  8
0
100
AcDbLine
 10
229.8
 20
161.04865
 30
0.0
 11
229.8
 21
160.52965
 31
0.0
  0
LINE
  5
452
330
1E
100
AcDbEntity
  8
0
100
AcDbLine
 10
229.8
 20
161.04865
 30
0.0
 11
229.8
 21
161.70265
 31
0.0
  0
LINE
  5
453
330
1E
100
AcDbEntity
  8
0
100
AcDbLine
 10
229.8
 20
161.70265
 30
0.0
 11
229.8
 21
161.04865
 31
0.0
  0
LINE
  5
454
330
1E
100
AcDbEntity
  8
0
100
AcDbLine
 10
231.0
 20
166.17365
 30
0.0
 11
230.8
 21
163.17365
 31
0.0
  0
LINE
  5
455
330
1E
100
AcDbEntity
  8
0
100
AcDbLine
 10
229.8
 20
166.19665
 30
0.0
 11
229.8
 21
164.29865
 31
0.0
  0
LINE
  5
456
330
1E
100
AcDbEntity
  8
0
100
AcDbLine
 10
229.8
 20
162.79865
 30
0.0
 11
229.8
 21
164.29865
 31
0.0
  0
LINE
  5
457
330
1E
100
AcDbEntity
  8
0
100
AcDbLine
 10
229.8
 20
164.29865
 30
0.0
 11
229.8
 21
162.79865
 31
0.0
  0
LINE
  5
458
330
1E
100
AcDbEntity
  8
0
100
AcDbLine
 10
229.8
 20
164.29865
 30
0.0
 11
229.8
 21
166.19665
 31
0.0
  0
LINE
  5
459
330
1E
100
AcDbEntity
  8
0
100
AcDbLine
 10
240.3999999999999
 20
182.5736499999999
 30
0.0
 11
238.3
 21
179.8736499999999
 31
0.0
  0
LINE
  5
45A
330
1E
100
AcDbEntity
  8
0
100
AcDbLine
 10
241.0
 20
177.17365
 30
0.0
 11
237.5
 21
174.4736499999999
 31
0.0
  0
LINE
  5
45B
330
1E
100
AcDbEntity
  8
0
100
AcDbLine
 10
240.7
 20
177.4736499999999
 30
0.0
 11
237.1999999999999
 21
174.8736499999999
 31
0.0
  0
LINE
  5
45C
330
1E
100
AcDbEntity
  8
0
100
AcDbLine
 10
240.3414999999999
 20
177.83265
 30
0.0
 11
234.101123798826
 21
176.158216153504
 31
0.0
  0
LINE
  5
45D
330
1E
100
AcDbEntity
  8
0
100
AcDbLine
 10
246.6
 20
171.57365
 30
0.0
 11
241.4
 21
167.4736499999999
 31
0.0
  0
LINE
  5
45E
330
1E
100
AcDbEntity
  8
0
100
AcDbLine
 10
243.6999999999999
 20
180.67365
 30
0.0
 11
241.0
 21
177.17365
 31
0.0
  0
LINE
  5
45F
330
1E
100
AcDbEntity
  8
0
100
AcDbLine
 10
243.3
 20
180.9736499999999
 30
0.0
 11
240.7
 21
177.4736499999999
 31
0.0
  0
LINE
  5
460
330
1E
100
AcDbEntity
  8
0
100
AcDbLine
 10
242.0157925787416
 20
184.0728473495049
 30
0.0
 11
240.3414999999999
 21
177.83265
 31
0.0
  0
LINE
  5
461
330
1E
100
AcDbEntity
  8
0
100
AcDbLine
 10
232.9902
 20
176.46965
 30
0.0
 11
231.1463999999999
 21
173.71565
 31
0.0
  0
LINE
  5
462
330
1E
100
AcDbEntity
  8
0
100
AcDbLine
 10
233.7508
 20
175.78065
 30
0.0
 11
232.2296
 21
173.05965
 31
0.0
  0
LINE
  5
463
330
1E
100
AcDbEntity
  8
0
100
AcDbLine
 10
237.5
 20
174.4736499999999
 30
0.0
 11
233.4
 21
172.7736499999999
 31
0.0
  0
LINE
  5
464
330
1E
100
AcDbEntity
  8
0
100
AcDbLine
 10
237.1999999999999
 20
174.8736499999999
 30
0.0
 11
233.1999999999999
 21
173.27365
 31
0.0
  0
LINE
  5
465
330
1E
100
AcDbEntity
  8
0
100
AcDbLine
 10
231.1463999999999
 20
173.71565
 30
0.0
 11
230.1
 21
170.17165
 31
0.0
  0
LINE
  5
466
330
1E
100
AcDbEntity
  8
0
100
AcDbLine
 10
232.2296
 20
173.05965
 30
0.0
 11
231.3
 21
170.17365
 31
0.0
  0
LINE
  5
467
330
1E
100
AcDbEntity
  8
0
100
AcDbLine
 10
233.4
 20
172.7736499999999
 30
0.0
 11
232.079475217122
 21
172.593578438698
 31
0.0
  0
LINE
  5
468
330
1E
100
AcDbEntity
  8
0
100
AcDbLine
 10
233.1999999999999
 20
173.27365
 30
0.0
 11
232.2753944926907
 21
173.1415634989559
 31
0.0
  0
LINE
  5
469
330
1E
100
AcDbEntity
  8
0
100
AcDbLine
 10
236.4
 20
181.77365
 30
0.0
 11
234.2
 21
180.07365
 31
0.0
  0
LINE
  5
46A
330
1E
100
AcDbEntity
  8
0
100
AcDbLine
 10
235.0
 20
178.75165
 30
0.0
 11
232.9902
 21
176.46965
 31
0.0
  0
LINE
  5
46B
330
1E
100
AcDbEntity
  8
0
100
AcDbLine
 10
235.5999999999999
 20
177.77365
 30
0.0
 11
233.7508
 21
175.78065
 31
0.0
  0
LINE
  5
46C
330
1E
100
AcDbEntity
  8
0
100
AcDbLine
 10
238.3
 20
179.8736499999999
 30
0.0
 11
235.5999999999999
 21
177.77365
 31
0.0
  0
LINE
  5
46D
330
1E
100
AcDbEntity
  8
0
100
AcDbLine
 10
237.5
 20
180.67365
 30
0.0
 11
235.0
 21
178.75165
 31
0.0
  0
LINE
  5
46E
330
1E
100
AcDbEntity
  8
0
100
AcDbLine
 10
238.0999999999999
 20
183.9736499999999
 30
0.0
 11
236.4
 21
181.77365
 31
0.0
  0
LINE
  5
46F
330
1E
100
AcDbEntity
  8
0
100
AcDbLine
 10
239.4223
 20
183.17365
 30
0.0
 11
237.5
 21
180.67365
 31
0.0
  0
LINE
  5
470
330
1E
100
AcDbEntity
  8
0
100
AcDbLine
 10
234.2
 20
180.07365
 30
0.0
 11
231.6999999999999
 21
179.0736499999999
 31
0.0
  0
LINE
  5
471
330
1E
100
AcDbEntity
  8
0
100
AcDbLine
 10
222.5999999999999
 20
165.0736499999999
 30
0.0
 11
216.5999999999999
 21
167.4736499999999
 31
0.0
  0
LINE
  5
472
330
1E
100
AcDbEntity
  8
0
100
AcDbLine
 10
227.0
 20
166.17365
 30
0.0
 11
226.6999999999999
 21
170.17365
 31
0.0
  0
LINE
  5
473
330
1E
100
AcDbEntity
  8
0
100
AcDbLine
 10
228.2
 20
166.19665
 30
0.0
 11
227.8999999999999
 21
170.17165
 31
0.0
  0
LINE
  5
474
330
1E
100
AcDbEntity
  8
0
100
AcDbLine
 10
227.1156677181914
 20
164.438634227129
 30
0.0
 11
222.5999999999999
 21
165.0736499999999
 31
0.0
  0
LINE
  5
475
330
1E
100
AcDbEntity
  8
0
100
AcDbLine
 10
227.1156677181914
 20
164.438634227129
 30
0.0
 11
222.5999999999999
 21
165.0736499999999
 31
0.0
  0
LINE
  5
476
330
1E
100
AcDbEntity
  8
0
100
AcDbLine
 10
228.2
 20
161.70265
 30
0.0
 11
228.2
 21
162.79865
 31
0.0
  0
LINE
  5
477
330
1E
100
AcDbEntity
  8
0
100
AcDbLine
 10
228.2
 20
162.79865
 30
0.0
 11
228.2
 21
161.70265
 31
0.0
  0
LINE
  5
478
330
1E
100
AcDbEntity
  8
0
100
AcDbLine
 10
227.7
 20
160.67365
 30
0.0
 11
227.1999999999999
 21
163.17365
 31
0.0
  0
LINE
  5
479
330
1E
100
AcDbEntity
  8
0
100
AcDbLine
 10
228.2
 20
161.04865
 30
0.0
 11
228.2
 21
161.70265
 31
0.0
  0
LINE
  5
47A
330
1E
100
AcDbEntity
  8
0
100
AcDbLine
 10
228.2
 20
161.04865
 30
0.0
 11
228.2
 21
160.52965
 31
0.0
  0
LINE
  5
47B
330
1E
100
AcDbEntity
  8
0
100
AcDbLine
 10
228.2
 20
161.70265
 30
0.0
 11
228.2
 21
161.04865
 31
0.0
  0
LINE
  5
47C
330
1E
100
AcDbEntity
  8
0
100
AcDbLine
 10
228.2
 20
160.52965
 30
0.0
 11
228.2
 21
161.04865
 31
0.0
  0
LINE
  5
47D
330
1E
100
AcDbEntity
  8
0
100
AcDbLine
 10
228.2
 20
160.52965
 30
0.0
 11
228.2
 21
160.17365
 31
0.0
  0
LINE
  5
47E
330
1E
100
AcDbEntity
  8
0
100
AcDbLine
 10
229.0
 20
160.17365
 30
0.0
 11
228.2
 21
160.17365
 31
0.0
  0
LINE
  5
47F
330
1E
100
AcDbEntity
  8
0
100
AcDbLine
 10
228.2
 20
160.17365
 30
0.0
 11
227.7
 21
160.67365
 31
0.0
  0
LINE
  5
480
330
1E
100
AcDbEntity
  8
0
100
AcDbLine
 10
228.2
 20
160.17365
 30
0.0
 11
228.2
 21
160.52965
 31
0.0
  0
LINE
  5
481
330
1E
100
AcDbEntity
  8
0
100
AcDbLine
 10
228.2
 20
166.19665
 30
0.0
 11
228.2
 21
164.29865
 31
0.0
  0
LINE
  5
482
330
1E
100
AcDbEntity
  8
0
100
AcDbLine
 10
228.2
 20
162.79865
 30
0.0
 11
228.2
 21
164.29865
 31
0.0
  0
LINE
  5
483
330
1E
100
AcDbEntity
  8
0
100
AcDbLine
 10
228.2
 20
164.29865
 30
0.0
 11
228.2
 21
166.19665
 31
0.0
  0
LINE
  5
484
330
1E
100
AcDbEntity
  8
0
100
AcDbLine
 10
228.2
 20
164.29865
 30
0.0
 11
228.2
 21
162.79865
 31
0.0
  0
LINE
  5
485
330
1E
100
AcDbEntity
  8
0
100
AcDbLine
 10
227.1999999999999
 20
163.17365
 30
0.0
 11
227.0
 21
166.17365
 31
0.0
  0
LINE
  5
486
330
1E
100
AcDbEntity
  8
0
100
AcDbLine
 10
220.5
 20
180.67365
 30
0.0
 11
218.5776999999999
 21
183.17365
 31
0.0
  0
LINE
  5
487
330
1E
100
AcDbEntity
  8
0
100
AcDbLine
 10
222.4
 20
177.77365
 30
0.0
 11
219.7
 21
179.8736499999999
 31
0.0
  0
LINE
  5
488
330
1E
100
AcDbEntity
  8
0
100
AcDbLine
 10
220.5
 20
174.4736499999999
 30
0.0
 11
217.0
 21
177.17365
 31
0.0
  0
LINE
  5
489
330
1E
100
AcDbEntity
  8
0
100
AcDbLine
 10
220.8
 20
174.8736499999999
 30
0.0
 11
217.3
 21
177.4736499999999
 31
0.0
  0
LINE
  5
48A
330
1E
100
AcDbEntity
  8
0
100
AcDbLine
 10
226.8536
 20
173.71565
 30
0.0
 11
225.0097999999999
 21
176.46965
 31
0.0
  0
LINE
  5
48B
330
1E
100
AcDbEntity
  8
0
100
AcDbLine
 10
225.7703999999999
 20
173.05965
 30
0.0
 11
224.2491999999999
 21
175.78065
 31
0.0
  0
LINE
  5
48C
330
1E
100
AcDbEntity
  8
0
100
AcDbLine
 10
225.920524782878
 20
172.593578438698
 30
0.0
 11
224.5999999999999
 21
172.7736499999999
 31
0.0
  0
LINE
  5
48D
330
1E
100
AcDbEntity
  8
0
100
AcDbLine
 10
224.8
 20
173.27365
 30
0.0
 11
220.8
 21
174.8736499999999
 31
0.0
  0
LINE
  5
48E
330
1E
100
AcDbEntity
  8
0
100
AcDbLine
 10
226.6999999999999
 20
170.17365
 30
0.0
 11
225.7703999999999
 21
173.05965
 31
0.0
  0
LINE
  5
48F
330
1E
100
AcDbEntity
  8
0
100
AcDbLine
 10
227.8999999999999
 20
170.17165
 30
0.0
 11
226.8536
 21
173.71565
 31
0.0
  0
LINE
  5
490
330
1E
100
AcDbEntity
  8
0
100
AcDbLine
 10
225.3507465170652
 20
173.8102923396439
 30
0.0
 11
224.8415
 21
173.67365
 31
0.0
  0
LINE
  5
491
330
1E
100
AcDbEntity
  8
0
100
AcDbLine
 10
225.7246055073092
 20
173.1415634989559
 30
0.0
 11
224.8
 21
173.27365
 31
0.0
  0
LINE
  5
492
330
1E
100
AcDbEntity
  8
0
100
AcDbLine
 10
224.5999999999999
 20
172.7736499999999
 30
0.0
 11
220.5
 21
174.4736499999999
 31
0.0
  0
LINE
  5
493
330
1E
100
AcDbEntity
  8
0
100
AcDbLine
 10
226.3
 20
179.0736499999999
 30
0.0
 11
223.7999999999999
 21
180.07365
 31
0.0
  0
LINE
  5
494
330
1E
100
AcDbEntity
  8
0
100
AcDbLine
 10
225.0097999999999
 20
176.46965
 30
0.0
 11
223.0
 21
178.75165
 31
0.0
  0
LINE
  5
495
330
1E
100
AcDbEntity
  8
0
100
AcDbLine
 10
229.0
 20
178.67365
 30
0.0
 11
226.3
 21
179.0736499999999
 31
0.0
  0
LINE
  5
496
330
1E
100
AcDbEntity
  8
0
100
AcDbLine
 10
223.0
 20
178.75165
 30
0.0
 11
220.5
 21
180.67365
 31
0.0
  0
LINE
  5
497
330
1E
100
AcDbEntity
  8
0
100
AcDbLine
 10
224.2491999999999
 20
175.78065
 30
0.0
 11
222.4
 21
177.77365
 31
0.0
  0
LINE
  5
498
330
1E
100
AcDbEntity
  8
0
100
AcDbLine
 10
223.7999999999999
 20
180.07365
 30
0.0
 11
221.6
 21
181.77365
 31
0.0
  0
LINE
  5
499
330
1E
100
AcDbEntity
  8
0
100
AcDbLine
 10
221.6
 20
181.77365
 30
0.0
 11
219.9
 21
183.9736499999999
 31
0.0
  0
LINE
  5
49A
330
1E
100
AcDbEntity
  8
0
100
AcDbLine
 10
216.5999999999999
 20
167.4736499999999
 30
0.0
 11
211.3999999999999
 21
171.57365
 31
0.0
  0
LINE
  5
49B
330
1E
100
AcDbEntity
  8
0
100
AcDbLine
 10
217.0
 20
177.17365
 30
0.0
 11
214.3
 21
180.67365
 31
0.0
  0
LINE
  5
49C
330
1E
100
AcDbEntity
  8
0
100
AcDbLine
 10
217.3
 20
177.4736499999999
 30
0.0
 11
214.6999999999999
 21
180.9736499999999
 31
0.0
  0
LINE
  5
49D
330
1E
100
AcDbEntity
  8
0
100
AcDbLine
 10
219.7
 20
179.8736499999999
 30
0.0
 11
217.6
 21
182.5736499999999
 31
0.0
  0
LINE
  5
49E
330
1E
100
AcDbEntity
  8
0
100
AcDbLine
 10
250.7
 20
201.57365
 30
0.0
 11
246.6
 21
206.77365
 31
0.0
  0
LINE
  5
49F
330
1E
100
AcDbEntity
  8
0
100
AcDbLine
 10
252.0
 20
191.17365
 30
0.0
 11
248.0
 21
191.47365
 31
0.0
  0
LINE
  5
4A0
330
1E
100
AcDbEntity
  8
0
100
AcDbLine
 10
252.0
 20
187.17365
 30
0.0
 11
248.0
 21
186.8736499999999
 31
0.0
  0
LINE
  5
4A1
330
1E
100
AcDbEntity
  8
0
100
AcDbLine
 10
251.9770999999999
 20
188.3736499999999
 30
0.0
 11
248.002
 21
188.0736499999999
 31
0.0
  0
LINE
  5
4A2
330
1E
100
AcDbEntity
  8
0
100
AcDbLine
 10
251.9770999999999
 20
189.9736499999999
 30
0.0
 11
248.002
 21
190.2736499999999
 31
0.0
  0
LINE
  5
4A3
330
1E
100
AcDbEntity
  8
0
100
AcDbLine
 10
253.7350157728706
 20
191.057982281809
 30
0.0
 11
253.1
 21
195.57365
 31
0.0
  0
LINE
  5
4A4
330
1E
100
AcDbEntity
  8
0
100
AcDbLine
 10
255.0
 20
190.9736499999999
 30
0.0
 11
252.0
 21
191.17365
 31
0.0
  0
LINE
  5
4A5
330
1E
100
AcDbEntity
  8
0
100
AcDbLine
 10
255.3746999999999
 20
189.9736499999999
 30
0.0
 11
253.8748
 21
189.9736499999999
 31
0.0
  0
LINE
  5
4A6
330
1E
100
AcDbEntity
  8
0
100
AcDbLine
 10
255.3746999999999
 20
188.3736499999999
 30
0.0
 11
253.8748
 21
188.3736499999999
 31
0.0
  0
LINE
  5
4A7
330
1E
100
AcDbEntity
  8
0
100
AcDbLine
 10
255.0
 20
187.3736499999999
 30
0.0
 11
252.0
 21
187.17365
 31
0.0
  0
LINE
  5
4A8
330
1E
100
AcDbEntity
  8
0
100
AcDbLine
 10
258.0
 20
188.3736499999999
 30
0.0
 11
258.0
 21
189.17365
 31
0.0
  0
LINE
  5
4A9
330
1E
100
AcDbEntity
  8
0
100
AcDbLine
 10
258.0
 20
189.17365
 30
0.0
 11
258.0
 21
188.3736499999999
 31
0.0
  0
LINE
  5
4AA
330
1E
100
AcDbEntity
  8
0
100
AcDbLine
 10
257.6438
 20
188.3736499999999
 30
0.0
 11
257.1245999999999
 21
188.3736499999999
 31
0.0
  0
LINE
  5
4AB
330
1E
100
AcDbEntity
  8
0
100
AcDbLine
 10
257.5
 20
187.87365
 30
0.0
 11
255.0
 21
187.3736499999999
 31
0.0
  0
LINE
  5
4AC
330
1E
100
AcDbEntity
  8
0
100
AcDbLine
 10
258.0
 20
188.3736499999999
 30
0.0
 11
257.5
 21
187.87365
 31
0.0
  0
LINE
  5
4AD
330
1E
100
AcDbEntity
  8
0
100
AcDbLine
 10
258.0
 20
188.3736499999999
 30
0.0
 11
257.6438
 21
188.3736499999999
 31
0.0
  0
LINE
  5
4AE
330
1E
100
AcDbEntity
  8
0
100
AcDbLine
 10
257.1245999999999
 20
188.3736499999999
 30
0.0
 11
256.4707999999999
 21
188.3736499999999
 31
0.0
  0
LINE
  5
4AF
330
1E
100
AcDbEntity
  8
0
100
AcDbLine
 10
256.4707999999999
 20
188.3736499999999
 30
0.0
 11
255.3746999999999
 21
188.3736499999999
 31
0.0
  0
LINE
  5
4B0
330
1E
100
AcDbEntity
  8
0
100
AcDbLine
 10
257.5
 20
190.47365
 30
0.0
 11
255.0
 21
190.9736499999999
 31
0.0
  0
LINE
  5
4B1
330
1E
100
AcDbEntity
  8
0
100
AcDbLine
 10
257.6438
 20
189.9736499999999
 30
0.0
 11
257.1245999999999
 21
189.9736499999999
 31
0.0
  0
LINE
  5
4B2
330
1E
100
AcDbEntity
  8
0
100
AcDbLine
 10
258.0
 20
189.17365
 30
0.0
 11
258.0
 21
189.9736499999999
 31
0.0
  0
LINE
  5
4B3
330
1E
100
AcDbEntity
  8
0
100
AcDbLine
 10
258.0
 20
189.9736499999999
 30
0.0
 11
257.6438
 21
189.9736499999999
 31
0.0
  0
LINE
  5
4B4
330
1E
100
AcDbEntity
  8
0
100
AcDbLine
 10
258.0
 20
189.9736499999999
 30
0.0
 11
257.5
 21
190.47365
 31
0.0
  0
LINE
  5
4B5
330
1E
100
AcDbEntity
  8
0
100
AcDbLine
 10
258.0
 20
189.9736499999999
 30
0.0
 11
258.0
 21
189.17365
 31
0.0
  0
LINE
  5
4B6
330
1E
100
AcDbEntity
  8
0
100
AcDbLine
 10
257.1245999999999
 20
189.9736499999999
 30
0.0
 11
256.4707999999999
 21
189.9736499999999
 31
0.0
  0
LINE
  5
4B7
330
1E
100
AcDbEntity
  8
0
100
AcDbLine
 10
256.4707999999999
 20
189.9736499999999
 30
0.0
 11
255.3746999999999
 21
189.9736499999999
 31
0.0
  0
LINE
  5
4B8
330
1E
100
AcDbEntity
  8
0
100
AcDbLine
 10
253.8748
 20
188.3736499999999
 30
0.0
 11
251.9770999999999
 21
188.3736499999999
 31
0.0
  0
LINE
  5
4B9
330
1E
100
AcDbEntity
  8
0
100
AcDbLine
 10
253.8748
 20
189.9736499999999
 30
0.0
 11
251.9770999999999
 21
189.9736499999999
 31
0.0
  0
LINE
  5
4BA
330
1E
100
AcDbEntity
  8
0
100
AcDbLine
 10
253.1
 20
195.57365
 30
0.0
 11
250.7
 21
201.57365
 31
0.0
  0
LINE
  5
4BB
330
1E
100
AcDbEntity
  8
0
100
AcDbLine
 10
229.8
 20
218.1736499999999
 30
0.0
 11
229.0
 21
218.1736499999999
 31
0.0
  0
LINE
  5
4BC
330
1E
100
AcDbEntity
  8
0
100
AcDbLine
 10
231.6999999999999
 20
199.27365
 30
0.0
 11
229.0
 21
199.67365
 31
0.0
  0
LINE
  5
4BD
330
1E
100
AcDbEntity
  8
0
100
AcDbLine
 10
232.9902
 20
201.8776499999999
 30
0.0
 11
231.1463999999999
 21
204.63165
 31
0.0
  0
LINE
  5
4BE
330
1E
100
AcDbEntity
  8
0
100
AcDbLine
 10
241.0
 20
201.17365
 30
0.0
 11
237.5
 21
203.87365
 31
0.0
  0
LINE
  5
4BF
330
1E
100
AcDbEntity
  8
0
100
AcDbLine
 10
241.4
 20
201.57365
 30
0.0
 11
237.6999999999999
 21
204.37365
 31
0.0
  0
LINE
  5
4C0
330
1E
100
AcDbEntity
  8
0
100
AcDbLine
 10
240.7
 20
200.8736499999999
 30
0.0
 11
237.1999999999999
 21
203.47365
 31
0.0
  0
LINE
  5
4C1
330
1E
100
AcDbEntity
  8
0
100
AcDbLine
 10
235.5999999999999
 20
200.5736499999999
 30
0.0
 11
233.7508
 21
202.56665
 31
0.0
  0
LINE
  5
4C2
330
1E
100
AcDbEntity
  8
0
100
AcDbLine
 10
244.4999999999999
 20
193.33165
 30
0.0
 11
233.1585
 21
204.67365
 31
0.0
  0
LINE
  5
4C3
330
1E
100
AcDbEntity
  8
0
100
AcDbLine
 10
240.3999999999999
 20
195.77365
 30
0.0
 11
238.3
 21
198.4736499999999
 31
0.0
  0
LINE
  5
4C4
330
1E
100
AcDbEntity
  8
0
100
AcDbLine
 10
241.704
 20
193.1636499999999
 30
0.0
 11
239.4223
 21
195.17365
 31
0.0
  0
LINE
  5
4C5
330
1E
100
AcDbEntity
  8
0
100
AcDbLine
 10
244.4999999999999
 20
193.33165
 30
0.0
 11
244.3635447519787
 21
192.823072414553
 31
0.0
  0
LINE
  5
4C6
330
1E
100
AcDbEntity
  8
0
100
AcDbLine
 10
244.4579
 20
191.3196499999999
 30
0.0
 11
241.704
 21
193.1636499999999
 31
0.0
  0
LINE
  5
4C7
330
1E
100
AcDbEntity
  8
0
100
AcDbLine
 10
245.0320342734228
 20
192.44941008604
 30
0.0
 11
244.9
 21
193.37365
 31
0.0
  0
LINE
  5
4C8
330
1E
100
AcDbEntity
  8
0
100
AcDbLine
 10
245.1138999999999
 20
192.4036499999999
 30
0.0
 11
242.3928
 21
193.92465
 31
0.0
  0
LINE
  5
4C9
330
1E
100
AcDbEntity
  8
0
100
AcDbLine
 10
245.5800275763456
 20
192.253447773465
 30
0.0
 11
245.4
 21
193.5736499999999
 31
0.0
  0
LINE
  5
4CA
330
1E
100
AcDbEntity
  8
0
100
AcDbLine
 10
246.112225963337
 20
192.0819552749719
 30
0.0
 11
245.9
 21
193.67365
 31
0.0
  0
LINE
  5
4CB
330
1E
100
AcDbEntity
  8
0
100
AcDbLine
 10
245.1138999999999
 20
185.9436499999999
 30
0.0
 11
242.3928
 21
184.4226499999999
 31
0.0
  0
LINE
  5
4CC
330
1E
100
AcDbEntity
  8
0
100
AcDbLine
 10
248.002
 20
188.0736499999999
 30
0.0
 11
244.4579
 21
187.0276499999999
 31
0.0
  0
LINE
  5
4CD
330
1E
100
AcDbEntity
  8
0
100
AcDbLine
 10
248.002
 20
190.2736499999999
 30
0.0
 11
244.4579
 21
191.3196499999999
 31
0.0
  0
LINE
  5
4CE
330
1E
100
AcDbEntity
  8
0
100
AcDbLine
 10
248.0
 20
186.8736499999999
 30
0.0
 11
245.1138999999999
 21
185.9436499999999
 31
0.0
  0
LINE
  5
4CF
330
1E
100
AcDbEntity
  8
0
100
AcDbLine
 10
245.5800275763456
 20
186.093852226535
 30
0.0
 11
245.4
 21
184.77365
 31
0.0
  0
LINE
  5
4D0
330
1E
100
AcDbEntity
  8
0
100
AcDbLine
 10
245.0320342734228
 20
185.89788991396
 30
0.0
 11
244.9
 21
184.9736499999999
 31
0.0
  0
LINE
  5
4D1
330
1E
100
AcDbEntity
  8
0
100
AcDbLine
 10
248.0
 20
191.47365
 30
0.0
 11
245.1138999999999
 21
192.4036499999999
 31
0.0
  0
LINE
  5
4D2
330
1E
100
AcDbEntity
  8
0
100
AcDbLine
 10
244.4579
 20
187.0276499999999
 30
0.0
 11
241.704
 21
185.18365
 31
0.0
  0
LINE
  5
4D3
330
1E
100
AcDbEntity
  8
0
100
AcDbLine
 10
244.9
 20
193.37365
 30
0.0
 11
243.3
 21
197.37365
 31
0.0
  0
LINE
  5
4D4
330
1E
100
AcDbEntity
  8
0
100
AcDbLine
 10
245.4
 20
193.5736499999999
 30
0.0
 11
243.6999999999999
 21
197.67365
 31
0.0
  0
LINE
  5
4D5
330
1E
100
AcDbEntity
  8
0
100
AcDbLine
 10
245.9
 20
193.67365
 30
0.0
 11
244.1999999999999
 21
197.87365
 31
0.0
  0
LINE
  5
4D6
330
1E
100
AcDbEntity
  8
0
100
AcDbLine
 10
243.3
 20
197.37365
 30
0.0
 11
240.7
 21
200.8736499999999
 31
0.0
  0
LINE
  5
4D7
330
1E
100
AcDbEntity
  8
0
100
AcDbLine
 10
242.3928
 20
193.92465
 30
0.0
 11
240.3999999999999
 21
195.77365
 31
0.0
  0
LINE
  5
4D8
330
1E
100
AcDbEntity
  8
0
100
AcDbLine
 10
244.1999999999999
 20
197.87365
 30
0.0
 11
241.4
 21
201.57365
 31
0.0
  0
LINE
  5
4D9
330
1E
100
AcDbEntity
  8
0
100
AcDbLine
 10
243.6999999999999
 20
197.67365
 30
0.0
 11
241.0
 21
201.17365
 31
0.0
  0
LINE
  5
4DA
330
1E
100
AcDbEntity
  8
0
100
AcDbLine
 10
239.1
 20
191.8736499999999
 30
0.0
 11
238.0999999999999
 21
194.3736499999999
 31
0.0
  0
LINE
  5
4DB
330
1E
100
AcDbEntity
  8
0
100
AcDbLine
 10
239.5
 20
189.17365
 30
0.0
 11
239.1
 21
186.47365
 31
0.0
  0
LINE
  5
4DC
330
1E
100
AcDbEntity
  8
0
100
AcDbLine
 10
239.5
 20
189.17365
 30
0.0
 11
239.1
 21
191.8736499999999
 31
0.0
  0
LINE
  5
4DD
330
1E
100
AcDbEntity
  8
0
100
AcDbLine
 10
235.0
 20
199.59565
 30
0.0
 11
232.9902
 21
201.8776499999999
 31
0.0
  0
LINE
  5
4DE
330
1E
100
AcDbEntity
  8
0
100
AcDbLine
 10
236.4
 20
196.57365
 30
0.0
 11
234.2
 21
198.27365
 31
0.0
  0
LINE
  5
4DF
330
1E
100
AcDbEntity
  8
0
100
AcDbLine
 10
239.4223
 20
195.17365
 30
0.0
 11
237.5
 21
197.67365
 31
0.0
  0
LINE
  5
4E0
330
1E
100
AcDbEntity
  8
0
100
AcDbLine
 10
238.0999999999999
 20
194.3736499999999
 30
0.0
 11
236.4
 21
196.57365
 31
0.0
  0
LINE
  5
4E1
330
1E
100
AcDbEntity
  8
0
100
AcDbLine
 10
238.3
 20
198.4736499999999
 30
0.0
 11
235.5999999999999
 21
200.5736499999999
 31
0.0
  0
LINE
  5
4E2
330
1E
100
AcDbEntity
  8
0
100
AcDbLine
 10
237.5
 20
197.67365
 30
0.0
 11
235.0
 21
199.59565
 31
0.0
  0
LINE
  5
4E3
330
1E
100
AcDbEntity
  8
0
100
AcDbLine
 10
234.2
 20
198.27365
 30
0.0
 11
231.6999999999999
 21
199.27365
 31
0.0
  0
LINE
  5
4E4
330
1E
100
AcDbEntity
  8
0
100
AcDbLine
 10
241.4
 20
210.87365
 30
0.0
 11
235.4
 21
213.27365
 31
0.0
  0
LINE
  5
4E5
330
1E
100
AcDbEntity
  8
0
100
AcDbLine
 10
246.6
 20
206.77365
 30
0.0
 11
241.4
 21
210.87365
 31
0.0
  0
LINE
  5
4E6
330
1E
100
AcDbEntity
  8
0
100
AcDbLine
 10
231.3
 20
208.17365
 30
0.0
 11
231.0
 21
212.1736499999999
 31
0.0
  0
LINE
  5
4E7
330
1E
100
AcDbEntity
  8
0
100
AcDbLine
 10
230.1
 20
208.17565
 30
0.0
 11
229.8
 21
212.15065
 31
0.0
  0
LINE
  5
4E8
330
1E
100
AcDbEntity
  8
0
100
AcDbLine
 10
237.5
 20
203.87365
 30
0.0
 11
233.4
 21
205.57365
 31
0.0
  0
LINE
  5
4E9
330
1E
100
AcDbEntity
  8
0
100
AcDbLine
 10
237.1999999999999
 20
203.47365
 30
0.0
 11
233.1999999999999
 21
205.0736499999999
 31
0.0
  0
LINE
  5
4EA
330
1E
100
AcDbEntity
  8
0
100
AcDbLine
 10
237.6999999999999
 20
204.37365
 30
0.0
 11
233.4999999999999
 21
206.0736499999999
 31
0.0
  0
LINE
  5
4EB
330
1E
100
AcDbEntity
  8
0
100
AcDbLine
 10
232.2296
 20
205.2876499999999
 30
0.0
 11
231.3
 21
208.17365
 31
0.0
  0
LINE
  5
4EC
330
1E
100
AcDbEntity
  8
0
100
AcDbLine
 10
231.1463999999999
 20
204.63165
 30
0.0
 11
230.1
 21
208.17565
 31
0.0
  0
LINE
  5
4ED
330
1E
100
AcDbEntity
  8
0
100
AcDbLine
 10
233.4
 20
205.57365
 30
0.0
 11
232.079475217122
 21
205.7537215613019
 31
0.0
  0
LINE
  5
4EE
330
1E
100
AcDbEntity
  8
0
100
AcDbLine
 10
233.4999999999999
 20
206.0736499999999
 30
0.0
 11
231.9080539115827
 21
206.285909478456
 31
0.0
  0
LINE
  5
4EF
330
1E
100
AcDbEntity
  8
0
100
AcDbLine
 10
233.1999999999999
 20
205.0736499999999
 30
0.0
 11
232.2753944926907
 21
205.205736501044
 31
0.0
  0
LINE
  5
4F0
330
1E
100
AcDbEntity
  8
0
100
AcDbLine
 10
233.7508
 20
202.56665
 30
0.0
 11
232.2296
 21
205.2876499999999
 31
0.0
  0
LINE
  5
4F1
330
1E
100
AcDbEntity
  8
0
100
AcDbLine
 10
233.1585
 20
204.67365
 30
0.0
 11
232.649237510658
 21
204.5370362302779
 31
0.0
  0
LINE
  5
4F2
330
1E
100
AcDbEntity
  8
0
100
AcDbLine
 10
235.4
 20
213.27365
 30
0.0
 11
230.8843322818086
 21
213.908665772871
 31
0.0
  0
LINE
  5
4F3
330
1E
100
AcDbEntity
  8
0
100
AcDbLine
 10
229.8
 20
215.54865
 30
0.0
 11
229.8
 21
214.04865
 31
0.0
  0
LINE
  5
4F4
330
1E
100
AcDbEntity
  8
0
100
AcDbLine
 10
229.8
 20
214.04865
 30
0.0
 11
229.8
 21
215.54865
 31
0.0
  0
LINE
  5
4F5
330
1E
100
AcDbEntity
  8
0
100
AcDbLine
 10
230.8
 20
215.17365
 30
0.0
 11
230.3
 21
217.67365
 31
0.0
  0
LINE
  5
4F6
330
1E
100
AcDbEntity
  8
0
100
AcDbLine
 10
229.8
 20
214.04865
 30
0.0
 11
229.8
 21
212.15065
 31
0.0
  0
LINE
  5
4F7
330
1E
100
AcDbEntity
  8
0
100
AcDbLine
 10
231.0
 20
212.1736499999999
 30
0.0
 11
230.8
 21
215.17365
 31
0.0
  0
LINE
  5
4F8
330
1E
100
AcDbEntity
  8
0
100
AcDbLine
 10
229.8
 20
212.15065
 30
0.0
 11
229.8
 21
214.04865
 31
0.0
  0
LINE
  5
4F9
330
1E
100
AcDbEntity
  8
0
100
AcDbLine
 10
229.8
 20
218.1736499999999
 30
0.0
 11
229.8
 21
217.8176499999999
 31
0.0
  0
LINE
  5
4FA
330
1E
100
AcDbEntity
  8
0
100
AcDbLine
 10
229.8
 20
217.8176499999999
 30
0.0
 11
229.8
 21
217.2986499999999
 31
0.0
  0
LINE
  5
4FB
330
1E
100
AcDbEntity
  8
0
100
AcDbLine
 10
229.8
 20
217.8176499999999
 30
0.0
 11
229.8
 21
218.1736499999999
 31
0.0
  0
LINE
  5
4FC
330
1E
100
AcDbEntity
  8
0
100
AcDbLine
 10
229.8
 20
217.2986499999999
 30
0.0
 11
229.8
 21
216.64465
 31
0.0
  0
LINE
  5
4FD
330
1E
100
AcDbEntity
  8
0
100
AcDbLine
 10
229.8
 20
217.2986499999999
 30
0.0
 11
229.8
 21
217.8176499999999
 31
0.0
  0
LINE
  5
4FE
330
1E
100
AcDbEntity
  8
0
100
AcDbLine
 10
230.3
 20
217.67365
 30
0.0
 11
229.8
 21
218.1736499999999
 31
0.0
  0
LINE
  5
4FF
330
1E
100
AcDbEntity
  8
0
100
AcDbLine
 10
229.8
 20
216.64465
 30
0.0
 11
229.8
 21
215.54865
 31
0.0
  0
LINE
  5
500
330
1E
100
AcDbEntity
  8
0
100
AcDbLine
 10
229.8
 20
216.64465
 30
0.0
 11
229.8
 21
217.2986499999999
 31
0.0
  0
LINE
  5
501
330
1E
100
AcDbEntity
  8
0
100
AcDbLine
 10
229.8
 20
215.54865
 30
0.0
 11
229.8
 21
216.64465
 31
0.0
  0
LINE
  5
502
330
1E
100
AcDbEntity
  8
0
100
AcDbLine
 10
220.5
 20
203.87365
 30
0.0
 11
217.0
 21
201.17365
 31
0.0
  0
LINE
  5
503
330
1E
100
AcDbEntity
  8
0
100
AcDbLine
 10
220.3
 20
204.37365
 30
0.0
 11
216.5999999999999
 21
201.57365
 31
0.0
  0
LINE
  5
504
330
1E
100
AcDbEntity
  8
0
100
AcDbLine
 10
220.8
 20
203.47365
 30
0.0
 11
217.3
 21
200.8736499999999
 31
0.0
  0
LINE
  5
505
330
1E
100
AcDbEntity
  8
0
100
AcDbLine
 10
223.8996141766873
 20
202.189879209462
 30
0.0
 11
217.6585
 21
200.51565
 31
0.0
  0
LINE
  5
506
330
1E
100
AcDbEntity
  8
0
100
AcDbLine
 10
224.2491999999999
 20
202.56665
 30
0.0
 11
222.4
 21
200.5736499999999
 31
0.0
  0
LINE
  5
507
330
1E
100
AcDbEntity
  8
0
100
AcDbLine
 10
226.8536
 20
204.63165
 30
0.0
 11
225.0097999999999
 21
201.8776499999999
 31
0.0
  0
LINE
  5
508
330
1E
100
AcDbEntity
  8
0
100
AcDbLine
 10
222.4
 20
200.5736499999999
 30
0.0
 11
219.7
 21
198.4736499999999
 31
0.0
  0
LINE
  5
509
330
1E
100
AcDbEntity
  8
0
100
AcDbLine
 10
220.5
 20
197.67365
 30
0.0
 11
218.5776999999999
 21
195.17365
 31
0.0
  0
LINE
  5
50A
330
1E
100
AcDbEntity
  8
0
100
AcDbLine
 10
219.9
 20
194.3736499999999
 30
0.0
 11
218.9
 21
191.8736499999999
 31
0.0
  0
LINE
  5
50B
330
1E
100
AcDbEntity
  8
0
100
AcDbLine
 10
225.0097999999999
 20
201.8776499999999
 30
0.0
 11
223.0
 21
199.59565
 31
0.0
  0
LINE
  5
50C
330
1E
100
AcDbEntity
  8
0
100
AcDbLine
 10
226.3
 20
199.27365
 30
0.0
 11
223.7999999999999
 21
198.27365
 31
0.0
  0
LINE
  5
50D
330
1E
100
AcDbEntity
  8
0
100
AcDbLine
 10
229.0
 20
199.67365
 30
0.0
 11
226.3
 21
199.27365
 31
0.0
  0
LINE
  5
50E
330
1E
100
AcDbEntity
  8
0
100
AcDbLine
 10
223.7999999999999
 20
198.27365
 30
0.0
 11
221.6
 21
196.57365
 31
0.0
  0
LINE
  5
50F
330
1E
100
AcDbEntity
  8
0
100
AcDbLine
 10
221.6
 20
196.57365
 30
0.0
 11
219.9
 21
194.3736499999999
 31
0.0
  0
LINE
  5
510
330
1E
100
AcDbEntity
  8
0
100
AcDbLine
 10
223.0
 20
199.59565
 30
0.0
 11
220.5
 21
197.67365
 31
0.0
  0
LINE
  5
511
330
1E
100
AcDbEntity
  8
0
100
AcDbLine
 10
212.5999999999999
 20
193.5736499999999
 30
0.0
 11
212.4199724236544
 21
192.253447773465
 31
0.0
  0
LINE
  5
512
330
1E
100
AcDbEntity
  8
0
100
AcDbLine
 10
212.0999999999999
 20
193.67365
 30
0.0
 11
211.8877740366629
 21
192.0819552749719
 31
0.0
  0
LINE
  5
513
330
1E
100
AcDbEntity
  8
0
100
AcDbLine
 10
213.0999999999999
 20
193.37365
 30
0.0
 11
212.9679657265771
 21
192.44941008604
 31
0.0
  0
LINE
  5
514
330
1E
100
AcDbEntity
  8
0
100
AcDbLine
 10
215.6071999999999
 20
193.92465
 30
0.0
 11
212.8861
 21
192.4036499999999
 31
0.0
  0
LINE
  5
515
330
1E
100
AcDbEntity
  8
0
100
AcDbLine
 10
216.2959999999999
 20
193.1636499999999
 30
0.0
 11
213.5421
 21
191.3196499999999
 31
0.0
  0
LINE
  5
516
330
1E
100
AcDbEntity
  8
0
100
AcDbLine
 10
216.2959999999999
 20
185.18365
 30
0.0
 11
213.5421
 21
187.0276499999999
 31
0.0
  0
LINE
  5
517
330
1E
100
AcDbEntity
  8
0
100
AcDbLine
 10
215.6071999999999
 20
184.4226499999999
 30
0.0
 11
212.8861
 21
185.9436499999999
 31
0.0
  0
LINE
  5
518
330
1E
100
AcDbEntity
  8
0
100
AcDbLine
 10
218.9
 20
186.47365
 30
0.0
 11
218.5
 21
189.17365
 31
0.0
  0
LINE
  5
519
330
1E
100
AcDbEntity
  8
0
100
AcDbLine
 10
218.9
 20
191.8736499999999
 30
0.0
 11
218.5
 21
189.17365
 31
0.0
  0
LINE
  5
51A
330
1E
100
AcDbEntity
  8
0
100
AcDbLine
 10
212.8861
 20
185.9436499999999
 30
0.0
 11
210.0
 21
186.8736499999999
 31
0.0
  0
LINE
  5
51B
330
1E
100
AcDbEntity
  8
0
100
AcDbLine
 10
213.5421
 20
187.0276499999999
 30
0.0
 11
209.9979999999999
 21
188.0736499999999
 31
0.0
  0
LINE
  5
51C
330
1E
100
AcDbEntity
  8
0
100
AcDbLine
 10
213.6364475925144
 20
185.5242318646079
 30
0.0
 11
213.5
 21
185.0156499999999
 31
0.0
  0
LINE
  5
51D
330
1E
100
AcDbEntity
  8
0
100
AcDbLine
 10
213.0999999999999
 20
184.9736499999999
 30
0.0
 11
212.9679657265771
 21
185.89788991396
 31
0.0
  0
LINE
  5
51E
330
1E
100
AcDbEntity
  8
0
100
AcDbLine
 10
212.5999999999999
 20
184.77365
 30
0.0
 11
212.4199724236544
 21
186.093852226535
 31
0.0
  0
LINE
  5
51F
330
1E
100
AcDbEntity
  8
0
100
AcDbLine
 10
212.8861
 20
192.4036499999999
 30
0.0
 11
210.0
 21
191.47365
 31
0.0
  0
LINE
  5
520
330
1E
100
AcDbEntity
  8
0
100
AcDbLine
 10
213.5421
 20
191.3196499999999
 30
0.0
 11
209.9979999999999
 21
190.2736499999999
 31
0.0
  0
LINE
  5
521
330
1E
100
AcDbEntity
  8
0
100
AcDbLine
 10
216.5999999999999
 20
201.57365
 30
0.0
 11
213.8
 21
197.87365
 31
0.0
  0
LINE
  5
522
330
1E
100
AcDbEntity
  8
0
100
AcDbLine
 10
217.0
 20
201.17365
 30
0.0
 11
214.3
 21
197.67365
 31
0.0
  0
LINE
  5
523
330
1E
100
AcDbEntity
  8
0
100
AcDbLine
 10
214.6999999999999
 20
197.37365
 30
0.0
 11
213.0999999999999
 21
193.37365
 31
0.0
  0
LINE
  5
524
330
1E
100
AcDbEntity
  8
0
100
AcDbLine
 10
217.3
 20
200.8736499999999
 30
0.0
 11
214.6999999999999
 21
197.37365
 31
0.0
  0
LINE
  5
525
330
1E
100
AcDbEntity
  8
0
100
AcDbLine
 10
217.6585
 20
200.51565
 30
0.0
 11
215.9839940302767
 21
194.274254657759
 31
0.0
  0
LINE
  5
526
330
1E
100
AcDbEntity
  8
0
100
AcDbLine
 10
219.7
 20
198.4736499999999
 30
0.0
 11
217.6
 21
195.77365
 31
0.0
  0
LINE
  5
527
330
1E
100
AcDbEntity
  8
0
100
AcDbLine
 10
217.6
 20
195.77365
 30
0.0
 11
215.6071999999999
 21
193.92465
 31
0.0
  0
LINE
  5
528
330
1E
100
AcDbEntity
  8
0
100
AcDbLine
 10
218.5776999999999
 20
195.17365
 30
0.0
 11
216.2959999999999
 21
193.1636499999999
 31
0.0
  0
LINE
  5
529
330
1E
100
AcDbEntity
  8
0
100
AcDbLine
 10
214.3
 20
197.67365
 30
0.0
 11
212.5999999999999
 21
193.5736499999999
 31
0.0
  0
LINE
  5
52A
330
1E
100
AcDbEntity
  8
0
100
AcDbLine
 10
213.8
 20
197.87365
 30
0.0
 11
212.0999999999999
 21
193.67365
 31
0.0
  0
LINE
  5
52B
330
1E
100
AcDbEntity
  8
0
100
AcDbLine
 10
222.5999999999999
 20
213.27365
 30
0.0
 11
216.5999999999999
 21
210.87365
 31
0.0
  0
LINE
  5
52C
330
1E
100
AcDbEntity
  8
0
100
AcDbLine
 10
227.0
 20
212.1736499999999
 30
0.0
 11
226.6999999999999
 21
208.17365
 31
0.0
  0
LINE
  5
52D
330
1E
100
AcDbEntity
  8
0
100
AcDbLine
 10
228.2
 20
212.15065
 30
0.0
 11
227.8999999999999
 21
208.17565
 31
0.0
  0
LINE
  5
52E
330
1E
100
AcDbEntity
  8
0
100
AcDbLine
 10
225.920524782878
 20
205.7537215613019
 30
0.0
 11
224.5999999999999
 21
205.57365
 31
0.0
  0
LINE
  5
52F
330
1E
100
AcDbEntity
  8
0
100
AcDbLine
 10
225.7703999999999
 20
205.2876499999999
 30
0.0
 11
224.2491999999999
 21
202.56665
 31
0.0
  0
LINE
  5
530
330
1E
100
AcDbEntity
  8
0
100
AcDbLine
 10
224.8
 20
205.0736499999999
 30
0.0
 11
220.8
 21
203.47365
 31
0.0
  0
LINE
  5
531
330
1E
100
AcDbEntity
  8
0
100
AcDbLine
 10
226.0919460884172
 20
206.285909478456
 30
0.0
 11
224.5
 21
206.0736499999999
 31
0.0
  0
LINE
  5
532
330
1E
100
AcDbEntity
  8
0
100
AcDbLine
 10
226.6999999999999
 20
208.17365
 30
0.0
 11
225.7703999999999
 21
205.2876499999999
 31
0.0
  0
LINE
  5
533
330
1E
100
AcDbEntity
  8
0
100
AcDbLine
 10
227.8999999999999
 20
208.17565
 30
0.0
 11
226.8536
 21
204.63165
 31
0.0
  0
LINE
  5
534
330
1E
100
AcDbEntity
  8
0
100
AcDbLine
 10
225.7246055073092
 20
205.205736501044
 30
0.0
 11
224.8
 21
205.0736499999999
 31
0.0
  0
LINE
  5
535
330
1E
100
AcDbEntity
  8
0
100
AcDbLine
 10
224.5999999999999
 20
205.57365
 30
0.0
 11
220.5
 21
203.87365
 31
0.0
  0
LINE
  5
536
330
1E
100
AcDbEntity
  8
0
100
AcDbLine
 10
224.5
 20
206.0736499999999
 30
0.0
 11
220.3
 21
204.37365
 31
0.0
  0
LINE
  5
537
330
1E
100
AcDbEntity
  8
0
100
AcDbLine
 10
227.1156677181914
 20
213.908665772871
 30
0.0
 11
222.5999999999999
 21
213.27365
 31
0.0
  0
LINE
  5
538
330
1E
100
AcDbEntity
  8
0
100
AcDbLine
 10
227.7
 20
217.67365
 30
0.0
 11
227.1999999999999
 21
215.17365
 31
0.0
  0
LINE
  5
539
330
1E
100
AcDbEntity
  8
0
100
AcDbLine
 10
228.2
 20
215.54865
 30
0.0
 11
228.2
 21
214.04865
 31
0.0
  0
LINE
  5
53A
330
1E
100
AcDbEntity
  8
0
100
AcDbLine
 10
228.2
 20
214.04865
 30
0.0
 11
228.2
 21
215.54865
 31
0.0
  0
LINE
  5
53B
330
1E
100
AcDbEntity
  8
0
100
AcDbLine
 10
228.2
 20
212.15065
 30
0.0
 11
228.2
 21
214.04865
 31
0.0
  0
LINE
  5
53C
330
1E
100
AcDbEntity
  8
0
100
AcDbLine
 10
228.2
 20
214.04865
 30
0.0
 11
228.2
 21
212.15065
 31
0.0
  0
LINE
  5
53D
330
1E
100
AcDbEntity
  8
0
100
AcDbLine
 10
227.1999999999999
 20
215.17365
 30
0.0
 11
227.0
 21
212.1736499999999
 31
0.0
  0
LINE
  5
53E
330
1E
100
AcDbEntity
  8
0
100
AcDbLine
 10
229.0
 20
218.1736499999999
 30
0.0
 11
228.2
 21
218.1736499999999
 31
0.0
  0
LINE
  5
53F
330
1E
100
AcDbEntity
  8
0
100
AcDbLine
 10
228.2
 20
218.1736499999999
 30
0.0
 11
228.2
 21
217.8176499999999
 31
0.0
  0
LINE
  5
540
330
1E
100
AcDbEntity
  8
0
100
AcDbLine
 10
228.2
 20
218.1736499999999
 30
0.0
 11
227.7
 21
217.67365
 31
0.0
  0
LINE
  5
541
330
1E
100
AcDbEntity
  8
0
100
AcDbLine
 10
228.2
 20
217.8176499999999
 30
0.0
 11
228.2
 21
218.1736499999999
 31
0.0
  0
LINE
  5
542
330
1E
100
AcDbEntity
  8
0
100
AcDbLine
 10
228.2
 20
217.8176499999999
 30
0.0
 11
228.2
 21
217.2986499999999
 31
0.0
  0
LINE
  5
543
330
1E
100
AcDbEntity
  8
0
100
AcDbLine
 10
228.2
 20
217.2986499999999
 30
0.0
 11
228.2
 21
217.8176499999999
 31
0.0
  0
LINE
  5
544
330
1E
100
AcDbEntity
  8
0
100
AcDbLine
 10
228.2
 20
217.2986499999999
 30
0.0
 11
228.2
 21
216.64465
 31
0.0
  0
LINE
  5
545
330
1E
100
AcDbEntity
  8
0
100
AcDbLine
 10
228.2
 20
216.64465
 30
0.0
 11
228.2
 21
217.2986499999999
 31
0.0
  0
LINE
  5
546
330
1E
100
AcDbEntity
  8
0
100
AcDbLine
 10
228.2
 20
216.64465
 30
0.0
 11
228.2
 21
215.54865
 31
0.0
  0
LINE
  5
547
330
1E
100
AcDbEntity
  8
0
100
AcDbLine
 10
228.2
 20
215.54865
 30
0.0
 11
228.2
 21
216.64465
 31
0.0
  0
LINE
  5
548
330
1E
100
AcDbEntity
  8
0
100
AcDbLine
 10
216.5999999999999
 20
210.87365
 30
0.0
 11
211.3999999999999
 21
206.77365
 31
0.0
  0
LINE
  5
549
330
1E
100
AcDbEntity
  8
0
100
AcDbLine
 10
204.8999999999999
 20
182.77365
 30
0.0
 11
204.2649842271293
 21
187.2893177181909
 31
0.0
  0
LINE
  5
54A
330
1E
100
AcDbEntity
  8
0
100
AcDbLine
 10
207.2999999999999
 20
176.7736499999999
 30
0.0
 11
204.8999999999999
 21
182.77365
 31
0.0
  0
LINE
  5
54B
330
1E
100
AcDbEntity
  8
0
100
AcDbLine
 10
204.8999999999999
 20
195.57365
 30
0.0
 11
204.2649842271293
 21
191.057982281809
 31
0.0
  0
LINE
  5
54C
330
1E
100
AcDbEntity
  8
0
100
AcDbLine
 10
206.0
 20
191.17365
 30
0.0
 11
203.0
 21
190.9736499999999
 31
0.0
  0
LINE
  5
54D
330
1E
100
AcDbEntity
  8
0
100
AcDbLine
 10
206.0229
 20
189.9736499999999
 30
0.0
 11
204.1252
 21
189.9736499999999
 31
0.0
  0
LINE
  5
54E
330
1E
100
AcDbEntity
  8
0
100
AcDbLine
 10
206.0229
 20
188.3736499999999
 30
0.0
 11
204.1252
 21
188.3736499999999
 31
0.0
  0
LINE
  5
54F
330
1E
100
AcDbEntity
  8
0
100
AcDbLine
 10
206.0
 20
187.17365
 30
0.0
 11
203.0
 21
187.3736499999999
 31
0.0
  0
LINE
  5
550
330
1E
100
AcDbEntity
  8
0
100
AcDbLine
 10
200.0
 20
188.3736499999999
 30
0.0
 11
200.0
 21
189.17365
 31
0.0
  0
LINE
  5
551
330
1E
100
AcDbEntity
  8
0
100
AcDbLine
 10
200.0
 20
189.17365
 30
0.0
 11
200.0
 21
188.3736499999999
 31
0.0
  0
LINE
  5
552
330
1E
100
AcDbEntity
  8
0
100
AcDbLine
 10
203.0
 20
187.3736499999999
 30
0.0
 11
200.4999999999999
 21
187.87365
 31
0.0
  0
LINE
  5
553
330
1E
100
AcDbEntity
  8
0
100
AcDbLine
 10
202.6253
 20
188.3736499999999
 30
0.0
 11
201.5292
 21
188.3736499999999
 31
0.0
  0
LINE
  5
554
330
1E
100
AcDbEntity
  8
0
100
AcDbLine
 10
204.1252
 20
188.3736499999999
 30
0.0
 11
202.6253
 21
188.3736499999999
 31
0.0
  0
LINE
  5
555
330
1E
100
AcDbEntity
  8
0
100
AcDbLine
 10
200.4999999999999
 20
187.87365
 30
0.0
 11
200.0
 21
188.3736499999999
 31
0.0
  0
LINE
  5
556
330
1E
100
AcDbEntity
  8
0
100
AcDbLine
 10
200.3562
 20
188.3736499999999
 30
0.0
 11
200.0
 21
188.3736499999999
 31
0.0
  0
LINE
  5
557
330
1E
100
AcDbEntity
  8
0
100
AcDbLine
 10
200.8754
 20
188.3736499999999
 30
0.0
 11
200.3562
 21
188.3736499999999
 31
0.0
  0
LINE
  5
558
330
1E
100
AcDbEntity
  8
0
100
AcDbLine
 10
201.5292
 20
188.3736499999999
 30
0.0
 11
200.8754
 21
188.3736499999999
 31
0.0
  0
LINE
  5
559
330
1E
100
AcDbEntity
  8
0
100
AcDbLine
 10
203.0
 20
190.9736499999999
 30
0.0
 11
200.4999999999999
 21
190.47365
 31
0.0
  0
LINE
  5
55A
330
1E
100
AcDbEntity
  8
0
100
AcDbLine
 10
202.6253
 20
189.9736499999999
 30
0.0
 11
201.5292
 21
189.9736499999999
 31
0.0
  0
LINE
  5
55B
330
1E
100
AcDbEntity
  8
0
100
AcDbLine
 10
204.1252
 20
189.9736499999999
 30
0.0
 11
202.6253
 21
189.9736499999999
 31
0.0
  0
LINE
  5
55C
330
1E
100
AcDbEntity
  8
0
100
AcDbLine
 10
200.0
 20
189.17365
 30
0.0
 11
200.0
 21
189.9736499999999
 31
0.0
  0
LINE
  5
55D
330
1E
100
AcDbEntity
  8
0
100
AcDbLine
 10
200.4999999999999
 20
190.47365
 30
0.0
 11
200.0
 21
189.9736499999999
 31
0.0
  0
LINE
  5
55E
330
1E
100
AcDbEntity
  8
0
100
AcDbLine
 10
200.0
 20
189.9736499999999
 30
0.0
 11
200.0
 21
189.17365
 31
0.0
  0
LINE
  5
55F
330
1E
100
AcDbEntity
  8
0
100
AcDbLine
 10
200.3562
 20
189.9736499999999
 30
0.0
 11
200.0
 21
189.9736499999999
 31
0.0
  0
LINE
  5
560
330
1E
100
AcDbEntity
  8
0
100
AcDbLine
 10
200.8754
 20
189.9736499999999
 30
0.0
 11
200.3562
 21
189.9736499999999
 31
0.0
  0
LINE
  5
561
330
1E
100
AcDbEntity
  8
0
100
AcDbLine
 10
201.5292
 20
189.9736499999999
 30
0.0
 11
200.8754
 21
189.9736499999999
 31
0.0
  0
LINE
  5
562
330
1E
100
AcDbEntity
  8
0
100
AcDbLine
 10
207.2999999999999
 20
201.57365
 30
0.0
 11
204.8999999999999
 21
195.57365
 31
0.0
  0
ENDSEC
  0
SECTION
  2
OBJECTS
  0
DICTIONARY
  5
C
330
0
100
AcDbDictionary
281
     1
  3
ACAD_GROUP
350
D
  3
ACAD_LAYOUT
350
19
  3
ACAD_MLINESTYLE
350
16
  3
ACAD_PLOTSETTINGS
350
18
  3
ACAD_PLOTSTYLENAME
350
E
  3
AcDbVariableDictionary
350
563
  0
DICTIONARY
  5
D
102
{ACAD_REACTORS
330
C
102
}
330
C
100
AcDbDictionary
281
     1
  0
DICTIONARY
  5
19
102
{ACAD_REACTORS
330
C
102
}
330
C
100
AcDbDictionary
281
     1
  3
Layout1
350
1D
  3
Model
350
21
  0
DICTIONARY
  5
16
102
{ACAD_REACTORS
330
C
102
}
330
C
100
AcDbDictionary
281
     1
  3
Standard
350
17
  0
DICTIONARY
  5
18
102
{ACAD_REACTORS
330
C
102
}
330
C
100
AcDbDictionary
281
     1
  0
ACDBDICTIONARYWDFLT
  5
E
102
{ACAD_REACTORS
330
C
102
}
330
C
100
AcDbDictionary
281
     1
  3
Normal
350
F
100
AcDbDictionaryWithDefault
340
F
  0
DICTIONARY
  5
563
102
{ACAD_REACTORS
330
C
102
}
330
C
100
AcDbDictionary
281
     1
  3
DIMASSOC
350
564
  0
LAYOUT
  5
1D
102
{ACAD_REACTORS
330
19
102
}
330
19
100
AcDbPlotSettings
  1

  2
hp deskjet 980c series
  4

  6

 40
0.0
 41
0.0
 42
0.0
 43
0.0
 44
0.0
 45
0.0
 46
0.0
 47
0.0
 48
0.0
 49
0.0
140
0.0
141
0.0
142
1.0
143
1.0
 70
   688
 72
     0
 73
     0
 74
     5
  7

 75
    16
147
1.0
148
0.0
149
0.0
100
AcDbLayout
  1
Layout1
 70
     1
 71
     1
 10
0.0
 20
0.0
 11
12.0
 21
9.0
 12
0.0
 22
0.0
 32
0.0
 14
1.000000000000000E+20
 24
1.000000000000000E+20
 34
1.000000000000000E+20
 15
-1.000000000000000E+20
 25
-1.000000000000000E+20
 35
-1.000000000000000E+20
146
0.0
 13
0.0
 23
0.0
 33
0.0
 16
1.0
 26
0.0
 36
0.0
 17
0.0
 27
1.0
 37
0.0
 76
     0
330
1A
  0
LAYOUT
  5
21
102
{ACAD_REACTORS
330
19
102
}
330
19
100
AcDbPlotSettings
  1

  2
hp deskjet 980c series
  4

  6

 40
0.0
 41
0.0
 42
0.0
 43
0.0
 44
0.0
 45
0.0
 46
0.0
 47
0.0
 48
0.0
 49
0.0
140
0.0
141
0.0
142
1.0
143
1.0
 70
  1712
 72
     0
 73
     0
 74
     0
  7

 75
     0
147
1.0
148
0.0
149
0.0
100
AcDbLayout
  1
Model
 70
     1
 71
     0
 10
0.0
 20
0.0
 11
12.0
 21
9.0
 12
0.0
 22
0.0
 32
0.0
 14
0.0
 24
0.0
 34
0.0
 15
0.0
 25
0.0
 35
0.0
146
0.0
 13
0.0
 23
0.0
 33
0.0
 16
1.0
 26
0.0
 36
0.0
 17
0.0
 27
1.0
 37
0.0
 76
     0
330
1E
  0
MLINESTYLE
  5
17
102
{ACAD_REACTORS
330
16
102
}
330
16
100
AcDbMlineStyle
  2
STANDARD
 70
     0
  3

 62
   256
 51
90.0
 52
90.0
 71
     2
 49
0.5
 62
   256
  6
BYLAYER
 49
-0.5
 62
   256
  6
BYLAYER
  0
ACDBPLACEHOLDER
  5
F
102
{ACAD_REACTORS
330
E
102
}
330
E
  0
DICTIONARYVAR
  5
564
102
{ACAD_REACTORS
330
563
102
}
330
563
100
DictionaryVariables
280
     0
  1
1
  0
ENDSEC
  0
EOF
