  0
SECTION
  2
HEADER
  9
$ACADVER
  1
AC1015
  9
$ACADMAINTVER
 70
    13
  9
$DWGCODEPAGE
  3
ANSI_1252
  9
$INSBASE
 10
0.0
 20
0.0
 30
0.0
  9
$EXTMIN
 10
0.185349999999997
 20
-0.0000000000000096
 30
0.0
  9
$EXTMAX
 10
226.8146499999999
 20
291.0
 30
0.0
  9
$LIMMIN
 10
0.0
 20
0.0
  9
$LIMMAX
 10
12.0
 20
9.0
  9
$ORTHOMODE
 70
     0
  9
$REGENMODE
 70
     1
  9
$FILLMODE
 70
     1
  9
$QTEXTMODE
 70
     0
  9
$MIRRTEXT
 70
     1
  9
$LTSCALE
 40
1.0
  9
$ATTMODE
 70
     1
  9
$TEXTSIZE
 40
0.2
  9
$TRACEWID
 40
0.05
  9
$TEXTSTYLE
  7
Standard
  9
$CLAYER
  8
0
  9
$CELTYPE
  6
Continuous
  9
$CECOLOR
 62
   256
  9
$CELTSCALE
 40
1.0
  9
$DISPSILH
 70
     0
  9
$DIMSCALE
 40
1.0
  9
$DIMASZ
 40
0.18
  9
$DIMEXO
 40
0.0625
  9
$DIMDLI
 40
0.38
  9
$DIMRND
 40
0.0
  9
$DIMDLE
 40
0.0
  9
$DIMEXE
 40
0.18
  9
$DIMTP
 40
0.0
  9
$DIMTM
 40
0.0
  9
$DIMTXT
 40
0.18
  9
$DIMCEN
 40
0.09
  9
$DIMTSZ
 40
0.0
  9
$DIMTOL
 70
     0
  9
$DIMLIM
 70
     0
  9
$DIMTIH
 70
     1
  9
$DIMTOH
 70
     1
  9
$DIMSE1
 70
     0
  9
$DIMSE2
 70
     0
  9
$DIMTAD
 70
     0
  9
$DIMZIN
 70
     0
  9
$DIMBLK
  1

  9
$DIMASO
 70
     1
  9
$DIMSHO
 70
     1
  9
$DIMPOST
  1

  9
$DIMAPOST
  1

  9
$DIMALT
 70
     0
  9
$DIMALTD
 70
     2
  9
$DIMALTF
 40
25.4
  9
$DIMLFAC
 40
1.0
  9
$DIMTOFL
 70
     0
  9
$DIMTVP
 40
0.0
  9
$DIMTIX
 70
     0
  9
$DIMSOXD
 70
     0
  9
$DIMSAH
 70
     0
  9
$DIMBLK1
  1

  9
$DIMBLK2
  1

  9
$DIMSTYLE
  2
Standard
  9
$DIMCLRD
 70
     0
  9
$DIMCLRE
 70
     0
  9
$DIMCLRT
 70
     0
  9
$DIMTFAC
 40
1.0
  9
$DIMGAP
 40
0.09
  9
$DIMJUST
 70
     0
  9
$DIMSD1
 70
     0
  9
$DIMSD2
 70
     0
  9
$DIMTOLJ
 70
     1
  9
$DIMTZIN
 70
     0
  9
$DIMALTZ
 70
     0
  9
$DIMALTTZ
 70
     0
  9
$DIMUPT
 70
     0
  9
$DIMDEC
 70
     4
  9
$DIMTDEC
 70
     4
  9
$DIMALTU
 70
     2
  9
$DIMALTTD
 70
     2
  9
$DIMTXSTY
  7
Standard
  9
$DIMAUNIT
 70
     0
  9
$DIMADEC
 70
     0
  9
$DIMALTRND
 40
0.0
  9
$DIMAZIN
 70
     0
  9
$DIMDSEP
 70
    46
  9
$DIMATFIT
 70
     3
  9
$DIMFRAC
 70
     0
  9
$DIMLDRBLK
  1

  9
$DIMLUNIT
 70
     2
  9
$DIMLWD
 70
    -2
  9
$DIMLWE
 70
    -2
  9
$DIMTMOVE
 70
     0
  9
$LUNITS
 70
     2
  9
$LUPREC
 70
     4
  9
$SKETCHINC
 40
0.1
  9
$FILLETRAD
 40
0.0
  9
$AUNITS
 70
     0
  9
$AUPREC
 70
     0
  9
$MENU
  1
.
  9
$ELEVATION
 40
0.0
  9
$PELEVATION
 40
0.0
  9
$THICKNESS
 40
0.0
  9
$LIMCHECK
 70
     0
  9
$CHAMFERA
 40
0.0
  9
$CHAMFERB
 40
0.0
  9
$CHAMFERC
 40
0.0
  9
$CHAMFERD
 40
0.0
  9
$SKPOLY
 70
     0
  9
$TDCREATE
 40
2454750.874942129
  9
$TDUCREATE
 40
2454750.791608796
  9
$TDUPDATE
 40
2454750.876748761
  9
$TDUUPDATE
 40
2454750.793415428
  9
$TDINDWG
 40
0.0018066319
  9
$TDUSRTIMER
 40
0.0018066319
  9
$USRTIMER
 70
     1
  9
$ANGBASE
 50
0.0
  9
$ANGDIR
 70
     0
  9
$PDMODE
 70
     0
  9
$PDSIZE
 40
0.0
  9
$PLINEWID
 40
0.0
  9
$SPLFRAME
 70
     0
  9
$SPLINETYPE
 70
     6
  9
$SPLINESEGS
 70
     8
  9
$HANDSEED
  5
2B5
  9
$SURFTAB1
 70
     6
  9
$SURFTAB2
 70
     6
  9
$SURFTYPE
 70
     6
  9
$SURFU
 70
     6
  9
$SURFV
 70
     6
  9
$UCSBASE
  2

  9
$UCSNAME
  2

  9
$UCSORG
 10
0.0
 20
0.0
 30
0.0
  9
$UCSXDIR
 10
1.0
 20
0.0
 30
0.0
  9
$UCSYDIR
 10
0.0
 20
1.0
 30
0.0
  9
$UCSORTHOREF
  2

  9
$UCSORTHOVIEW
 70
     1
  9
$UCSORGTOP
 10
0.0
 20
0.0
 30
0.0
  9
$UCSORGBOTTOM
 10
0.0
 20
0.0
 30
0.0
  9
$UCSORGLEFT
 10
0.0
 20
0.0
 30
0.0
  9
$UCSORGRIGHT
 10
0.0
 20
0.0
 30
0.0
  9
$UCSORGFRONT
 10
0.0
 20
0.0
 30
0.0
  9
$UCSORGBACK
 10
0.0
 20
0.0
 30
0.0
  9
$PUCSBASE
  2

  9
$PUCSNAME
  2

  9
$PUCSORG
 10
0.0
 20
0.0
 30
0.0
  9
$PUCSXDIR
 10
1.0
 20
0.0
 30
0.0
  9
$PUCSYDIR
 10
0.0
 20
1.0
 30
0.0
  9
$PUCSORTHOREF
  2

  9
$PUCSORTHOVIEW
 70
     0
  9
$PUCSORGTOP
 10
0.0
 20
0.0
 30
0.0
  9
$PUCSORGBOTTOM
 10
0.0
 20
0.0
 30
0.0
  9
$PUCSORGLEFT
 10
0.0
 20
0.0
 30
0.0
  9
$PUCSORGRIGHT
 10
0.0
 20
0.0
 30
0.0
  9
$PUCSORGFRONT
 10
0.0
 20
0.0
 30
0.0
  9
$PUCSORGBACK
 10
0.0
 20
0.0
 30
0.0
  9
$USERI1
 70
     0
  9
$USERI2
 70
     0
  9
$USERI3
 70
     0
  9
$USERI4
 70
     0
  9
$USERI5
 70
     0
  9
$USERR1
 40
0.0
  9
$USERR2
 40
0.0
  9
$USERR3
 40
0.0
  9
$USERR4
 40
0.0
  9
$USERR5
 40
0.0
  9
$WORLDVIEW
 70
     1
  9
$SHADEDGE
 70
     3
  9
$SHADEDIF
 70
    70
  9
$TILEMODE
 70
     1
  9
$MAXACTVP
 70
    64
  9
$PINSBASE
 10
0.0
 20
0.0
 30
0.0
  9
$PLIMCHECK
 70
     0
  9
$PEXTMIN
 10
1.000000000000000E+20
 20
1.000000000000000E+20
 30
1.000000000000000E+20
  9
$PEXTMAX
 10
-1.000000000000000E+20
 20
-1.000000000000000E+20
 30
-1.000000000000000E+20
  9
$PLIMMIN
 10
0.0
 20
0.0
  9
$PLIMMAX
 10
12.0
 20
9.0
  9
$UNITMODE
 70
     0
  9
$VISRETAIN
 70
     1
  9
$PLINEGEN
 70
     0
  9
$PSLTSCALE
 70
     1
  9
$TREEDEPTH
 70
  3020
  9
$CMLSTYLE
  2
Standard
  9
$CMLJUST
 70
     0
  9
$CMLSCALE
 40
1.0
  9
$PROXYGRAPHICS
 70
     1
  9
$MEASUREMENT
 70
     0
  9
$CELWEIGHT
370
    -1
  9
$ENDCAPS
280
     0
  9
$JOINSTYLE
280
     0
  9
$LWDISPLAY
290
     0
  9
$INSUNITS
 70
     0
  9
$HYPERLINKBASE
  1

  9
$STYLESHEET
  1

  9
$XEDIT
290
     1
  9
$CEPSNTYPE
380
     0
  9
$PSTYLEMODE
290
     1
  9
$FINGERPRINTGUID
  2
{5A25CD98-A05F-461E-A6D8-BFF3D694879D}
  9
$VERSIONGUID
  2
{EFBCDBD1-6C60-482D-89D6-B59B83384F60}
  9
$EXTNAMES
290
     1
  9
$PSVPSCALE
 40
0.0
  9
$OLESTARTUP
290
     0
  0
ENDSEC
  0
SECTION
  2
CLASSES
  0
CLASS
  1
ACDBDICTIONARYWDFLT
  2
AcDbDictionaryWithDefault
  3
AutoCAD 2000
 90
        0
280
     0
281
     0
  0
CLASS
  1
ACDBPLACEHOLDER
  2
AcDbPlaceHolder
  3
AutoCAD 2000
 90
        0
280
     0
281
     0
  0
CLASS
  1
LAYOUT
  2
AcDbLayout
  3
AutoCAD 2000
 90
        0
280
     0
281
     0
  0
CLASS
  1
DICTIONARYVAR
  2
AcDbDictionaryVar
  3
AutoCAD 2000
 90
        0
280
     0
281
     0
  0
ENDSEC
  0
SECTION
  2
TABLES
  0
TABLE
  2
VPORT
  5
8
330
0
100
AcDbSymbolTable
 70
     2
  0
VPORT
  5
2B4
330
8
100
AcDbSymbolTableRecord
100
AcDbViewportTableRecord
  2
*Active
 70
     0
 10
0.0
 20
0.0
 11
1.0
 21
1.0
 12
113.5
 22
145.5
 13
0.0
 23
0.0
 14
1.0
 24
1.0
 15
0.0
 25
0.0
 16
0.0
 26
0.0
 36
1.0
 17
0.0
 27
0.0
 37
0.0
 40
293.23273657289
 41
2.078104993597951
 42
50.0
 43
0.0
 44
0.0
 50
0.0
 51
0.0
 71
     0
 72
   100
 73
     1
 74
     3
 75
     0
 76
     0
 77
     0
 78
     0
281
     0
 65
     1
110
0.0
120
0.0
130
0.0
111
1.0
121
0.0
131
0.0
112
0.0
122
1.0
132
0.0
 79
     1
146
0.0
  0
ENDTAB
  0
TABLE
  2
LTYPE
  5
5
330
0
100
AcDbSymbolTable
 70
     1
  0
LTYPE
  5
13
330
5
100
AcDbSymbolTableRecord
100
AcDbLinetypeTableRecord
  2
ByBlock
 70
     0
  3

 72
    65
 73
     0
 40
0.0
  0
LTYPE
  5
14
330
5
100
AcDbSymbolTableRecord
100
AcDbLinetypeTableRecord
  2
ByLayer
 70
     0
  3

 72
    65
 73
     0
 40
0.0
  0
LTYPE
  5
15
330
5
100
AcDbSymbolTableRecord
100
AcDbLinetypeTableRecord
  2
Continuous
 70
     0
  3
Solid line
 72
    65
 73
     0
 40
0.0
  0
ENDTAB
  0
TABLE
  2
LAYER
  5
2
330
0
100
AcDbSymbolTable
 70
     1
  0
LAYER
  5
10
330
2
100
AcDbSymbolTableRecord
100
AcDbLayerTableRecord
  2
0
 70
     0
 62
     7
  6
Continuous
370
    -3
390
F
  0
ENDTAB
  0
TABLE
  2
STYLE
  5
3
330
0
100
AcDbSymbolTable
 70
     1
  0
STYLE
  5
11
330
3
100
AcDbSymbolTableRecord
100
AcDbTextStyleTableRecord
  2
Standard
 70
     0
 40
0.0
 41
1.0
 50
0.0
 71
     0
 42
0.2
  3
txt
  4

  0
ENDTAB
  0
TABLE
  2
VIEW
  5
6
330
0
100
AcDbSymbolTable
 70
     0
  0
ENDTAB
  0
TABLE
  2
UCS
  5
7
330
0
100
AcDbSymbolTable
 70
     0
  0
ENDTAB
  0
TABLE
  2
APPID
  5
9
330
0
100
AcDbSymbolTable
 70
     1
  0
APPID
  5
12
330
9
100
AcDbSymbolTableRecord
100
AcDbRegAppTableRecord
  2
ACAD
 70
     0
  0
ENDTAB
  0
TABLE
  2
DIMSTYLE
  5
A
330
0
100
AcDbSymbolTable
 70
     1
100
AcDbDimStyleTable
 71
     0
  0
DIMSTYLE
105
2AE
330
A
100
AcDbSymbolTableRecord
100
AcDbDimStyleTableRecord
  2
Standard
 70
     0
340
11
  0
ENDTAB
  0
TABLE
  2
BLOCK_RECORD
  5
1
330
0
100
AcDbSymbolTable
 70
     0
  0
BLOCK_RECORD
  5
1E
330
1
100
AcDbSymbolTableRecord
100
AcDbBlockTableRecord
  2
*Model_Space
340
21
  0
BLOCK_RECORD
  5
1A
330
1
100
AcDbSymbolTableRecord
100
AcDbBlockTableRecord
  2
*Paper_Space
340
1D
  0
ENDTAB
  0
ENDSEC
  0
SECTION
  2
BLOCKS
  0
BLOCK
  5
1F
330
1E
100
AcDbEntity
  8
0
100
AcDbBlockBegin
  2
*Model_Space
 70
     0
 10
0.0
 20
0.0
 30
0.0
  3
*Model_Space
  1

  0
ENDBLK
  5
20
330
1E
100
AcDbEntity
  8
0
100
AcDbBlockEnd
  0
BLOCK
  5
1B
330
1A
100
AcDbEntity
 67
     1
  8
0
100
AcDbBlockBegin
  2
*Paper_Space
 70
     0
 10
0.0
 20
0.0
 30
0.0
  3
*Paper_Space
  1

  0
ENDBLK
  5
1C
330
1A
100
AcDbEntity
 67
     1
  8
0
100
AcDbBlockEnd
  0
ENDSEC
  0
SECTION
  2
ENTITIES
  0
LINE
  5
22
330
1E
100
AcDbEntity
  8
0
100
AcDbLine
 10
164.17365
 20
-0.0000000000000063
 30
0.0
 11
164.67365
 21
1.499999999999989
 31
0.0
  0
LINE
  5
23
330
1E
100
AcDbEntity
  8
0
100
AcDbLine
 10
171.57365
 20
-0.0000000000000069
 30
0.0
 11
176.7736499999999
 21
-0.0000000000000072
 31
0.0
  0
LINE
  5
24
330
1E
100
AcDbEntity
  8
0
100
AcDbLine
 10
167.4736499999999
 20
-0.0000000000000066
 30
0.0
 11
171.57365
 21
-0.0000000000000069
 31
0.0
  0
LINE
  5
25
330
1E
100
AcDbEntity
  8
0
100
AcDbLine
 10
172.17365
 20
12.5
 30
0.0
 11
172.37365
 21
11.4
 31
0.0
  0
LINE
  5
26
330
1E
100
AcDbEntity
  8
0
100
AcDbLine
 10
172.17365
 20
15.0
 30
0.0
 11
172.7736499999999
 21
15.0
 31
0.0
  0
LINE
  5
27
330
1E
100
AcDbEntity
  8
0
100
AcDbLine
 10
172.17365
 20
15.0
 30
0.0
 11
173.17365
 21
15.5
 31
0.0
  0
LINE
  5
28
330
1E
100
AcDbEntity
  8
0
100
AcDbLine
 10
171.67365
 20
14.0
 30
0.0
 11
172.17365
 21
15.0
 31
0.0
  0
LINE
  5
29
330
1E
100
AcDbEntity
  8
0
100
AcDbLine
 10
171.67365
 20
14.0
 30
0.0
 11
171.67365
 21
13.5
 31
0.0
  0
LINE
  5
2A
330
1E
100
AcDbEntity
  8
0
100
AcDbLine
 10
171.67365
 20
13.5
 30
0.0
 11
172.17365
 21
12.5
 31
0.0
  0
LINE
  5
2B
330
1E
100
AcDbEntity
  8
0
100
AcDbLine
 10
171.67365
 20
13.5
 30
0.0
 11
171.67365
 21
14.0
 31
0.0
  0
LINE
  5
2C
330
1E
100
AcDbEntity
  8
0
100
AcDbLine
 10
172.17365
 20
9.999999999999991
 30
0.0
 11
172.37365
 21
11.4
 31
0.0
  0
LINE
  5
2D
330
1E
100
AcDbEntity
  8
0
100
AcDbLine
 10
171.17365
 20
6.99999999999999
 30
0.0
 11
172.17365
 21
9.999999999999991
 31
0.0
  0
LINE
  5
2E
330
1E
100
AcDbEntity
  8
0
100
AcDbLine
 10
169.17365
 20
3.99999999999999
 30
0.0
 11
171.17365
 21
6.99999999999999
 31
0.0
  0
LINE
  5
2F
330
1E
100
AcDbEntity
  8
0
100
AcDbLine
 10
165.67365
 20
2.49999999999999
 30
0.0
 11
169.17365
 21
3.99999999999999
 31
0.0
  0
LINE
  5
30
330
1E
100
AcDbEntity
  8
0
100
AcDbLine
 10
164.67365
 20
1.499999999999989
 30
0.0
 11
165.67365
 21
2.49999999999999
 31
0.0
  0
LINE
  5
31
330
1E
100
AcDbEntity
  8
0
100
AcDbLine
 10
165.0736499999999
 20
-0.0000000000000065
 30
0.0
 11
167.4736499999999
 21
-0.0000000000000066
 31
0.0
  0
LINE
  5
32
330
1E
100
AcDbEntity
  8
0
100
AcDbLine
 10
164.17365
 20
-0.0000000000000064
 30
0.0
 11
165.0736499999999
 21
-0.0000000000000065
 31
0.0
  0
LINE
  5
33
330
1E
100
AcDbEntity
  8
0
100
AcDbLine
 10
164.17365
 20
-0.0000000000000064
 30
0.0
 11
164.67365
 21
1.499999999999989
 31
0.0
  0
LINE
  5
34
330
1E
100
AcDbEntity
  8
0
100
AcDbLine
 10
160.17365
 20
117.0
 30
0.0
 11
160.52965
 21
114.071
 31
0.0
  0
LINE
  5
35
330
1E
100
AcDbEntity
  8
0
100
AcDbLine
 10
160.17365
 20
117.0
 30
0.0
 11
160.52965
 21
119.9289999999999
 31
0.0
  0
LINE
  5
36
330
1E
100
AcDbEntity
  8
0
100
AcDbLine
 10
160.52965
 20
119.9289999999999
 30
0.0
 11
161.04865
 21
121.0439999999999
 31
0.0
  0
LINE
  5
37
330
1E
100
AcDbEntity
  8
0
100
AcDbLine
 10
166.06965
 20
111.193
 30
0.0
 11
166.7017456983539
 21
111.272738551903
 31
0.0
  0
LINE
  5
38
330
1E
100
AcDbEntity
  8
0
100
AcDbLine
 10
165.514074593967
 20
111.1688445475639
 30
0.0
 11
166.06965
 21
111.193
 31
0.0
  0
LINE
  5
39
330
1E
100
AcDbEntity
  8
0
100
AcDbLine
 10
164.29865
 20
111.092
 30
0.0
 11
166.19665
 21
111.2119999999999
 31
0.0
  0
LINE
  5
3A
330
1E
100
AcDbEntity
  8
0
100
AcDbLine
 10
163.91365
 20
111.19056
 30
0.0
 11
164.18365
 21
111.111
 31
0.0
  0
LINE
  5
3C
330
1E
100
AcDbEntity
  8
0
100
AcDbLine
 10
162.79865
 20
111.4759999999999
 30
0.0
 11
164.29865
 21
111.092
 31
0.0
  0
LINE
  5
3D
330
1E
100
AcDbEntity
  8
0
100
AcDbLine
 10
162.79865
 20
111.4759999999999
 30
0.0
 11
164.2177482723489
 21
111.112710842279
 31
0.0
  0
LINE
  5
3E
330
1E
100
AcDbEntity
  8
0
100
AcDbLine
 10
166.19665
 20
111.2119999999999
 30
0.0
 11
170.17165
 21
111.69
 31
0.0
  0
LINE
  5
3F
330
1E
100
AcDbEntity
  8
0
100
AcDbLine
 10
161.459126570557
 20
112.4733448275859
 30
0.0
 11
161.60665
 21
112.2829999999999
 31
0.0
  0
LINE
  5
41
330
1E
100
AcDbEntity
  8
0
100
AcDbLine
 10
161.04865
 20
121.0439999999999
 30
0.0
 11
161.70265
 21
121.8129999999999
 31
0.0
  0
LINE
  5
42
330
1E
100
AcDbEntity
  8
0
100
AcDbLine
 10
161.459126570557
 20
121.5266551724139
 30
0.0
 11
161.60665
 21
121.717
 31
0.0
  0
LINE
  5
44
330
1E
100
AcDbEntity
  8
0
100
AcDbLine
 10
161.04865
 20
112.956
 30
0.0
 11
161.70265
 21
112.187
 31
0.0
  0
LINE
  5
47
330
1E
100
AcDbEntity
  8
0
100
AcDbLine
 10
162.79865
 20
122.524
 30
0.0
 11
164.29865
 21
122.9079999999999
 31
0.0
  0
LINE
  5
49
330
1E
100
AcDbEntity
  8
0
100
AcDbLine
 10
166.19665
 20
122.788
 30
0.0
 11
170.17165
 21
122.31
 31
0.0
  0
LINE
  5
4A
330
1E
100
AcDbEntity
  8
0
100
AcDbLine
 10
161.70265
 20
121.8129999999999
 30
0.0
 11
162.79865
 21
122.524
 31
0.0
  0
LINE
  5
4B
330
1E
100
AcDbEntity
  8
0
100
AcDbLine
 10
161.70265
 20
112.187
 30
0.0
 11
162.79865
 21
111.4759999999999
 31
0.0
  0
LINE
  5
4C
330
1E
100
AcDbEntity
  8
0
100
AcDbLine
 10
160.52965
 20
114.071
 30
0.0
 11
161.04865
 21
112.956
 31
0.0
  0
LINE
  5
4D
330
1E
100
AcDbEntity
  8
0
100
AcDbLine
 10
22.66226
 20
177.09
 30
0.0
 11
23.82072
 21
177.9009999999999
 31
0.0
  0
LINE
  5
4E
330
1E
100
AcDbEntity
  8
0
100
AcDbLine
 10
22.26833999999999
 20
177.159
 30
0.0
 11
22.66226
 21
177.09
 31
0.0
  0
LINE
  5
4F
330
1E
100
AcDbEntity
  8
0
100
AcDbLine
 10
21.18505
 20
177.35
 30
0.0
 11
22.26833999999999
 21
177.159
 31
0.0
  0
LINE
  5
50
330
1E
100
AcDbEntity
  8
0
100
AcDbLine
 10
23.4268
 20
177.97
 30
0.0
 11
23.82072
 21
177.9009999999999
 31
0.0
  0
LINE
  5
51
330
1E
100
AcDbEntity
  8
0
100
AcDbLine
 10
22.24502999999999
 20
178.1789999999999
 30
0.0
 11
23.4268
 21
177.97
 31
0.0
  0
LINE
  5
52
330
1E
100
AcDbEntity
  8
0
100
AcDbLine
 10
20.37389
 20
178.509
 30
0.0
 11
22.24502999999999
 21
178.1789999999999
 31
0.0
  0
LINE
  5
53
330
1E
100
AcDbEntity
  8
0
100
AcDbLine
 10
17.24582
 20
178.0449999999999
 30
0.0
 11
19.51088
 21
177.6459999999999
 31
0.0
  0
LINE
  5
54
330
1E
100
AcDbEntity
  8
0
100
AcDbLine
 10
17.91187
 20
178.9429999999999
 30
0.0
 11
20.37389
 21
178.509
 31
0.0
  0
LINE
  5
55
330
1E
100
AcDbEntity
  8
0
100
AcDbLine
 10
15.055931
 20
179.447
 30
0.0
 11
17.91187
 21
178.9429999999999
 31
0.0
  0
LINE
  5
56
330
1E
100
AcDbEntity
  8
0
100
AcDbLine
 10
14.53759999999999
 20
178.522
 30
0.0
 11
17.24582
 21
178.0449999999999
 31
0.0
  0
LINE
  5
57
330
1E
100
AcDbEntity
  8
0
100
AcDbLine
 10
23.82072
 20
177.9009999999999
 30
0.0
 11
24.85955
 21
183.84
 31
0.0
  0
LINE
  5
58
330
1E
100
AcDbEntity
  8
0
100
AcDbLine
 10
19.51088
 20
177.6459999999999
 30
0.0
 11
21.18505
 21
177.35
 31
0.0
  0
LINE
  5
59
330
1E
100
AcDbEntity
  8
0
100
AcDbLine
 10
11.82938
 20
179.0
 30
0.0
 11
14.53759999999999
 21
178.522
 31
0.0
  0
LINE
  5
5A
330
1E
100
AcDbEntity
  8
0
100
AcDbLine
 10
4.14785
 20
180.354
 30
0.0
 11
6.412939999999999
 21
179.955
 31
0.0
  0
LINE
  5
5B
330
1E
100
AcDbEntity
  8
0
100
AcDbLine
 10
0.185349999999997
 20
182.069
 30
0.0
 11
1.22415
 21
188.0079999999999
 31
0.0
  0
LINE
  5
5C
330
1E
100
AcDbEntity
  8
0
100
AcDbLine
 10
0.185349999999997
 20
182.069
 30
0.0
 11
1.22415
 21
188.0079999999999
 31
0.0
  0
LINE
  5
5D
330
1E
100
AcDbEntity
  8
0
100
AcDbLine
 10
0.185349999999997
 20
182.069
 30
0.0
 11
0.996449999999997
 21
180.9099999999999
 31
0.0
  0
LINE
  5
5E
330
1E
100
AcDbEntity
  8
0
100
AcDbLine
 10
0.185349999999997
 20
182.069
 30
0.0
 11
0.5792499999999951
 21
181.999
 31
0.0
  0
LINE
  5
5F
330
1E
100
AcDbEntity
  8
0
100
AcDbLine
 10
0.5792499999999951
 20
181.999
 30
0.0
 11
1.761049999999989
 21
181.7909999999999
 31
0.0
  0
LINE
  5
60
330
1E
100
AcDbEntity
  8
0
100
AcDbLine
 10
0.579249999999996
 20
181.999
 30
0.0
 11
1.761049999999989
 21
181.7909999999999
 31
0.0
  0
LINE
  5
61
330
1E
100
AcDbEntity
  8
0
100
AcDbLine
 10
1.22415
 20
188.0079999999999
 30
0.0
 11
1.618149999999989
 21
187.9379999999999
 31
0.0
  0
LINE
  5
62
330
1E
100
AcDbEntity
  8
0
100
AcDbLine
 10
1.33955
 20
191.5409999999999
 30
0.0
 11
3.56965
 21
192.6709999999999
 31
0.0
  0
LINE
  5
63
330
1E
100
AcDbEntity
  8
0
100
AcDbLine
 10
1.33955
 20
191.5409999999999
 30
0.0
 11
3.56965
 21
192.6709999999999
 31
0.0
  0
LINE
  5
64
330
1E
100
AcDbEntity
  8
0
100
AcDbLine
 10
0.5866499999999971
 20
190.1509999999999
 30
0.0
 11
1.33955
 21
191.5409999999999
 31
0.0
  0
LINE
  5
65
330
1E
100
AcDbEntity
  8
0
100
AcDbLine
 10
0.4998499999999961
 20
189.659
 30
0.0
 11
0.818649999999994
 21
188.587
 31
0.0
  0
LINE
  5
66
330
1E
100
AcDbEntity
  8
0
100
AcDbLine
 10
0.4998499999999961
 20
189.659
 30
0.0
 11
0.5866499999999971
 21
190.1509999999999
 31
0.0
  0
LINE
  5
67
330
1E
100
AcDbEntity
  8
0
100
AcDbLine
 10
0.818649999999994
 20
188.587
 30
0.0
 11
1.22415
 21
188.0079999999999
 31
0.0
  0
LINE
  5
68
330
1E
100
AcDbEntity
  8
0
100
AcDbLine
 10
0.185349999999997
 20
182.069
 30
0.0
 11
0.996449999999997
 21
180.9099999999999
 31
0.0
  0
LINE
  5
69
330
1E
100
AcDbEntity
  8
0
100
AcDbLine
 10
0.185349999999997
 20
182.069
 30
0.0
 11
0.5792499999999951
 21
181.999
 31
0.0
  0
LINE
  5
6A
330
1E
100
AcDbEntity
  8
0
100
AcDbLine
 10
0.996449999999997
 20
180.9099999999999
 30
0.0
 11
1.390449999999999
 21
180.8409999999999
 31
0.0
  0
LINE
  5
6B
330
1E
100
AcDbEntity
  8
0
100
AcDbLine
 10
1.761049999999989
 20
181.7909999999999
 30
0.0
 11
3.63215
 21
181.4609999999999
 31
0.0
  0
LINE
  5
6C
330
1E
100
AcDbEntity
  8
0
100
AcDbLine
 10
1.618149999999989
 20
187.9379999999999
 30
0.0
 11
2.79985
 21
187.7299999999999
 31
0.0
  0
LINE
  5
6D
330
1E
100
AcDbEntity
  8
0
100
AcDbLine
 10
2.79985
 20
187.7299999999999
 30
0.0
 11
4.671019999999999
 21
187.4
 31
0.0
  0
LINE
  5
6E
330
1E
100
AcDbEntity
  8
0
100
AcDbLine
 10
3.63215
 20
181.4609999999999
 30
0.0
 11
6.09418
 21
181.027
 31
0.0
  0
LINE
  5
6F
330
1E
100
AcDbEntity
  8
0
100
AcDbLine
 10
6.09418
 20
181.027
 30
0.0
 11
8.95012
 21
180.5229999999999
 31
0.0
  0
LINE
  5
70
330
1E
100
AcDbEntity
  8
0
100
AcDbLine
 10
3.96355
 20
192.602
 30
0.0
 11
4.94838
 21
192.4279999999999
 31
0.0
  0
LINE
  5
71
330
1E
100
AcDbEntity
  8
0
100
AcDbLine
 10
4.94838
 20
192.4279999999999
 30
0.0
 11
6.62255
 21
192.1329999999999
 31
0.0
  0
LINE
  5
72
330
1E
100
AcDbEntity
  8
0
100
AcDbLine
 10
4.671019999999999
 20
187.4
 30
0.0
 11
7.133039999999999
 21
186.9659999999999
 31
0.0
  0
LINE
  5
73
330
1E
100
AcDbEntity
  8
0
100
AcDbLine
 10
3.56965
 20
192.6709999999999
 30
0.0
 11
4.51205
 21
205.792
 31
0.0
  0
LINE
  5
74
330
1E
100
AcDbEntity
  8
0
100
AcDbLine
 10
3.56965
 20
192.6709999999999
 30
0.0
 11
3.96355
 21
192.602
 31
0.0
  0
LINE
  5
75
330
1E
100
AcDbEntity
  8
0
100
AcDbLine
 10
4.51205
 20
205.792
 30
0.0
 11
7.012919999999999
 21
218.364
 31
0.0
  0
LINE
  5
76
330
1E
100
AcDbEntity
  8
0
100
AcDbLine
 10
1.390449999999999
 20
180.8409999999999
 30
0.0
 11
2.473749999999999
 21
180.6499999999999
 31
0.0
  0
LINE
  5
77
330
1E
100
AcDbEntity
  8
0
100
AcDbLine
 10
2.473749999999999
 20
180.6499999999999
 30
0.0
 11
4.14785
 21
180.354
 31
0.0
  0
LINE
  5
78
330
1E
100
AcDbEntity
  8
0
100
AcDbLine
 10
12.00303
 20
179.985
 30
0.0
 11
15.055931
 21
179.447
 31
0.0
  0
LINE
  5
79
330
1E
100
AcDbEntity
  8
0
100
AcDbLine
 10
8.95012
 20
180.5229999999999
 30
0.0
 11
12.00303
 21
179.985
 31
0.0
  0
LINE
  5
7A
330
1E
100
AcDbEntity
  8
0
100
AcDbLine
 10
7.133039999999999
 20
186.9659999999999
 30
0.0
 11
9.988989999999999
 21
186.462
 31
0.0
  0
LINE
  5
7B
330
1E
100
AcDbEntity
  8
0
100
AcDbLine
 10
24.46565
 20
183.91
 30
0.0
 11
24.85955
 21
183.84
 31
0.0
  0
LINE
  5
7C
330
1E
100
AcDbEntity
  8
0
100
AcDbLine
 10
23.28389
 20
184.1179999999999
 30
0.0
 11
24.46565
 21
183.91
 31
0.0
  0
LINE
  5
7D
330
1E
100
AcDbEntity
  8
0
100
AcDbLine
 10
21.41276
 20
184.4479999999999
 30
0.0
 11
23.28389
 21
184.1179999999999
 31
0.0
  0
LINE
  5
7E
330
1E
100
AcDbEntity
  8
0
100
AcDbLine
 10
18.95074
 20
184.882
 30
0.0
 11
21.41276
 21
184.4479999999999
 31
0.0
  0
LINE
  5
7F
330
1E
100
AcDbEntity
  8
0
100
AcDbLine
 10
16.09479
 20
185.386
 30
0.0
 11
18.95074
 21
184.882
 31
0.0
  0
LINE
  5
80
330
1E
100
AcDbEntity
  8
0
100
AcDbLine
 10
13.04189
 20
185.9239999999999
 30
0.0
 11
16.09479
 21
185.386
 31
0.0
  0
LINE
  5
81
330
1E
100
AcDbEntity
  8
0
100
AcDbLine
 10
9.988989999999999
 20
186.462
 30
0.0
 11
13.04189
 21
185.9239999999999
 31
0.0
  0
LINE
  5
82
330
1E
100
AcDbEntity
  8
0
100
AcDbLine
 10
6.62255
 20
192.1329999999999
 30
0.0
 11
8.78913
 21
191.7509999999999
 31
0.0
  0
LINE
  5
83
330
1E
100
AcDbEntity
  8
0
100
AcDbLine
 10
8.78913
 20
191.7509999999999
 30
0.0
 11
11.25115
 21
191.317
 31
0.0
  0
LINE
  5
84
330
1E
100
AcDbEntity
  8
0
100
AcDbLine
 10
7.012919999999999
 20
218.364
 30
0.0
 11
11.13346
 21
230.5029999999999
 31
0.0
  0
LINE
  5
85
330
1E
100
AcDbEntity
  8
0
100
AcDbLine
 10
23.85669
 20
189.094
 30
0.0
 11
24.25065
 21
189.0249999999999
 31
0.0
  0
LINE
  5
86
330
1E
100
AcDbEntity
  8
0
100
AcDbLine
 10
22.87187999999999
 20
189.268
 30
0.0
 11
23.85669
 21
189.094
 31
0.0
  0
LINE
  5
87
330
1E
100
AcDbEntity
  8
0
100
AcDbLine
 10
21.19771
 20
189.5629999999999
 30
0.0
 11
22.87187999999999
 21
189.268
 31
0.0
  0
LINE
  5
88
330
1E
100
AcDbEntity
  8
0
100
AcDbLine
 10
19.03112999999999
 20
189.9449999999999
 30
0.0
 11
21.19771
 21
189.5629999999999
 31
0.0
  0
LINE
  5
89
330
1E
100
AcDbEntity
  8
0
100
AcDbLine
 10
16.56911
 20
190.379
 30
0.0
 11
19.03112999999999
 21
189.9449999999999
 31
0.0
  0
LINE
  5
8A
330
1E
100
AcDbEntity
  8
0
100
AcDbLine
 10
13.910132
 20
190.8479999999999
 30
0.0
 11
16.56911
 21
190.379
 31
0.0
  0
LINE
  5
8B
330
1E
100
AcDbEntity
  8
0
100
AcDbLine
 10
11.25115
 20
191.317
 30
0.0
 11
13.910132
 21
190.8479999999999
 31
0.0
  0
LINE
  5
8C
330
1E
100
AcDbEntity
  8
0
100
AcDbLine
 10
23.92501999999999
 20
252.659
 30
0.0
 11
32.37715
 21
262.2959999999999
 31
0.0
  0
LINE
  5
8D
330
1E
100
AcDbEntity
  8
0
100
AcDbLine
 10
16.80316
 20
242.0
 30
0.0
 11
23.92501999999999
 21
252.659
 31
0.0
  0
LINE
  5
8E
330
1E
100
AcDbEntity
  8
0
100
AcDbLine
 10
25.33235
 20
203.051
 30
0.0
 11
27.29735
 21
212.929
 31
0.0
  0
LINE
  5
8F
330
1E
100
AcDbEntity
  8
0
100
AcDbLine
 10
11.13346
 20
230.5029999999999
 30
0.0
 11
16.80316
 21
242.0
 31
0.0
  0
LINE
  5
90
330
1E
100
AcDbEntity
  8
0
100
AcDbLine
 10
24.25065
 20
189.0249999999999
 30
0.0
 11
25.95975
 21
187.1999999999999
 31
0.0
  0
LINE
  5
91
330
1E
100
AcDbEntity
  8
0
100
AcDbLine
 10
24.25065
 20
189.0249999999999
 30
0.0
 11
25.33235
 21
203.051
 31
0.0
  0
LINE
  5
92
330
1E
100
AcDbEntity
  8
0
100
AcDbLine
 10
27.29735
 20
212.929
 30
0.0
 11
30.53494999999999
 21
222.467
 31
0.0
  0
LINE
  5
93
330
1E
100
AcDbEntity
  8
0
100
AcDbLine
 10
40.58545
 20
239.875
 30
0.0
 11
47.22644999999999
 21
247.447
 31
0.0
  0
LINE
  5
94
330
1E
100
AcDbEntity
  8
0
100
AcDbLine
 10
34.98965
 20
231.4999999999999
 30
0.0
 11
40.58545
 21
239.875
 31
0.0
  0
LINE
  5
95
330
1E
100
AcDbEntity
  8
0
100
AcDbLine
 10
30.53494999999999
 20
222.467
 30
0.0
 11
34.98965
 21
231.4999999999999
 31
0.0
  0
LINE
  5
96
330
1E
100
AcDbEntity
  8
0
100
AcDbLine
 10
63.17365
 20
259.684
 30
0.0
 11
72.20704999999999
 21
264.139
 31
0.0
  0
LINE
  5
97
330
1E
100
AcDbEntity
  8
0
100
AcDbLine
 10
72.20704999999999
 20
264.139
 30
0.0
 11
81.74455
 21
267.3759999999999
 31
0.0
  0
LINE
  5
98
330
1E
100
AcDbEntity
  8
0
100
AcDbLine
 10
54.79905
 20
254.088
 30
0.0
 11
63.17365
 21
259.684
 31
0.0
  0
LINE
  5
99
330
1E
100
AcDbEntity
  8
0
100
AcDbLine
 10
47.22644999999999
 20
247.447
 30
0.0
 11
54.79905
 21
254.088
 31
0.0
  0
LINE
  5
9A
330
1E
100
AcDbEntity
  8
0
100
AcDbLine
 10
32.37715
 20
262.2959999999999
 30
0.0
 11
42.01505
 21
270.749
 31
0.0
  0
LINE
  5
9B
330
1E
100
AcDbEntity
  8
0
100
AcDbLine
 10
91.62314999999999
 20
269.341
 30
0.0
 11
101.6736499999999
 21
270.0
 31
0.0
  0
LINE
  5
9C
330
1E
100
AcDbEntity
  8
0
100
AcDbLine
 10
81.74455
 20
267.3759999999999
 30
0.0
 11
91.62314999999999
 21
269.341
 31
0.0
  0
LINE
  5
9D
330
1E
100
AcDbEntity
  8
0
100
AcDbLine
 10
121.6026499999999
 20
267.3759999999999
 30
0.0
 11
131.1406499999999
 21
264.139
 31
0.0
  0
LINE
  5
9E
330
1E
100
AcDbEntity
  8
0
100
AcDbLine
 10
52.67365
 20
277.87
 30
0.0
 11
64.17065
 21
283.54
 31
0.0
  0
LINE
  5
9F
330
1E
100
AcDbEntity
  8
0
100
AcDbLine
 10
64.17065
 20
283.54
 30
0.0
 11
76.30935
 21
287.6609999999999
 31
0.0
  0
LINE
  5
A0
330
1E
100
AcDbEntity
  8
0
100
AcDbLine
 10
42.01505
 20
270.749
 30
0.0
 11
52.67365
 21
277.87
 31
0.0
  0
LINE
  5
A1
330
1E
100
AcDbEntity
  8
0
100
AcDbLine
 10
101.6736499999999
 20
270.0
 30
0.0
 11
111.7241499999999
 21
269.341
 31
0.0
  0
LINE
  5
A2
330
1E
100
AcDbEntity
  8
0
100
AcDbLine
 10
111.7241499999999
 20
269.341
 30
0.0
 11
121.6026499999999
 21
267.3759999999999
 31
0.0
  0
LINE
  5
A3
330
1E
100
AcDbEntity
  8
0
100
AcDbLine
 10
148.54865
 20
254.088
 30
0.0
 11
156.12065
 21
247.447
 31
0.0
  0
LINE
  5
A4
330
1E
100
AcDbEntity
  8
0
100
AcDbLine
 10
140.17365
 20
259.684
 30
0.0
 11
148.54865
 21
254.088
 31
0.0
  0
LINE
  5
A5
330
1E
100
AcDbEntity
  8
0
100
AcDbLine
 10
150.67365
 20
277.87
 30
0.0
 11
161.33265
 21
270.749
 31
0.0
  0
LINE
  5
A6
330
1E
100
AcDbEntity
  8
0
100
AcDbLine
 10
131.1406499999999
 20
264.139
 30
0.0
 11
140.17365
 21
259.684
 31
0.0
  0
LINE
  5
A7
330
1E
100
AcDbEntity
  8
0
100
AcDbLine
 10
88.88205000000001
 20
290.162
 30
0.0
 11
101.6736499999999
 21
291.0
 31
0.0
  0
LINE
  5
A8
330
1E
100
AcDbEntity
  8
0
100
AcDbLine
 10
76.30935
 20
287.6609999999999
 30
0.0
 11
88.88205000000001
 21
290.162
 31
0.0
  0
LINE
  5
A9
330
1E
100
AcDbEntity
  8
0
100
AcDbLine
 10
101.6736499999999
 20
291.0
 30
0.0
 11
114.4656499999999
 21
290.162
 31
0.0
  0
LINE
  5
AA
330
1E
100
AcDbEntity
  8
0
100
AcDbLine
 10
127.03765
 20
287.6609999999999
 30
0.0
 11
139.1766499999999
 21
283.54
 31
0.0
  0
LINE
  5
AB
330
1E
100
AcDbEntity
  8
0
100
AcDbLine
 10
114.4656499999999
 20
290.162
 30
0.0
 11
127.03765
 21
287.6609999999999
 31
0.0
  0
LINE
  5
AC
330
1E
100
AcDbEntity
  8
0
100
AcDbLine
 10
139.1766499999999
 20
283.54
 30
0.0
 11
150.67365
 21
277.87
 31
0.0
  0
LINE
  5
AD
330
1E
100
AcDbEntity
  8
0
100
AcDbLine
 10
161.33265
 20
270.749
 30
0.0
 11
170.9696499999999
 21
262.2959999999999
 31
0.0
  0
LINE
  5
AE
330
1E
100
AcDbEntity
  8
0
100
AcDbLine
 10
156.12065
 20
247.447
 30
0.0
 11
162.76165
 21
239.875
 31
0.0
  0
LINE
  5
AF
330
1E
100
AcDbEntity
  8
0
100
AcDbLine
 10
162.76165
 20
239.875
 30
0.0
 11
168.35765
 21
231.4999999999999
 31
0.0
  0
LINE
  5
B0
330
1E
100
AcDbEntity
  8
0
100
AcDbLine
 10
25.95975
 20
187.1999999999999
 30
0.0
 11
26.19165
 21
185.636
 31
0.0
  0
LINE
  5
B1
330
1E
100
AcDbEntity
  8
0
100
AcDbLine
 10
26.10485
 20
185.144
 30
0.0
 11
26.19165
 21
185.636
 31
0.0
  0
LINE
  5
B2
330
1E
100
AcDbEntity
  8
0
100
AcDbLine
 10
25.43884999999999
 20
184.2459999999999
 30
0.0
 11
26.10485
 21
185.144
 31
0.0
  0
LINE
  5
B3
330
1E
100
AcDbEntity
  8
0
100
AcDbLine
 10
24.85955
 20
183.84
 30
0.0
 11
25.43884999999999
 21
184.2459999999999
 31
0.0
  0
LINE
  5
B4
330
1E
100
AcDbEntity
  8
0
100
AcDbLine
 10
6.412939999999999
 20
179.955
 30
0.0
 11
9.121159999999999
 21
179.4779999999999
 31
0.0
  0
LINE
  5
B5
330
1E
100
AcDbEntity
  8
0
100
AcDbLine
 10
9.121159999999999
 20
179.4779999999999
 30
0.0
 11
11.82938
 21
179.0
 31
0.0
  0
LINE
  5
B6
330
1E
100
AcDbEntity
  8
0
100
AcDbLine
 10
165.5140745939679
 20
122.831155452436
 30
0.0
 11
166.06965
 21
122.8069999999999
 31
0.0
  0
LINE
  5
B7
330
1E
100
AcDbEntity
  8
0
100
AcDbLine
 10
164.29865
 20
122.9079999999999
 30
0.0
 11
166.19665
 21
122.788
 31
0.0
  0
LINE
  5
B8
330
1E
100
AcDbEntity
  8
0
100
AcDbLine
 10
163.91365
 20
122.80944
 30
0.0
 11
164.18365
 21
122.889
 31
0.0
  0
LINE
  5
B9
330
1E
100
AcDbEntity
  8
0
100
AcDbLine
 10
166.06965
 20
122.8069999999999
 30
0.0
 11
166.7017456983499
 21
122.727261448098
 31
0.0
  0
LINE
  5
BA
330
1E
100
AcDbEntity
  8
0
100
AcDbLine
 10
170.17165
 20
111.69
 30
0.0
 11
173.71565
 21
112.217
 31
0.0
  0
LINE
  5
BB
330
1E
100
AcDbEntity
  8
0
100
AcDbLine
 10
171.969539714679
 20
111.95734985317
 30
0.0
 11
174.03565
 21
112.243
 31
0.0
  0
LINE
  5
BC
330
1E
100
AcDbEntity
  8
0
100
AcDbLine
 10
171.96953971468
 20
122.042650146829
 30
0.0
 11
174.03565
 21
121.757
 31
0.0
  0
LINE
  5
BD
330
1E
100
AcDbEntity
  8
0
100
AcDbLine
 10
168.35765
 20
231.4999999999999
 30
0.0
 11
172.8126499999999
 21
222.467
 31
0.0
  0
LINE
  5
BE
330
1E
100
AcDbEntity
  8
0
100
AcDbLine
 10
170.9696499999999
 20
262.2959999999999
 30
0.0
 11
179.42265
 21
252.659
 31
0.0
  0
LINE
  5
BF
330
1E
100
AcDbEntity
  8
0
100
AcDbLine
 10
170.17165
 20
122.31
 30
0.0
 11
173.71565
 21
121.7829999999999
 31
0.0
  0
LINE
  5
C0
330
1E
100
AcDbEntity
  8
0
100
AcDbLine
 10
166.7017456983499
 20
122.727261448098
 30
0.0
 11
170.17165
 21
122.31
 31
0.0
  0
LINE
  5
C1
330
1E
100
AcDbEntity
  8
0
100
AcDbLine
 10
172.17365
 20
68.0
 30
0.0
 11
172.67365
 21
66.5
 31
0.0
  0
LINE
  5
C3
330
1E
100
AcDbEntity
  8
0
100
AcDbLine
 10
172.17365
 20
68.0
 30
0.0
 11
172.67365
 21
69.5
 31
0.0
  0
LINE
  5
C4
330
1E
100
AcDbEntity
  8
0
100
AcDbLine
 10
172.7736499999999
 20
15.0
 30
0.0
 11
203.87365
 21
15.0
 31
0.0
  0
LINE
  5
C5
330
1E
100
AcDbEntity
  8
0
100
AcDbLine
 10
173.67365
 20
16.0
 30
0.0
 11
174.17365
 21
18.0
 31
0.0
  0
LINE
  5
C6
330
1E
100
AcDbEntity
  8
0
100
AcDbLine
 10
173.17365
 20
15.5
 30
0.0
 11
173.67365
 21
16.0
 31
0.0
  0
LINE
  5
C7
330
1E
100
AcDbEntity
  8
0
100
AcDbLine
 10
173.27365
 20
69.5
 30
0.0
 11
174.8736499999999
 21
69.5
 31
0.0
  0
LINE
  5
C9
330
1E
100
AcDbEntity
  8
0
100
AcDbLine
 10
173.27365
 20
66.5
 30
0.0
 11
174.8736499999999
 21
66.5
 31
0.0
  0
LINE
  5
CA
330
1E
100
AcDbEntity
  8
0
100
AcDbLine
 10
173.67365
 20
66.0
 30
0.0
 11
174.17365
 21
64.5
 31
0.0
  0
LINE
  5
CB
330
1E
100
AcDbEntity
  8
0
100
AcDbLine
 10
173.67365
 20
66.0
 30
0.0
 11
174.27365
 21
66.0
 31
0.0
  0
LINE
  5
CC
330
1E
100
AcDbEntity
  8
0
100
AcDbLine
 10
174.17365
 20
64.5
 30
0.0
 11
174.17365
 21
18.0
 31
0.0
  0
LINE
  5
CD
330
1E
100
AcDbEntity
  8
0
100
AcDbLine
 10
176.7736499999999
 20
-0.0000000000000072
 30
0.0
 11
182.77365
 21
-0.0000000000000075
 31
0.0
  0
LINE
  5
CE
330
1E
100
AcDbEntity
  8
0
100
AcDbLine
 10
182.77365
 20
-0.0000000000000075
 30
0.0
 11
189.17365
 21
-0.0000000000000079
 31
0.0
  0
LINE
  5
CF
330
1E
100
AcDbEntity
  8
0
100
AcDbLine
 10
206.77365
 20
-0.000000000000009
 30
0.0
 11
210.87365
 21
-0.0000000000000093
 31
0.0
  0
LINE
  5
D0
330
1E
100
AcDbEntity
  8
0
100
AcDbLine
 10
201.57365
 20
-0.0000000000000087
 30
0.0
 11
206.77365
 21
-0.000000000000009
 31
0.0
  0
LINE
  5
D1
330
1E
100
AcDbEntity
  8
0
100
AcDbLine
 10
206.17365
 20
9.999999999999991
 30
0.0
 11
207.17365
 21
6.99999999999999
 31
0.0
  0
LINE
  5
D2
330
1E
100
AcDbEntity
  8
0
100
AcDbLine
 10
195.57365
 20
-0.0000000000000083
 30
0.0
 11
201.57365
 21
-0.0000000000000087
 31
0.0
  0
LINE
  5
D3
330
1E
100
AcDbEntity
  8
0
100
AcDbLine
 10
189.17365
 20
-0.0000000000000079
 30
0.0
 11
195.57365
 21
-0.0000000000000083
 31
0.0
  0
LINE
  5
D8
330
1E
100
AcDbEntity
  8
0
100
AcDbLine
 10
175.77365
 20
16.0
 30
0.0
 11
204.67365
 21
16.0
 31
0.0
  0
LINE
  5
D9
330
1E
100
AcDbEntity
  8
0
100
AcDbLine
 10
173.67365
 20
16.0
 30
0.0
 11
175.77365
 21
16.0
 31
0.0
  0
LINE
  5
DA
330
1E
100
AcDbEntity
  8
0
100
AcDbLine
 10
203.87365
 20
15.0
 30
0.0
 11
205.57365
 21
15.0
 31
0.0
  0
LINE
  5
E1
330
1E
100
AcDbEntity
  8
0
100
AcDbLine
 10
204.17365
 20
28.6907247775306
 30
0.0
 11
207.60265
 21
34.6451
 31
0.0
  0
LINE
  5
E2
330
1E
100
AcDbEntity
  8
0
100
AcDbLine
 10
204.17365
 20
18.7414181655511
 30
0.0
 11
211.9036499999999
 21
32.1644
 31
0.0
  0
LINE
  5
E3
330
1E
100
AcDbEntity
  8
0
100
AcDbLine
 10
204.17365
 20
18.7414181655511
 30
0.0
 11
211.9036499999999
 21
32.1644
 31
0.0
  0
LINE
  5
E4
330
1E
100
AcDbEntity
  8
0
100
AcDbLine
 10
204.17365
 20
18.0
 30
0.0
 11
204.67365
 21
16.0
 31
0.0
  0
LINE
  5
E5
330
1E
100
AcDbEntity
  8
0
100
AcDbLine
 10
204.17365
 20
18.0
 30
0.0
 11
204.17365
 21
64.5
 31
0.0
  0
LINE
  5
E6
330
1E
100
AcDbEntity
  8
0
100
AcDbLine
 10
206.67365
 20
13.5
 30
0.0
 11
206.67365
 21
14.0
 31
0.0
  0
LINE
  5
E7
330
1E
100
AcDbEntity
  8
0
100
AcDbLine
 10
205.57365
 20
15.0
 30
0.0
 11
206.17365
 21
15.0
 31
0.0
  0
LINE
  5
E8
330
1E
100
AcDbEntity
  8
0
100
AcDbLine
 10
205.17365
 20
15.5
 30
0.0
 11
206.17365
 21
15.0
 31
0.0
  0
LINE
  5
E9
330
1E
100
AcDbEntity
  8
0
100
AcDbLine
 10
206.17365
 20
15.0
 30
0.0
 11
206.67365
 21
14.0
 31
0.0
  0
LINE
  5
EA
330
1E
100
AcDbEntity
  8
0
100
AcDbLine
 10
206.67365
 20
14.0
 30
0.0
 11
206.67365
 21
13.5
 31
0.0
  0
LINE
  5
EB
330
1E
100
AcDbEntity
  8
0
100
AcDbLine
 10
206.17365
 20
12.5
 30
0.0
 11
206.67365
 21
13.5
 31
0.0
  0
LINE
  5
EC
330
1E
100
AcDbEntity
  8
0
100
AcDbLine
 10
204.67365
 20
16.0
 30
0.0
 11
205.17365
 21
15.5
 31
0.0
  0
LINE
  5
ED
330
1E
100
AcDbEntity
  8
0
100
AcDbLine
 10
205.97365
 20
11.4
 30
0.0
 11
206.17365
 21
9.999999999999991
 31
0.0
  0
LINE
  5
EE
330
1E
100
AcDbEntity
  8
0
100
AcDbLine
 10
205.97365
 20
11.4
 30
0.0
 11
206.17365
 21
12.5
 31
0.0
  0
LINE
  5
EF
330
1E
100
AcDbEntity
  8
0
100
AcDbLine
 10
207.62065
 20
34.63689999999999
 30
0.0
 11
208.35865
 21
35.6141
 31
0.0
  0
LINE
  5
F8
330
1E
100
AcDbEntity
  8
0
100
AcDbLine
 10
209.1166499999999
 20
36.2531
 30
0.0
 11
209.98665
 21
36.7287
 31
0.0
  0
LINE
  5
F9
330
1E
100
AcDbEntity
  8
0
100
AcDbLine
 10
208.35865
 20
35.6141
 30
0.0
 11
209.1166499999999
 21
36.2531
 31
0.0
  0
LINE
  5
FE
330
1E
100
AcDbEntity
  8
0
100
AcDbLine
 10
211.91965
 20
32.1529
 30
0.0
 11
226.81265
 21
32.15279999999999
 31
0.0
  0
LINE
  5
103
330
1E
100
AcDbEntity
  8
0
100
AcDbLine
 10
211.91965
 20
37.1208
 30
0.0
 11
226.81265
 21
37.1208
 31
0.0
  0
LINE
  5
104
330
1E
100
AcDbEntity
  8
0
100
AcDbLine
 10
210.9336499999999
 20
37.0218
 30
0.0
 11
211.91965
 21
37.1208
 31
0.0
  0
LINE
  5
105
330
1E
100
AcDbEntity
  8
0
100
AcDbLine
 10
209.98665
 20
36.7287
 30
0.0
 11
210.9336499999999
 21
37.0218
 31
0.0
  0
LINE
  5
107
330
1E
100
AcDbEntity
  8
0
100
AcDbLine
 10
209.17365
 20
3.99999999999999
 30
0.0
 11
212.67365
 21
2.49999999999999
 31
0.0
  0
LINE
  5
108
330
1E
100
AcDbEntity
  8
0
100
AcDbLine
 10
212.67365
 20
2.49999999999999
 30
0.0
 11
213.67365
 21
1.499999999999989
 31
0.0
  0
LINE
  5
109
330
1E
100
AcDbEntity
  8
0
100
AcDbLine
 10
207.17365
 20
6.99999999999999
 30
0.0
 11
209.17365
 21
3.99999999999999
 31
0.0
  0
LINE
  5
10A
330
1E
100
AcDbEntity
  8
0
100
AcDbLine
 10
210.87365
 20
-0.0000000000000093
 30
0.0
 11
213.27365
 21
-0.0000000000000094
 31
0.0
  0
LINE
  5
10B
330
1E
100
AcDbEntity
  8
0
100
AcDbLine
 10
226.81065
 20
35.59109999999999
 30
0.0
 11
226.81065
 21
34.6408
 31
0.0
  0
LINE
  5
10C
330
1E
100
AcDbEntity
  8
0
100
AcDbLine
 10
226.81065
 20
35.59109999999999
 30
0.0
 11
226.81165
 21
36.39609999999999
 31
0.0
  0
LINE
  5
10D
330
1E
100
AcDbEntity
  8
0
100
AcDbLine
 10
226.81065
 20
34.6408
 30
0.0
 11
226.81065
 21
33.6898
 31
0.0
  0
LINE
  5
10E
330
1E
100
AcDbEntity
  8
0
100
AcDbLine
 10
226.81065
 20
34.6408
 30
0.0
 11
226.81065
 21
35.59109999999999
 31
0.0
  0
LINE
  5
10F
330
1E
100
AcDbEntity
  8
0
100
AcDbLine
 10
226.81165
 20
36.39609999999999
 30
0.0
 11
226.81165
 21
36.9333
 31
0.0
  0
LINE
  5
110
330
1E
100
AcDbEntity
  8
0
100
AcDbLine
 10
226.81165
 20
36.9333
 30
0.0
 11
226.81165
 21
36.39609999999999
 31
0.0
  0
LINE
  5
111
330
1E
100
AcDbEntity
  8
0
100
AcDbLine
 10
226.81165
 20
36.9333
 30
0.0
 11
226.81265
 21
37.1208
 31
0.0
  0
LINE
  5
112
330
1E
100
AcDbEntity
  8
0
100
AcDbLine
 10
226.81065
 20
33.6898
 30
0.0
 11
226.81165
 21
32.8832
 31
0.0
  0
LINE
  5
113
330
1E
100
AcDbEntity
  8
0
100
AcDbLine
 10
226.81065
 20
33.6898
 30
0.0
 11
226.81065
 21
34.6408
 31
0.0
  0
LINE
  5
114
330
1E
100
AcDbEntity
  8
0
100
AcDbLine
 10
226.81165
 20
32.8832
 30
0.0
 11
226.81165
 21
32.3434
 31
0.0
  0
LINE
  5
115
330
1E
100
AcDbEntity
  8
0
100
AcDbLine
 10
226.81165
 20
32.3434
 30
0.0
 11
226.81265
 21
32.15279999999999
 31
0.0
  0
LINE
  5
116
330
1E
100
AcDbEntity
  8
0
100
AcDbLine
 10
226.81165
 20
32.3434
 30
0.0
 11
226.81165
 21
32.8832
 31
0.0
  0
LINE
  5
117
330
1E
100
AcDbEntity
  8
0
100
AcDbLine
 10
226.81265
 20
32.15279999999999
 30
0.0
 11
226.81365
 21
32.3403
 31
0.0
  0
LINE
  5
118
330
1E
100
AcDbEntity
  8
0
100
AcDbLine
 10
226.81365
 20
32.3403
 30
0.0
 11
226.8146499999999
 21
32.87749999999999
 31
0.0
  0
LINE
  5
119
330
1E
100
AcDbEntity
  8
0
100
AcDbLine
 10
226.8146499999999
 20
32.87749999999999
 30
0.0
 11
226.8146499999999
 21
33.6826
 31
0.0
  0
LINE
  5
11A
330
1E
100
AcDbEntity
  8
0
100
AcDbLine
 10
226.8146499999999
 20
33.6826
 30
0.0
 11
226.8146499999999
 21
34.6328
 31
0.0
  0
LINE
  5
11B
330
1E
100
AcDbEntity
  8
0
100
AcDbLine
 10
226.8146499999999
 20
33.6826
 30
0.0
 11
226.8146499999999
 21
32.87749999999999
 31
0.0
  0
LINE
  5
11C
330
1E
100
AcDbEntity
  8
0
100
AcDbLine
 10
226.8146499999999
 20
36.3904
 30
0.0
 11
226.8146499999999
 21
35.58379999999999
 31
0.0
  0
LINE
  5
11D
330
1E
100
AcDbEntity
  8
0
100
AcDbLine
 10
226.8146499999999
 20
34.6328
 30
0.0
 11
226.8146499999999
 21
35.58379999999999
 31
0.0
  0
LINE
  5
11E
330
1E
100
AcDbEntity
  8
0
100
AcDbLine
 10
226.8146499999999
 20
34.6328
 30
0.0
 11
226.8146499999999
 21
33.6826
 31
0.0
  0
LINE
  5
11F
330
1E
100
AcDbEntity
  8
0
100
AcDbLine
 10
226.8146499999999
 20
35.58379999999999
 30
0.0
 11
226.8146499999999
 21
36.3904
 31
0.0
  0
LINE
  5
120
330
1E
100
AcDbEntity
  8
0
100
AcDbLine
 10
226.8146499999999
 20
35.58379999999999
 30
0.0
 11
226.8146499999999
 21
34.6328
 31
0.0
  0
LINE
  5
121
330
1E
100
AcDbEntity
  8
0
100
AcDbLine
 10
226.81365
 20
36.9302
 30
0.0
 11
226.8146499999999
 21
36.3904
 31
0.0
  0
LINE
  5
122
330
1E
100
AcDbEntity
  8
0
100
AcDbLine
 10
226.81265
 20
37.1208
 30
0.0
 11
226.81365
 21
36.9302
 31
0.0
  0
LINE
  5
123
330
1E
100
AcDbEntity
  8
0
100
AcDbLine
 10
213.67365
 20
1.499999999999989
 30
0.0
 11
214.1736499999999
 21
-0.0000000000000096
 31
0.0
  0
LINE
  5
124
330
1E
100
AcDbEntity
  8
0
100
AcDbLine
 10
213.67365
 20
1.499999999999989
 30
0.0
 11
214.1736499999999
 21
-0.0000000000000095
 31
0.0
  0
LINE
  5
125
330
1E
100
AcDbEntity
  8
0
100
AcDbLine
 10
213.27365
 20
-0.0000000000000094
 30
0.0
 11
214.1736499999999
 21
-0.0000000000000095
 31
0.0
  0
LINE
  5
126
330
1E
100
AcDbEntity
  8
0
100
AcDbLine
 10
175.77365
 20
66.0
 30
0.0
 11
178.27365
 21
66.0
 31
0.0
  0
LINE
  5
127
330
1E
100
AcDbEntity
  8
0
100
AcDbLine
 10
174.27365
 20
66.0
 30
0.0
 11
175.77365
 21
66.0
 31
0.0
  0
LINE
  5
128
330
1E
100
AcDbEntity
  8
0
100
AcDbLine
 10
178.27365
 20
66.0
 30
0.0
 11
181.47365
 21
66.0
 31
0.0
  0
LINE
  5
129
330
1E
100
AcDbEntity
  8
0
100
AcDbLine
 10
174.8736499999999
 20
66.5
 30
0.0
 11
177.4736499999999
 21
66.5
 31
0.0
  0
LINE
  5
12A
330
1E
100
AcDbEntity
  8
0
100
AcDbLine
 10
177.4736499999999
 20
66.5
 30
0.0
 11
180.9736499999999
 21
66.5
 31
0.0
  0
LINE
  5
12B
330
1E
100
AcDbEntity
  8
0
100
AcDbLine
 10
180.9736499999999
 20
66.5
 30
0.0
 11
184.9736499999999
 21
66.5
 31
0.0
  0
LINE
  5
12C
330
1E
100
AcDbEntity
  8
0
100
AcDbLine
 10
184.9736499999999
 20
66.5
 30
0.0
 11
189.17365
 21
66.5
 31
0.0
  0
LINE
  5
12D
330
1E
100
AcDbEntity
  8
0
100
AcDbLine
 10
181.47365
 20
66.0
 30
0.0
 11
185.17365
 21
66.0
 31
0.0
  0
LINE
  5
12E
330
1E
100
AcDbEntity
  8
0
100
AcDbLine
 10
185.17365
 20
66.0
 30
0.0
 11
189.17365
 21
66.0
 31
0.0
  0
LINE
  5
12F
330
1E
100
AcDbEntity
  8
0
100
AcDbLine
 10
180.9736499999999
 20
69.5
 30
0.0
 11
184.9736499999999
 21
69.5
 31
0.0
  0
LINE
  5
131
330
1E
100
AcDbEntity
  8
0
100
AcDbLine
 10
184.9736499999999
 20
69.5
 30
0.0
 11
189.17365
 21
69.5
 31
0.0
  0
LINE
  5
133
330
1E
100
AcDbEntity
  8
0
100
AcDbLine
 10
189.17365
 20
69.5
 30
0.0
 11
193.37365
 21
69.5
 31
0.0
  0
LINE
  5
135
330
1E
100
AcDbEntity
  8
0
100
AcDbLine
 10
189.17365
 20
66.5
 30
0.0
 11
193.37365
 21
66.5
 31
0.0
  0
LINE
  5
136
330
1E
100
AcDbEntity
  8
0
100
AcDbLine
 10
200.0736499999999
 20
66.0
 30
0.0
 11
202.5736499999999
 21
66.0
 31
0.0
  0
LINE
  5
137
330
1E
100
AcDbEntity
  8
0
100
AcDbLine
 10
204.67365
 20
66.0
 30
0.0
 11
205.6736499999999
 21
66.5
 31
0.0
  0
LINE
  5
138
330
1E
100
AcDbEntity
  8
0
100
AcDbLine
 10
202.5736499999999
 20
66.0
 30
0.0
 11
204.0736499999999
 21
66.0
 31
0.0
  0
LINE
  5
139
330
1E
100
AcDbEntity
  8
0
100
AcDbLine
 10
204.0736499999999
 20
66.0
 30
0.0
 11
204.67365
 21
66.0
 31
0.0
  0
LINE
  5
13A
330
1E
100
AcDbEntity
  8
0
100
AcDbLine
 10
196.87365
 20
66.0
 30
0.0
 11
200.0736499999999
 21
66.0
 31
0.0
  0
LINE
  5
13B
330
1E
100
AcDbEntity
  8
0
100
AcDbLine
 10
193.37365
 20
69.5
 30
0.0
 11
197.37365
 21
69.5
 31
0.0
  0
LINE
  5
13C
330
1E
100
AcDbEntity
  8
0
100
AcDbLine
 10
200.8736499999999
 20
66.5
 30
0.0
 11
203.47365
 21
66.5
 31
0.0
  0
LINE
  5
13D
330
1E
100
AcDbEntity
  8
0
100
AcDbLine
 10
203.47365
 20
66.5
 30
0.0
 11
205.0736499999999
 21
66.5
 31
0.0
  0
LINE
  5
13E
330
1E
100
AcDbEntity
  8
0
100
AcDbLine
 10
205.0736499999999
 20
66.5
 30
0.0
 11
205.6736499999999
 21
66.5
 31
0.0
  0
LINE
  5
13F
330
1E
100
AcDbEntity
  8
0
100
AcDbLine
 10
200.8736499999999
 20
69.5
 30
0.0
 11
203.47365
 21
69.5
 31
0.0
  0
LINE
  5
140
330
1E
100
AcDbEntity
  8
0
100
AcDbLine
 10
203.47365
 20
69.5
 30
0.0
 11
205.0736499999999
 21
69.5
 31
0.0
  0
LINE
  5
141
330
1E
100
AcDbEntity
  8
0
100
AcDbLine
 10
205.0736499999999
 20
69.5
 30
0.0
 11
205.6736499999999
 21
69.5
 31
0.0
  0
LINE
  5
144
330
1E
100
AcDbEntity
  8
0
100
AcDbLine
 10
197.37365
 20
69.5
 30
0.0
 11
200.8736499999999
 21
69.5
 31
0.0
  0
LINE
  5
146
330
1E
100
AcDbEntity
  8
0
100
AcDbLine
 10
197.37365
 20
66.5
 30
0.0
 11
200.8736499999999
 21
66.5
 31
0.0
  0
LINE
  5
147
330
1E
100
AcDbEntity
  8
0
100
AcDbLine
 10
193.37365
 20
66.5
 30
0.0
 11
197.37365
 21
66.5
 31
0.0
  0
LINE
  5
148
330
1E
100
AcDbEntity
  8
0
100
AcDbLine
 10
193.17365
 20
66.0
 30
0.0
 11
196.87365
 21
66.0
 31
0.0
  0
LINE
  5
149
330
1E
100
AcDbEntity
  8
0
100
AcDbLine
 10
189.17365
 20
66.0
 30
0.0
 11
193.17365
 21
66.0
 31
0.0
  0
LINE
  5
14A
330
1E
100
AcDbEntity
  8
0
100
AcDbLine
 10
174.8736499999999
 20
69.5
 30
0.0
 11
177.4736499999999
 21
69.5
 31
0.0
  0
LINE
  5
14B
330
1E
100
AcDbEntity
  8
0
100
AcDbLine
 10
177.4736499999999
 20
69.5
 30
0.0
 11
180.9736499999999
 21
69.5
 31
0.0
  0
LINE
  5
14C
330
1E
100
AcDbEntity
  8
0
100
AcDbLine
 10
205.6736499999999
 20
69.5
 30
0.0
 11
206.17365
 21
68.0
 31
0.0
  0
LINE
  5
14D
330
1E
100
AcDbEntity
  8
0
100
AcDbLine
 10
205.6736499999999
 20
66.5
 30
0.0
 11
206.17365
 21
68.0
 31
0.0
  0
LINE
  5
14E
330
1E
100
AcDbEntity
  8
0
100
AcDbLine
 10
204.17365
 20
64.5
 30
0.0
 11
204.67365
 21
66.0
 31
0.0
  0
LINE
  5
14F
330
1E
100
AcDbEntity
  8
0
100
AcDbLine
 10
204.17365
 20
64.5
 30
0.0
 11
204.17365
 21
18.0
 31
0.0
  0
LINE
  5
150
330
1E
100
AcDbEntity
  8
0
100
AcDbLine
 10
174.17365
 20
18.0
 30
0.0
 11
174.17365
 21
64.5
 31
0.0
  0
LINE
  5
151
330
1E
100
AcDbEntity
  8
0
100
AcDbLine
 10
173.67365
 20
76.0
 30
0.0
 11
173.67365
 21
70.0
 31
0.0
  0
LINE
  5
152
330
1E
100
AcDbEntity
  8
0
100
AcDbLine
 10
173.67365
 20
76.0
 30
0.0
 11
177.83265
 21
76.0
 31
0.0
  0
LINE
  5
153
330
1E
100
AcDbEntity
  8
0
100
AcDbLine
 10
173.67365
 20
70.0
 30
0.0
 11
173.67365
 21
76.0
 31
0.0
  0
LINE
  5
154
330
1E
100
AcDbEntity
  8
0
100
AcDbLine
 10
173.67365
 20
70.0
 30
0.0
 11
174.17365
 21
70.0
 31
0.0
  0
LINE
  5
155
330
1E
100
AcDbEntity
  8
0
100
AcDbLine
 10
177.17365
 20
88.0
 30
0.0
 11
177.17365
 21
76.0
 31
0.0
  0
LINE
  5
156
330
1E
100
AcDbEntity
  8
0
100
AcDbLine
 10
177.17365
 20
88.0
 30
0.0
 11
177.5736499999999
 21
88.0
 31
0.0
  0
LINE
  5
157
330
1E
100
AcDbEntity
  8
0
100
AcDbLine
 10
177.17365
 20
88.0
 30
0.0
 11
177.67365
 21
88.49999999999999
 31
0.0
  0
LINE
  5
158
330
1E
100
AcDbEntity
  8
0
100
AcDbLine
 10
173.71565
 20
112.217
 30
0.0
 11
176.46965
 21
112.552
 31
0.0
  0
LINE
  5
159
330
1E
100
AcDbEntity
  8
0
100
AcDbLine
 10
173.71565
 20
112.217
 30
0.0
 11
174.03565
 21
112.243
 31
0.0
  0
LINE
  5
15A
330
1E
100
AcDbEntity
  8
0
100
AcDbLine
 10
176.46965
 20
121.448
 30
0.0
 11
178.75165
 21
121.1429999999999
 31
0.0
  0
LINE
  5
15B
330
1E
100
AcDbEntity
  8
0
100
AcDbLine
 10
176.46965
 20
112.552
 30
0.0
 11
178.75165
 21
112.857
 31
0.0
  0
LINE
  5
15C
330
1E
100
AcDbEntity
  8
0
100
AcDbLine
 10
174.03565
 20
112.243
 30
0.0
 11
174.788866207196
 21
112.3475473599889
 31
0.0
  0
LINE
  5
15D
330
1E
100
AcDbEntity
  8
0
100
AcDbLine
 10
172.8126499999999
 20
222.467
 30
0.0
 11
176.04965
 21
212.929
 31
0.0
  0
LINE
  5
15E
330
1E
100
AcDbEntity
  8
0
100
AcDbLine
 10
176.04965
 20
212.929
 30
0.0
 11
178.0146499999999
 21
203.051
 31
0.0
  0
LINE
  5
15F
330
1E
100
AcDbEntity
  8
0
100
AcDbLine
 10
173.71565
 20
121.7829999999999
 30
0.0
 11
176.46965
 21
121.448
 31
0.0
  0
LINE
  5
160
330
1E
100
AcDbEntity
  8
0
100
AcDbLine
 10
173.71565
 20
121.7829999999999
 30
0.0
 11
174.03565
 21
121.757
 31
0.0
  0
LINE
  5
161
330
1E
100
AcDbEntity
  8
0
100
AcDbLine
 10
174.788866207196
 20
121.652452640011
 30
0.0
 11
176.46965
 21
121.448
 31
0.0
  0
LINE
  5
162
330
1E
100
AcDbEntity
  8
0
100
AcDbLine
 10
177.17365
 20
90.5
 30
0.0
 11
177.17365
 21
89.0
 31
0.0
  0
LINE
  5
163
330
1E
100
AcDbEntity
  8
0
100
AcDbLine
 10
177.17365
 20
90.5
 30
0.0
 11
177.5736499999999
 21
90.5
 31
0.0
  0
LINE
  5
164
330
1E
100
AcDbEntity
  8
0
100
AcDbLine
 10
177.17365
 20
90.5
 30
0.0
 11
177.67365
 21
91.0
 31
0.0
  0
LINE
  5
165
330
1E
100
AcDbEntity
  8
0
100
AcDbLine
 10
177.17365
 20
89.0
 30
0.0
 11
177.17365
 21
90.5
 31
0.0
  0
LINE
  5
166
330
1E
100
AcDbEntity
  8
0
100
AcDbLine
 10
177.17365
 20
89.0
 30
0.0
 11
177.5736499999999
 21
89.0
 31
0.0
  0
LINE
  5
167
330
1E
100
AcDbEntity
  8
0
100
AcDbLine
 10
177.17365
 20
89.0
 30
0.0
 11
177.67365
 21
88.49999999999999
 31
0.0
  0
LINE
  5
16B
330
1E
100
AcDbEntity
  8
0
100
AcDbLine
 10
180.67365
 20
88.0
 30
0.0
 11
183.17365
 21
88.0
 31
0.0
  0
LINE
  5
16C
330
1E
100
AcDbEntity
  8
0
100
AcDbLine
 10
183.17365
 20
88.0
 30
0.0
 11
186.0736499999999
 21
88.0
 31
0.0
  0
LINE
  5
16D
330
1E
100
AcDbEntity
  8
0
100
AcDbLine
 10
186.0736499999999
 20
88.0
 30
0.0
 11
189.17365
 21
88.0
 31
0.0
  0
LINE
  5
16E
330
1E
100
AcDbEntity
  8
0
100
AcDbLine
 10
178.77365
 20
88.0
 30
0.0
 11
180.67365
 21
88.0
 31
0.0
  0
LINE
  5
16F
330
1E
100
AcDbEntity
  8
0
100
AcDbLine
 10
177.5736499999999
 20
88.0
 30
0.0
 11
178.77365
 21
88.0
 31
0.0
  0
LINE
  5
171
330
1E
100
AcDbEntity
  8
0
100
AcDbLine
 10
177.83265
 20
76.0
 30
0.0
 11
193.33165
 21
76.0
 31
0.0
  0
LINE
  5
174
330
1E
100
AcDbEntity
  8
0
100
AcDbLine
 10
193.33165
 20
76.0
 30
0.0
 11
204.67365
 21
76.0
 31
0.0
  0
LINE
  5
176
330
1E
100
AcDbEntity
  8
0
100
AcDbLine
 10
197.67365
 20
88.0
 30
0.0
 11
199.5736499999999
 21
88.0
 31
0.0
  0
LINE
  5
177
330
1E
100
AcDbEntity
  8
0
100
AcDbLine
 10
201.17365
 20
88.0
 30
0.0
 11
201.17365
 21
76.0
 31
0.0
  0
LINE
  5
178
330
1E
100
AcDbEntity
  8
0
100
AcDbLine
 10
199.5736499999999
 20
88.0
 30
0.0
 11
200.77365
 21
88.0
 31
0.0
  0
LINE
  5
179
330
1E
100
AcDbEntity
  8
0
100
AcDbLine
 10
200.77365
 20
88.0
 30
0.0
 11
201.17365
 21
88.0
 31
0.0
  0
LINE
  5
17A
330
1E
100
AcDbEntity
  8
0
100
AcDbLine
 10
203.6736499999999
 20
70.0
 30
0.0
 11
204.67365
 21
70.0
 31
0.0
  0
LINE
  5
17B
330
1E
100
AcDbEntity
  8
0
100
AcDbLine
 10
174.17365
 20
70.0
 30
0.0
 11
204.67365
 21
70.0
 31
0.0
  0
LINE
  5
17C
330
1E
100
AcDbEntity
  8
0
100
AcDbLine
 10
201.17365
 20
76.0
 30
0.0
 11
201.17365
 21
88.0
 31
0.0
  0
LINE
  5
17D
330
1E
100
AcDbEntity
  8
0
100
AcDbLine
 10
195.17365
 20
88.0
 30
0.0
 11
197.67365
 21
88.0
 31
0.0
  0
LINE
  5
17E
330
1E
100
AcDbEntity
  8
0
100
AcDbLine
 10
192.27365
 20
88.0
 30
0.0
 11
195.17365
 21
88.0
 31
0.0
  0
LINE
  5
17F
330
1E
100
AcDbEntity
  8
0
100
AcDbLine
 10
181.0736499999999
 20
88.49999999999999
 30
0.0
 11
183.4736499999999
 21
88.49999999999999
 31
0.0
  0
LINE
  5
180
330
1E
100
AcDbEntity
  8
0
100
AcDbLine
 10
183.4736499999999
 20
88.49999999999999
 30
0.0
 11
186.17365
 21
88.49999999999999
 31
0.0
  0
LINE
  5
181
330
1E
100
AcDbEntity
  8
0
100
AcDbLine
 10
186.17365
 20
88.49999999999999
 30
0.0
 11
189.17365
 21
88.49999999999999
 31
0.0
  0
LINE
  5
182
330
1E
100
AcDbEntity
  8
0
100
AcDbLine
 10
179.17365
 20
88.49999999999999
 30
0.0
 11
181.0736499999999
 21
88.49999999999999
 31
0.0
  0
LINE
  5
183
330
1E
100
AcDbEntity
  8
0
100
AcDbLine
 10
178.0736499999999
 20
88.49999999999999
 30
0.0
 11
179.17365
 21
88.49999999999999
 31
0.0
  0
LINE
  5
184
330
1E
100
AcDbEntity
  8
0
100
AcDbLine
 10
177.67365
 20
88.49999999999999
 30
0.0
 11
178.0736499999999
 21
88.49999999999999
 31
0.0
  0
LINE
  5
185
330
1E
100
AcDbEntity
  8
0
100
AcDbLine
 10
197.27365
 20
88.49999999999999
 30
0.0
 11
199.17365
 21
88.49999999999999
 31
0.0
  0
LINE
  5
186
330
1E
100
AcDbEntity
  8
0
100
AcDbLine
 10
199.17365
 20
88.49999999999999
 30
0.0
 11
200.27365
 21
88.49999999999999
 31
0.0
  0
LINE
  5
187
330
1E
100
AcDbEntity
  8
0
100
AcDbLine
 10
200.27365
 20
88.49999999999999
 30
0.0
 11
200.67365
 21
88.49999999999999
 31
0.0
  0
LINE
  5
188
330
1E
100
AcDbEntity
  8
0
100
AcDbLine
 10
194.87365
 20
88.49999999999999
 30
0.0
 11
197.27365
 21
88.49999999999999
 31
0.0
  0
LINE
  5
189
330
1E
100
AcDbEntity
  8
0
100
AcDbLine
 10
192.17365
 20
88.49999999999999
 30
0.0
 11
194.87365
 21
88.49999999999999
 31
0.0
  0
LINE
  5
18A
330
1E
100
AcDbEntity
  8
0
100
AcDbLine
 10
189.17365
 20
88.49999999999999
 30
0.0
 11
192.17365
 21
88.49999999999999
 31
0.0
  0
LINE
  5
18B
330
1E
100
AcDbEntity
  8
0
100
AcDbLine
 10
189.17365
 20
88.0
 30
0.0
 11
192.27365
 21
88.0
 31
0.0
  0
LINE
  5
18C
330
1E
100
AcDbEntity
  8
0
100
AcDbLine
 10
204.67365
 20
70.0
 30
0.0
 11
204.67365
 21
76.0
 31
0.0
  0
LINE
  5
18D
330
1E
100
AcDbEntity
  8
0
100
AcDbLine
 10
204.67365
 20
76.0
 30
0.0
 11
204.67365
 21
70.0
 31
0.0
  0
LINE
  5
18E
330
1E
100
AcDbEntity
  8
0
100
AcDbLine
 10
204.17365
 20
70.0
 30
0.0
 11
205.6736499999999
 21
69.5
 31
0.0
  0
LINE
  5
18F
330
1E
100
AcDbEntity
  8
0
100
AcDbLine
 10
204.17365
 20
70.0
 30
0.0
 11
204.67365
 21
70.0
 31
0.0
  0
LINE
  5
190
330
1E
100
AcDbEntity
  8
0
100
AcDbLine
 10
177.5736499999999
 20
90.5
 30
0.0
 11
178.77365
 21
90.5
 31
0.0
  0
LINE
  5
191
330
1E
100
AcDbEntity
  8
0
100
AcDbLine
 10
180.67365
 20
89.0
 30
0.0
 11
183.17365
 21
89.0
 31
0.0
  0
LINE
  5
192
330
1E
100
AcDbEntity
  8
0
100
AcDbLine
 10
183.17365
 20
89.0
 30
0.0
 11
186.0736499999999
 21
89.0
 31
0.0
  0
LINE
  5
193
330
1E
100
AcDbEntity
  8
0
100
AcDbLine
 10
186.0736499999999
 20
89.0
 30
0.0
 11
189.17365
 21
89.0
 31
0.0
  0
LINE
  5
194
330
1E
100
AcDbEntity
  8
0
100
AcDbLine
 10
180.67365
 20
90.5
 30
0.0
 11
183.17365
 21
90.5
 31
0.0
  0
LINE
  5
195
330
1E
100
AcDbEntity
  8
0
100
AcDbLine
 10
183.17365
 20
90.5
 30
0.0
 11
186.0736499999999
 21
90.5
 31
0.0
  0
LINE
  5
196
330
1E
100
AcDbEntity
  8
0
100
AcDbLine
 10
186.0736499999999
 20
90.5
 30
0.0
 11
189.17365
 21
90.5
 31
0.0
  0
LINE
  5
197
330
1E
100
AcDbEntity
  8
0
100
AcDbLine
 10
178.77365
 20
90.5
 30
0.0
 11
180.67365
 21
90.5
 31
0.0
  0
LINE
  5
198
330
1E
100
AcDbEntity
  8
0
100
AcDbLine
 10
178.77365
 20
89.0
 30
0.0
 11
180.67365
 21
89.0
 31
0.0
  0
LINE
  5
199
330
1E
100
AcDbEntity
  8
0
100
AcDbLine
 10
177.5736499999999
 20
89.0
 30
0.0
 11
178.77365
 21
89.0
 31
0.0
  0
LINE
  5
19A
330
1E
100
AcDbEntity
  8
0
100
AcDbLine
 10
178.67365
 20
91.0
 30
0.0
 11
178.67365
 21
112.818088225539
 31
0.0
  0
LINE
  5
19B
330
1E
100
AcDbEntity
  8
0
100
AcDbLine
 10
181.0736499999999
 20
91.0
 30
0.0
 11
183.4736499999999
 21
91.0
 31
0.0
  0
LINE
  5
19C
330
1E
100
AcDbEntity
  8
0
100
AcDbLine
 10
179.17365
 20
91.0
 30
0.0
 11
181.0736499999999
 21
91.0
 31
0.0
  0
LINE
  5
19D
330
1E
100
AcDbEntity
  8
0
100
AcDbLine
 10
178.0736499999999
 20
91.0
 30
0.0
 11
179.17365
 21
91.0
 31
0.0
  0
LINE
  5
19E
330
1E
100
AcDbEntity
  8
0
100
AcDbLine
 10
177.67365
 20
91.0
 30
0.0
 11
178.0736499999999
 21
91.0
 31
0.0
  0
LINE
  5
19F
330
1E
100
AcDbEntity
  8
0
100
AcDbLine
 10
182.8736499999999
 20
102.0
 30
0.0
 11
183.5736499999999
 21
102.0
 31
0.0
  0
LINE
  5
1A0
330
1E
100
AcDbEntity
  8
0
100
AcDbLine
 10
182.8736499999999
 20
102.0
 30
0.0
 11
183.17365
 21
102.0
 31
0.0
  0
LINE
  5
1A1
330
1E
100
AcDbEntity
  8
0
100
AcDbLine
 10
182.67365
 20
102.0
 30
0.0
 11
182.8736499999999
 21
102.0
 31
0.0
  0
LINE
  5
1A2
330
1E
100
AcDbEntity
  8
0
100
AcDbLine
 10
182.67365
 20
102.0
 30
0.0
 11
182.67365
 21
110.0
 31
0.0
  0
LINE
  5
1A3
330
1E
100
AcDbEntity
  8
0
100
AcDbLine
 10
183.17365
 20
102.0
 30
0.0
 11
183.37365
 21
102.0
 31
0.0
  0
LINE
  5
1A4
330
1E
100
AcDbEntity
  8
0
100
AcDbLine
 10
183.17365
 20
102.0
 30
0.0
 11
183.17365
 21
91.0
 31
0.0
  0
LINE
  5
1A5
330
1E
100
AcDbEntity
  8
0
100
AcDbLine
 10
183.4736499999999
 20
91.0
 30
0.0
 11
186.17365
 21
91.0
 31
0.0
  0
LINE
  5
1A6
330
1E
100
AcDbEntity
  8
0
100
AcDbLine
 10
183.5736499999999
 20
102.0
 30
0.0
 11
184.5736499999999
 21
102.0
 31
0.0
  0
LINE
  5
1A7
330
1E
100
AcDbEntity
  8
0
100
AcDbLine
 10
183.9736499999999
 20
102.0
 30
0.0
 11
184.9736499999999
 21
102.0
 31
0.0
  0
LINE
  5
1A8
330
1E
100
AcDbEntity
  8
0
100
AcDbLine
 10
183.37365
 20
102.0
 30
0.0
 11
183.9736499999999
 21
102.0
 31
0.0
  0
LINE
  5
1A9
330
1E
100
AcDbEntity
  8
0
100
AcDbLine
 10
183.17365
 20
91.0
 30
0.0
 11
183.17365
 21
102.0
 31
0.0
  0
LINE
  5
1AA
330
1E
100
AcDbEntity
  8
0
100
AcDbLine
 10
184.5736499999999
 20
102.0
 30
0.0
 11
185.9736499999999
 21
102.0
 31
0.0
  0
LINE
  5
1AB
330
1E
100
AcDbEntity
  8
0
100
AcDbLine
 10
186.17365
 20
91.0
 30
0.0
 11
189.17365
 21
91.0
 31
0.0
  0
LINE
  5
1AC
330
1E
100
AcDbEntity
  8
0
100
AcDbLine
 10
185.9736499999999
 20
102.0
 30
0.0
 11
187.47365
 21
102.0
 31
0.0
  0
LINE
  5
1AD
330
1E
100
AcDbEntity
  8
0
100
AcDbLine
 10
183.5736499999999
 20
110.0
 30
0.0
 11
184.5736499999999
 21
110.0
 31
0.0
  0
LINE
  5
1AE
330
1E
100
AcDbEntity
  8
0
100
AcDbLine
 10
182.8736499999999
 20
110.0
 30
0.0
 11
183.5736499999999
 21
110.0
 31
0.0
  0
LINE
  5
1AF
330
1E
100
AcDbEntity
  8
0
100
AcDbLine
 10
182.67365
 20
110.0
 30
0.0
 11
182.8736499999999
 21
110.0
 31
0.0
  0
LINE
  5
1B0
330
1E
100
AcDbEntity
  8
0
100
AcDbLine
 10
182.67365
 20
110.0
 30
0.0
 11
182.67365
 21
102.0
 31
0.0
  0
LINE
  5
1B1
330
1E
100
AcDbEntity
  8
0
100
AcDbLine
 10
182.2736499999999
 20
112.0
 30
0.0
 11
183.5736499999999
 21
112.0
 31
0.0
  0
LINE
  5
1B2
330
1E
100
AcDbEntity
  8
0
100
AcDbLine
 10
181.47365
 20
112.0
 30
0.0
 11
182.2736499999999
 21
112.0
 31
0.0
  0
LINE
  5
1B3
330
1E
100
AcDbEntity
  8
0
100
AcDbLine
 10
181.17365
 20
112.0
 30
0.0
 11
182.67365
 21
110.0
 31
0.0
  0
LINE
  5
1B4
330
1E
100
AcDbEntity
  8
0
100
AcDbLine
 10
181.17365
 20
112.0
 30
0.0
 11
181.47365
 21
112.0
 31
0.0
  0
LINE
  5
1B5
330
1E
100
AcDbEntity
  8
0
100
AcDbLine
 10
183.5736499999999
 20
112.0
 30
0.0
 11
185.17365
 21
112.0
 31
0.0
  0
LINE
  5
1B6
330
1E
100
AcDbEntity
  8
0
100
AcDbLine
 10
185.17365
 20
112.0
 30
0.0
 11
187.0736499999999
 21
112.0
 31
0.0
  0
LINE
  5
1B7
330
1E
100
AcDbEntity
  8
0
100
AcDbLine
 10
184.5736499999999
 20
110.0
 30
0.0
 11
185.9736499999999
 21
110.0
 31
0.0
  0
LINE
  5
1B8
330
1E
100
AcDbEntity
  8
0
100
AcDbLine
 10
185.9736499999999
 20
110.0
 30
0.0
 11
187.47365
 21
110.0
 31
0.0
  0
LINE
  5
1B9
330
1E
100
AcDbEntity
  8
0
100
AcDbLine
 10
184.9736499999999
 20
102.0
 30
0.0
 11
186.17365
 21
102.0
 31
0.0
  0
LINE
  5
1BA
330
1E
100
AcDbEntity
  8
0
100
AcDbLine
 10
187.0736499999999
 20
112.0
 30
0.0
 11
187.4583558823529
 21
112.0
 31
0.0
  0
LINE
  5
1BB
330
1E
100
AcDbEntity
  8
0
100
AcDbLine
 10
187.47365
 20
110.0
 30
0.0
 11
189.17365
 21
110.0
 31
0.0
  0
LINE
  5
1BC
330
1E
100
AcDbEntity
  8
0
100
AcDbLine
 10
187.47365
 20
102.0
 30
0.0
 11
189.17365
 21
102.0
 31
0.0
  0
LINE
  5
1BD
330
1E
100
AcDbEntity
  8
0
100
AcDbLine
 10
186.17365
 20
102.0
 30
0.0
 11
187.6736499999999
 21
102.0
 31
0.0
  0
LINE
  5
1BE
330
1E
100
AcDbEntity
  8
0
100
AcDbLine
 10
178.67365
 20
112.818088225539
 30
0.0
 11
178.67365
 21
91.0
 31
0.0
  0
LINE
  5
1BF
330
1E
100
AcDbEntity
  8
0
100
AcDbLine
 10
178.707224872169
 20
112.822141709277
 30
0.0
 11
181.17365
 21
112.0
 31
0.0
  0
LINE
  5
1C0
330
1E
100
AcDbEntity
  8
0
100
AcDbLine
 10
178.75165
 20
112.857
 30
0.0
 11
180.67365
 21
113.0
 31
0.0
  0
LINE
  5
1C1
330
1E
100
AcDbEntity
  8
0
100
AcDbLine
 10
178.0387911947439
 20
112.761723078176
 30
0.0
 11
179.3464627644779
 21
112.9012550599999
 31
0.0
  0
LINE
  5
1C2
330
1E
100
AcDbEntity
  8
0
100
AcDbLine
 10
180.67365
 20
113.0
 30
0.0
 11
183.17365
 21
112.857
 31
0.0
  0
LINE
  5
1C3
330
1E
100
AcDbEntity
  8
0
100
AcDbLine
 10
183.17365
 20
112.857
 30
0.0
 11
185.18365
 21
112.552
 31
0.0
  0
LINE
  5
1C4
330
1E
100
AcDbEntity
  8
0
100
AcDbLine
 10
187.3736499999999
 20
114.051
 30
0.0
 11
187.87365
 21
111.591
 31
0.0
  0
LINE
  5
1C5
330
1E
100
AcDbEntity
  8
0
100
AcDbLine
 10
185.18365
 20
112.552
 30
0.0
 11
187.0276499999999
 21
112.217
 31
0.0
  0
LINE
  5
1C6
330
1E
100
AcDbEntity
  8
0
100
AcDbLine
 10
187.0276499999999
 20
112.217
 30
0.0
 11
187.7984248240699
 21
111.828665074297
 31
0.0
  0
LINE
  5
1C7
330
1E
100
AcDbEntity
  8
0
100
AcDbLine
 10
187.6736499999999
 20
102.0
 30
0.0
 11
189.17365
 21
102.0
 31
0.0
  0
LINE
  5
1CA
330
1E
100
AcDbEntity
  8
0
100
AcDbLine
 10
187.87365
 20
111.591
 30
0.0
 11
188.3736499999999
 21
111.092
 31
0.0
  0
LINE
  5
1CC
330
1E
100
AcDbEntity
  8
0
100
AcDbLine
 10
188.3736499999999
 20
111.4759999999999
 30
0.0
 11
188.3736499999999
 21
111.092
 31
0.0
  0
LINE
  5
1CD
330
1E
100
AcDbEntity
  8
0
100
AcDbLine
 10
188.3736499999999
 20
111.4759999999999
 30
0.0
 11
188.3736499999999
 21
112.187
 31
0.0
  0
LINE
  5
1CE
330
1E
100
AcDbEntity
  8
0
100
AcDbLine
 10
188.3736499999999
 20
111.092
 30
0.0
 11
189.17365
 21
111.111
 31
0.0
  0
LINE
  5
1CF
330
1E
100
AcDbEntity
  8
0
100
AcDbLine
 10
188.3736499999999
 20
111.092
 30
0.0
 11
188.3736499999999
 21
111.4759999999999
 31
0.0
  0
LINE
  5
1D3
330
1E
100
AcDbEntity
  8
0
100
AcDbLine
 10
188.3736499999999
 20
112.187
 30
0.0
 11
188.3736499999999
 21
111.4759999999999
 31
0.0
  0
LINE
  5
1D4
330
1E
100
AcDbEntity
  8
0
100
AcDbLine
 10
188.3736499999999
 20
112.187
 30
0.0
 11
188.3736499999999
 21
112.956
 31
0.0
  0
LINE
  5
1D5
330
1E
100
AcDbEntity
  8
0
100
AcDbLine
 10
188.3736499999999
 20
112.956
 30
0.0
 11
188.3736499999999
 21
112.187
 31
0.0
  0
LINE
  5
1D6
330
1E
100
AcDbEntity
  8
0
100
AcDbLine
 10
188.3736499999999
 20
112.956
 30
0.0
 11
188.3736499999999
 21
114.071
 31
0.0
  0
LINE
  5
1D7
330
1E
100
AcDbEntity
  8
0
100
AcDbLine
 10
188.3736499999999
 20
114.071
 30
0.0
 11
188.3736499999999
 21
112.956
 31
0.0
  0
LINE
  5
1D8
330
1E
100
AcDbEntity
  8
0
100
AcDbLine
 10
188.3736499999999
 20
114.071
 30
0.0
 11
188.3736499999999
 21
117.0
 31
0.0
  0
LINE
  5
1DA
330
1E
100
AcDbEntity
  8
0
100
AcDbLine
 10
187.17365
 20
117.0
 30
0.0
 11
187.3736499999999
 21
119.9489999999999
 31
0.0
  0
LINE
  5
1DB
330
1E
100
AcDbEntity
  8
0
100
AcDbLine
 10
187.17365
 20
117.0
 30
0.0
 11
187.3736499999999
 21
114.051
 31
0.0
  0
LINE
  5
1DC
330
1E
100
AcDbEntity
  8
0
100
AcDbLine
 10
189.17365
 20
110.0
 30
0.0
 11
190.87365
 21
110.0
 31
0.0
  0
LINE
  5
1DD
330
1E
100
AcDbEntity
  8
0
100
AcDbLine
 10
189.17365
 20
102.0
 30
0.0
 11
190.67365
 21
102.0
 31
0.0
  0
LINE
  5
1DE
330
1E
100
AcDbEntity
  8
0
100
AcDbLine
 10
189.17365
 20
102.0
 30
0.0
 11
190.87365
 21
102.0
 31
0.0
  0
LINE
  5
1DF
330
1E
100
AcDbEntity
  8
0
100
AcDbLine
 10
189.17365
 20
111.111
 30
0.0
 11
189.9736499999999
 21
111.092
 31
0.0
  0
LINE
  5
1E0
330
1E
100
AcDbEntity
  8
0
100
AcDbLine
 10
188.3736499999999
 20
117.0
 30
0.0
 11
188.3736499999999
 21
119.9289999999999
 31
0.0
  0
LINE
  5
1E1
330
1E
100
AcDbEntity
  8
0
100
AcDbLine
 10
188.3736499999999
 20
117.0
 30
0.0
 11
188.3736499999999
 21
114.071
 31
0.0
  0
LINE
  5
1E2
330
1E
100
AcDbEntity
  8
0
100
AcDbLine
 10
187.3736499999999
 20
119.9489999999999
 30
0.0
 11
187.87365
 21
122.4089999999999
 31
0.0
  0
LINE
  5
1E3
330
1E
100
AcDbEntity
  8
0
100
AcDbLine
 10
178.75165
 20
121.1429999999999
 30
0.0
 11
180.67365
 21
121.0
 31
0.0
  0
LINE
  5
1E4
330
1E
100
AcDbEntity
  8
0
100
AcDbLine
 10
180.67365
 20
121.0
 30
0.0
 11
183.17365
 21
121.1429999999999
 31
0.0
  0
LINE
  5
1E5
330
1E
100
AcDbEntity
  8
0
100
AcDbLine
 10
178.2512846051649
 20
121.232903815496
 30
0.0
 11
178.67365
 21
122.5
 31
0.0
  0
LINE
  5
1E6
330
1E
100
AcDbEntity
  8
0
100
AcDbLine
 10
178.0387911947439
 20
121.238276921824
 30
0.0
 11
179.3464627644789
 21
121.09874494
 31
0.0
  0
LINE
  5
1E7
330
1E
100
AcDbEntity
  8
0
100
AcDbLine
 10
183.17365
 20
121.1429999999999
 30
0.0
 11
185.18365
 21
121.448
 31
0.0
  0
LINE
  5
1E8
330
1E
100
AcDbEntity
  8
0
100
AcDbLine
 10
185.18365
 20
121.448
 30
0.0
 11
187.0276499999999
 21
121.7829999999999
 31
0.0
  0
LINE
  5
1E9
330
1E
100
AcDbEntity
  8
0
100
AcDbLine
 10
187.0276499999999
 20
121.7829999999999
 30
0.0
 11
187.7984248240699
 21
122.171334925703
 31
0.0
  0
LINE
  5
1EF
330
1E
100
AcDbEntity
  8
0
100
AcDbLine
 10
187.87365
 20
122.4089999999999
 30
0.0
 11
188.3736499999999
 21
122.9079999999999
 31
0.0
  0
LINE
  5
1F2
330
1E
100
AcDbEntity
  8
0
100
AcDbLine
 10
188.3736499999999
 20
121.8129999999999
 30
0.0
 11
188.3736499999999
 21
121.0439999999999
 31
0.0
  0
LINE
  5
1F3
330
1E
100
AcDbEntity
  8
0
100
AcDbLine
 10
188.3736499999999
 20
121.8129999999999
 30
0.0
 11
188.3736499999999
 21
122.524
 31
0.0
  0
LINE
  5
1F4
330
1E
100
AcDbEntity
  8
0
100
AcDbLine
 10
188.3736499999999
 20
121.0439999999999
 30
0.0
 11
188.3736499999999
 21
119.9289999999999
 31
0.0
  0
LINE
  5
1F5
330
1E
100
AcDbEntity
  8
0
100
AcDbLine
 10
188.3736499999999
 20
121.0439999999999
 30
0.0
 11
188.3736499999999
 21
121.8129999999999
 31
0.0
  0
LINE
  5
1F6
330
1E
100
AcDbEntity
  8
0
100
AcDbLine
 10
188.3736499999999
 20
119.9289999999999
 30
0.0
 11
188.3736499999999
 21
117.0
 31
0.0
  0
LINE
  5
1F7
330
1E
100
AcDbEntity
  8
0
100
AcDbLine
 10
188.3736499999999
 20
119.9289999999999
 30
0.0
 11
188.3736499999999
 21
121.0439999999999
 31
0.0
  0
LINE
  5
1F8
330
1E
100
AcDbEntity
  8
0
100
AcDbLine
 10
189.17365
 20
91.0
 30
0.0
 11
192.17365
 21
91.0
 31
0.0
  0
LINE
  5
1F9
330
1E
100
AcDbEntity
  8
0
100
AcDbLine
 10
189.17365
 20
90.5
 30
0.0
 11
192.27365
 21
90.5
 31
0.0
  0
LINE
  5
1FA
330
1E
100
AcDbEntity
  8
0
100
AcDbLine
 10
197.67365
 20
89.0
 30
0.0
 11
199.5736499999999
 21
89.0
 31
0.0
  0
LINE
  5
1FB
330
1E
100
AcDbEntity
  8
0
100
AcDbLine
 10
199.5736499999999
 20
89.0
 30
0.0
 11
200.77365
 21
89.0
 31
0.0
  0
LINE
  5
1FC
330
1E
100
AcDbEntity
  8
0
100
AcDbLine
 10
195.17365
 20
89.0
 30
0.0
 11
197.67365
 21
89.0
 31
0.0
  0
LINE
  5
1FD
330
1E
100
AcDbEntity
  8
0
100
AcDbLine
 10
189.9736499999999
 20
111.092
 30
0.0
 11
189.9736499999999
 21
111.4759999999999
 31
0.0
  0
LINE
  5
1FE
330
1E
100
AcDbEntity
  8
0
100
AcDbLine
 10
189.9736499999999
 20
111.092
 30
0.0
 11
190.47365
 21
111.591
 31
0.0
  0
LINE
  5
200
330
1E
100
AcDbEntity
  8
0
100
AcDbLine
 10
190.47365
 20
111.591
 30
0.0
 11
190.9736499999999
 21
114.051
 31
0.0
  0
LINE
  5
201
330
1E
100
AcDbEntity
  8
0
100
AcDbLine
 10
189.9736499999999
 20
111.4759999999999
 30
0.0
 11
189.9736499999999
 21
112.187
 31
0.0
  0
LINE
  5
202
330
1E
100
AcDbEntity
  8
0
100
AcDbLine
 10
189.9736499999999
 20
111.4759999999999
 30
0.0
 11
189.9736499999999
 21
111.092
 31
0.0
  0
LINE
  5
203
330
1E
100
AcDbEntity
  8
0
100
AcDbLine
 10
189.9736499999999
 20
112.187
 30
0.0
 11
189.9736499999999
 21
112.956
 31
0.0
  0
LINE
  5
204
330
1E
100
AcDbEntity
  8
0
100
AcDbLine
 10
189.9736499999999
 20
112.187
 30
0.0
 11
189.9736499999999
 21
111.4759999999999
 31
0.0
  0
LINE
  5
205
330
1E
100
AcDbEntity
  8
0
100
AcDbLine
 10
189.9736499999999
 20
121.8129999999999
 30
0.0
 11
189.9736499999999
 21
122.524
 31
0.0
  0
LINE
  5
206
330
1E
100
AcDbEntity
  8
0
100
AcDbLine
 10
189.9736499999999
 20
121.8129999999999
 30
0.0
 11
189.9736499999999
 21
121.0439999999999
 31
0.0
  0
LINE
  5
207
330
1E
100
AcDbEntity
  8
0
100
AcDbLine
 10
189.9736499999999
 20
121.0439999999999
 30
0.0
 11
189.9736499999999
 21
121.8129999999999
 31
0.0
  0
LINE
  5
208
330
1E
100
AcDbEntity
  8
0
100
AcDbLine
 10
189.9736499999999
 20
121.0439999999999
 30
0.0
 11
189.9736499999999
 21
119.9289999999999
 31
0.0
  0
LINE
  5
209
330
1E
100
AcDbEntity
  8
0
100
AcDbLine
 10
189.9736499999999
 20
119.9289999999999
 30
0.0
 11
189.9736499999999
 21
121.0439999999999
 31
0.0
  0
LINE
  5
20A
330
1E
100
AcDbEntity
  8
0
100
AcDbLine
 10
189.9736499999999
 20
119.9289999999999
 30
0.0
 11
189.9736499999999
 21
117.0
 31
0.0
  0
LINE
  5
20B
330
1E
100
AcDbEntity
  8
0
100
AcDbLine
 10
189.9736499999999
 20
117.0
 30
0.0
 11
189.9736499999999
 21
114.071
 31
0.0
  0
LINE
  5
20C
330
1E
100
AcDbEntity
  8
0
100
AcDbLine
 10
189.9736499999999
 20
117.0
 30
0.0
 11
189.9736499999999
 21
119.9289999999999
 31
0.0
  0
LINE
  5
20D
330
1E
100
AcDbEntity
  8
0
100
AcDbLine
 10
189.9736499999999
 20
112.956
 30
0.0
 11
189.9736499999999
 21
114.071
 31
0.0
  0
LINE
  5
20E
330
1E
100
AcDbEntity
  8
0
100
AcDbLine
 10
189.9736499999999
 20
112.956
 30
0.0
 11
189.9736499999999
 21
112.187
 31
0.0
  0
LINE
  5
212
330
1E
100
AcDbEntity
  8
0
100
AcDbLine
 10
190.47365
 20
122.4089999999999
 30
0.0
 11
190.9736499999999
 21
119.9489999999999
 31
0.0
  0
LINE
  5
21B
330
1E
100
AcDbEntity
  8
0
100
AcDbLine
 10
189.9736499999999
 20
114.071
 30
0.0
 11
189.9736499999999
 21
117.0
 31
0.0
  0
LINE
  5
21C
330
1E
100
AcDbEntity
  8
0
100
AcDbLine
 10
189.9736499999999
 20
114.071
 30
0.0
 11
189.9736499999999
 21
112.956
 31
0.0
  0
LINE
  5
21E
330
1E
100
AcDbEntity
  8
0
100
AcDbLine
 10
190.87365
 20
110.0
 30
0.0
 11
192.37365
 21
110.0
 31
0.0
  0
LINE
  5
21F
330
1E
100
AcDbEntity
  8
0
100
AcDbLine
 10
190.87365
 20
102.0
 30
0.0
 11
192.37365
 21
102.0
 31
0.0
  0
LINE
  5
220
330
1E
100
AcDbEntity
  8
0
100
AcDbLine
 10
190.67365
 20
102.0
 30
0.0
 11
192.17365
 21
102.0
 31
0.0
  0
LINE
  5
221
330
1E
100
AcDbEntity
  8
0
100
AcDbLine
 10
191.27365
 20
112.0
 30
0.0
 11
193.17365
 21
112.0
 31
0.0
  0
LINE
  5
222
330
1E
100
AcDbEntity
  8
0
100
AcDbLine
 10
190.888944117647
 20
112.0
 30
0.0
 11
191.27365
 21
112.0
 31
0.0
  0
LINE
  5
223
330
1E
100
AcDbEntity
  8
0
100
AcDbLine
 10
190.9736499999999
 20
119.9489999999999
 30
0.0
 11
191.17365
 21
117.0
 31
0.0
  0
LINE
  5
224
330
1E
100
AcDbEntity
  8
0
100
AcDbLine
 10
190.9736499999999
 20
114.051
 30
0.0
 11
191.17365
 21
117.0
 31
0.0
  0
LINE
  5
225
330
1E
100
AcDbEntity
  8
0
100
AcDbLine
 10
191.3196499999999
 20
112.217
 30
0.0
 11
193.1636499999999
 21
112.552
 31
0.0
  0
LINE
  5
226
330
1E
100
AcDbEntity
  8
0
100
AcDbLine
 10
190.54887517593
 20
111.828665074297
 30
0.0
 11
191.3196499999999
 21
112.217
 31
0.0
  0
LINE
  5
227
330
1E
100
AcDbEntity
  8
0
100
AcDbLine
 10
192.17365
 20
102.0
 30
0.0
 11
193.37365
 21
102.0
 31
0.0
  0
LINE
  5
228
330
1E
100
AcDbEntity
  8
0
100
AcDbLine
 10
191.3196499999999
 20
121.7829999999999
 30
0.0
 11
193.1636499999999
 21
121.448
 31
0.0
  0
LINE
  5
229
330
1E
100
AcDbEntity
  8
0
100
AcDbLine
 10
190.54887517593
 20
122.171334925703
 30
0.0
 11
191.3196499999999
 21
121.7829999999999
 31
0.0
  0
LINE
  5
22B
330
1E
100
AcDbEntity
  8
0
100
AcDbLine
 10
192.17365
 20
91.0
 30
0.0
 11
194.87365
 21
91.0
 31
0.0
  0
LINE
  5
22C
330
1E
100
AcDbEntity
  8
0
100
AcDbLine
 10
197.67365
 20
90.5
 30
0.0
 11
199.5736499999999
 21
90.5
 31
0.0
  0
LINE
  5
22D
330
1E
100
AcDbEntity
  8
0
100
AcDbLine
 10
199.5736499999999
 20
90.5
 30
0.0
 11
200.77365
 21
90.5
 31
0.0
  0
LINE
  5
22E
330
1E
100
AcDbEntity
  8
0
100
AcDbLine
 10
192.37365
 20
102.0
 30
0.0
 11
193.7736499999999
 21
102.0
 31
0.0
  0
LINE
  5
22F
330
1E
100
AcDbEntity
  8
0
100
AcDbLine
 10
193.7736499999999
 20
102.0
 30
0.0
 11
194.7736499999999
 21
102.0
 31
0.0
  0
LINE
  5
230
330
1E
100
AcDbEntity
  8
0
100
AcDbLine
 10
193.17365
 20
112.0
 30
0.0
 11
194.7736499999999
 21
112.0
 31
0.0
  0
LINE
  5
231
330
1E
100
AcDbEntity
  8
0
100
AcDbLine
 10
192.37365
 20
110.0
 30
0.0
 11
193.7736499999999
 21
110.0
 31
0.0
  0
LINE
  5
232
330
1E
100
AcDbEntity
  8
0
100
AcDbLine
 10
193.7736499999999
 20
110.0
 30
0.0
 11
194.7736499999999
 21
110.0
 31
0.0
  0
LINE
  5
233
330
1E
100
AcDbEntity
  8
0
100
AcDbLine
 10
193.37365
 20
102.0
 30
0.0
 11
194.3736499999999
 21
102.0
 31
0.0
  0
LINE
  5
234
330
1E
100
AcDbEntity
  8
0
100
AcDbLine
 10
194.7736499999999
 20
112.0
 30
0.0
 11
196.0736499999999
 21
112.0
 31
0.0
  0
LINE
  5
235
330
1E
100
AcDbEntity
  8
0
100
AcDbLine
 10
194.7736499999999
 20
110.0
 30
0.0
 11
195.4736499999999
 21
110.0
 31
0.0
  0
LINE
  5
236
330
1E
100
AcDbEntity
  8
0
100
AcDbLine
 10
194.7736499999999
 20
102.0
 30
0.0
 11
195.4736499999999
 21
102.0
 31
0.0
  0
LINE
  5
237
330
1E
100
AcDbEntity
  8
0
100
AcDbLine
 10
194.3736499999999
 20
102.0
 30
0.0
 11
194.97365
 21
102.0
 31
0.0
  0
LINE
  5
238
330
1E
100
AcDbEntity
  8
0
100
AcDbLine
 10
193.1636499999999
 20
121.448
 30
0.0
 11
195.17365
 21
121.1429999999999
 31
0.0
  0
LINE
  5
239
330
1E
100
AcDbEntity
  8
0
100
AcDbLine
 10
193.1636499999999
 20
112.552
 30
0.0
 11
195.17365
 21
112.857
 31
0.0
  0
LINE
  5
23A
330
1E
100
AcDbEntity
  8
0
100
AcDbLine
 10
195.17365
 20
91.0
 30
0.0
 11
195.17365
 21
102.0
 31
0.0
  0
LINE
  5
23B
330
1E
100
AcDbEntity
  8
0
100
AcDbLine
 10
197.27365
 20
91.0
 30
0.0
 11
199.17365
 21
91.0
 31
0.0
  0
LINE
  5
23C
330
1E
100
AcDbEntity
  8
0
100
AcDbLine
 10
199.67365
 20
91.0
 30
0.0
 11
199.67365
 21
112.818088225539
 31
0.0
  0
LINE
  5
23D
330
1E
100
AcDbEntity
  8
0
100
AcDbLine
 10
199.17365
 20
91.0
 30
0.0
 11
200.27365
 21
91.0
 31
0.0
  0
LINE
  5
23E
330
1E
100
AcDbEntity
  8
0
100
AcDbLine
 10
194.97365
 20
102.0
 30
0.0
 11
195.17365
 21
102.0
 31
0.0
  0
LINE
  5
23F
330
1E
100
AcDbEntity
  8
0
100
AcDbLine
 10
195.17365
 20
102.0
 30
0.0
 11
195.4736499999999
 21
102.0
 31
0.0
  0
LINE
  5
240
330
1E
100
AcDbEntity
  8
0
100
AcDbLine
 10
195.17365
 20
102.0
 30
0.0
 11
195.17365
 21
91.0
 31
0.0
  0
LINE
  5
241
330
1E
100
AcDbEntity
  8
0
100
AcDbLine
 10
195.67365
 20
102.0
 30
0.0
 11
195.67365
 21
110.0
 31
0.0
  0
LINE
  5
242
330
1E
100
AcDbEntity
  8
0
100
AcDbLine
 10
195.4736499999999
 20
110.0
 30
0.0
 11
195.67365
 21
110.0
 31
0.0
  0
LINE
  5
243
330
1E
100
AcDbEntity
  8
0
100
AcDbLine
 10
196.0736499999999
 20
112.0
 30
0.0
 11
196.87365
 21
112.0
 31
0.0
  0
LINE
  5
244
330
1E
100
AcDbEntity
  8
0
100
AcDbLine
 10
196.87365
 20
112.0
 30
0.0
 11
197.17365
 21
112.0
 31
0.0
  0
LINE
  5
245
330
1E
100
AcDbEntity
  8
0
100
AcDbLine
 10
197.17365
 20
112.0
 30
0.0
 11
199.640075127831
 21
112.822141709277
 31
0.0
  0
LINE
  5
246
330
1E
100
AcDbEntity
  8
0
100
AcDbLine
 10
195.67365
 20
110.0
 30
0.0
 11
197.17365
 21
112.0
 31
0.0
  0
LINE
  5
247
330
1E
100
AcDbEntity
  8
0
100
AcDbLine
 10
195.67365
 20
110.0
 30
0.0
 11
195.67365
 21
102.0
 31
0.0
  0
LINE
  5
248
330
1E
100
AcDbEntity
  8
0
100
AcDbLine
 10
195.4736499999999
 20
102.0
 30
0.0
 11
195.67365
 21
102.0
 31
0.0
  0
LINE
  5
249
330
1E
100
AcDbEntity
  8
0
100
AcDbLine
 10
195.17365
 20
112.857
 30
0.0
 11
197.67365
 21
113.0
 31
0.0
  0
LINE
  5
24A
330
1E
100
AcDbEntity
  8
0
100
AcDbLine
 10
197.67365
 20
121.0
 30
0.0
 11
199.59565
 21
121.1429999999999
 31
0.0
  0
LINE
  5
24B
330
1E
100
AcDbEntity
  8
0
100
AcDbLine
 10
195.17365
 20
121.1429999999999
 30
0.0
 11
197.67365
 21
121.0
 31
0.0
  0
LINE
  5
24C
330
1E
100
AcDbEntity
  8
0
100
AcDbLine
 10
197.67365
 20
113.0
 30
0.0
 11
199.59565
 21
112.857
 31
0.0
  0
LINE
  5
24D
330
1E
100
AcDbEntity
  8
0
100
AcDbLine
 10
199.59565
 20
112.857
 30
0.0
 11
201.8776499999999
 21
112.552
 31
0.0
  0
LINE
  5
24E
330
1E
100
AcDbEntity
  8
0
100
AcDbLine
 10
199.59565
 20
121.1429999999999
 30
0.0
 11
201.8776499999999
 21
121.448
 31
0.0
  0
LINE
  5
24F
330
1E
100
AcDbEntity
  8
0
100
AcDbLine
 10
200.27365
 20
91.0
 30
0.0
 11
200.67365
 21
91.0
 31
0.0
  0
LINE
  5
250
330
1E
100
AcDbEntity
  8
0
100
AcDbLine
 10
194.87365
 20
91.0
 30
0.0
 11
197.27365
 21
91.0
 31
0.0
  0
LINE
  5
251
330
1E
100
AcDbEntity
  8
0
100
AcDbLine
 10
195.17365
 20
90.5
 30
0.0
 11
197.67365
 21
90.5
 31
0.0
  0
LINE
  5
252
330
1E
100
AcDbEntity
  8
0
100
AcDbLine
 10
192.27365
 20
90.5
 30
0.0
 11
195.17365
 21
90.5
 31
0.0
  0
LINE
  5
253
330
1E
100
AcDbEntity
  8
0
100
AcDbLine
 10
192.27365
 20
89.0
 30
0.0
 11
195.17365
 21
89.0
 31
0.0
  0
LINE
  5
254
330
1E
100
AcDbEntity
  8
0
100
AcDbLine
 10
189.17365
 20
89.0
 30
0.0
 11
192.27365
 21
89.0
 31
0.0
  0
LINE
  5
255
330
1E
100
AcDbEntity
  8
0
100
AcDbLine
 10
180.07365
 20
122.5
 30
0.0
 11
181.77365
 21
122.5
 31
0.0
  0
LINE
  5
256
330
1E
100
AcDbEntity
  8
0
100
AcDbLine
 10
179.0736499999999
 20
122.5
 30
0.0
 11
180.07365
 21
122.5
 31
0.0
  0
LINE
  5
257
330
1E
100
AcDbEntity
  8
0
100
AcDbLine
 10
178.67365
 20
122.5
 30
0.0
 11
179.0736499999999
 21
122.5
 31
0.0
  0
LINE
  5
259
330
1E
100
AcDbEntity
  8
0
100
AcDbLine
 10
178.67365
 20
122.5
 30
0.0
 11
178.67365
 21
193.0
 31
0.0
  0
LINE
  5
25A
330
1E
100
AcDbEntity
  8
0
100
AcDbLine
 10
181.77365
 20
122.5
 30
0.0
 11
183.9736499999999
 21
122.5
 31
0.0
  0
LINE
  5
25B
330
1E
100
AcDbEntity
  8
0
100
AcDbLine
 10
183.9736499999999
 20
122.5
 30
0.0
 11
186.47365
 21
122.5
 31
0.0
  0
LINE
  5
25C
330
1E
100
AcDbEntity
  8
0
100
AcDbLine
 10
186.47365
 20
122.5
 30
0.0
 11
187.964832364729
 21
122.5
 31
0.0
  0
LINE
  5
25D
330
1E
100
AcDbEntity
  8
0
100
AcDbLine
 10
178.67365
 20
193.0
 30
0.0
 11
178.67365
 21
122.5
 31
0.0
  0
LINE
  5
25E
330
1E
100
AcDbEntity
  8
0
100
AcDbLine
 10
178.0146499999999
 20
203.051
 30
0.0
 11
178.67365
 21
193.0
 31
0.0
  0
LINE
  5
25F
330
1E
100
AcDbEntity
  8
0
100
AcDbLine
 10
186.54365
 20
242.0
 30
0.0
 11
192.21365
 21
230.5029999999999
 31
0.0
  0
LINE
  5
260
330
1E
100
AcDbEntity
  8
0
100
AcDbLine
 10
179.42265
 20
252.659
 30
0.0
 11
186.54365
 21
242.0
 31
0.0
  0
LINE
  5
261
330
1E
100
AcDbEntity
  8
0
100
AcDbLine
 10
188.3736499999999
 20
122.9079999999999
 30
0.0
 11
188.3736499999999
 21
122.524
 31
0.0
  0
LINE
  5
262
330
1E
100
AcDbEntity
  8
0
100
AcDbLine
 10
188.3736499999999
 20
122.9079999999999
 30
0.0
 11
189.17365
 21
122.889
 31
0.0
  0
LINE
  5
263
330
1E
100
AcDbEntity
  8
0
100
AcDbLine
 10
194.3736499999999
 20
122.5
 30
0.0
 11
196.57365
 21
122.5
 31
0.0
  0
LINE
  5
264
330
1E
100
AcDbEntity
  8
0
100
AcDbLine
 10
191.8736499999999
 20
122.5
 30
0.0
 11
194.3736499999999
 21
122.5
 31
0.0
  0
LINE
  5
265
330
1E
100
AcDbEntity
  8
0
100
AcDbLine
 10
190.3824676352709
 20
122.5
 30
0.0
 11
191.8736499999999
 21
122.5
 31
0.0
  0
LINE
  5
266
330
1E
100
AcDbEntity
  8
0
100
AcDbLine
 10
196.57365
 20
122.5
 30
0.0
 11
198.27365
 21
122.5
 31
0.0
  0
LINE
  5
267
330
1E
100
AcDbEntity
  8
0
100
AcDbLine
 10
198.27365
 20
122.5
 30
0.0
 11
199.27365
 21
122.5
 31
0.0
  0
LINE
  5
268
330
1E
100
AcDbEntity
  8
0
100
AcDbLine
 10
199.27365
 20
122.5
 30
0.0
 11
199.67365
 21
122.5
 31
0.0
  0
LINE
  5
269
330
1E
100
AcDbEntity
  8
0
100
AcDbLine
 10
199.67365
 20
122.5
 30
0.0
 11
200.096015394835
 21
121.232903815496
 31
0.0
  0
LINE
  5
26A
330
1E
100
AcDbEntity
  8
0
100
AcDbLine
 10
189.9736499999999
 20
122.524
 30
0.0
 11
189.9736499999999
 21
122.9079999999999
 31
0.0
  0
LINE
  5
26B
330
1E
100
AcDbEntity
  8
0
100
AcDbLine
 10
189.9736499999999
 20
122.524
 30
0.0
 11
189.9736499999999
 21
121.8129999999999
 31
0.0
  0
LINE
  5
26C
330
1E
100
AcDbEntity
  8
0
100
AcDbLine
 10
192.21365
 20
230.5029999999999
 30
0.0
 11
196.33465
 21
218.364
 31
0.0
  0
LINE
  5
26D
330
1E
100
AcDbEntity
  8
0
100
AcDbLine
 10
198.8356499999999
 20
205.792
 30
0.0
 11
199.67365
 21
193.0
 31
0.0
  0
LINE
  5
26E
330
1E
100
AcDbEntity
  8
0
100
AcDbLine
 10
196.33465
 20
218.364
 30
0.0
 11
198.8356499999999
 21
205.792
 31
0.0
  0
LINE
  5
270
330
1E
100
AcDbEntity
  8
0
100
AcDbLine
 10
189.9736499999999
 20
122.9079999999999
 30
0.0
 11
189.9736499999999
 21
122.524
 31
0.0
  0
LINE
  5
271
330
1E
100
AcDbEntity
  8
0
100
AcDbLine
 10
189.9736499999999
 20
122.9079999999999
 30
0.0
 11
190.47365
 21
122.4089999999999
 31
0.0
  0
LINE
  5
272
330
1E
100
AcDbEntity
  8
0
100
AcDbLine
 10
189.17365
 20
122.889
 30
0.0
 11
189.9736499999999
 21
122.9079999999999
 31
0.0
  0
LINE
  5
273
330
1E
100
AcDbEntity
  8
0
100
AcDbLine
 10
188.3736499999999
 20
122.524
 30
0.0
 11
188.3736499999999
 21
121.8129999999999
 31
0.0
  0
LINE
  5
274
330
1E
100
AcDbEntity
  8
0
100
AcDbLine
 10
188.3736499999999
 20
122.524
 30
0.0
 11
188.3736499999999
 21
122.9079999999999
 31
0.0
  0
LINE
  5
275
330
1E
100
AcDbEntity
  8
0
100
AcDbLine
 10
199.67365
 20
122.5
 30
0.0
 11
200.096015394835
 21
121.232903815496
 31
0.0
  0
LINE
  5
276
330
1E
100
AcDbEntity
  8
0
100
AcDbLine
 10
199.67365
 20
122.5
 30
0.0
 11
199.67365
 21
193.0
 31
0.0
  0
LINE
  5
277
330
1E
100
AcDbEntity
  8
0
100
AcDbLine
 10
200.77365
 20
90.5
 30
0.0
 11
201.17365
 21
90.5
 31
0.0
  0
LINE
  5
278
330
1E
100
AcDbEntity
  8
0
100
AcDbLine
 10
201.17365
 20
90.5
 30
0.0
 11
201.17365
 21
89.0
 31
0.0
  0
LINE
  5
279
330
1E
100
AcDbEntity
  8
0
100
AcDbLine
 10
201.17365
 20
89.0
 30
0.0
 11
201.17365
 21
90.5
 31
0.0
  0
LINE
  5
27A
330
1E
100
AcDbEntity
  8
0
100
AcDbLine
 10
200.77365
 20
89.0
 30
0.0
 11
201.17365
 21
89.0
 31
0.0
  0
LINE
  5
27B
330
1E
100
AcDbEntity
  8
0
100
AcDbLine
 10
201.8776499999999
 20
112.552
 30
0.0
 11
203.5584337928039
 21
112.3475473599889
 31
0.0
  0
LINE
  5
27C
330
1E
100
AcDbEntity
  8
0
100
AcDbLine
 10
201.8776499999999
 20
112.552
 30
0.0
 11
204.63165
 21
112.217
 31
0.0
  0
LINE
  5
27D
330
1E
100
AcDbEntity
  8
0
100
AcDbLine
 10
204.31165
 20
112.243
 30
0.0
 11
204.63165
 21
112.217
 31
0.0
  0
LINE
  5
27E
330
1E
100
AcDbEntity
  8
0
100
AcDbLine
 10
204.63165
 20
112.217
 30
0.0
 11
208.17565
 21
111.69
 31
0.0
  0
LINE
  5
27F
330
1E
100
AcDbEntity
  8
0
100
AcDbLine
 10
214.04865
 20
111.092
 30
0.0
 11
215.54865
 21
111.4759999999999
 31
0.0
  0
LINE
  5
280
330
1E
100
AcDbEntity
  8
0
100
AcDbLine
 10
212.15065
 20
111.2119999999999
 30
0.0
 11
212.833225406032
 21
111.1688445475639
 31
0.0
  0
LINE
  5
281
330
1E
100
AcDbEntity
  8
0
100
AcDbLine
 10
212.15065
 20
111.2119999999999
 30
0.0
 11
214.04865
 21
111.092
 31
0.0
  0
LINE
  5
282
330
1E
100
AcDbEntity
  8
0
100
AcDbLine
 10
212.27765
 20
111.193
 30
0.0
 11
212.833225406032
 21
111.1688445475639
 31
0.0
  0
LINE
  5
283
330
1E
100
AcDbEntity
  8
0
100
AcDbLine
 10
214.16365
 20
111.111
 30
0.0
 11
214.43365
 21
111.19056
 31
0.0
  0
LINE
  5
286
330
1E
100
AcDbEntity
  8
0
100
AcDbLine
 10
215.54865
 20
111.4759999999999
 30
0.0
 11
216.64465
 21
112.187
 31
0.0
  0
LINE
  5
287
330
1E
100
AcDbEntity
  8
0
100
AcDbLine
 10
216.64465
 20
112.187
 30
0.0
 11
217.2986499999999
 21
112.956
 31
0.0
  0
LINE
  5
288
330
1E
100
AcDbEntity
  8
0
100
AcDbLine
 10
216.7067551389279
 20
112.2600257673329
 30
0.0
 11
216.8881734294429
 21
112.4733448275859
 31
0.0
  0
LINE
  5
289
330
1E
100
AcDbEntity
  8
0
100
AcDbLine
 10
216.7406499999999
 20
112.2829999999999
 30
0.0
 11
216.8881734294429
 21
112.4733448275859
 31
0.0
  0
LINE
  5
28A
330
1E
100
AcDbEntity
  8
0
100
AcDbLine
 10
211.645554301649
 20
111.272738551902
 30
0.0
 11
212.27765
 21
111.193
 31
0.0
  0
LINE
  5
28B
330
1E
100
AcDbEntity
  8
0
100
AcDbLine
 10
208.17565
 20
111.69
 30
0.0
 11
211.645554301649
 21
111.272738551902
 31
0.0
  0
LINE
  5
28C
330
1E
100
AcDbEntity
  8
0
100
AcDbLine
 10
208.17565
 20
111.69
 30
0.0
 11
212.15065
 21
111.2119999999999
 31
0.0
  0
LINE
  5
28E
330
1E
100
AcDbEntity
  8
0
100
AcDbLine
 10
217.2986499999999
 20
112.956
 30
0.0
 11
217.8176499999999
 21
114.071
 31
0.0
  0
LINE
  5
290
330
1E
100
AcDbEntity
  8
0
100
AcDbLine
 10
217.2986499999999
 20
121.0439999999999
 30
0.0
 11
217.8176499999999
 21
119.9289999999999
 31
0.0
  0
LINE
  5
291
330
1E
100
AcDbEntity
  8
0
100
AcDbLine
 10
216.8881734294429
 20
121.5266551724139
 30
0.0
 11
217.2986499999999
 21
121.0439999999999
 31
0.0
  0
LINE
  5
292
330
1E
100
AcDbEntity
  8
0
100
AcDbLine
 10
216.7406499999999
 20
121.717
 30
0.0
 11
216.8881734294429
 21
121.5266551724139
 31
0.0
  0
LINE
  5
293
330
1E
100
AcDbEntity
  8
0
100
AcDbLine
 10
204.31165
 20
121.757
 30
0.0
 11
204.63165
 21
121.7829999999999
 31
0.0
  0
LINE
  5
295
330
1E
100
AcDbEntity
  8
0
100
AcDbLine
 10
216.64465
 20
121.8129999999999
 30
0.0
 11
217.2986499999999
 21
121.0439999999999
 31
0.0
  0
LINE
  5
296
330
1E
100
AcDbEntity
  8
0
100
AcDbLine
 10
204.63165
 20
121.7829999999999
 30
0.0
 11
208.17565
 21
122.31
 31
0.0
  0
LINE
  5
297
330
1E
100
AcDbEntity
  8
0
100
AcDbLine
 10
203.5584337928039
 20
121.652452640011
 30
0.0
 11
204.31165
 21
121.757
 31
0.0
  0
LINE
  5
298
330
1E
100
AcDbEntity
  8
0
100
AcDbLine
 10
217.8176499999999
 20
119.9289999999999
 30
0.0
 11
218.1736499999999
 21
117.0
 31
0.0
  0
LINE
  5
299
330
1E
100
AcDbEntity
  8
0
100
AcDbLine
 10
217.8176499999999
 20
114.071
 30
0.0
 11
218.1736499999999
 21
117.0
 31
0.0
  0
LINE
  5
29A
330
1E
100
AcDbEntity
  8
0
100
AcDbLine
 10
203.5584337928039
 20
112.3475473599889
 30
0.0
 11
204.31165
 21
112.243
 31
0.0
  0
LINE
  5
29B
330
1E
100
AcDbEntity
  8
0
100
AcDbLine
 10
201.8776499999999
 20
121.448
 30
0.0
 11
203.5584337928039
 21
121.652452640011
 31
0.0
  0
LINE
  5
29C
330
1E
100
AcDbEntity
  8
0
100
AcDbLine
 10
201.8776499999999
 20
121.448
 30
0.0
 11
204.63165
 21
121.7829999999999
 31
0.0
  0
LINE
  5
29D
330
1E
100
AcDbEntity
  8
0
100
AcDbLine
 10
212.15065
 20
122.788
 30
0.0
 11
214.04865
 21
122.9079999999999
 31
0.0
  0
LINE
  5
29F
330
1E
100
AcDbEntity
  8
0
100
AcDbLine
 10
215.54865
 20
122.524
 30
0.0
 11
216.64465
 21
121.8129999999999
 31
0.0
  0
LINE
  5
2A0
330
1E
100
AcDbEntity
  8
0
100
AcDbLine
 10
212.27765
 20
122.8069999999999
 30
0.0
 11
212.833225406032
 21
122.831155452436
 31
0.0
  0
LINE
  5
2A1
330
1E
100
AcDbEntity
  8
0
100
AcDbLine
 10
214.04865
 20
122.9079999999999
 30
0.0
 11
215.54865
 21
122.524
 31
0.0
  0
LINE
  5
2A2
330
1E
100
AcDbEntity
  8
0
100
AcDbLine
 10
214.16365
 20
122.889
 30
0.0
 11
214.43365
 21
122.80944
 31
0.0
  0
LINE
  5
2A3
330
1E
100
AcDbEntity
  8
0
100
AcDbLine
 10
211.645554301649
 20
122.727261448098
 30
0.0
 11
212.27765
 21
122.8069999999999
 31
0.0
  0
LINE
  5
2A4
330
1E
100
AcDbEntity
  8
0
100
AcDbLine
 10
208.17565
 20
122.31
 30
0.0
 11
211.645554301649
 21
122.727261448098
 31
0.0
  0
LINE
  5
2A5
330
1E
100
AcDbEntity
  8
0
100
AcDbLine
 10
208.17565
 20
122.31
 30
0.0
 11
212.15065
 21
122.788
 31
0.0
  0
LINE
  5
2A6
330
1E
100
AcDbEntity
  8
0
100
AcDbLine
 10
200.67365
 20
91.0
 30
0.0
 11
201.17365
 21
90.5
 31
0.0
  0
LINE
  5
2A7
330
1E
100
AcDbEntity
  8
0
100
AcDbLine
 10
200.67365
 20
88.49999999999999
 30
0.0
 11
201.17365
 21
88.0
 31
0.0
  0
LINE
  5
2A8
330
1E
100
AcDbEntity
  8
0
100
AcDbLine
 10
200.67365
 20
88.49999999999999
 30
0.0
 11
201.17365
 21
89.0
 31
0.0
  0
LINE
  5
2A9
330
1E
100
AcDbEntity
  8
0
100
AcDbLine
 10
177.17365
 20
76.0
 30
0.0
 11
177.17365
 21
88.0
 31
0.0
  0
LINE
  5
2AA
330
1E
100
AcDbEntity
  8
0
100
AcDbLine
 10
172.67365
 20
69.5
 30
0.0
 11
174.17365
 21
70.0
 31
0.0
  0
LINE
  5
2AB
330
1E
100
AcDbEntity
  8
0
100
AcDbLine
 10
172.67365
 20
69.5
 30
0.0
 11
173.27365
 21
69.5
 31
0.0
  0
LINE
  5
2AC
330
1E
100
AcDbEntity
  8
0
100
AcDbLine
 10
172.67365
 20
66.5
 30
0.0
 11
173.67365
 21
66.0
 31
0.0
  0
LINE
  5
2AD
330
1E
100
AcDbEntity
  8
0
100
AcDbLine
 10
172.67365
 20
66.5
 30
0.0
 11
173.27365
 21
66.5
 31
0.0
  0
ENDSEC
  0
SECTION
  2
OBJECTS
  0
DICTIONARY
  5
C
330
0
100
AcDbDictionary
281
     1
  3
ACAD_GROUP
350
D
  3
ACAD_LAYOUT
350
19
  3
ACAD_MLINESTYLE
350
16
  3
ACAD_PLOTSETTINGS
350
18
  3
ACAD_PLOTSTYLENAME
350
E
  3
AcDbVariableDictionary
350
2B2
  0
DICTIONARY
  5
D
102
{ACAD_REACTORS
330
C
102
}
330
C
100
AcDbDictionary
281
     1
  0
DICTIONARY
  5
19
102
{ACAD_REACTORS
330
C
102
}
330
C
100
AcDbDictionary
281
     1
  3
Layout1
350
1D
  3
Model
350
21
  0
DICTIONARY
  5
16
102
{ACAD_REACTORS
330
C
102
}
330
C
100
AcDbDictionary
281
     1
  3
Standard
350
17
  0
DICTIONARY
  5
18
102
{ACAD_REACTORS
330
C
102
}
330
C
100
AcDbDictionary
281
     1
  0
ACDBDICTIONARYWDFLT
  5
E
102
{ACAD_REACTORS
330
C
102
}
330
C
100
AcDbDictionary
281
     1
  3
Normal
350
F
100
AcDbDictionaryWithDefault
340
F
  0
DICTIONARY
  5
2B2
102
{ACAD_REACTORS
330
C
102
}
330
C
100
AcDbDictionary
281
     1
  3
DIMASSOC
350
2B3
  0
LAYOUT
  5
1D
102
{ACAD_REACTORS
330
19
102
}
330
19
100
AcDbPlotSettings
  1

  2
hp deskjet 980c series
  4

  6

 40
0.0
 41
0.0
 42
0.0
 43
0.0
 44
0.0
 45
0.0
 46
0.0
 47
0.0
 48
0.0
 49
0.0
140
0.0
141
0.0
142
1.0
143
1.0
 70
   688
 72
     0
 73
     0
 74
     5
  7

 75
    16
147
1.0
148
0.0
149
0.0
100
AcDbLayout
  1
Layout1
 70
     1
 71
     1
 10
0.0
 20
0.0
 11
12.0
 21
9.0
 12
0.0
 22
0.0
 32
0.0
 14
1.000000000000000E+20
 24
1.000000000000000E+20
 34
1.000000000000000E+20
 15
-1.000000000000000E+20
 25
-1.000000000000000E+20
 35
-1.000000000000000E+20
146
0.0
 13
0.0
 23
0.0
 33
0.0
 16
1.0
 26
0.0
 36
0.0
 17
0.0
 27
1.0
 37
0.0
 76
     0
330
1A
  0
LAYOUT
  5
21
102
{ACAD_REACTORS
330
19
102
}
330
19
100
AcDbPlotSettings
  1

  2
hp deskjet 980c series
  4

  6

 40
0.0
 41
0.0
 42
0.0
 43
0.0
 44
0.0
 45
0.0
 46
0.0
 47
0.0
 48
0.0
 49
0.0
140
0.0
141
0.0
142
1.0
143
1.0
 70
  1712
 72
     0
 73
     0
 74
     0
  7

 75
     0
147
1.0
148
0.0
149
0.0
100
AcDbLayout
  1
Model
 70
     1
 71
     0
 10
0.0
 20
0.0
 11
12.0
 21
9.0
 12
0.0
 22
0.0
 32
0.0
 14
0.0
 24
0.0
 34
0.0
 15
0.0
 25
0.0
 35
0.0
146
0.0
 13
0.0
 23
0.0
 33
0.0
 16
1.0
 26
0.0
 36
0.0
 17
0.0
 27
1.0
 37
0.0
 76
     0
330
1E
  0
MLINESTYLE
  5
17
102
{ACAD_REACTORS
330
16
102
}
330
16
100
AcDbMlineStyle
  2
STANDARD
 70
     0
  3

 62
   256
 51
90.0
 52
90.0
 71
     2
 49
0.5
 62
   256
  6
BYLAYER
 49
-0.5
 62
   256
  6
BYLAYER
  0
ACDBPLACEHOLDER
  5
F
102
{ACAD_REACTORS
330
E
102
}
330
E
  0
DICTIONARYVAR
  5
2B3
102
{ACAD_REACTORS
330
2B2
102
}
330
2B2
100
DictionaryVariables
280
     0
  1
1
  0
ENDSEC
  0
EOF
