  0
SECTION
  2
HEADER
  9
$ACADVER
  1
AC1015
  9
$ACADMAINTVER
 70
    13
  9
$DWGCODEPAGE
  3
ANSI_1252
  9
$INSBASE
 10
0.0
 20
0.0
 30
0.0
  9
$EXTMIN
 10
-0.120835000000003
 20
-0.173649999999994
 30
0.0
  9
$EXTMAX
 10
187.120835
 20
217.53265
 30
0.0
  9
$LIMMIN
 10
0.0
 20
0.0
  9
$LIMMAX
 10
12.0
 20
9.0
  9
$ORTHOMODE
 70
     0
  9
$REGENMODE
 70
     1
  9
$FILLMODE
 70
     1
  9
$QTEXTMODE
 70
     0
  9
$MIRRTEXT
 70
     1
  9
$LTSCALE
 40
1.0
  9
$ATTMODE
 70
     1
  9
$TEXTSIZE
 40
0.2
  9
$TRACEWID
 40
0.05
  9
$TEXTSTYLE
  7
Standard
  9
$CLAYER
  8
0
  9
$CELTYPE
  6
Continuous
  9
$CECOLOR
 62
   256
  9
$CELTSCALE
 40
1.0
  9
$DISPSILH
 70
     0
  9
$DIMSCALE
 40
1.0
  9
$DIMASZ
 40
0.18
  9
$DIMEXO
 40
0.0625
  9
$DIMDLI
 40
0.38
  9
$DIMRND
 40
0.0
  9
$DIMDLE
 40
0.0
  9
$DIMEXE
 40
0.18
  9
$DIMTP
 40
0.0
  9
$DIMTM
 40
0.0
  9
$DIMTXT
 40
0.18
  9
$DIMCEN
 40
0.09
  9
$DIMTSZ
 40
0.0
  9
$DIMTOL
 70
     0
  9
$DIMLIM
 70
     0
  9
$DIMTIH
 70
     1
  9
$DIMTOH
 70
     1
  9
$DIMSE1
 70
     0
  9
$DIMSE2
 70
     0
  9
$DIMTAD
 70
     0
  9
$DIMZIN
 70
     0
  9
$DIMBLK
  1

  9
$DIMASO
 70
     1
  9
$DIMSHO
 70
     1
  9
$DIMPOST
  1

  9
$DIMAPOST
  1

  9
$DIMALT
 70
     0
  9
$DIMALTD
 70
     2
  9
$DIMALTF
 40
25.4
  9
$DIMLFAC
 40
1.0
  9
$DIMTOFL
 70
     0
  9
$DIMTVP
 40
0.0
  9
$DIMTIX
 70
     0
  9
$DIMSOXD
 70
     0
  9
$DIMSAH
 70
     0
  9
$DIMBLK1
  1

  9
$DIMBLK2
  1

  9
$DIMSTYLE
  2
Standard
  9
$DIMCLRD
 70
     0
  9
$DIMCLRE
 70
     0
  9
$DIMCLRT
 70
     0
  9
$DIMTFAC
 40
1.0
  9
$DIMGAP
 40
0.09
  9
$DIMJUST
 70
     0
  9
$DIMSD1
 70
     0
  9
$DIMSD2
 70
     0
  9
$DIMTOLJ
 70
     1
  9
$DIMTZIN
 70
     0
  9
$DIMALTZ
 70
     0
  9
$DIMALTTZ
 70
     0
  9
$DIMUPT
 70
     0
  9
$DIMDEC
 70
     4
  9
$DIMTDEC
 70
     4
  9
$DIMALTU
 70
     2
  9
$DIMALTTD
 70
     2
  9
$DIMTXSTY
  7
Standard
  9
$DIMAUNIT
 70
     0
  9
$DIMADEC
 70
     0
  9
$DIMALTRND
 40
0.0
  9
$DIMAZIN
 70
     0
  9
$DIMDSEP
 70
    46
  9
$DIMATFIT
 70
     3
  9
$DIMFRAC
 70
     0
  9
$DIMLDRBLK
  1

  9
$DIMLUNIT
 70
     2
  9
$DIMLWD
 70
    -2
  9
$DIMLWE
 70
    -2
  9
$DIMTMOVE
 70
     0
  9
$LUNITS
 70
     2
  9
$LUPREC
 70
     4
  9
$SKETCHINC
 40
0.1
  9
$FILLETRAD
 40
0.0
  9
$AUNITS
 70
     0
  9
$AUPREC
 70
     0
  9
$MENU
  1
.
  9
$ELEVATION
 40
0.0
  9
$PELEVATION
 40
0.0
  9
$THICKNESS
 40
0.0
  9
$LIMCHECK
 70
     0
  9
$CHAMFERA
 40
0.0
  9
$CHAMFERB
 40
0.0
  9
$CHAMFERC
 40
0.0
  9
$CHAMFERD
 40
0.0
  9
$SKPOLY
 70
     0
  9
$TDCREATE
 40
2454748.464242384
  9
$TDUCREATE
 40
2454748.380909050
  9
$TDUPDATE
 40
2454748.472674641
  9
$TDUUPDATE
 40
2454748.389341308
  9
$TDINDWG
 40
0.0075573380
  9
$TDUSRTIMER
 40
0.0075573380
  9
$USRTIMER
 70
     1
  9
$ANGBASE
 50
0.0
  9
$ANGDIR
 70
     0
  9
$PDMODE
 70
     0
  9
$PDSIZE
 40
0.0
  9
$PLINEWID
 40
0.0
  9
$SPLFRAME
 70
     0
  9
$SPLINETYPE
 70
     6
  9
$SPLINESEGS
 70
     8
  9
$HANDSEED
  5
441
  9
$SURFTAB1
 70
     6
  9
$SURFTAB2
 70
     6
  9
$SURFTYPE
 70
     6
  9
$SURFU
 70
     6
  9
$SURFV
 70
     6
  9
$UCSBASE
  2

  9
$UCSNAME
  2

  9
$UCSORG
 10
0.0
 20
0.0
 30
0.0
  9
$UCSXDIR
 10
1.0
 20
0.0
 30
0.0
  9
$UCSYDIR
 10
0.0
 20
1.0
 30
0.0
  9
$UCSORTHOREF
  2

  9
$UCSORTHOVIEW
 70
     1
  9
$UCSORGTOP
 10
0.0
 20
0.0
 30
0.0
  9
$UCSORGBOTTOM
 10
0.0
 20
0.0
 30
0.0
  9
$UCSORGLEFT
 10
0.0
 20
0.0
 30
0.0
  9
$UCSORGRIGHT
 10
0.0
 20
0.0
 30
0.0
  9
$UCSORGFRONT
 10
0.0
 20
0.0
 30
0.0
  9
$UCSORGBACK
 10
0.0
 20
0.0
 30
0.0
  9
$PUCSBASE
  2

  9
$PUCSNAME
  2

  9
$PUCSORG
 10
0.0
 20
0.0
 30
0.0
  9
$PUCSXDIR
 10
1.0
 20
0.0
 30
0.0
  9
$PUCSYDIR
 10
0.0
 20
1.0
 30
0.0
  9
$PUCSORTHOREF
  2

  9
$PUCSORTHOVIEW
 70
     0
  9
$PUCSORGTOP
 10
0.0
 20
0.0
 30
0.0
  9
$PUCSORGBOTTOM
 10
0.0
 20
0.0
 30
0.0
  9
$PUCSORGLEFT
 10
0.0
 20
0.0
 30
0.0
  9
$PUCSORGRIGHT
 10
0.0
 20
0.0
 30
0.0
  9
$PUCSORGFRONT
 10
0.0
 20
0.0
 30
0.0
  9
$PUCSORGBACK
 10
0.0
 20
0.0
 30
0.0
  9
$USERI1
 70
     0
  9
$USERI2
 70
     0
  9
$USERI3
 70
     0
  9
$USERI4
 70
     0
  9
$USERI5
 70
     0
  9
$USERR1
 40
0.0
  9
$USERR2
 40
0.0
  9
$USERR3
 40
0.0
  9
$USERR4
 40
0.0
  9
$USERR5
 40
0.0
  9
$WORLDVIEW
 70
     1
  9
$SHADEDGE
 70
     3
  9
$SHADEDIF
 70
    70
  9
$TILEMODE
 70
     1
  9
$MAXACTVP
 70
    64
  9
$PINSBASE
 10
0.0
 20
0.0
 30
0.0
  9
$PLIMCHECK
 70
     0
  9
$PEXTMIN
 10
1.000000000000000E+20
 20
1.000000000000000E+20
 30
1.000000000000000E+20
  9
$PEXTMAX
 10
-1.000000000000000E+20
 20
-1.000000000000000E+20
 30
-1.000000000000000E+20
  9
$PLIMMIN
 10
0.0
 20
0.0
  9
$PLIMMAX
 10
12.0
 20
9.0
  9
$UNITMODE
 70
     0
  9
$VISRETAIN
 70
     1
  9
$PLINEGEN
 70
     0
  9
$PSLTSCALE
 70
     1
  9
$TREEDEPTH
 70
  3020
  9
$CMLSTYLE
  2
Standard
  9
$CMLJUST
 70
     0
  9
$CMLSCALE
 40
1.0
  9
$PROXYGRAPHICS
 70
     1
  9
$MEASUREMENT
 70
     0
  9
$CELWEIGHT
370
    -1
  9
$ENDCAPS
280
     0
  9
$JOINSTYLE
280
     0
  9
$LWDISPLAY
290
     0
  9
$INSUNITS
 70
     0
  9
$HYPERLINKBASE
  1

  9
$STYLESHEET
  1

  9
$XEDIT
290
     1
  9
$CEPSNTYPE
380
     0
  9
$PSTYLEMODE
290
     1
  9
$FINGERPRINTGUID
  2
{03A9DC42-D63B-4870-98B0-AC422692C607}
  9
$VERSIONGUID
  2
{C9E877F3-E50E-4F44-AE68-84B1C5A09C74}
  9
$EXTNAMES
290
     1
  9
$PSVPSCALE
 40
0.0
  9
$OLESTARTUP
290
     0
  0
ENDSEC
  0
SECTION
  2
CLASSES
  0
CLASS
  1
ACDBDICTIONARYWDFLT
  2
AcDbDictionaryWithDefault
  3
AutoCAD 2000
 90
        0
280
     0
281
     0
  0
CLASS
  1
ACDBPLACEHOLDER
  2
AcDbPlaceHolder
  3
AutoCAD 2000
 90
        0
280
     0
281
     0
  0
CLASS
  1
LAYOUT
  2
AcDbLayout
  3
AutoCAD 2000
 90
        0
280
     0
281
     0
  0
CLASS
  1
DICTIONARYVAR
  2
AcDbDictionaryVar
  3
AutoCAD 2000
 90
        0
280
     0
281
     0
  0
ENDSEC
  0
SECTION
  2
TABLES
  0
TABLE
  2
VPORT
  5
8
330
0
100
AcDbSymbolTable
 70
     2
  0
VPORT
  5
440
330
8
100
AcDbSymbolTableRecord
100
AcDbViewportTableRecord
  2
*Active
 70
     0
 10
0.0
 20
0.0
 11
1.0
 21
1.0
 12
93.49999999999999
 22
108.6794999999999
 13
0.0
 23
0.0
 14
1.0
 24
1.0
 15
0.0
 25
0.0
 16
0.0
 26
0.0
 36
1.0
 17
0.0
 27
0.0
 37
0.0
 40
219.3766808184142
 41
2.078104993597951
 42
50.0
 43
0.0
 44
0.0
 50
0.0
 51
0.0
 71
     0
 72
   100
 73
     1
 74
     3
 75
     0
 76
     0
 77
     0
 78
     0
281
     0
 65
     1
110
0.0
120
0.0
130
0.0
111
1.0
121
0.0
131
0.0
112
0.0
122
1.0
132
0.0
 79
     1
146
0.0
  0
ENDTAB
  0
TABLE
  2
LTYPE
  5
5
330
0
100
AcDbSymbolTable
 70
     1
  0
LTYPE
  5
13
330
5
100
AcDbSymbolTableRecord
100
AcDbLinetypeTableRecord
  2
ByBlock
 70
     0
  3

 72
    65
 73
     0
 40
0.0
  0
LTYPE
  5
14
330
5
100
AcDbSymbolTableRecord
100
AcDbLinetypeTableRecord
  2
ByLayer
 70
     0
  3

 72
    65
 73
     0
 40
0.0
  0
LTYPE
  5
15
330
5
100
AcDbSymbolTableRecord
100
AcDbLinetypeTableRecord
  2
Continuous
 70
     0
  3
Solid line
 72
    65
 73
     0
 40
0.0
  0
ENDTAB
  0
TABLE
  2
LAYER
  5
2
330
0
100
AcDbSymbolTable
 70
     1
  0
LAYER
  5
10
330
2
100
AcDbSymbolTableRecord
100
AcDbLayerTableRecord
  2
0
 70
     0
 62
     7
  6
Continuous
370
    -3
390
F
  0
ENDTAB
  0
TABLE
  2
STYLE
  5
3
330
0
100
AcDbSymbolTable
 70
     1
  0
STYLE
  5
11
330
3
100
AcDbSymbolTableRecord
100
AcDbTextStyleTableRecord
  2
Standard
 70
     0
 40
0.0
 41
1.0
 50
0.0
 71
     0
 42
0.2
  3
txt
  4

  0
ENDTAB
  0
TABLE
  2
VIEW
  5
6
330
0
100
AcDbSymbolTable
 70
     0
  0
ENDTAB
  0
TABLE
  2
UCS
  5
7
330
0
100
AcDbSymbolTable
 70
     0
  0
ENDTAB
  0
TABLE
  2
APPID
  5
9
330
0
100
AcDbSymbolTable
 70
     1
  0
APPID
  5
12
330
9
100
AcDbSymbolTableRecord
100
AcDbRegAppTableRecord
  2
ACAD
 70
     0
  0
ENDTAB
  0
TABLE
  2
DIMSTYLE
  5
A
330
0
100
AcDbSymbolTable
 70
     1
100
AcDbDimStyleTable
 71
     0
  0
DIMSTYLE
105
426
330
A
100
AcDbSymbolTableRecord
100
AcDbDimStyleTableRecord
  2
Standard
 70
     0
340
11
  0
ENDTAB
  0
TABLE
  2
BLOCK_RECORD
  5
1
330
0
100
AcDbSymbolTable
 70
     0
  0
BLOCK_RECORD
  5
1E
330
1
100
AcDbSymbolTableRecord
100
AcDbBlockTableRecord
  2
*Model_Space
340
21
  0
BLOCK_RECORD
  5
1A
330
1
100
AcDbSymbolTableRecord
100
AcDbBlockTableRecord
  2
*Paper_Space
340
1D
  0
ENDTAB
  0
ENDSEC
  0
SECTION
  2
BLOCKS
  0
BLOCK
  5
1F
330
1E
100
AcDbEntity
  8
0
100
AcDbBlockBegin
  2
*Model_Space
 70
     0
 10
0.0
 20
0.0
 30
0.0
  3
*Model_Space
  1

  0
ENDBLK
  5
20
330
1E
100
AcDbEntity
  8
0
100
AcDbBlockEnd
  0
BLOCK
  5
1B
330
1A
100
AcDbEntity
 67
     1
  8
0
100
AcDbBlockBegin
  2
*Paper_Space
 70
     0
 10
0.0
 20
0.0
 30
0.0
  3
*Paper_Space
  1

  0
ENDBLK
  5
1C
330
1A
100
AcDbEntity
 67
     1
  8
0
100
AcDbBlockEnd
  0
ENDSEC
  0
SECTION
  2
ENTITIES
  0
LINE
  5
22
330
1E
100
AcDbEntity
  8
0
100
AcDbLine
 10
14.279935
 20
163.6576499999998
 30
0.0
 11
14.594535
 21
162.1576499999999
 31
0.0
  0
LINE
  5
23
330
1E
100
AcDbEntity
  8
0
100
AcDbLine
 10
14.279935
 20
163.6576499999998
 30
0.0
 11
14.378235
 21
165.55565
 31
0.0
  0
LINE
  5
24
330
1E
100
AcDbEntity
  8
0
100
AcDbLine
 10
12.743135
 20
178.1106499999999
 30
0.0
 11
13.646035
 21
175.82865
 31
0.0
  0
LINE
  5
25
330
1E
100
AcDbEntity
  8
0
100
AcDbLine
 10
11.426335
 20
180.0326499999999
 30
0.0
 11
12.743135
 21
178.1106499999999
 31
0.0
  0
LINE
  5
26
330
1E
100
AcDbEntity
  8
0
100
AcDbLine
 10
12.090435
 20
179.4326499999999
 30
0.0
 11
13.524335
 21
178.4326499999998
 31
0.0
  0
LINE
  5
27
330
1E
100
AcDbEntity
  8
0
100
AcDbLine
 10
13.524335
 20
178.4326499999998
 30
0.0
 11
15.073035
 21
178.0326499999999
 31
0.0
  0
LINE
  5
29
330
1E
100
AcDbEntity
  8
0
100
AcDbLine
 10
13.646035
 20
175.82865
 30
0.0
 11
14.429235
 21
173.0746499999999
 31
0.0
  0
LINE
  5
2A
330
1E
100
AcDbEntity
  8
0
100
AcDbLine
 10
17.637935
 20
159.88865
 30
0.0
 11
20.03723499999999
 21
159.5326499999998
 31
0.0
  0
LINE
  5
2B
330
1E
100
AcDbEntity
  8
0
100
AcDbLine
 10
15.197635
 20
163.6576499999998
 30
0.0
 11
15.512235
 21
162.1576499999999
 31
0.0
  0
LINE
  5
2C
330
1E
100
AcDbEntity
  8
0
100
AcDbLine
 10
15.197635
 20
163.6576499999998
 30
0.0
 11
15.295935
 21
165.55565
 31
0.0
  0
LINE
  5
2D
330
1E
100
AcDbEntity
  8
0
100
AcDbLine
 10
15.512235
 20
162.1576499999999
 30
0.0
 11
16.094635
 21
161.0616499999999
 31
0.0
  0
LINE
  5
2E
330
1E
100
AcDbEntity
  8
0
100
AcDbLine
 10
15.295935
 20
165.55565
 30
0.0
 11
15.859635
 21
169.53065
 31
0.0
  0
LINE
  5
2F
330
1E
100
AcDbEntity
  8
0
100
AcDbLine
 10
14.594535
 20
162.1576499999999
 30
0.0
 11
15.176935
 21
161.0616499999999
 31
0.0
  0
LINE
  5
30
330
1E
100
AcDbEntity
  8
0
100
AcDbLine
 10
15.176935
 20
161.0616499999999
 30
0.0
 11
15.806835
 21
160.4076499999998
 31
0.0
  0
LINE
  5
34
330
1E
100
AcDbEntity
  8
0
100
AcDbLine
 10
16.094635
 20
161.0616499999999
 30
0.0
 11
16.724535
 21
160.4076499999998
 31
0.0
  0
LINE
  5
35
330
1E
100
AcDbEntity
  8
0
100
AcDbLine
 10
16.724535
 20
160.4076499999998
 30
0.0
 11
17.637935
 21
159.88865
 31
0.0
  0
LINE
  5
36
330
1E
100
AcDbEntity
  8
0
100
AcDbLine
 10
16.891435
 20
173.0746499999999
 30
0.0
 11
18.223435
 21
175.82865
 31
0.0
  0
LINE
  5
37
330
1E
100
AcDbEntity
  8
0
100
AcDbLine
 10
15.859635
 20
169.53065
 30
0.0
 11
16.891435
 21
173.0746499999999
 31
0.0
  0
LINE
  5
38
330
1E
100
AcDbEntity
  8
0
100
AcDbLine
 10
15.806835
 20
160.4076499999998
 30
0.0
 11
16.72023499999999
 21
159.88865
 31
0.0
  0
LINE
  5
39
330
1E
100
AcDbEntity
  8
0
100
AcDbLine
 10
16.72023499999999
 20
159.88865
 30
0.0
 11
19.119535
 21
159.5326499999998
 31
0.0
  0
LINE
  5
3D
330
1E
100
AcDbEntity
  8
0
100
AcDbLine
 10
24.778435
 20
165.55565
 30
0.0
 11
24.876735
 21
163.6576499999998
 31
0.0
  0
LINE
  5
3E
330
1E
100
AcDbEntity
  8
0
100
AcDbLine
 10
24.562235
 20
162.1576499999999
 30
0.0
 11
24.876735
 21
163.6576499999998
 31
0.0
  0
LINE
  5
3F
330
1E
100
AcDbEntity
  8
0
100
AcDbLine
 10
23.979835
 20
161.0616499999999
 30
0.0
 11
24.562235
 21
162.1576499999999
 31
0.0
  0
LINE
  5
40
330
1E
100
AcDbEntity
  8
0
100
AcDbLine
 10
23.349835
 20
160.4076499999998
 30
0.0
 11
23.979835
 21
161.0616499999999
 31
0.0
  0
LINE
  5
41
330
1E
100
AcDbEntity
  8
0
100
AcDbLine
 10
22.436535
 20
159.88865
 30
0.0
 11
23.349835
 21
160.4076499999998
 31
0.0
  0
LINE
  5
42
330
1E
100
AcDbEntity
  8
0
100
AcDbLine
 10
20.03723499999999
 20
159.5326499999998
 30
0.0
 11
22.436535
 21
159.88865
 31
0.0
  0
LINE
  5
43
330
1E
100
AcDbEntity
  8
0
100
AcDbLine
 10
19.57833499999998
 20
159.5326499999998
 30
0.0
 11
20.03723499999999
 21
159.5326499999998
 31
0.0
  0
LINE
  5
44
330
1E
100
AcDbEntity
  8
0
100
AcDbLine
 10
24.72743499999999
 20
173.0746499999999
 30
0.0
 11
25.510635
 21
175.82865
 31
0.0
  0
LINE
  5
45
330
1E
100
AcDbEntity
  8
0
100
AcDbLine
 10
24.559035
 20
169.53065
 30
0.0
 11
24.778435
 21
165.55565
 31
0.0
  0
LINE
  5
46
330
1E
100
AcDbEntity
  8
0
100
AcDbLine
 10
24.559035
 20
169.53065
 30
0.0
 11
24.72743499999999
 21
173.0746499999999
 31
0.0
  0
LINE
  5
47
330
1E
100
AcDbEntity
  8
0
100
AcDbLine
 10
19.119535
 20
159.5326499999998
 30
0.0
 11
19.57833499999998
 21
159.5326499999998
 31
0.0
  0
LINE
  5
48
330
1E
100
AcDbEntity
  8
0
100
AcDbLine
 10
18.055635
 20
179.4326499999999
 30
0.0
 11
19.31743499999998
 21
181.13265
 31
0.0
  0
LINE
  5
49
330
1E
100
AcDbEntity
  8
0
100
AcDbLine
 10
16.621635
 20
178.4326499999998
 30
0.0
 11
18.055635
 21
179.4326499999999
 31
0.0
  0
LINE
  5
4A
330
1E
100
AcDbEntity
  8
0
100
AcDbLine
 10
15.073035
 20
178.0326499999999
 30
0.0
 11
16.621635
 21
178.4326499999998
 31
0.0
  0
LINE
  5
4B
330
1E
100
AcDbEntity
  8
0
100
AcDbLine
 10
19.626035
 20
178.1106499999999
 30
0.0
 11
21.177135
 21
180.0326499999999
 31
0.0
  0
LINE
  5
4C
330
1E
100
AcDbEntity
  8
0
100
AcDbLine
 10
21.177135
 20
180.0326499999999
 30
0.0
 11
22.162635
 21
182.5326499999999
 31
0.0
  0
LINE
  5
4D
330
1E
100
AcDbEntity
  8
0
100
AcDbLine
 10
27.73033499999999
 20
180.0326499999999
 30
0.0
 11
28.95013499999999
 21
182.5326499999999
 31
0.0
  0
LINE
  5
4E
330
1E
100
AcDbEntity
  8
0
100
AcDbLine
 10
26.41353499999999
 20
178.1106499999999
 30
0.0
 11
27.73033499999999
 21
180.0326499999999
 31
0.0
  0
LINE
  5
50
330
1E
100
AcDbEntity
  8
0
100
AcDbLine
 10
25.510635
 20
175.82865
 30
0.0
 11
26.41353499999999
 21
178.1106499999999
 31
0.0
  0
LINE
  5
51
330
1E
100
AcDbEntity
  8
0
100
AcDbLine
 10
18.223435
 20
175.82865
 30
0.0
 11
19.626035
 21
178.1106499999999
 31
0.0
  0
LINE
  5
52
330
1E
100
AcDbEntity
  8
0
100
AcDbLine
 10
14.429235
 20
173.0746499999999
 30
0.0
 11
14.597735
 21
169.53065
 31
0.0
  0
LINE
  5
53
330
1E
100
AcDbEntity
  8
0
100
AcDbLine
 10
14.378235
 20
165.55565
 30
0.0
 11
14.597735
 21
169.53065
 31
0.0
  0
LINE
  5
54
330
1E
100
AcDbEntity
  8
0
100
AcDbLine
 10
28.706175
 20
182.03265
 30
0.0
 11
31.865635
 21
182.03265
 31
0.0
  0
LINE
  5
55
330
1E
100
AcDbEntity
  8
0
100
AcDbLine
 10
22.162635
 20
182.5326499999999
 30
0.0
 11
23.221435
 21
184.54265
 31
0.0
  0
LINE
  5
56
330
1E
100
AcDbEntity
  8
0
100
AcDbLine
 10
32.84073499999998
 20
182.23265
 30
0.0
 11
33.70103499999999
 21
182.93265
 31
0.0
  0
LINE
  5
57
330
1E
100
AcDbEntity
  8
0
100
AcDbLine
 10
31.865635
 20
182.03265
 30
0.0
 11
32.84073499999998
 21
182.23265
 31
0.0
  0
LINE
  5
58
330
1E
100
AcDbEntity
  8
0
100
AcDbLine
 10
33.209435
 20
182.5326499999999
 30
0.0
 11
40.87633499999999
 21
182.5326499999999
 31
0.0
  0
LINE
  5
59
330
1E
100
AcDbEntity
  8
0
100
AcDbLine
 10
28.95013499999999
 20
182.5326499999999
 30
0.0
 11
30.4659412714787
 21
184.4875878284709
 31
0.0
  0
LINE
  5
5A
330
1E
100
AcDbEntity
  8
0
100
AcDbLine
 10
19.31743499999998
 20
181.13265
 30
0.0
 11
20.292535
 21
183.33265
 31
0.0
  0
LINE
  5
5B
330
1E
100
AcDbEntity
  8
0
100
AcDbLine
 10
10.828535
 20
181.13265
 30
0.0
 11
12.090435
 21
179.4326499999999
 31
0.0
  0
LINE
  5
5C
330
1E
100
AcDbEntity
  8
0
100
AcDbLine
 10
11.00689744474039
 20
180.892364592235
 30
0.0
 11
11.426335
 21
180.0326499999999
 31
0.0
  0
LINE
  5
5D
330
1E
100
AcDbEntity
  8
0
100
AcDbLine
 10
-0.120835000000003
 20
189.33265
 30
0.0
 11
-0.0973450000000032
 21
188.5326499999999
 31
0.0
  0
LINE
  5
5E
330
1E
100
AcDbEntity
  8
0
100
AcDbLine
 10
-0.120835000000003
 20
189.33265
 30
0.0
 11
0.334534999999996
 21
189.8326499999999
 31
0.0
  0
LINE
  5
5F
330
1E
100
AcDbEntity
  8
0
100
AcDbLine
 10
0.334534999999996
 20
187.2326499999999
 30
0.0
 11
2.52915357807647
 21
186.8171898138568
 31
0.0
  0
LINE
  5
61
330
1E
100
AcDbEntity
  8
0
100
AcDbLine
 10
-0.0745550000000035
 20
187.73265
 30
0.0
 11
0.471204999999998
 21
187.73265
 31
0.0
  0
LINE
  5
62
330
1E
100
AcDbEntity
  8
0
100
AcDbLine
 10
-0.120835000000003
 20
187.73265
 30
0.0
 11
0.334534999999996
 21
187.2326499999999
 31
0.0
  0
LINE
  5
63
330
1E
100
AcDbEntity
  8
0
100
AcDbLine
 10
0.334534999999996
 20
187.2326499999999
 30
0.0
 11
2.52915357807646
 21
186.8171898138568
 31
0.0
  0
LINE
  5
64
330
1E
100
AcDbEntity
  8
0
100
AcDbLine
 10
20.292535
 20
183.33265
 30
0.0
 11
20.86613499999999
 21
185.83265
 31
0.0
  0
LINE
  5
65
330
1E
100
AcDbEntity
  8
0
100
AcDbLine
 10
34.50413499999999
 20
183.93265
 30
0.0
 11
35.077635
 21
185.33265
 31
0.0
  0
LINE
  5
66
330
1E
100
AcDbEntity
  8
0
100
AcDbLine
 10
33.70103499999999
 20
182.93265
 30
0.0
 11
34.50413499999999
 21
183.93265
 31
0.0
  0
LINE
  5
67
330
1E
100
AcDbEntity
  8
0
100
AcDbLine
 10
30.4659412714787
 20
184.4875878284709
 30
0.0
 11
32.09973499999998
 21
185.9256499999999
 31
0.0
  0
LINE
  5
68
330
1E
100
AcDbEntity
  8
0
100
AcDbLine
 10
35.077635
 20
185.33265
 30
0.0
 11
35.4406669858079
 21
186.6889338822209
 31
0.0
  0
LINE
  5
69
330
1E
100
AcDbEntity
  8
0
100
AcDbLine
 10
20.86613499999999
 20
185.83265
 30
0.0
 11
21.095535
 21
188.5326499999999
 31
0.0
  0
LINE
  5
6A
330
1E
100
AcDbEntity
  8
0
100
AcDbLine
 10
23.221435
 20
184.54265
 30
0.0
 11
24.52663499999999
 21
186.38665
 31
0.0
  0
LINE
  5
6B
330
1E
100
AcDbEntity
  8
0
100
AcDbLine
 10
9.853434999999999
 20
183.33265
 30
0.0
 11
10.828535
 21
181.13265
 31
0.0
  0
LINE
  5
6C
330
1E
100
AcDbEntity
  8
0
100
AcDbLine
 10
32.09973499999998
 20
185.9256499999999
 30
0.0
 11
33.542834448925
 21
186.56140166028
 31
0.0
  0
LINE
  5
6D
330
1E
100
AcDbEntity
  8
0
100
AcDbLine
 10
9.279935
 20
185.83265
 30
0.0
 11
9.853434999999999
 21
183.33265
 31
0.0
  0
LINE
  5
6E
330
1E
100
AcDbEntity
  8
0
100
AcDbLine
 10
8.648034999999991
 20
184.54265
 30
0.0
 11
10.206635
 21
182.5326499999999
 31
0.0
  0
LINE
  5
6F
330
1E
100
AcDbEntity
  8
0
100
AcDbLine
 10
33.542834448925
 20
186.56140166028
 30
0.0
 11
36.18753499999999
 21
186.73265
 31
0.0
  0
LINE
  5
70
330
1E
100
AcDbEntity
  8
0
100
AcDbLine
 10
36.18103499999998
 20
186.73265
 30
0.0
 11
38.82213499999998
 21
187.2326499999999
 31
0.0
  0
LINE
  5
73
330
1E
100
AcDbEntity
  8
0
100
AcDbLine
 10
24.52663499999999
 20
186.38665
 30
0.0
 11
26.127735
 21
187.43265
 31
0.0
  0
LINE
  5
74
330
1E
100
AcDbEntity
  8
0
100
AcDbLine
 10
6.794035
 20
186.38665
 30
0.0
 11
8.648034999999991
 21
184.54265
 31
0.0
  0
LINE
  5
75
330
1E
100
AcDbEntity
  8
0
100
AcDbLine
 10
7.056935
 20
185.9256499999999
 30
0.0
 11
8.6907373572893
 21
184.487580233446
 31
0.0
  0
LINE
  5
77
330
1E
100
AcDbEntity
  8
0
100
AcDbLine
 10
4.329534999999999
 20
187.43265
 30
0.0
 11
6.794035
 21
186.38665
 31
0.0
  0
LINE
  5
78
330
1E
100
AcDbEntity
  8
0
100
AcDbLine
 10
1.657984999999999
 20
187.73265
 30
0.0
 11
4.329534999999999
 21
187.43265
 31
0.0
  0
LINE
  5
7C
330
1E
100
AcDbEntity
  8
0
100
AcDbLine
 10
28.01623499999999
 20
187.73265
 30
0.0
 11
29.00643499999999
 21
187.73265
 31
0.0
  0
LINE
  5
7D
330
1E
100
AcDbEntity
  8
0
100
AcDbLine
 10
29.00643499999999
 20
187.73265
 30
0.0
 11
30.18123499999999
 21
187.73265
 31
0.0
  0
LINE
  5
7E
330
1E
100
AcDbEntity
  8
0
100
AcDbLine
 10
30.18123499999999
 20
187.73265
 30
0.0
 11
31.392335
 21
187.73265
 31
0.0
  0
LINE
  5
7F
330
1E
100
AcDbEntity
  8
0
100
AcDbLine
 10
31.392335
 20
187.73265
 30
0.0
 11
32.39733499999999
 21
187.73265
 31
0.0
  0
LINE
  5
80
330
1E
100
AcDbEntity
  8
0
100
AcDbLine
 10
32.39733499999999
 20
187.73265
 30
0.0
 11
33.608435
 21
187.73265
 31
0.0
  0
LINE
  5
81
330
1E
100
AcDbEntity
  8
0
100
AcDbLine
 10
33.608435
 20
187.73265
 30
0.0
 11
36.212035
 21
187.73265
 31
0.0
  0
LINE
  5
82
330
1E
100
AcDbEntity
  8
0
100
AcDbLine
 10
36.212035
 20
187.73265
 30
0.0
 11
38.407035
 21
187.73265
 31
0.0
  0
LINE
  5
83
330
1E
100
AcDbEntity
  8
0
100
AcDbLine
 10
26.127735
 20
187.43265
 30
0.0
 11
28.01623499999999
 21
187.73265
 31
0.0
  0
LINE
  5
84
330
1E
100
AcDbEntity
  8
0
100
AcDbLine
 10
5.30442941876671
 20
186.5959641006589
 30
0.0
 11
7.056935
 21
185.9256499999999
 31
0.0
  0
LINE
  5
85
330
1E
100
AcDbEntity
  8
0
100
AcDbLine
 10
2.52915357807646
 20
186.8171898138568
 30
0.0
 11
5.30442941876671
 21
186.5959641006589
 31
0.0
  0
LINE
  5
86
330
1E
100
AcDbEntity
  8
0
100
AcDbLine
 10
2.52915357807646
 20
186.8171898138568
 30
0.0
 11
5.30442941876671
 21
186.5959641006589
 31
0.0
  0
LINE
  5
87
330
1E
100
AcDbEntity
  8
0
100
AcDbLine
 10
0.471204999999998
 20
187.73265
 30
0.0
 11
1.657984999999999
 21
187.73265
 31
0.0
  0
LINE
  5
88
330
1E
100
AcDbEntity
  8
0
100
AcDbLine
 10
-0.0745550000000035
 20
189.33265
 30
0.0
 11
0.471204999999998
 21
189.33265
 31
0.0
  0
LINE
  5
89
330
1E
100
AcDbEntity
  8
0
100
AcDbLine
 10
-0.120835000000003
 20
189.33265
 30
0.0
 11
0.334534999999996
 21
189.8326499999999
 31
0.0
  0
LINE
  5
8A
330
1E
100
AcDbEntity
  8
0
100
AcDbLine
 10
0.471204999999998
 20
189.33265
 30
0.0
 11
1.657984999999999
 21
189.33265
 31
0.0
  0
LINE
  5
8B
330
1E
100
AcDbEntity
  8
0
100
AcDbLine
 10
-0.0745550000000035
 20
189.33265
 30
0.0
 11
0.471204999999998
 21
189.33265
 31
0.0
  0
LINE
  5
8C
330
1E
100
AcDbEntity
  8
0
100
AcDbLine
 10
0.334534999999996
 20
189.8326499999999
 30
0.0
 11
2.52915357807647
 21
190.248110186143
 31
0.0
  0
LINE
  5
8E
330
1E
100
AcDbEntity
  8
0
100
AcDbLine
 10
2.52915357807647
 20
190.248110186143
 30
0.0
 11
5.304429418766718
 21
190.469335899341
 31
0.0
  0
LINE
  5
8F
330
1E
100
AcDbEntity
  8
0
100
AcDbLine
 10
2.52915357807647
 20
190.248110186143
 30
0.0
 11
5.304429418766718
 21
190.469335899341
 31
0.0
  0
LINE
  5
90
330
1E
100
AcDbEntity
  8
0
100
AcDbLine
 10
0.334534999999996
 20
189.8326499999999
 30
0.0
 11
2.52915357807646
 21
190.248110186143
 31
0.0
  0
LINE
  5
91
330
1E
100
AcDbEntity
  8
0
100
AcDbLine
 10
4.329534999999999
 20
189.63265
 30
0.0
 11
6.794035
 21
190.67865
 31
0.0
  0
LINE
  5
92
330
1E
100
AcDbEntity
  8
0
100
AcDbLine
 10
1.657984999999999
 20
189.33265
 30
0.0
 11
4.329534999999999
 21
189.63265
 31
0.0
  0
LINE
  5
93
330
1E
100
AcDbEntity
  8
0
100
AcDbLine
 10
5.304429418766718
 20
190.469335899341
 30
0.0
 11
7.056935
 21
191.13965
 31
0.0
  0
LINE
  5
94
330
1E
100
AcDbEntity
  8
0
100
AcDbLine
 10
6.794035
 20
190.67865
 30
0.0
 11
8.648034999999991
 21
192.5226499999999
 31
0.0
  0
LINE
  5
95
330
1E
100
AcDbEntity
  8
0
100
AcDbLine
 10
8.648034999999991
 20
192.5226499999999
 30
0.0
 11
10.206635
 21
194.53265
 31
0.0
  0
LINE
  5
96
330
1E
100
AcDbEntity
  8
0
100
AcDbLine
 10
7.056935
 20
191.13965
 30
0.0
 11
8.6907373572893
 21
192.577719766554
 31
0.0
  0
LINE
  5
98
330
1E
100
AcDbEntity
  8
0
100
AcDbLine
 10
28.01623499999999
 20
189.33265
 30
0.0
 11
29.00643499999999
 21
189.33265
 31
0.0
  0
LINE
  5
99
330
1E
100
AcDbEntity
  8
0
100
AcDbLine
 10
29.00643499999999
 20
189.33265
 30
0.0
 11
30.18123499999999
 21
189.33265
 31
0.0
  0
LINE
  5
9A
330
1E
100
AcDbEntity
  8
0
100
AcDbLine
 10
30.18123499999999
 20
189.33265
 30
0.0
 11
31.392335
 21
189.33265
 31
0.0
  0
LINE
  5
9B
330
1E
100
AcDbEntity
  8
0
100
AcDbLine
 10
31.392335
 20
189.33265
 30
0.0
 11
32.39733499999999
 21
189.33265
 31
0.0
  0
LINE
  5
9C
330
1E
100
AcDbEntity
  8
0
100
AcDbLine
 10
32.39733499999999
 20
189.33265
 30
0.0
 11
33.608435
 21
189.33265
 31
0.0
  0
LINE
  5
9D
330
1E
100
AcDbEntity
  8
0
100
AcDbLine
 10
33.608435
 20
189.33265
 30
0.0
 11
36.212035
 21
189.33265
 31
0.0
  0
LINE
  5
A1
330
1E
100
AcDbEntity
  8
0
100
AcDbLine
 10
33.542834448925
 20
190.5038983397199
 30
0.0
 11
36.18753499999999
 21
190.33265
 31
0.0
  0
LINE
  5
A2
330
1E
100
AcDbEntity
  8
0
100
AcDbLine
 10
36.18103499999998
 20
190.33265
 30
0.0
 11
38.82213499999998
 21
189.8326499999999
 31
0.0
  0
LINE
  5
A3
330
1E
100
AcDbEntity
  8
0
100
AcDbLine
 10
36.212035
 20
189.33265
 30
0.0
 11
38.407035
 21
189.33265
 31
0.0
  0
LINE
  5
A4
330
1E
100
AcDbEntity
  8
0
100
AcDbLine
 10
26.127735
 20
189.63265
 30
0.0
 11
28.01623499999999
 21
189.33265
 31
0.0
  0
LINE
  5
A5
330
1E
100
AcDbEntity
  8
0
100
AcDbLine
 10
9.279935
 20
191.2326499999999
 30
0.0
 11
9.853434999999999
 21
193.73265
 31
0.0
  0
LINE
  5
A6
330
1E
100
AcDbEntity
  8
0
100
AcDbLine
 10
20.86613499999999
 20
191.2326499999999
 30
0.0
 11
21.095535
 21
188.5326499999999
 31
0.0
  0
LINE
  5
A7
330
1E
100
AcDbEntity
  8
0
100
AcDbLine
 10
23.221435
 20
192.5226499999999
 30
0.0
 11
24.52663499999999
 21
190.67865
 31
0.0
  0
LINE
  5
A8
330
1E
100
AcDbEntity
  8
0
100
AcDbLine
 10
24.52663499999999
 20
190.67865
 30
0.0
 11
26.127735
 21
189.63265
 31
0.0
  0
LINE
  5
A9
330
1E
100
AcDbEntity
  8
0
100
AcDbLine
 10
9.853434999999999
 20
193.73265
 30
0.0
 11
10.828535
 21
195.9326499999999
 31
0.0
  0
LINE
  5
AA
330
1E
100
AcDbEntity
  8
0
100
AcDbLine
 10
28.95013499999999
 20
194.53265
 30
0.0
 11
30.4659412714787
 21
192.577712171529
 31
0.0
  0
LINE
  5
AB
330
1E
100
AcDbEntity
  8
0
100
AcDbLine
 10
22.162635
 20
194.53265
 30
0.0
 11
23.221435
 21
192.5226499999999
 31
0.0
  0
LINE
  5
AC
330
1E
100
AcDbEntity
  8
0
100
AcDbLine
 10
20.292535
 20
193.73265
 30
0.0
 11
20.86613499999999
 21
191.2326499999999
 31
0.0
  0
LINE
  5
AD
330
1E
100
AcDbEntity
  8
0
100
AcDbLine
 10
30.4659412714787
 20
192.577712171529
 30
0.0
 11
32.09973499999998
 21
191.13965
 31
0.0
  0
LINE
  5
AE
330
1E
100
AcDbEntity
  8
0
100
AcDbLine
 10
34.50413499999999
 20
193.13265
 30
0.0
 11
35.077635
 21
191.73265
 31
0.0
  0
LINE
  5
AF
330
1E
100
AcDbEntity
  8
0
100
AcDbLine
 10
35.077635
 20
191.73265
 30
0.0
 11
35.4406669858079
 21
190.376366117779
 31
0.0
  0
LINE
  5
B0
330
1E
100
AcDbEntity
  8
0
100
AcDbLine
 10
33.70103499999999
 20
194.13265
 30
0.0
 11
34.50413499999999
 21
193.13265
 31
0.0
  0
LINE
  5
B1
330
1E
100
AcDbEntity
  8
0
100
AcDbLine
 10
33.209435
 20
194.53265
 30
0.0
 11
40.87633499999999
 21
194.53265
 31
0.0
  0
LINE
  5
B2
330
1E
100
AcDbEntity
  8
0
100
AcDbLine
 10
32.09973499999998
 20
191.13965
 30
0.0
 11
33.542834448925
 21
190.5038983397199
 31
0.0
  0
LINE
  5
B5
330
1E
100
AcDbEntity
  8
0
100
AcDbLine
 10
9.050435
 20
188.5326499999999
 30
0.0
 11
9.279935
 21
185.83265
 31
0.0
  0
LINE
  5
B6
330
1E
100
AcDbEntity
  8
0
100
AcDbLine
 10
9.050435
 20
188.5326499999999
 30
0.0
 11
9.279935
 21
191.2326499999999
 31
0.0
  0
LINE
  5
B7
330
1E
100
AcDbEntity
  8
0
100
AcDbLine
 10
-0.0745550000000035
 20
187.73265
 30
0.0
 11
0.471204999999998
 21
187.73265
 31
0.0
  0
LINE
  5
B8
330
1E
100
AcDbEntity
  8
0
100
AcDbLine
 10
-0.120835000000003
 20
187.73265
 30
0.0
 11
-0.0973450000000032
 21
188.5326499999999
 31
0.0
  0
LINE
  5
B9
330
1E
100
AcDbEntity
  8
0
100
AcDbLine
 10
-0.120835000000003
 20
187.73265
 30
0.0
 11
0.334534999999996
 21
187.2326499999999
 31
0.0
  0
LINE
  5
BA
330
1E
100
AcDbEntity
  8
0
100
AcDbLine
 10
11.426335
 20
197.0326499999999
 30
0.0
 11
12.743135
 21
198.9546499999999
 31
0.0
  0
LINE
  5
BB
330
1E
100
AcDbEntity
  8
0
100
AcDbLine
 10
11.00689744474039
 20
196.172935407765
 30
0.0
 11
11.426335
 21
197.0326499999999
 31
0.0
  0
LINE
  5
BC
330
1E
100
AcDbEntity
  8
0
100
AcDbLine
 10
10.828535
 20
195.9326499999999
 30
0.0
 11
12.090435
 21
197.63265
 31
0.0
  0
LINE
  5
BD
330
1E
100
AcDbEntity
  8
0
100
AcDbLine
 10
12.090435
 20
197.63265
 30
0.0
 11
13.524335
 21
198.63265
 31
0.0
  0
LINE
  5
BE
330
1E
100
AcDbEntity
  8
0
100
AcDbLine
 10
13.524335
 20
198.63265
 30
0.0
 11
15.073035
 21
199.0326499999999
 31
0.0
  0
LINE
  5
C0
330
1E
100
AcDbEntity
  8
0
100
AcDbLine
 10
12.743135
 20
198.9546499999999
 30
0.0
 11
13.646035
 21
201.23665
 31
0.0
  0
LINE
  5
C1
330
1E
100
AcDbEntity
  8
0
100
AcDbLine
 10
13.646035
 20
201.23665
 30
0.0
 11
14.429235
 21
203.9906499999999
 31
0.0
  0
LINE
  5
C2
330
1E
100
AcDbEntity
  8
0
100
AcDbLine
 10
15.073035
 20
199.0326499999999
 30
0.0
 11
16.621635
 21
198.63265
 31
0.0
  0
LINE
  5
C3
330
1E
100
AcDbEntity
  8
0
100
AcDbLine
 10
14.429235
 20
203.9906499999999
 30
0.0
 11
14.597735
 21
207.53465
 31
0.0
  0
LINE
  5
C4
330
1E
100
AcDbEntity
  8
0
100
AcDbLine
 10
14.279935
 20
213.4076499999999
 30
0.0
 11
14.594535
 21
214.90765
 31
0.0
  0
LINE
  5
C5
330
1E
100
AcDbEntity
  8
0
100
AcDbLine
 10
14.279935
 20
213.4076499999999
 30
0.0
 11
14.378235
 21
211.5096499999999
 31
0.0
  0
LINE
  5
C6
330
1E
100
AcDbEntity
  8
0
100
AcDbLine
 10
14.594535
 20
214.90765
 30
0.0
 11
15.176935
 21
216.0036499999999
 31
0.0
  0
LINE
  5
C7
330
1E
100
AcDbEntity
  8
0
100
AcDbLine
 10
15.176935
 20
216.0036499999999
 30
0.0
 11
15.806835
 21
216.65765
 31
0.0
  0
LINE
  5
C8
330
1E
100
AcDbEntity
  8
0
100
AcDbLine
 10
15.197635
 20
213.4076499999999
 30
0.0
 11
15.512235
 21
214.90765
 31
0.0
  0
LINE
  5
C9
330
1E
100
AcDbEntity
  8
0
100
AcDbLine
 10
15.197635
 20
213.4076499999999
 30
0.0
 11
15.295935
 21
211.5096499999999
 31
0.0
  0
LINE
  5
CA
330
1E
100
AcDbEntity
  8
0
100
AcDbLine
 10
14.378235
 20
211.5096499999999
 30
0.0
 11
14.597735
 21
207.53465
 31
0.0
  0
LINE
  5
CB
330
1E
100
AcDbEntity
  8
0
100
AcDbLine
 10
16.621635
 20
198.63265
 30
0.0
 11
18.055635
 21
197.63265
 31
0.0
  0
LINE
  5
CC
330
1E
100
AcDbEntity
  8
0
100
AcDbLine
 10
19.626035
 20
198.9546499999999
 30
0.0
 11
21.177135
 21
197.0326499999999
 31
0.0
  0
LINE
  5
CD
330
1E
100
AcDbEntity
  8
0
100
AcDbLine
 10
18.223435
 20
201.23665
 30
0.0
 11
19.626035
 21
198.9546499999999
 31
0.0
  0
LINE
  5
CE
330
1E
100
AcDbEntity
  8
0
100
AcDbLine
 10
18.055635
 20
197.63265
 30
0.0
 11
19.31743499999998
 21
195.9326499999999
 31
0.0
  0
LINE
  5
CF
330
1E
100
AcDbEntity
  8
0
100
AcDbLine
 10
21.177135
 20
197.0326499999999
 30
0.0
 11
22.162635
 21
194.53265
 31
0.0
  0
LINE
  5
D1
330
1E
100
AcDbEntity
  8
0
100
AcDbLine
 10
19.31743499999998
 20
195.9326499999999
 30
0.0
 11
20.292535
 21
193.73265
 31
0.0
  0
LINE
  5
D2
330
1E
100
AcDbEntity
  8
0
100
AcDbLine
 10
26.41353499999999
 20
198.9546499999999
 30
0.0
 11
27.73033499999999
 21
197.0326499999999
 31
0.0
  0
LINE
  5
D3
330
1E
100
AcDbEntity
  8
0
100
AcDbLine
 10
28.706175
 20
195.0326499999999
 30
0.0
 11
31.865635
 21
195.0326499999999
 31
0.0
  0
LINE
  5
D4
330
1E
100
AcDbEntity
  8
0
100
AcDbLine
 10
32.84073499999998
 20
194.83265
 30
0.0
 11
33.70103499999999
 21
194.13265
 31
0.0
  0
LINE
  5
D5
330
1E
100
AcDbEntity
  8
0
100
AcDbLine
 10
31.865635
 20
195.0326499999999
 30
0.0
 11
32.84073499999998
 21
194.83265
 31
0.0
  0
LINE
  5
D6
330
1E
100
AcDbEntity
  8
0
100
AcDbLine
 10
27.73033499999999
 20
197.0326499999999
 30
0.0
 11
28.95013499999999
 21
194.53265
 31
0.0
  0
LINE
  5
D7
330
1E
100
AcDbEntity
  8
0
100
AcDbLine
 10
25.510635
 20
201.23665
 30
0.0
 11
26.41353499999999
 21
198.9546499999999
 31
0.0
  0
LINE
  5
D8
330
1E
100
AcDbEntity
  8
0
100
AcDbLine
 10
24.72743499999999
 20
203.9906499999999
 30
0.0
 11
25.510635
 21
201.23665
 31
0.0
  0
LINE
  5
D9
330
1E
100
AcDbEntity
  8
0
100
AcDbLine
 10
24.559035
 20
207.53465
 30
0.0
 11
24.778435
 21
211.5096499999999
 31
0.0
  0
LINE
  5
DA
330
1E
100
AcDbEntity
  8
0
100
AcDbLine
 10
24.559035
 20
207.53465
 30
0.0
 11
24.72743499999999
 21
203.9906499999999
 31
0.0
  0
LINE
  5
DB
330
1E
100
AcDbEntity
  8
0
100
AcDbLine
 10
16.891435
 20
203.9906499999999
 30
0.0
 11
18.223435
 21
201.23665
 31
0.0
  0
LINE
  5
DF
330
1E
100
AcDbEntity
  8
0
100
AcDbLine
 10
15.512235
 20
214.90765
 30
0.0
 11
16.094635
 21
216.0036499999999
 31
0.0
  0
LINE
  5
E0
330
1E
100
AcDbEntity
  8
0
100
AcDbLine
 10
15.806835
 20
216.65765
 30
0.0
 11
16.72023499999999
 21
217.1766499999999
 31
0.0
  0
LINE
  5
E1
330
1E
100
AcDbEntity
  8
0
100
AcDbLine
 10
16.72023499999999
 20
217.1766499999999
 30
0.0
 11
19.119535
 21
217.53265
 31
0.0
  0
LINE
  5
E2
330
1E
100
AcDbEntity
  8
0
100
AcDbLine
 10
16.094635
 20
216.0036499999999
 30
0.0
 11
16.724535
 21
216.65765
 31
0.0
  0
LINE
  5
E3
330
1E
100
AcDbEntity
  8
0
100
AcDbLine
 10
16.724535
 20
216.65765
 30
0.0
 11
17.637935
 21
217.1766499999999
 31
0.0
  0
LINE
  5
E4
330
1E
100
AcDbEntity
  8
0
100
AcDbLine
 10
19.119535
 20
217.53265
 30
0.0
 11
19.57833499999998
 21
217.53265
 31
0.0
  0
LINE
  5
E5
330
1E
100
AcDbEntity
  8
0
100
AcDbLine
 10
17.637935
 20
217.1766499999999
 30
0.0
 11
20.03723499999999
 21
217.53265
 31
0.0
  0
LINE
  5
E8
330
1E
100
AcDbEntity
  8
0
100
AcDbLine
 10
24.778435
 20
211.5096499999999
 30
0.0
 11
24.876735
 21
213.4076499999999
 31
0.0
  0
LINE
  5
EA
330
1E
100
AcDbEntity
  8
0
100
AcDbLine
 10
24.562235
 20
214.90765
 30
0.0
 11
24.876735
 21
213.4076499999999
 31
0.0
  0
LINE
  5
EB
330
1E
100
AcDbEntity
  8
0
100
AcDbLine
 10
23.979835
 20
216.0036499999999
 30
0.0
 11
24.562235
 21
214.90765
 31
0.0
  0
LINE
  5
EC
330
1E
100
AcDbEntity
  8
0
100
AcDbLine
 10
23.349835
 20
216.65765
 30
0.0
 11
23.979835
 21
216.0036499999999
 31
0.0
  0
LINE
  5
ED
330
1E
100
AcDbEntity
  8
0
100
AcDbLine
 10
22.436535
 20
217.1766499999999
 30
0.0
 11
23.349835
 21
216.65765
 31
0.0
  0
LINE
  5
EE
330
1E
100
AcDbEntity
  8
0
100
AcDbLine
 10
20.03723499999999
 20
217.53265
 30
0.0
 11
22.436535
 21
217.1766499999999
 31
0.0
  0
LINE
  5
EF
330
1E
100
AcDbEntity
  8
0
100
AcDbLine
 10
19.57833499999998
 20
217.53265
 30
0.0
 11
20.03723499999999
 21
217.53265
 31
0.0
  0
LINE
  5
F0
330
1E
100
AcDbEntity
  8
0
100
AcDbLine
 10
15.859635
 20
207.53465
 30
0.0
 11
16.891435
 21
203.9906499999999
 31
0.0
  0
LINE
  5
F1
330
1E
100
AcDbEntity
  8
0
100
AcDbLine
 10
15.295935
 20
211.5096499999999
 30
0.0
 11
15.859635
 21
207.53465
 31
0.0
  0
LINE
  5
F2
330
1E
100
AcDbEntity
  8
0
100
AcDbLine
 10
35.27675999999999
 20
194.53265
 30
0.0
 11
36.230335
 21
196.63265
 31
0.0
  0
LINE
  5
F3
330
1E
100
AcDbEntity
  8
0
100
AcDbLine
 10
36.230335
 20
196.63265
 30
0.0
 11
37.606935
 21
198.53265
 31
0.0
  0
LINE
  5
F4
330
1E
100
AcDbEntity
  8
0
100
AcDbLine
 10
36.230335
 20
196.63265
 30
0.0
 11
36.410435
 21
197.0326499999999
 31
0.0
  0
LINE
  5
F5
330
1E
100
AcDbEntity
  8
0
100
AcDbLine
 10
35.27675999999999
 20
182.5326499999999
 30
0.0
 11
36.230335
 21
180.4326499999999
 31
0.0
  0
LINE
  5
F6
330
1E
100
AcDbEntity
  8
0
100
AcDbLine
 10
58.48803499999998
 20
172.0326499999999
 30
0.0
 11
60.897135
 21
172.63265
 31
0.0
  0
LINE
  5
F7
330
1E
100
AcDbEntity
  8
0
100
AcDbLine
 10
80.49983500000001
 20
12.83063
 30
0.0
 11
80.999835
 21
16.12321
 31
0.0
  0
LINE
  5
F8
330
1E
100
AcDbEntity
  8
0
100
AcDbLine
 10
80.999835
 20
16.12321
 30
0.0
 11
82.19983499999997
 21
19.31602
 31
0.0
  0
LINE
  5
F9
330
1E
100
AcDbEntity
  8
0
100
AcDbLine
 10
80.999835
 20
9.504540000000007
 30
0.0
 11
82.19983499999997
 21
6.311730000000008
 31
0.0
  0
LINE
  5
FA
330
1E
100
AcDbEntity
  8
0
100
AcDbLine
 10
80.49983500000001
 20
12.79711999999999
 30
0.0
 11
80.999835
 21
9.504540000000007
 31
0.0
  0
LINE
  5
FB
330
1E
100
AcDbEntity
  8
0
100
AcDbLine
 10
75.89983499999998
 20
170.9326499999999
 30
0.0
 11
81.099835
 21
166.83265
 31
0.0
  0
LINE
  5
FC
330
1E
100
AcDbEntity
  8
0
100
AcDbLine
 10
93.499835
 20
-0.173649999999994
 30
0.0
 11
96.799835
 21
0.325250000000005
 31
0.0
  0
LINE
  5
FD
330
1E
100
AcDbEntity
  8
0
100
AcDbLine
 10
96.799835
 20
0.325250000000005
 30
0.0
 11
99.999835
 21
1.52255000000001
 31
0.0
  0
LINE
  5
FE
330
1E
100
AcDbEntity
  8
0
100
AcDbLine
 10
99.999835
 20
1.52255000000001
 30
0.0
 11
102.6998349999999
 21
3.617800000000008
 31
0.0
  0
LINE
  5
FF
330
1E
100
AcDbEntity
  8
0
100
AcDbLine
 10
90.199835
 20
0.325250000000005
 30
0.0
 11
93.499835
 21
-0.173649999999994
 31
0.0
  0
LINE
  5
100
330
1E
100
AcDbEntity
  8
0
100
AcDbLine
 10
93.499835
 20
2.55525
 30
0.0
 11
96.199835
 21
2.954350000000009
 31
0.0
  0
LINE
  5
101
330
1E
100
AcDbEntity
  8
0
100
AcDbLine
 10
96.199835
 20
2.954350000000009
 30
0.0
 11
98.699835
 21
3.952149999999998
 31
0.0
  0
LINE
  5
102
330
1E
100
AcDbEntity
  8
0
100
AcDbLine
 10
98.699835
 20
3.952149999999998
 30
0.0
 11
100.8998349999999
 21
5.648320000000008
 31
0.0
  0
LINE
  5
103
330
1E
100
AcDbEntity
  8
0
100
AcDbLine
 10
102.6998349999999
 20
3.617800000000008
 30
0.0
 11
104.799835
 21
6.311730000000008
 31
0.0
  0
LINE
  5
104
330
1E
100
AcDbEntity
  8
0
100
AcDbLine
 10
90.799835
 20
2.954350000000009
 30
0.0
 11
93.499835
 21
2.55525
 31
0.0
  0
LINE
  5
105
330
1E
100
AcDbEntity
  8
0
100
AcDbLine
 10
100.8998349999999
 20
5.648320000000008
 30
0.0
 11
102.599835
 21
7.84338
 31
0.0
  0
LINE
  5
106
330
1E
100
AcDbEntity
  8
0
100
AcDbLine
 10
88.299835
 20
3.952149999999998
 30
0.0
 11
90.799835
 21
2.954350000000009
 31
0.0
  0
LINE
  5
107
330
1E
100
AcDbEntity
  8
0
100
AcDbLine
 10
86.099835
 20
5.648320000000008
 30
0.0
 11
88.299835
 21
3.952149999999998
 31
0.0
  0
LINE
  5
108
330
1E
100
AcDbEntity
  8
0
100
AcDbLine
 10
86.999835
 20
1.52255000000001
 30
0.0
 11
90.199835
 21
0.325250000000005
 31
0.0
  0
LINE
  5
109
330
1E
100
AcDbEntity
  8
0
100
AcDbLine
 10
84.299835
 20
3.617800000000008
 30
0.0
 11
86.999835
 21
1.52255000000001
 31
0.0
  0
LINE
  5
10A
330
1E
100
AcDbEntity
  8
0
100
AcDbLine
 10
82.99983500000001
 20
14.28122499999999
 30
0.0
 11
82.99983500000001
 21
16.51414
 31
0.0
  0
LINE
  5
10B
330
1E
100
AcDbEntity
  8
0
100
AcDbLine
 10
82.99983500000001
 20
14.28122499999999
 30
0.0
 11
82.99983500000001
 21
13.031687
 31
0.0
  0
LINE
  5
10C
330
1E
100
AcDbEntity
  8
0
100
AcDbLine
 10
82.99983500000001
 20
16.51414
 30
0.0
 11
82.99983500000001
 21
14.28122499999999
 31
0.0
  0
LINE
  5
10D
330
1E
100
AcDbEntity
  8
0
100
AcDbLine
 10
82.99983500000001
 20
16.51414
 30
0.0
 11
82.99983500000001
 21
20.19318999999998
 31
0.0
  0
LINE
  5
10E
330
1E
100
AcDbEntity
  8
0
100
AcDbLine
 10
82.99983500000001
 20
31.61424999999999
 30
0.0
 11
82.99983500000001
 21
25.25545
 31
0.0
  0
LINE
  5
10F
330
1E
100
AcDbEntity
  8
0
100
AcDbLine
 10
82.99983500000001
 20
31.61424999999999
 30
0.0
 11
82.99983500000001
 21
39.16085
 31
0.0
  0
LINE
  5
110
330
1E
100
AcDbEntity
  8
0
100
AcDbLine
 10
82.99983500000001
 20
20.19318999999998
 30
0.0
 11
82.99983500000001
 21
25.25545
 31
0.0
  0
LINE
  5
111
330
1E
100
AcDbEntity
  8
0
100
AcDbLine
 10
82.99983500000001
 20
20.19318999999998
 30
0.0
 11
82.99983500000001
 21
16.51414
 31
0.0
  0
LINE
  5
112
330
1E
100
AcDbEntity
  8
0
100
AcDbLine
 10
82.99983500000001
 20
25.25545
 30
0.0
 11
82.99983500000001
 21
20.19318999999998
 31
0.0
  0
LINE
  5
113
330
1E
100
AcDbEntity
  8
0
100
AcDbLine
 10
82.99983500000001
 20
25.25545
 30
0.0
 11
82.99983500000001
 21
31.61424999999999
 31
0.0
  0
LINE
  5
114
330
1E
100
AcDbEntity
  8
0
100
AcDbLine
 10
82.99983500000001
 20
67.54785
 30
0.0
 11
82.99983500000001
 21
78.38594999999997
 31
0.0
  0
LINE
  5
115
330
1E
100
AcDbEntity
  8
0
100
AcDbLine
 10
82.99983500000001
 20
67.54785
 30
0.0
 11
82.99983500000001
 21
57.28265
 31
0.0
  0
LINE
  5
116
330
1E
100
AcDbEntity
  8
0
100
AcDbLine
 10
82.99983500000001
 20
57.28265
 30
0.0
 11
82.99983500000001
 21
47.76604999999999
 31
0.0
  0
LINE
  5
117
330
1E
100
AcDbEntity
  8
0
100
AcDbLine
 10
82.99983500000001
 20
57.28265
 30
0.0
 11
82.99983500000001
 21
67.54785
 31
0.0
  0
LINE
  5
118
330
1E
100
AcDbEntity
  8
0
100
AcDbLine
 10
82.99983500000001
 20
39.16085
 30
0.0
 11
82.99983500000001
 21
47.76604999999999
 31
0.0
  0
LINE
  5
119
330
1E
100
AcDbEntity
  8
0
100
AcDbLine
 10
82.99983500000001
 20
39.16085
 30
0.0
 11
82.99983500000001
 21
31.61424999999999
 31
0.0
  0
LINE
  5
11A
330
1E
100
AcDbEntity
  8
0
100
AcDbLine
 10
82.99983500000001
 20
47.76604999999999
 30
0.0
 11
82.99983500000001
 21
39.16085
 31
0.0
  0
LINE
  5
11B
330
1E
100
AcDbEntity
  8
0
100
AcDbLine
 10
82.99983500000001
 20
47.76604999999999
 30
0.0
 11
82.99983500000001
 21
57.28265
 31
0.0
  0
LINE
  5
11C
330
1E
100
AcDbEntity
  8
0
100
AcDbLine
 10
82.99983500000001
 20
89.61164999999999
 30
0.0
 11
82.99983500000001
 21
78.38594999999997
 31
0.0
  0
LINE
  5
11D
330
1E
100
AcDbEntity
  8
0
100
AcDbLine
 10
82.99983500000001
 20
89.61164999999999
 30
0.0
 11
82.99983500000001
 21
101.03265
 31
0.0
  0
LINE
  5
11E
330
1E
100
AcDbEntity
  8
0
100
AcDbLine
 10
82.99983500000001
 20
78.38594999999997
 30
0.0
 11
82.99983500000001
 21
89.61164999999999
 31
0.0
  0
LINE
  5
11F
330
1E
100
AcDbEntity
  8
0
100
AcDbLine
 10
82.99983500000001
 20
78.38594999999997
 30
0.0
 11
82.99983500000001
 21
67.54785
 31
0.0
  0
LINE
  5
120
330
1E
100
AcDbEntity
  8
0
100
AcDbLine
 10
82.99983500000001
 20
101.03265
 30
0.0
 11
82.99983500000001
 21
112.45365
 31
0.0
  0
LINE
  5
121
330
1E
100
AcDbEntity
  8
0
100
AcDbLine
 10
82.99983500000001
 20
101.03265
 30
0.0
 11
82.99983500000001
 21
89.61164999999999
 31
0.0
  0
LINE
  5
122
330
1E
100
AcDbEntity
  8
0
100
AcDbLine
 10
82.99983500000001
 20
112.45365
 30
0.0
 11
82.99983500000001
 21
123.67965
 31
0.0
  0
LINE
  5
123
330
1E
100
AcDbEntity
  8
0
100
AcDbLine
 10
82.99983500000001
 20
112.45365
 30
0.0
 11
82.99983500000001
 21
101.03265
 31
0.0
  0
LINE
  5
124
330
1E
100
AcDbEntity
  8
0
100
AcDbLine
 10
82.99983500000001
 20
123.67965
 30
0.0
 11
82.99983500000001
 21
112.45365
 31
0.0
  0
LINE
  5
125
330
1E
100
AcDbEntity
  8
0
100
AcDbLine
 10
82.99983500000001
 20
123.67965
 30
0.0
 11
82.99983500000001
 21
134.5176499999999
 31
0.0
  0
LINE
  5
126
330
1E
100
AcDbEntity
  8
0
100
AcDbLine
 10
82.99983500000001
 20
154.29965
 30
0.0
 11
82.99983500000001
 21
144.7826499999998
 31
0.0
  0
LINE
  5
127
330
1E
100
AcDbEntity
  8
0
100
AcDbLine
 10
82.99983500000001
 20
154.29965
 30
0.0
 11
82.99983500000001
 21
162.90465
 31
0.0
  0
LINE
  5
128
330
1E
100
AcDbEntity
  8
0
100
AcDbLine
 10
82.99983500000001
 20
134.5176499999999
 30
0.0
 11
82.99983500000001
 21
144.7826499999998
 31
0.0
  0
LINE
  5
129
330
1E
100
AcDbEntity
  8
0
100
AcDbLine
 10
82.99983500000001
 20
134.5176499999999
 30
0.0
 11
82.99983500000001
 21
123.67965
 31
0.0
  0
LINE
  5
12A
330
1E
100
AcDbEntity
  8
0
100
AcDbLine
 10
82.99983500000001
 20
144.7826499999998
 30
0.0
 11
82.99983500000001
 21
134.5176499999999
 31
0.0
  0
LINE
  5
12B
330
1E
100
AcDbEntity
  8
0
100
AcDbLine
 10
82.99983500000001
 20
144.7826499999998
 30
0.0
 11
82.99983500000001
 21
154.29965
 31
0.0
  0
LINE
  5
12C
330
1E
100
AcDbEntity
  8
0
100
AcDbLine
 10
82.99983500000001
 20
162.90465
 30
0.0
 11
82.99983500000001
 21
170.4506499999999
 31
0.0
  0
LINE
  5
12D
330
1E
100
AcDbEntity
  8
0
100
AcDbLine
 10
82.99983500000001
 20
162.90465
 30
0.0
 11
82.99983500000001
 21
154.29965
 31
0.0
  0
LINE
  5
12E
330
1E
100
AcDbEntity
  8
0
100
AcDbLine
 10
82.99983500000001
 20
170.4506499999999
 30
0.0
 11
82.99983500000001
 21
176.80965
 31
0.0
  0
LINE
  5
12F
330
1E
100
AcDbEntity
  8
0
100
AcDbLine
 10
82.99983500000001
 20
170.4506499999999
 30
0.0
 11
82.99983500000001
 21
162.90465
 31
0.0
  0
LINE
  5
130
330
1E
100
AcDbEntity
  8
0
100
AcDbLine
 10
82.19983499999997
 20
19.31602
 30
0.0
 11
82.99983500000001
 21
20.3422790476191
 31
0.0
  0
LINE
  5
131
330
1E
100
AcDbEntity
  8
0
100
AcDbLine
 10
102.599835
 20
7.84338
 30
0.0
 11
103.599835
 21
10.33776
 31
0.0
  0
LINE
  5
132
330
1E
100
AcDbEntity
  8
0
100
AcDbLine
 10
103.599835
 20
10.33776
 30
0.0
 11
103.999835
 21
13.031687
 31
0.0
  0
LINE
  5
133
330
1E
100
AcDbEntity
  8
0
100
AcDbLine
 10
84.399835
 20
7.84338
 30
0.0
 11
86.099835
 21
5.648320000000008
 31
0.0
  0
LINE
  5
134
330
1E
100
AcDbEntity
  8
0
100
AcDbLine
 10
103.999835
 20
13.031687
 30
0.0
 11
103.999835
 21
14.28122499999999
 31
0.0
  0
LINE
  5
135
330
1E
100
AcDbEntity
  8
0
100
AcDbLine
 10
103.999835
 20
16.51414
 30
0.0
 11
103.999835
 21
14.28122499999999
 31
0.0
  0
LINE
  5
136
330
1E
100
AcDbEntity
  8
0
100
AcDbLine
 10
103.999835
 20
16.51414
 30
0.0
 11
103.999835
 21
20.19318999999998
 31
0.0
  0
LINE
  5
137
330
1E
100
AcDbEntity
  8
0
100
AcDbLine
 10
103.999835
 20
14.28122499999999
 30
0.0
 11
103.999835
 21
16.51414
 31
0.0
  0
LINE
  5
138
330
1E
100
AcDbEntity
  8
0
100
AcDbLine
 10
103.999835
 20
14.28122499999999
 30
0.0
 11
103.999835
 21
13.031687
 31
0.0
  0
LINE
  5
139
330
1E
100
AcDbEntity
  8
0
100
AcDbLine
 10
103.999835
 20
20.3422790476191
 30
0.0
 11
104.799835
 21
19.31602
 31
0.0
  0
LINE
  5
13A
330
1E
100
AcDbEntity
  8
0
100
AcDbLine
 10
103.999835
 20
25.25545
 30
0.0
 11
103.999835
 21
20.19318999999998
 31
0.0
  0
LINE
  5
13B
330
1E
100
AcDbEntity
  8
0
100
AcDbLine
 10
103.999835
 20
25.25545
 30
0.0
 11
103.999835
 21
31.61424999999999
 31
0.0
  0
LINE
  5
13C
330
1E
100
AcDbEntity
  8
0
100
AcDbLine
 10
103.999835
 20
20.19318999999998
 30
0.0
 11
103.999835
 21
25.25545
 31
0.0
  0
LINE
  5
13D
330
1E
100
AcDbEntity
  8
0
100
AcDbLine
 10
103.999835
 20
20.19318999999998
 30
0.0
 11
103.999835
 21
16.51414
 31
0.0
  0
LINE
  5
13E
330
1E
100
AcDbEntity
  8
0
100
AcDbLine
 10
103.999835
 20
31.61424999999999
 30
0.0
 11
103.999835
 21
25.25545
 31
0.0
  0
LINE
  5
13F
330
1E
100
AcDbEntity
  8
0
100
AcDbLine
 10
103.999835
 20
31.61424999999999
 30
0.0
 11
103.999835
 21
39.16085
 31
0.0
  0
LINE
  5
140
330
1E
100
AcDbEntity
  8
0
100
AcDbLine
 10
103.999835
 20
57.28265
 30
0.0
 11
103.999835
 21
67.54785
 31
0.0
  0
LINE
  5
141
330
1E
100
AcDbEntity
  8
0
100
AcDbLine
 10
103.999835
 20
57.28265
 30
0.0
 11
103.999835
 21
47.76604999999999
 31
0.0
  0
LINE
  5
142
330
1E
100
AcDbEntity
  8
0
100
AcDbLine
 10
103.999835
 20
89.61164999999999
 30
0.0
 11
103.999835
 21
101.03265
 31
0.0
  0
LINE
  5
143
330
1E
100
AcDbEntity
  8
0
100
AcDbLine
 10
103.999835
 20
89.61164999999999
 30
0.0
 11
103.999835
 21
78.38594999999997
 31
0.0
  0
LINE
  5
144
330
1E
100
AcDbEntity
  8
0
100
AcDbLine
 10
103.999835
 20
78.38594999999997
 30
0.0
 11
103.999835
 21
67.54785
 31
0.0
  0
LINE
  5
145
330
1E
100
AcDbEntity
  8
0
100
AcDbLine
 10
103.999835
 20
78.38594999999997
 30
0.0
 11
103.999835
 21
89.61164999999999
 31
0.0
  0
LINE
  5
146
330
1E
100
AcDbEntity
  8
0
100
AcDbLine
 10
103.999835
 20
67.54785
 30
0.0
 11
103.999835
 21
78.38594999999997
 31
0.0
  0
LINE
  5
147
330
1E
100
AcDbEntity
  8
0
100
AcDbLine
 10
103.999835
 20
67.54785
 30
0.0
 11
103.999835
 21
57.28265
 31
0.0
  0
LINE
  5
148
330
1E
100
AcDbEntity
  8
0
100
AcDbLine
 10
103.999835
 20
47.76604999999999
 30
0.0
 11
103.999835
 21
39.16085
 31
0.0
  0
LINE
  5
149
330
1E
100
AcDbEntity
  8
0
100
AcDbLine
 10
103.999835
 20
47.76604999999999
 30
0.0
 11
103.999835
 21
57.28265
 31
0.0
  0
LINE
  5
14A
330
1E
100
AcDbEntity
  8
0
100
AcDbLine
 10
103.999835
 20
39.16085
 30
0.0
 11
103.999835
 21
31.61424999999999
 31
0.0
  0
LINE
  5
14B
330
1E
100
AcDbEntity
  8
0
100
AcDbLine
 10
103.999835
 20
39.16085
 30
0.0
 11
103.999835
 21
47.76604999999999
 31
0.0
  0
LINE
  5
14C
330
1E
100
AcDbEntity
  8
0
100
AcDbLine
 10
103.999835
 20
123.67965
 30
0.0
 11
103.999835
 21
134.5176499999999
 31
0.0
  0
LINE
  5
14D
330
1E
100
AcDbEntity
  8
0
100
AcDbLine
 10
103.999835
 20
123.67965
 30
0.0
 11
103.999835
 21
112.45365
 31
0.0
  0
LINE
  5
14E
330
1E
100
AcDbEntity
  8
0
100
AcDbLine
 10
103.999835
 20
134.5176499999999
 30
0.0
 11
103.999835
 21
144.7826499999998
 31
0.0
  0
LINE
  5
14F
330
1E
100
AcDbEntity
  8
0
100
AcDbLine
 10
103.999835
 20
134.5176499999999
 30
0.0
 11
103.999835
 21
123.67965
 31
0.0
  0
LINE
  5
150
330
1E
100
AcDbEntity
  8
0
100
AcDbLine
 10
103.999835
 20
144.7826499999998
 30
0.0
 11
103.999835
 21
134.5176499999999
 31
0.0
  0
LINE
  5
151
330
1E
100
AcDbEntity
  8
0
100
AcDbLine
 10
103.999835
 20
144.7826499999998
 30
0.0
 11
103.999835
 21
154.29965
 31
0.0
  0
LINE
  5
152
330
1E
100
AcDbEntity
  8
0
100
AcDbLine
 10
103.999835
 20
154.29965
 30
0.0
 11
103.999835
 21
144.7826499999998
 31
0.0
  0
LINE
  5
153
330
1E
100
AcDbEntity
  8
0
100
AcDbLine
 10
103.999835
 20
154.29965
 30
0.0
 11
103.999835
 21
162.90465
 31
0.0
  0
LINE
  5
154
330
1E
100
AcDbEntity
  8
0
100
AcDbLine
 10
103.999835
 20
162.90465
 30
0.0
 11
103.999835
 21
170.4506499999999
 31
0.0
  0
LINE
  5
155
330
1E
100
AcDbEntity
  8
0
100
AcDbLine
 10
103.999835
 20
162.90465
 30
0.0
 11
103.999835
 21
154.29965
 31
0.0
  0
LINE
  5
156
330
1E
100
AcDbEntity
  8
0
100
AcDbLine
 10
103.999835
 20
170.4506499999999
 30
0.0
 11
103.999835
 21
176.80965
 31
0.0
  0
LINE
  5
157
330
1E
100
AcDbEntity
  8
0
100
AcDbLine
 10
103.999835
 20
170.4506499999999
 30
0.0
 11
103.999835
 21
162.90465
 31
0.0
  0
LINE
  5
158
330
1E
100
AcDbEntity
  8
0
100
AcDbLine
 10
103.999835
 20
112.45365
 30
0.0
 11
103.999835
 21
101.03265
 31
0.0
  0
LINE
  5
159
330
1E
100
AcDbEntity
  8
0
100
AcDbLine
 10
103.999835
 20
112.45365
 30
0.0
 11
103.999835
 21
123.67965
 31
0.0
  0
LINE
  5
15A
330
1E
100
AcDbEntity
  8
0
100
AcDbLine
 10
103.999835
 20
101.03265
 30
0.0
 11
103.999835
 21
112.45365
 31
0.0
  0
LINE
  5
15B
330
1E
100
AcDbEntity
  8
0
100
AcDbLine
 10
103.999835
 20
101.03265
 30
0.0
 11
103.999835
 21
89.61164999999999
 31
0.0
  0
LINE
  5
15C
330
1E
100
AcDbEntity
  8
0
100
AcDbLine
 10
83.399835
 20
10.33776
 30
0.0
 11
84.399835
 21
7.84338
 31
0.0
  0
LINE
  5
15D
330
1E
100
AcDbEntity
  8
0
100
AcDbLine
 10
82.99983500000001
 20
13.031687
 30
0.0
 11
83.399835
 21
10.33776
 31
0.0
  0
LINE
  5
15E
330
1E
100
AcDbEntity
  8
0
100
AcDbLine
 10
82.99983500000001
 20
13.031687
 30
0.0
 11
82.99983500000001
 21
14.28122499999999
 31
0.0
  0
LINE
  5
15F
330
1E
100
AcDbEntity
  8
0
100
AcDbLine
 10
82.19983499999997
 20
6.311730000000008
 30
0.0
 11
84.299835
 21
3.617800000000008
 31
0.0
  0
LINE
  5
160
330
1E
100
AcDbEntity
  8
0
100
AcDbLine
 10
104.799835
 20
19.31602
 30
0.0
 11
105.999835
 21
16.12321
 31
0.0
  0
LINE
  5
161
330
1E
100
AcDbEntity
  8
0
100
AcDbLine
 10
105.999835
 20
16.12321
 30
0.0
 11
106.4998349999999
 21
12.83063
 31
0.0
  0
LINE
  5
162
330
1E
100
AcDbEntity
  8
0
100
AcDbLine
 10
104.799835
 20
6.311730000000008
 30
0.0
 11
105.999835
 21
9.504540000000007
 31
0.0
  0
LINE
  5
163
330
1E
100
AcDbEntity
  8
0
100
AcDbLine
 10
105.999835
 20
9.504540000000007
 30
0.0
 11
106.4998349999999
 21
12.79711999999999
 31
0.0
  0
LINE
  5
165
330
1E
100
AcDbEntity
  8
0
100
AcDbLine
 10
162.122835
 20
163.6576499999998
 30
0.0
 11
162.437835
 21
162.1576499999999
 31
0.0
  0
LINE
  5
166
330
1E
100
AcDbEntity
  8
0
100
AcDbLine
 10
162.122835
 20
163.6576499999998
 30
0.0
 11
162.220835
 21
165.55565
 31
0.0
  0
LINE
  5
169
330
1E
100
AcDbEntity
  8
0
100
AcDbLine
 10
162.437835
 20
162.1576499999999
 30
0.0
 11
163.019835
 21
161.0616499999999
 31
0.0
  0
LINE
  5
16A
330
1E
100
AcDbEntity
  8
0
100
AcDbLine
 10
163.019835
 20
161.0616499999999
 30
0.0
 11
163.649835
 21
160.4076499999998
 31
0.0
  0
LINE
  5
16B
330
1E
100
AcDbEntity
  8
0
100
AcDbLine
 10
163.649835
 20
160.4076499999998
 30
0.0
 11
164.562835
 21
159.88865
 31
0.0
  0
LINE
  5
16C
330
1E
100
AcDbEntity
  8
0
100
AcDbLine
 10
164.562835
 20
159.88865
 30
0.0
 11
166.962835
 21
159.5326499999998
 31
0.0
  0
LINE
  5
16D
330
1E
100
AcDbEntity
  8
0
100
AcDbLine
 10
166.962835
 20
159.5326499999998
 30
0.0
 11
169.361835
 21
159.88865
 31
0.0
  0
LINE
  5
16E
330
1E
100
AcDbEntity
  8
0
100
AcDbLine
 10
166.962835
 20
159.5326499999998
 30
0.0
 11
167.420835
 21
159.5326499999998
 31
0.0
  0
LINE
  5
16F
330
1E
100
AcDbEntity
  8
0
100
AcDbLine
 10
162.220835
 20
165.55565
 30
0.0
 11
162.440835
 21
169.53065
 31
0.0
  0
LINE
  5
171
330
1E
100
AcDbEntity
  8
0
100
AcDbLine
 10
170.274835
 20
160.4076499999998
 30
0.0
 11
170.904835
 21
161.0616499999999
 31
0.0
  0
LINE
  5
172
330
1E
100
AcDbEntity
  8
0
100
AcDbLine
 10
169.361835
 20
159.88865
 30
0.0
 11
170.274835
 21
160.4076499999998
 31
0.0
  0
LINE
  5
175
330
1E
100
AcDbEntity
  8
0
100
AcDbLine
 10
171.7038349999999
 20
165.55565
 30
0.0
 11
171.801835
 21
163.6576499999998
 31
0.0
  0
LINE
  5
176
330
1E
100
AcDbEntity
  8
0
100
AcDbLine
 10
171.487835
 20
162.1576499999999
 30
0.0
 11
171.801835
 21
163.6576499999998
 31
0.0
  0
LINE
  5
177
330
1E
100
AcDbEntity
  8
0
100
AcDbLine
 10
170.904835
 20
161.0616499999999
 30
0.0
 11
171.487835
 21
162.1576499999999
 31
0.0
  0
LINE
  5
178
330
1E
100
AcDbEntity
  8
0
100
AcDbLine
 10
172.621835
 20
165.55565
 30
0.0
 11
172.719835
 21
163.6576499999998
 31
0.0
  0
LINE
  5
179
330
1E
100
AcDbEntity
  8
0
100
AcDbLine
 10
172.404835
 20
162.1576499999999
 30
0.0
 11
172.719835
 21
163.6576499999998
 31
0.0
  0
LINE
  5
17A
330
1E
100
AcDbEntity
  8
0
100
AcDbLine
 10
171.8228349999999
 20
161.0616499999999
 30
0.0
 11
172.404835
 21
162.1576499999999
 31
0.0
  0
LINE
  5
17B
330
1E
100
AcDbEntity
  8
0
100
AcDbLine
 10
171.1928349999999
 20
160.4076499999998
 30
0.0
 11
171.8228349999999
 21
161.0616499999999
 31
0.0
  0
LINE
  5
17C
330
1E
100
AcDbEntity
  8
0
100
AcDbLine
 10
170.279835
 20
159.88865
 30
0.0
 11
171.1928349999999
 21
160.4076499999998
 31
0.0
  0
LINE
  5
17D
330
1E
100
AcDbEntity
  8
0
100
AcDbLine
 10
167.879835
 20
159.5326499999998
 30
0.0
 11
170.279835
 21
159.88865
 31
0.0
  0
LINE
  5
17E
330
1E
100
AcDbEntity
  8
0
100
AcDbLine
 10
167.420835
 20
159.5326499999998
 30
0.0
 11
167.879835
 21
159.5326499999998
 31
0.0
  0
LINE
  5
17F
330
1E
100
AcDbEntity
  8
0
100
AcDbLine
 10
171.139835
 20
169.53065
 30
0.0
 11
171.7038349999999
 21
165.55565
 31
0.0
  0
LINE
  5
180
330
1E
100
AcDbEntity
  8
0
100
AcDbLine
 10
172.401835
 20
169.53065
 30
0.0
 11
172.621835
 21
165.55565
 31
0.0
  0
LINE
  5
181
330
1E
100
AcDbEntity
  8
0
100
AcDbLine
 10
172.401835
 20
169.53065
 30
0.0
 11
172.570835
 21
173.0746499999999
 31
0.0
  0
LINE
  5
182
330
1E
100
AcDbEntity
  8
0
100
AcDbLine
 10
105.899835
 20
166.83265
 30
0.0
 11
111.099835
 21
170.9326499999999
 31
0.0
  0
LINE
  5
183
330
1E
100
AcDbEntity
  8
0
100
AcDbLine
 10
103.999835
 20
166.07265
 30
0.0
 11
105.899835
 21
166.83265
 31
0.0
  0
LINE
  5
184
330
1E
100
AcDbEntity
  8
0
100
AcDbLine
 10
124.758835
 20
172.13265
 30
0.0
 11
127.282835
 21
171.5326499999999
 31
0.0
  0
LINE
  5
185
330
1E
100
AcDbEntity
  8
0
100
AcDbLine
 10
129.806835
 20
172.13265
 30
0.0
 11
130.920835
 21
172.63265
 31
0.0
  0
LINE
  5
186
330
1E
100
AcDbEntity
  8
0
100
AcDbLine
 10
128.511835
 20
172.0326499999999
 30
0.0
 11
130.920835
 21
172.63265
 31
0.0
  0
LINE
  5
187
330
1E
100
AcDbEntity
  8
0
100
AcDbLine
 10
127.282835
 20
171.5326499999999
 30
0.0
 11
129.806835
 21
172.13265
 31
0.0
  0
LINE
  5
188
330
1E
100
AcDbEntity
  8
0
100
AcDbLine
 10
111.099835
 20
170.9326499999999
 30
0.0
 11
114.726758076923
 21
175.5326499999999
 31
0.0
  0
LINE
  5
189
330
1E
100
AcDbEntity
  8
0
100
AcDbLine
 10
81.099835
 20
166.83265
 30
0.0
 11
82.99983500000001
 21
166.07265
 31
0.0
  0
LINE
  5
18A
330
1E
100
AcDbEntity
  8
0
100
AcDbLine
 10
62.240535
 20
172.13265
 30
0.0
 11
63.35453499999999
 21
172.63265
 31
0.0
  0
LINE
  5
18C
330
1E
100
AcDbEntity
  8
0
100
AcDbLine
 10
59.716835
 20
171.5326499999999
 30
0.0
 11
62.240535
 21
172.13265
 31
0.0
  0
LINE
  5
18D
330
1E
100
AcDbEntity
  8
0
100
AcDbLine
 10
55.54883499999998
 20
173.0326499999999
 30
0.0
 11
60.463735
 21
173.0326499999999
 31
0.0
  0
LINE
  5
18E
330
1E
100
AcDbEntity
  8
0
100
AcDbLine
 10
55.54883499999998
 20
173.0326499999999
 30
0.0
 11
62.054035
 21
184.3746499999999
 31
0.0
  0
LINE
  5
18F
330
1E
100
AcDbEntity
  8
0
100
AcDbLine
 10
42.51463499999998
 20
176.53265
 30
0.0
 11
44.29273499999999
 21
176.93265
 31
0.0
  0
LINE
  5
190
330
1E
100
AcDbEntity
  8
0
100
AcDbLine
 10
41.285835
 20
176.53265
 30
0.0
 11
42.51463499999998
 21
176.53265
 31
0.0
  0
LINE
  5
191
330
1E
100
AcDbEntity
  8
0
100
AcDbLine
 10
41.285835
 20
176.53265
 30
0.0
 11
43.063935
 21
176.93265
 31
0.0
  0
LINE
  5
192
330
1E
100
AcDbEntity
  8
0
100
AcDbLine
 10
37.606935
 20
178.53265
 30
0.0
 11
39.155535
 21
177.4326499999999
 31
0.0
  0
LINE
  5
193
330
1E
100
AcDbEntity
  8
0
100
AcDbLine
 10
37.606935
 20
198.53265
 30
0.0
 11
39.155535
 21
199.63265
 31
0.0
  0
LINE
  5
194
330
1E
100
AcDbEntity
  8
0
100
AcDbLine
 10
36.410435
 20
197.0326499999999
 30
0.0
 11
37.844435
 21
198.9326499999999
 31
0.0
  0
LINE
  5
195
330
1E
100
AcDbEntity
  8
0
100
AcDbLine
 10
37.844435
 20
198.9326499999999
 30
0.0
 11
39.507835
 21
200.13265
 31
0.0
  0
LINE
  5
196
330
1E
100
AcDbEntity
  8
0
100
AcDbLine
 10
36.410435
 20
180.0326499999999
 30
0.0
 11
37.844435
 21
178.13265
 31
0.0
  0
LINE
  5
197
330
1E
100
AcDbEntity
  8
0
100
AcDbLine
 10
42.59703499999999
 20
177.4326499999999
 30
0.0
 11
44.14573499999998
 21
178.53265
 31
0.0
  0
LINE
  5
198
330
1E
100
AcDbEntity
  8
0
100
AcDbLine
 10
40.87633499999999
 20
177.0326499999999
 30
0.0
 11
42.59703499999999
 21
177.4326499999999
 31
0.0
  0
LINE
  5
199
330
1E
100
AcDbEntity
  8
0
100
AcDbLine
 10
38.82213499999998
 20
187.2326499999999
 30
0.0
 11
39.277535
 21
187.73265
 31
0.0
  0
LINE
  5
19B
330
1E
100
AcDbEntity
  8
0
100
AcDbLine
 10
39.022635
 20
187.73265
 30
0.0
 11
39.277535
 21
187.73265
 31
0.0
  0
LINE
  5
19D
330
1E
100
AcDbEntity
  8
0
100
AcDbLine
 10
38.82213499999998
 20
189.8326499999999
 30
0.0
 11
39.277535
 21
189.33265
 31
0.0
  0
LINE
  5
19E
330
1E
100
AcDbEntity
  8
0
100
AcDbLine
 10
39.022635
 20
189.33265
 30
0.0
 11
39.277535
 21
189.33265
 31
0.0
  0
LINE
  5
19F
330
1E
100
AcDbEntity
  8
0
100
AcDbLine
 10
38.407035
 20
189.33265
 30
0.0
 11
39.022635
 21
189.33265
 31
0.0
  0
LINE
  5
1A0
330
1E
100
AcDbEntity
  8
0
100
AcDbLine
 10
38.407035
 20
187.73265
 30
0.0
 11
39.022635
 21
187.73265
 31
0.0
  0
LINE
  5
1A1
330
1E
100
AcDbEntity
  8
0
100
AcDbLine
 10
40.87633499999999
 20
182.5326499999999
 30
0.0
 11
41.73663499999999
 21
182.73265
 31
0.0
  0
LINE
  5
1A2
330
1E
100
AcDbEntity
  8
0
100
AcDbLine
 10
40.87633499999999
 20
194.53265
 30
0.0
 11
41.73663499999999
 21
194.3326499999999
 31
0.0
  0
LINE
  5
1A3
330
1E
100
AcDbEntity
  8
0
100
AcDbLine
 10
39.25403499999998
 20
188.5326499999999
 30
0.0
 11
39.277535
 21
187.73265
 31
0.0
  0
LINE
  5
1A4
330
1E
100
AcDbEntity
  8
0
100
AcDbLine
 10
39.25403499999998
 20
188.5326499999999
 30
0.0
 11
39.277535
 21
189.33265
 31
0.0
  0
LINE
  5
1A5
330
1E
100
AcDbEntity
  8
0
100
AcDbLine
 10
39.155535
 20
199.63265
 30
0.0
 11
40.87633499999999
 21
200.0326499999999
 31
0.0
  0
LINE
  5
1A6
330
1E
100
AcDbEntity
  8
0
100
AcDbLine
 10
39.507835
 20
200.13265
 30
0.0
 11
41.285835
 21
200.5326499999999
 31
0.0
  0
LINE
  5
1A7
330
1E
100
AcDbEntity
  8
0
100
AcDbLine
 10
41.73663499999999
 20
194.3326499999999
 30
0.0
 11
42.59703499999999
 21
193.73265
 31
0.0
  0
LINE
  5
1A8
330
1E
100
AcDbEntity
  8
0
100
AcDbLine
 10
41.73663499999999
 20
182.73265
 30
0.0
 11
42.59703499999999
 21
183.33265
 31
0.0
  0
LINE
  5
1A9
330
1E
100
AcDbEntity
  8
0
100
AcDbLine
 10
40.87633499999999
 20
200.0326499999999
 30
0.0
 11
42.59703499999999
 21
199.63265
 31
0.0
  0
LINE
  5
1AA
330
1E
100
AcDbEntity
  8
0
100
AcDbLine
 10
41.285835
 20
200.5326499999999
 30
0.0
 11
43.063935
 21
200.13265
 31
0.0
  0
LINE
  5
1AB
330
1E
100
AcDbEntity
  8
0
100
AcDbLine
 10
41.285835
 20
200.5326499999999
 30
0.0
 11
42.51463499999998
 21
200.5326499999999
 31
0.0
  0
LINE
  5
1AC
330
1E
100
AcDbEntity
  8
0
100
AcDbLine
 10
42.59703499999999
 20
193.73265
 30
0.0
 11
43.28533499999998
 21
192.73265
 31
0.0
  0
LINE
  5
1AD
330
1E
100
AcDbEntity
  8
0
100
AcDbLine
 10
42.59703499999999
 20
183.33265
 30
0.0
 11
43.28533499999998
 21
184.33265
 31
0.0
  0
LINE
  5
1AE
330
1E
100
AcDbEntity
  8
0
100
AcDbLine
 10
42.92418499999999
 20
200.4405179489339
 30
0.0
 11
43.33373499999999
 21
200.5326499999999
 31
0.0
  0
LINE
  5
1AF
330
1E
100
AcDbEntity
  8
0
100
AcDbLine
 10
42.59703499999999
 20
199.63265
 30
0.0
 11
44.14573499999998
 21
198.53265
 31
0.0
  0
LINE
  5
1B0
330
1E
100
AcDbEntity
  8
0
100
AcDbLine
 10
42.51463499999998
 20
200.5326499999999
 30
0.0
 11
44.29273499999999
 21
200.13265
 31
0.0
  0
LINE
  5
1B1
330
1E
100
AcDbEntity
  8
0
100
AcDbLine
 10
39.155535
 20
177.4326499999999
 30
0.0
 11
40.87633499999999
 21
177.0326499999999
 31
0.0
  0
LINE
  5
1B2
330
1E
100
AcDbEntity
  8
0
100
AcDbLine
 10
37.844435
 20
178.13265
 30
0.0
 11
39.507835
 21
176.93265
 31
0.0
  0
LINE
  5
1B3
330
1E
100
AcDbEntity
  8
0
100
AcDbLine
 10
39.507835
 20
176.93265
 30
0.0
 11
41.285835
 21
176.53265
 31
0.0
  0
LINE
  5
1B4
330
1E
100
AcDbEntity
  8
0
100
AcDbLine
 10
48.06713266770859
 20
176.53265
 30
0.0
 11
55.54883499999998
 21
173.0326499999999
 31
0.0
  0
LINE
  5
1B5
330
1E
100
AcDbEntity
  8
0
100
AcDbLine
 10
53.163635
 20
176.53265
 30
0.0
 11
54.94163499999999
 21
176.93265
 31
0.0
  0
LINE
  5
1B6
330
1E
100
AcDbEntity
  8
0
100
AcDbLine
 10
43.063935
 20
176.93265
 30
0.0
 11
44.72733499999999
 21
178.13265
 31
0.0
  0
LINE
  5
1B7
330
1E
100
AcDbEntity
  8
0
100
AcDbLine
 10
43.28533499999998
 20
192.73265
 30
0.0
 11
43.85893499999999
 21
191.5326499999999
 31
0.0
  0
LINE
  5
1B8
330
1E
100
AcDbEntity
  8
0
100
AcDbLine
 10
43.28533499999998
 20
184.33265
 30
0.0
 11
43.85893499999999
 21
185.5326499999999
 31
0.0
  0
LINE
  5
1B9
330
1E
100
AcDbEntity
  8
0
100
AcDbLine
 10
43.063935
 20
200.13265
 30
0.0
 11
44.72733499999999
 21
198.9326499999999
 31
0.0
  0
LINE
  5
1BA
330
1E
100
AcDbEntity
  8
0
100
AcDbLine
 10
43.85893499999999
 20
191.5326499999999
 30
0.0
 11
44.203035
 21
190.03265
 31
0.0
  0
LINE
  5
1BB
330
1E
100
AcDbEntity
  8
0
100
AcDbLine
 10
44.203035
 20
190.03265
 30
0.0
 11
44.317735
 21
188.5326499999999
 31
0.0
  0
LINE
  5
1BC
330
1E
100
AcDbEntity
  8
0
100
AcDbLine
 10
43.85893499999999
 20
185.5326499999999
 30
0.0
 11
44.203035
 21
187.03265
 31
0.0
  0
LINE
  5
1BD
330
1E
100
AcDbEntity
  8
0
100
AcDbLine
 10
44.203035
 20
187.03265
 30
0.0
 11
44.317735
 21
188.5326499999999
 31
0.0
  0
LINE
  5
1BE
330
1E
100
AcDbEntity
  8
0
100
AcDbLine
 10
44.14573499999998
 20
198.53265
 30
0.0
 11
45.52223499999999
 21
196.63265
 31
0.0
  0
LINE
  5
1BF
330
1E
100
AcDbEntity
  8
0
100
AcDbLine
 10
44.72733499999999
 20
198.9326499999999
 30
0.0
 11
46.16123499999999
 21
197.0326499999999
 31
0.0
  0
LINE
  5
1C0
330
1E
100
AcDbEntity
  8
0
100
AcDbLine
 10
44.29273499999999
 20
200.13265
 30
0.0
 11
45.956035
 21
198.9326499999999
 31
0.0
  0
LINE
  5
1C1
330
1E
100
AcDbEntity
  8
0
100
AcDbLine
 10
43.33373499999999
 20
200.5326499999999
 30
0.0
 11
45.111835
 21
200.13265
 31
0.0
  0
LINE
  5
1C2
330
1E
100
AcDbEntity
  8
0
100
AcDbLine
 10
43.33373499999999
 20
200.5326499999999
 30
0.0
 11
53.163635
 21
200.5326499999999
 31
0.0
  0
LINE
  5
1C3
330
1E
100
AcDbEntity
  8
0
100
AcDbLine
 10
44.14573499999998
 20
178.53265
 30
0.0
 11
45.52223499999999
 21
180.4326499999999
 31
0.0
  0
LINE
  5
1C4
330
1E
100
AcDbEntity
  8
0
100
AcDbLine
 10
45.111835
 20
200.13265
 30
0.0
 11
46.77523499999998
 21
198.9326499999999
 31
0.0
  0
LINE
  5
1C5
330
1E
100
AcDbEntity
  8
0
100
AcDbLine
 10
44.72733499999999
 20
178.13265
 30
0.0
 11
46.16123499999999
 21
180.0326499999999
 31
0.0
  0
LINE
  5
1C6
330
1E
100
AcDbEntity
  8
0
100
AcDbLine
 10
44.29273499999999
 20
176.93265
 30
0.0
 11
45.956035
 21
178.13265
 31
0.0
  0
LINE
  5
1C7
330
1E
100
AcDbEntity
  8
0
100
AcDbLine
 10
45.956035
 20
198.9326499999999
 30
0.0
 11
47.39003499999999
 21
197.0326499999999
 31
0.0
  0
LINE
  5
1C8
330
1E
100
AcDbEntity
  8
0
100
AcDbLine
 10
45.52223499999999
 20
196.63265
 30
0.0
 11
46.612035
 21
194.23265
 31
0.0
  0
LINE
  5
1C9
330
1E
100
AcDbEntity
  8
0
100
AcDbLine
 10
46.16123499999999
 20
197.0326499999999
 30
0.0
 11
47.25103499999998
 21
194.53265
 31
0.0
  0
LINE
  5
1CA
330
1E
100
AcDbEntity
  8
0
100
AcDbLine
 10
45.52223499999999
 20
180.4326499999999
 30
0.0
 11
46.612035
 21
182.83265
 31
0.0
  0
LINE
  5
1CB
330
1E
100
AcDbEntity
  8
0
100
AcDbLine
 10
46.77523499999998
 20
198.9326499999999
 30
0.0
 11
48.20913499999999
 21
197.0326499999999
 31
0.0
  0
LINE
  5
1CC
330
1E
100
AcDbEntity
  8
0
100
AcDbLine
 10
46.612035
 20
194.23265
 30
0.0
 11
47.243035
 21
191.5326499999999
 31
0.0
  0
LINE
  5
1CD
330
1E
100
AcDbEntity
  8
0
100
AcDbLine
 10
46.612035
 20
182.83265
 30
0.0
 11
47.243035
 21
185.5326499999999
 31
0.0
  0
LINE
  5
1CE
330
1E
100
AcDbEntity
  8
0
100
AcDbLine
 10
46.16123499999999
 20
180.0326499999999
 30
0.0
 11
47.25103499999998
 21
182.5326499999999
 31
0.0
  0
LINE
  5
1CF
330
1E
100
AcDbEntity
  8
0
100
AcDbLine
 10
45.956035
 20
178.13265
 30
0.0
 11
47.39003499999999
 21
180.0326499999999
 31
0.0
  0
LINE
  5
1D0
330
1E
100
AcDbEntity
  8
0
100
AcDbLine
 10
48.20913499999999
 20
180.0326499999999
 30
0.0
 11
49.298935
 21
182.5326499999999
 31
0.0
  0
LINE
  5
1D1
330
1E
100
AcDbEntity
  8
0
100
AcDbLine
 10
47.39003499999999
 20
180.0326499999999
 30
0.0
 11
47.570135
 21
180.4326499999999
 31
0.0
  0
LINE
  5
1D2
330
1E
100
AcDbEntity
  8
0
100
AcDbLine
 10
47.39003499999999
 20
180.0326499999999
 30
0.0
 11
48.47983499999998
 21
182.5326499999999
 31
0.0
  0
LINE
  5
1D3
330
1E
100
AcDbEntity
  8
0
100
AcDbLine
 10
47.25103499999998
 20
182.5326499999999
 30
0.0
 11
47.939335
 21
185.4326499999999
 31
0.0
  0
LINE
  5
1D4
330
1E
100
AcDbEntity
  8
0
100
AcDbLine
 10
48.47983499999998
 20
182.5326499999999
 30
0.0
 11
49.16813499999999
 21
185.4326499999999
 31
0.0
  0
LINE
  5
1D5
330
1E
100
AcDbEntity
  8
0
100
AcDbLine
 10
47.570135
 20
180.4326499999999
 30
0.0
 11
48.659935
 21
182.83265
 31
0.0
  0
LINE
  5
1D6
330
1E
100
AcDbEntity
  8
0
100
AcDbLine
 10
47.243035
 20
191.5326499999999
 30
0.0
 11
47.47243499999998
 21
188.5326499999999
 31
0.0
  0
LINE
  5
1D7
330
1E
100
AcDbEntity
  8
0
100
AcDbLine
 10
47.25103499999998
 20
194.53265
 30
0.0
 11
47.939335
 21
191.63265
 31
0.0
  0
LINE
  5
1D8
330
1E
100
AcDbEntity
  8
0
100
AcDbLine
 10
47.939335
 20
191.63265
 30
0.0
 11
48.16883499999999
 21
188.5326499999999
 31
0.0
  0
LINE
  5
1D9
330
1E
100
AcDbEntity
  8
0
100
AcDbLine
 10
48.47983499999998
 20
194.53265
 30
0.0
 11
49.16813499999999
 21
191.63265
 31
0.0
  0
LINE
  5
1DA
330
1E
100
AcDbEntity
  8
0
100
AcDbLine
 10
47.39003499999999
 20
197.0326499999999
 30
0.0
 11
48.47983499999998
 21
194.53265
 31
0.0
  0
LINE
  5
1DB
330
1E
100
AcDbEntity
  8
0
100
AcDbLine
 10
47.39003499999999
 20
197.0326499999999
 30
0.0
 11
47.570135
 21
196.63265
 31
0.0
  0
LINE
  5
1DC
330
1E
100
AcDbEntity
  8
0
100
AcDbLine
 10
47.570135
 20
196.63265
 30
0.0
 11
48.659935
 21
194.23265
 31
0.0
  0
LINE
  5
1DD
330
1E
100
AcDbEntity
  8
0
100
AcDbLine
 10
49.16813499999999
 20
191.63265
 30
0.0
 11
49.397535
 21
188.5326499999999
 31
0.0
  0
LINE
  5
1DE
330
1E
100
AcDbEntity
  8
0
100
AcDbLine
 10
48.659935
 20
194.23265
 30
0.0
 11
49.290935
 21
191.5326499999999
 31
0.0
  0
LINE
  5
1DF
330
1E
100
AcDbEntity
  8
0
100
AcDbLine
 10
48.77091126520898
 20
200.5326499999999
 30
0.0
 11
50.778335
 21
204.0326499999999
 31
0.0
  0
LINE
  5
1E0
330
1E
100
AcDbEntity
  8
0
100
AcDbLine
 10
48.20913499999999
 20
197.0326499999999
 30
0.0
 11
49.298935
 21
194.53265
 31
0.0
  0
LINE
  5
1E1
330
1E
100
AcDbEntity
  8
0
100
AcDbLine
 10
47.243035
 20
185.5326499999999
 30
0.0
 11
47.47243499999998
 21
188.5326499999999
 31
0.0
  0
LINE
  5
1E2
330
1E
100
AcDbEntity
  8
0
100
AcDbLine
 10
47.939335
 20
185.4326499999999
 30
0.0
 11
48.16883499999999
 21
188.5326499999999
 31
0.0
  0
LINE
  5
1E3
330
1E
100
AcDbEntity
  8
0
100
AcDbLine
 10
49.290935
 20
191.5326499999999
 30
0.0
 11
49.52033499999998
 21
188.5326499999999
 31
0.0
  0
LINE
  5
1E4
330
1E
100
AcDbEntity
  8
0
100
AcDbLine
 10
49.16813499999999
 20
185.4326499999999
 30
0.0
 11
49.397535
 21
188.5326499999999
 31
0.0
  0
LINE
  5
1E5
330
1E
100
AcDbEntity
  8
0
100
AcDbLine
 10
48.659935
 20
182.83265
 30
0.0
 11
49.290935
 21
185.5326499999999
 31
0.0
  0
LINE
  5
1E6
330
1E
100
AcDbEntity
  8
0
100
AcDbLine
 10
49.298935
 20
194.53265
 30
0.0
 11
49.987235
 21
191.63265
 31
0.0
  0
LINE
  5
1E7
330
1E
100
AcDbEntity
  8
0
100
AcDbLine
 10
49.987235
 20
191.63265
 30
0.0
 11
50.21663499999998
 21
188.5326499999999
 31
0.0
  0
LINE
  5
1E8
330
1E
100
AcDbEntity
  8
0
100
AcDbLine
 10
49.290935
 20
185.5326499999999
 30
0.0
 11
49.52033499999998
 21
188.5326499999999
 31
0.0
  0
LINE
  5
1E9
330
1E
100
AcDbEntity
  8
0
100
AcDbLine
 10
49.298935
 20
182.5326499999999
 30
0.0
 11
49.987235
 21
185.4326499999999
 31
0.0
  0
LINE
  5
1EA
330
1E
100
AcDbEntity
  8
0
100
AcDbLine
 10
54.94163499999999
 20
200.13265
 30
0.0
 11
56.605035
 21
198.9326499999999
 31
0.0
  0
LINE
  5
1EB
330
1E
100
AcDbEntity
  8
0
100
AcDbLine
 10
55.50546
 20
204.0326499999999
 30
0.0
 11
56.07903499999999
 21
204.4326499999999
 31
0.0
  0
LINE
  5
1EC
330
1E
100
AcDbEntity
  8
0
100
AcDbLine
 10
56.07903499999999
 20
204.4326499999999
 30
0.0
 11
58.48803499999998
 21
205.0326499999999
 31
0.0
  0
LINE
  5
1ED
330
1E
100
AcDbEntity
  8
0
100
AcDbLine
 10
56.07903499999999
 20
204.4326499999999
 30
0.0
 11
57.19303499999998
 21
204.9326499999998
 31
0.0
  0
LINE
  5
1EE
330
1E
100
AcDbEntity
  8
0
100
AcDbLine
 10
55.69323499999999
 20
204.0326499999999
 30
0.0
 11
64.583735
 21
199.87465
 31
0.0
  0
LINE
  5
1EF
330
1E
100
AcDbEntity
  8
0
100
AcDbLine
 10
50.778335
 20
204.0326499999999
 30
0.0
 11
55.69323499999999
 21
204.0326499999999
 31
0.0
  0
LINE
  5
1F0
330
1E
100
AcDbEntity
  8
0
100
AcDbLine
 10
50.778335
 20
204.0326499999999
 30
0.0
 11
59.66883499999998
 21
199.87465
 31
0.0
  0
LINE
  5
1F1
330
1E
100
AcDbEntity
  8
0
100
AcDbLine
 10
53.163635
 20
200.5326499999999
 30
0.0
 11
54.94163499999999
 21
200.13265
 31
0.0
  0
LINE
  5
1F2
330
1E
100
AcDbEntity
  8
0
100
AcDbLine
 10
49.987235
 20
185.4326499999999
 30
0.0
 11
50.21663499999998
 21
188.5326499999999
 31
0.0
  0
LINE
  5
1F3
330
1E
100
AcDbEntity
  8
0
100
AcDbLine
 10
46.77523499999998
 20
178.13265
 30
0.0
 11
48.20913499999999
 21
180.0326499999999
 31
0.0
  0
LINE
  5
1F4
330
1E
100
AcDbEntity
  8
0
100
AcDbLine
 10
54.94163499999999
 20
176.93265
 30
0.0
 11
56.605035
 21
178.13265
 31
0.0
  0
LINE
  5
1F5
330
1E
100
AcDbEntity
  8
0
100
AcDbLine
 10
45.111835
 20
176.93265
 30
0.0
 11
46.77523499999998
 21
178.13265
 31
0.0
  0
LINE
  5
1F6
330
1E
100
AcDbEntity
  8
0
100
AcDbLine
 10
43.33373499999999
 20
176.53265
 30
0.0
 11
53.163635
 21
176.53265
 31
0.0
  0
LINE
  5
1F7
330
1E
100
AcDbEntity
  8
0
100
AcDbLine
 10
43.33373499999999
 20
176.53265
 30
0.0
 11
45.111835
 21
176.93265
 31
0.0
  0
LINE
  5
1F8
330
1E
100
AcDbEntity
  8
0
100
AcDbLine
 10
42.92418499999999
 20
176.624782051066
 30
0.0
 11
43.33373499999999
 21
176.53265
 31
0.0
  0
LINE
  5
1F9
330
1E
100
AcDbEntity
  8
0
100
AcDbLine
 10
55.4170732310191
 20
173.0942892060189
 30
0.0
 11
56.07903499999999
 21
172.63265
 31
0.0
  0
LINE
  5
1FA
330
1E
100
AcDbEntity
  8
0
100
AcDbLine
 10
60.897135
 20
172.63265
 30
0.0
 11
63.191435
 21
174.23265
 31
0.0
  0
LINE
  5
1FB
330
1E
100
AcDbEntity
  8
0
100
AcDbLine
 10
60.463735
 20
173.0326499999999
 30
0.0
 11
66.968935
 21
184.3746499999999
 31
0.0
  0
LINE
  5
1FC
330
1E
100
AcDbEntity
  8
0
100
AcDbLine
 10
63.191435
 20
174.23265
 30
0.0
 11
65.19893499999999
 21
176.83265
 31
0.0
  0
LINE
  5
1FD
330
1E
100
AcDbEntity
  8
0
100
AcDbLine
 10
63.35453499999999
 20
172.63265
 30
0.0
 11
65.64883499999999
 21
174.23265
 31
0.0
  0
LINE
  5
1FE
330
1E
100
AcDbEntity
  8
0
100
AcDbLine
 10
66.652585
 20
175.5326499999999
 30
0.0
 11
74.07713499999998
 21
175.5326499999999
 31
0.0
  0
LINE
  5
1FF
330
1E
100
AcDbEntity
  8
0
100
AcDbLine
 10
65.64883499999999
 20
174.23265
 30
0.0
 11
67.65633499999998
 21
176.83265
 31
0.0
  0
LINE
  5
200
330
1E
100
AcDbEntity
  8
0
100
AcDbLine
 10
65.19893499999999
 20
176.83265
 30
0.0
 11
66.690235
 21
180.33265
 31
0.0
  0
LINE
  5
201
330
1E
100
AcDbEntity
  8
0
100
AcDbLine
 10
58.039035
 20
180.0326499999999
 30
0.0
 11
59.12883499999999
 21
182.5326499999999
 31
0.0
  0
LINE
  5
202
330
1E
100
AcDbEntity
  8
0
100
AcDbLine
 10
56.605035
 20
178.13265
 30
0.0
 11
58.039035
 21
180.0326499999999
 31
0.0
  0
LINE
  5
203
330
1E
100
AcDbEntity
  8
0
100
AcDbLine
 10
59.12883499999999
 20
182.5326499999999
 30
0.0
 11
59.817035
 21
185.4326499999999
 31
0.0
  0
LINE
  5
204
330
1E
100
AcDbEntity
  8
0
100
AcDbLine
 10
66.690235
 20
180.33265
 30
0.0
 11
67.607935
 21
184.33265
 31
0.0
  0
LINE
  5
205
330
1E
100
AcDbEntity
  8
0
100
AcDbLine
 10
67.607935
 20
184.33265
 30
0.0
 11
67.952135
 21
188.5326499999999
 31
0.0
  0
LINE
  5
208
330
1E
100
AcDbEntity
  8
0
100
AcDbLine
 10
67.65633499999998
 20
176.83265
 30
0.0
 11
69.14763499999999
 21
180.33265
 31
0.0
  0
LINE
  5
209
330
1E
100
AcDbEntity
  8
0
100
AcDbLine
 10
126.102835
 20
172.63265
 30
0.0
 11
128.511835
 21
172.0326499999999
 31
0.0
  0
LINE
  5
20A
330
1E
100
AcDbEntity
  8
0
100
AcDbLine
 10
123.644835
 20
172.63265
 30
0.0
 11
124.758835
 21
172.13265
 31
0.0
  0
LINE
  5
20B
330
1E
100
AcDbEntity
  8
0
100
AcDbLine
 10
123.807835
 20
174.23265
 30
0.0
 11
126.102835
 21
172.63265
 31
0.0
  0
LINE
  5
20D
330
1E
100
AcDbEntity
  8
0
100
AcDbLine
 10
121.350835
 20
174.23265
 30
0.0
 11
123.644835
 21
172.63265
 31
0.0
  0
LINE
  5
20E
330
1E
100
AcDbEntity
  8
0
100
AcDbLine
 10
126.535835
 20
173.0326499999999
 30
0.0
 11
131.450835
 21
173.0326499999999
 31
0.0
  0
LINE
  5
20F
330
1E
100
AcDbEntity
  8
0
100
AcDbLine
 10
170.107835
 20
173.0746499999999
 30
0.0
 11
171.139835
 21
169.53065
 31
0.0
  0
LINE
  5
210
330
1E
100
AcDbEntity
  8
0
100
AcDbLine
 10
162.271835
 20
173.0746499999999
 30
0.0
 11
162.440835
 21
169.53065
 31
0.0
  0
LINE
  5
211
330
1E
100
AcDbEntity
  8
0
100
AcDbLine
 10
172.570835
 20
173.0746499999999
 30
0.0
 11
173.353835
 21
175.82865
 31
0.0
  0
LINE
  5
212
330
1E
100
AcDbEntity
  8
0
100
AcDbLine
 10
131.450835
 20
173.0326499999999
 30
0.0
 11
138.9322007129119
 21
176.53265
 31
0.0
  0
LINE
  5
213
330
1E
100
AcDbEntity
  8
0
100
AcDbLine
 10
130.920835
 20
172.63265
 30
0.0
 11
131.582953394603
 21
173.094458819253
 31
0.0
  0
LINE
  5
214
330
1E
100
AcDbEntity
  8
0
100
AcDbLine
 10
104.203538703704
 20
175.5326499999999
 30
0.0
 11
107.814835
 21
175.5326499999999
 31
0.0
  0
LINE
  5
215
330
1E
100
AcDbEntity
  8
0
100
AcDbLine
 10
112.9228349999999
 20
175.5326499999999
 30
0.0
 11
120.346835
 21
175.5326499999999
 31
0.0
  0
LINE
  5
216
330
1E
100
AcDbEntity
  8
0
100
AcDbLine
 10
107.814835
 20
175.5326499999999
 30
0.0
 11
112.9228349999999
 21
175.5326499999999
 31
0.0
  0
LINE
  5
217
330
1E
100
AcDbEntity
  8
0
100
AcDbLine
 10
79.18483499999998
 20
175.5326499999999
 30
0.0
 11
82.79613129629629
 21
175.5326499999999
 31
0.0
  0
LINE
  5
218
330
1E
100
AcDbEntity
  8
0
100
AcDbLine
 10
74.07713499999998
 20
175.5326499999999
 30
0.0
 11
79.18483499999998
 21
175.5326499999999
 31
0.0
  0
LINE
  5
219
330
1E
100
AcDbEntity
  8
0
100
AcDbLine
 10
103.999835
 20
175.375507142857
 30
0.0
 11
105.4998349999999
 21
176.53265
 31
0.0
  0
LINE
  5
21A
330
1E
100
AcDbEntity
  8
0
100
AcDbLine
 10
72.2729119230769
 20
175.5326499999999
 30
0.0
 11
75.89983499999998
 21
170.9326499999999
 31
0.0
  0
LINE
  5
21B
330
1E
100
AcDbEntity
  8
0
100
AcDbLine
 10
103.999835
 20
176.80965
 30
0.0
 11
103.999835
 21
170.4506499999999
 31
0.0
  0
LINE
  5
21C
330
1E
100
AcDbEntity
  8
0
100
AcDbLine
 10
103.999835
 20
176.80965
 30
0.0
 11
103.999835
 21
181.8716499999999
 31
0.0
  0
LINE
  5
21D
330
1E
100
AcDbEntity
  8
0
100
AcDbLine
 10
82.99983500000001
 20
176.80965
 30
0.0
 11
82.99983500000001
 21
170.4506499999999
 31
0.0
  0
LINE
  5
21E
330
1E
100
AcDbEntity
  8
0
100
AcDbLine
 10
82.99983500000001
 20
176.80965
 30
0.0
 11
82.99983500000001
 21
181.8716499999999
 31
0.0
  0
LINE
  5
21F
330
1E
100
AcDbEntity
  8
0
100
AcDbLine
 10
168.775835
 20
175.82865
 30
0.0
 11
170.107835
 21
173.0746499999999
 31
0.0
  0
LINE
  5
220
330
1E
100
AcDbEntity
  8
0
100
AcDbLine
 10
145.713835
 20
176.53265
 30
0.0
 11
147.491835
 21
176.93265
 31
0.0
  0
LINE
  5
221
330
1E
100
AcDbEntity
  8
0
100
AcDbLine
 10
143.665835
 20
176.53265
 30
0.0
 11
144.075335
 21
176.624775984252
 31
0.0
  0
LINE
  5
222
330
1E
100
AcDbEntity
  8
0
100
AcDbLine
 10
161.488835
 20
175.82865
 30
0.0
 11
162.271835
 21
173.0746499999999
 31
0.0
  0
LINE
  5
223
330
1E
100
AcDbEntity
  8
0
100
AcDbLine
 10
173.353835
 20
175.82865
 30
0.0
 11
174.2568349999999
 21
178.1106499999999
 31
0.0
  0
LINE
  5
224
330
1E
100
AcDbEntity
  8
0
100
AcDbLine
 10
144.484835
 20
176.53265
 30
0.0
 11
145.713835
 21
176.53265
 31
0.0
  0
LINE
  5
225
330
1E
100
AcDbEntity
  8
0
100
AcDbLine
 10
133.835835
 20
176.53265
 30
0.0
 11
143.665835
 21
176.53265
 31
0.0
  0
LINE
  5
226
330
1E
100
AcDbEntity
  8
0
100
AcDbLine
 10
121.800835
 20
176.83265
 30
0.0
 11
123.807835
 21
174.23265
 31
0.0
  0
LINE
  5
227
330
1E
100
AcDbEntity
  8
0
100
AcDbLine
 10
119.342835
 20
176.83265
 30
0.0
 11
121.350835
 21
174.23265
 31
0.0
  0
LINE
  5
228
330
1E
100
AcDbEntity
  8
0
100
AcDbLine
 10
105.199835
 20
176.83265
 30
0.0
 11
107.799835
 21
180.33265
 31
0.0
  0
LINE
  5
229
330
1E
100
AcDbEntity
  8
0
100
AcDbLine
 10
105.4998349999999
 20
176.53265
 30
0.0
 11
108.199835
 21
180.0326499999999
 31
0.0
  0
LINE
  5
22A
330
1E
100
AcDbEntity
  8
0
100
AcDbLine
 10
103.999835
 20
175.941221428571
 30
0.0
 11
105.199835
 21
176.83265
 31
0.0
  0
LINE
  5
22B
330
1E
100
AcDbEntity
  8
0
100
AcDbLine
 10
147.491835
 20
176.93265
 30
0.0
 11
149.154835
 21
178.13265
 31
0.0
  0
LINE
  5
22C
330
1E
100
AcDbEntity
  8
0
100
AcDbLine
 10
143.935835
 20
176.93265
 30
0.0
 11
145.713835
 21
176.53265
 31
0.0
  0
LINE
  5
22D
330
1E
100
AcDbEntity
  8
0
100
AcDbLine
 10
142.706835
 20
176.93265
 30
0.0
 11
144.484835
 21
176.53265
 31
0.0
  0
LINE
  5
22E
330
1E
100
AcDbEntity
  8
0
100
AcDbLine
 10
132.057835
 20
176.93265
 30
0.0
 11
133.835835
 21
176.53265
 31
0.0
  0
LINE
  5
22F
330
1E
100
AcDbEntity
  8
0
100
AcDbLine
 10
128.9608349999999
 20
180.0326499999999
 30
0.0
 11
130.3948349999999
 21
178.13265
 31
0.0
  0
LINE
  5
230
330
1E
100
AcDbEntity
  8
0
100
AcDbLine
 10
139.609835
 20
180.0326499999999
 30
0.0
 11
141.0438349999999
 21
178.13265
 31
0.0
  0
LINE
  5
231
330
1E
100
AcDbEntity
  8
0
100
AcDbLine
 10
138.790835
 20
180.0326499999999
 30
0.0
 11
140.224835
 21
178.13265
 31
0.0
  0
LINE
  5
232
330
1E
100
AcDbEntity
  8
0
100
AcDbLine
 10
130.3948349999999
 20
178.13265
 30
0.0
 11
132.057835
 21
176.93265
 31
0.0
  0
LINE
  5
233
330
1E
100
AcDbEntity
  8
0
100
AcDbLine
 10
147.843835
 20
177.4326499999999
 30
0.0
 11
149.392835
 21
178.53265
 31
0.0
  0
LINE
  5
234
330
1E
100
AcDbEntity
  8
0
100
AcDbLine
 10
146.123835
 20
177.0326499999999
 30
0.0
 11
147.843835
 21
177.4326499999999
 31
0.0
  0
LINE
  5
235
330
1E
100
AcDbEntity
  8
0
100
AcDbLine
 10
160.585835
 20
178.1106499999999
 30
0.0
 11
161.488835
 21
175.82865
 31
0.0
  0
LINE
  5
236
330
1E
100
AcDbEntity
  8
0
100
AcDbLine
 10
149.154835
 20
178.13265
 30
0.0
 11
150.588835
 21
180.0326499999999
 31
0.0
  0
LINE
  5
237
330
1E
100
AcDbEntity
  8
0
100
AcDbLine
 10
167.373835
 20
178.1106499999999
 30
0.0
 11
168.775835
 21
175.82865
 31
0.0
  0
LINE
  5
238
330
1E
100
AcDbEntity
  8
0
100
AcDbLine
 10
174.2568349999999
 20
178.1106499999999
 30
0.0
 11
175.572835
 21
180.0326499999999
 31
0.0
  0
LINE
  5
23A
330
1E
100
AcDbEntity
  8
0
100
AcDbLine
 10
171.926835
 20
178.0326499999999
 30
0.0
 11
173.474835
 21
178.4326499999998
 31
0.0
  0
LINE
  5
23B
330
1E
100
AcDbEntity
  8
0
100
AcDbLine
 10
144.402835
 20
177.4326499999999
 30
0.0
 11
146.123835
 21
177.0326499999999
 31
0.0
  0
LINE
  5
23C
330
1E
100
AcDbEntity
  8
0
100
AcDbLine
 10
142.271835
 20
178.13265
 30
0.0
 11
143.935835
 21
176.93265
 31
0.0
  0
LINE
  5
23D
330
1E
100
AcDbEntity
  8
0
100
AcDbLine
 10
149.392835
 20
178.53265
 30
0.0
 11
150.769835
 21
180.4326499999999
 31
0.0
  0
LINE
  5
23E
330
1E
100
AcDbEntity
  8
0
100
AcDbLine
 10
170.377835
 20
178.4326499999998
 30
0.0
 11
171.926835
 21
178.0326499999999
 31
0.0
  0
LINE
  5
23F
330
1E
100
AcDbEntity
  8
0
100
AcDbLine
 10
173.474835
 20
178.4326499999998
 30
0.0
 11
174.908835
 21
179.4326499999999
 31
0.0
  0
LINE
  5
240
330
1E
100
AcDbEntity
  8
0
100
AcDbLine
 10
168.943835
 20
179.4326499999999
 30
0.0
 11
170.377835
 21
178.4326499999998
 31
0.0
  0
LINE
  5
241
330
1E
100
AcDbEntity
  8
0
100
AcDbLine
 10
150.588835
 20
180.0326499999999
 30
0.0
 11
150.769835
 21
180.4326499999999
 31
0.0
  0
LINE
  5
242
330
1E
100
AcDbEntity
  8
0
100
AcDbLine
 10
165.8228349999999
 20
180.0326499999999
 30
0.0
 11
167.373835
 21
178.1106499999999
 31
0.0
  0
LINE
  5
243
330
1E
100
AcDbEntity
  8
0
100
AcDbLine
 10
159.2688349999999
 20
180.0326499999999
 30
0.0
 11
160.585835
 21
178.1106499999999
 31
0.0
  0
LINE
  5
244
330
1E
100
AcDbEntity
  8
0
100
AcDbLine
 10
174.908835
 20
179.4326499999999
 30
0.0
 11
176.170835
 21
181.13265
 31
0.0
  0
LINE
  5
245
330
1E
100
AcDbEntity
  8
0
100
AcDbLine
 10
175.572835
 20
180.0326499999999
 30
0.0
 11
175.9922170536539
 21
180.892039454209
 31
0.0
  0
LINE
  5
246
330
1E
100
AcDbEntity
  8
0
100
AcDbLine
 10
142.853835
 20
178.53265
 30
0.0
 11
144.402835
 21
177.4326499999999
 31
0.0
  0
LINE
  5
247
330
1E
100
AcDbEntity
  8
0
100
AcDbLine
 10
140.838835
 20
180.0326499999999
 30
0.0
 11
142.271835
 21
178.13265
 31
0.0
  0
LINE
  5
248
330
1E
100
AcDbEntity
  8
0
100
AcDbLine
 10
141.0438349999999
 20
178.13265
 30
0.0
 11
142.706835
 21
176.93265
 31
0.0
  0
LINE
  5
249
330
1E
100
AcDbEntity
  8
0
100
AcDbLine
 10
140.224835
 20
178.13265
 30
0.0
 11
141.8878349999999
 21
176.93265
 31
0.0
  0
LINE
  5
24A
330
1E
100
AcDbEntity
  8
0
100
AcDbLine
 10
141.8878349999999
 20
176.93265
 30
0.0
 11
143.665835
 21
176.53265
 31
0.0
  0
LINE
  5
24B
330
1E
100
AcDbEntity
  8
0
100
AcDbLine
 10
108.199835
 20
180.0326499999999
 30
0.0
 11
109.899835
 21
184.13265
 31
0.0
  0
LINE
  5
24C
330
1E
100
AcDbEntity
  8
0
100
AcDbLine
 10
81.799835
 20
176.83265
 30
0.0
 11
82.99983500000001
 21
175.941221428571
 31
0.0
  0
LINE
  5
24D
330
1E
100
AcDbEntity
  8
0
100
AcDbLine
 10
81.49983500000002
 20
176.53265
 30
0.0
 11
82.99983500000001
 21
175.375507142857
 31
0.0
  0
LINE
  5
24E
330
1E
100
AcDbEntity
  8
0
100
AcDbLine
 10
103.999835
 20
181.8716499999999
 30
0.0
 11
103.999835
 21
176.80965
 31
0.0
  0
LINE
  5
24F
330
1E
100
AcDbEntity
  8
0
100
AcDbLine
 10
103.999835
 20
181.8716499999999
 30
0.0
 11
103.999835
 21
185.55165
 31
0.0
  0
LINE
  5
250
330
1E
100
AcDbEntity
  8
0
100
AcDbLine
 10
82.99983500000001
 20
181.8716499999999
 30
0.0
 11
82.99983500000001
 21
176.80965
 31
0.0
  0
LINE
  5
251
330
1E
100
AcDbEntity
  8
0
100
AcDbLine
 10
82.99983500000001
 20
181.8716499999999
 30
0.0
 11
82.99983500000001
 21
185.55165
 31
0.0
  0
LINE
  5
252
330
1E
100
AcDbEntity
  8
0
100
AcDbLine
 10
103.999835
 20
181.8821613871639
 30
0.0
 11
104.2958349999999
 21
182.2826499999999
 31
0.0
  0
LINE
  5
253
330
1E
100
AcDbEntity
  8
0
100
AcDbLine
 10
104.2958349999999
 20
182.2826499999999
 30
0.0
 11
105.545835
 21
185.3506499999999
 31
0.0
  0
LINE
  5
254
330
1E
100
AcDbEntity
  8
0
100
AcDbLine
 10
103.999835
 20
183.021289964789
 30
0.0
 11
104.976835
 21
185.46465
 31
0.0
  0
LINE
  5
255
330
1E
100
AcDbEntity
  8
0
100
AcDbLine
 10
82.704435
 20
182.2826499999999
 30
0.0
 11
82.99983500000001
 21
181.882931809711
 31
0.0
  0
LINE
  5
256
330
1E
100
AcDbEntity
  8
0
100
AcDbLine
 10
120.309835
 20
180.33265
 30
0.0
 11
121.800835
 21
176.83265
 31
0.0
  0
LINE
  5
257
330
1E
100
AcDbEntity
  8
0
100
AcDbLine
 10
117.851835
 20
180.33265
 30
0.0
 11
119.342835
 21
176.83265
 31
0.0
  0
LINE
  5
258
330
1E
100
AcDbEntity
  8
0
100
AcDbLine
 10
150.769835
 20
180.4326499999999
 30
0.0
 11
151.72271
 21
182.5326499999999
 31
0.0
  0
LINE
  5
259
330
1E
100
AcDbEntity
  8
0
100
AcDbLine
 10
154.158835
 20
182.23265
 30
0.0
 11
155.1338349999998
 21
182.03265
 31
0.0
  0
LINE
  5
25A
330
1E
100
AcDbEntity
  8
0
100
AcDbLine
 10
155.1338349999998
 20
182.03265
 30
0.0
 11
158.293635
 21
182.03265
 31
0.0
  0
LINE
  5
25B
330
1E
100
AcDbEntity
  8
0
100
AcDbLine
 10
146.123835
 20
182.5326499999999
 30
0.0
 11
153.7902635714289
 21
182.5326499999999
 31
0.0
  0
LINE
  5
25C
330
1E
100
AcDbEntity
  8
0
100
AcDbLine
 10
164.836835
 20
182.5326499999999
 30
0.0
 11
165.8228349999999
 21
180.0326499999999
 31
0.0
  0
LINE
  5
25D
330
1E
100
AcDbEntity
  8
0
100
AcDbLine
 10
158.049835
 20
182.5326499999999
 30
0.0
 11
159.2688349999999
 21
180.0326499999999
 31
0.0
  0
LINE
  5
25F
330
1E
100
AcDbEntity
  8
0
100
AcDbLine
 10
167.681835
 20
181.13265
 30
0.0
 11
168.943835
 21
179.4326499999999
 31
0.0
  0
LINE
  5
260
330
1E
100
AcDbEntity
  8
0
100
AcDbLine
 10
176.170835
 20
181.13265
 30
0.0
 11
177.145835
 21
183.33265
 31
0.0
  0
LINE
  5
261
330
1E
100
AcDbEntity
  8
0
100
AcDbLine
 10
176.792835
 20
182.5326499999999
 30
0.0
 11
178.351835
 21
184.54265
 31
0.0
  0
LINE
  5
262
330
1E
100
AcDbEntity
  8
0
100
AcDbLine
 10
141.4778349999999
 20
180.4326499999999
 30
0.0
 11
142.853835
 21
178.53265
 31
0.0
  0
LINE
  5
263
330
1E
100
AcDbEntity
  8
0
100
AcDbLine
 10
139.748835
 20
182.5326499999999
 30
0.0
 11
140.838835
 21
180.0326499999999
 31
0.0
  0
LINE
  5
264
330
1E
100
AcDbEntity
  8
0
100
AcDbLine
 10
139.4298349999999
 20
180.4326499999999
 30
0.0
 11
139.609835
 21
180.0326499999999
 31
0.0
  0
LINE
  5
265
330
1E
100
AcDbEntity
  8
0
100
AcDbLine
 10
138.519835
 20
182.5326499999999
 30
0.0
 11
139.609835
 21
180.0326499999999
 31
0.0
  0
LINE
  5
266
330
1E
100
AcDbEntity
  8
0
100
AcDbLine
 10
137.700835
 20
182.5326499999999
 30
0.0
 11
138.790835
 21
180.0326499999999
 31
0.0
  0
LINE
  5
268
330
1E
100
AcDbEntity
  8
0
100
AcDbLine
 10
145.2628349999999
 20
182.73265
 30
0.0
 11
146.123835
 21
182.5326499999999
 31
0.0
  0
LINE
  5
269
330
1E
100
AcDbEntity
  8
0
100
AcDbLine
 10
153.298835
 20
182.93265
 30
0.0
 11
154.158835
 21
182.23265
 31
0.0
  0
LINE
  5
26A
330
1E
100
AcDbEntity
  8
0
100
AcDbLine
 10
144.402835
 20
183.33265
 30
0.0
 11
145.2628349999999
 21
182.73265
 31
0.0
  0
LINE
  5
26B
330
1E
100
AcDbEntity
  8
0
100
AcDbLine
 10
152.495835
 20
183.93265
 30
0.0
 11
153.298835
 21
182.93265
 31
0.0
  0
LINE
  5
26C
330
1E
100
AcDbEntity
  8
0
100
AcDbLine
 10
166.706835
 20
183.33265
 30
0.0
 11
167.681835
 21
181.13265
 31
0.0
  0
LINE
  5
26D
330
1E
100
AcDbEntity
  8
0
100
AcDbLine
 10
177.145835
 20
183.33265
 30
0.0
 11
177.719835
 21
185.83265
 31
0.0
  0
LINE
  5
26E
330
1E
100
AcDbEntity
  8
0
100
AcDbLine
 10
140.387835
 20
182.83265
 30
0.0
 11
141.4778349999999
 21
180.4326499999999
 31
0.0
  0
LINE
  5
26F
330
1E
100
AcDbEntity
  8
0
100
AcDbLine
 10
138.339835
 20
182.83265
 30
0.0
 11
139.4298349999999
 21
180.4326499999999
 31
0.0
  0
LINE
  5
270
330
1E
100
AcDbEntity
  8
0
100
AcDbLine
 10
127.870835
 20
182.5326499999999
 30
0.0
 11
128.9608349999999
 21
180.0326499999999
 31
0.0
  0
LINE
  5
271
330
1E
100
AcDbEntity
  8
0
100
AcDbLine
 10
107.799835
 20
180.33265
 30
0.0
 11
109.399835
 21
184.33265
 31
0.0
  0
LINE
  5
272
330
1E
100
AcDbEntity
  8
0
100
AcDbLine
 10
119.391835
 20
184.33265
 30
0.0
 11
120.309835
 21
180.33265
 31
0.0
  0
LINE
  5
273
330
1E
100
AcDbEntity
  8
0
100
AcDbLine
 10
116.933835
 20
184.33265
 30
0.0
 11
117.851835
 21
180.33265
 31
0.0
  0
LINE
  5
274
330
1E
100
AcDbEntity
  8
0
100
AcDbLine
 10
143.714835
 20
184.33265
 30
0.0
 11
144.402835
 21
183.33265
 31
0.0
  0
LINE
  5
275
330
1E
100
AcDbEntity
  8
0
100
AcDbLine
 10
109.899835
 20
184.13265
 30
0.0
 11
110.499835
 21
188.5326499999999
 31
0.0
  0
LINE
  5
276
330
1E
100
AcDbEntity
  8
0
100
AcDbLine
 10
79.19983499999998
 20
180.33265
 30
0.0
 11
81.799835
 21
176.83265
 31
0.0
  0
LINE
  5
277
330
1E
100
AcDbEntity
  8
0
100
AcDbLine
 10
78.799835
 20
180.0326499999999
 30
0.0
 11
81.49983500000002
 21
176.53265
 31
0.0
  0
LINE
  5
278
330
1E
100
AcDbEntity
  8
0
100
AcDbLine
 10
77.09983499999998
 20
184.13265
 30
0.0
 11
78.799835
 21
180.0326499999999
 31
0.0
  0
LINE
  5
279
330
1E
100
AcDbEntity
  8
0
100
AcDbLine
 10
81.8926921428571
 20
175.5326499999999
 30
0.0
 11
82.99983500000001
 21
174.694812162162
 31
0.0
  0
LINE
  5
27A
330
1E
100
AcDbEntity
  8
0
100
AcDbLine
 10
69.14763499999999
 20
180.33265
 30
0.0
 11
70.06543499999999
 21
184.33265
 31
0.0
  0
LINE
  5
27B
330
1E
100
AcDbEntity
  8
0
100
AcDbLine
 10
58.48803499999998
 20
205.0326499999999
 30
0.0
 11
60.897135
 21
204.4326499999999
 31
0.0
  0
LINE
  5
27C
330
1E
100
AcDbEntity
  8
0
100
AcDbLine
 10
57.19303499999998
 20
204.9326499999998
 30
0.0
 11
59.716835
 21
205.53265
 31
0.0
  0
LINE
  5
27D
330
1E
100
AcDbEntity
  8
0
100
AcDbLine
 10
56.605035
 20
198.9326499999999
 30
0.0
 11
58.039035
 21
197.0326499999999
 31
0.0
  0
LINE
  5
27E
330
1E
100
AcDbEntity
  8
0
100
AcDbLine
 10
58.039035
 20
197.0326499999999
 30
0.0
 11
59.12883499999999
 21
194.53265
 31
0.0
  0
LINE
  5
27F
330
1E
100
AcDbEntity
  8
0
100
AcDbLine
 10
59.716835
 20
205.53265
 30
0.0
 11
62.240535
 21
204.9326499999998
 31
0.0
  0
LINE
  5
280
330
1E
100
AcDbEntity
  8
0
100
AcDbLine
 10
59.66883499999998
 20
199.87465
 30
0.0
 11
62.054035
 21
184.3746499999999
 31
0.0
  0
LINE
  5
281
330
1E
100
AcDbEntity
  8
0
100
AcDbLine
 10
59.66883499999998
 20
199.87465
 30
0.0
 11
64.583735
 21
199.87465
 31
0.0
  0
LINE
  5
282
330
1E
100
AcDbEntity
  8
0
100
AcDbLine
 10
59.12883499999999
 20
194.53265
 30
0.0
 11
59.817035
 21
191.63265
 31
0.0
  0
LINE
  5
283
330
1E
100
AcDbEntity
  8
0
100
AcDbLine
 10
59.817035
 20
191.63265
 30
0.0
 11
60.04653499999999
 21
188.5326499999999
 31
0.0
  0
LINE
  5
284
330
1E
100
AcDbEntity
  8
0
100
AcDbLine
 10
124.945835
 20
184.3746499999999
 30
0.0
 11
131.450835
 21
173.0326499999999
 31
0.0
  0
LINE
  5
285
330
1E
100
AcDbEntity
  8
0
100
AcDbLine
 10
124.945835
 20
184.3746499999999
 30
0.0
 11
127.330835
 21
199.87465
 31
0.0
  0
LINE
  5
286
330
1E
100
AcDbEntity
  8
0
100
AcDbLine
 10
120.030835
 20
184.3746499999999
 30
0.0
 11
124.945835
 21
184.3746499999999
 31
0.0
  0
LINE
  5
287
330
1E
100
AcDbEntity
  8
0
100
AcDbLine
 10
120.030835
 20
184.3746499999999
 30
0.0
 11
126.535835
 21
173.0326499999999
 31
0.0
  0
LINE
  5
288
330
1E
100
AcDbEntity
  8
0
100
AcDbLine
 10
120.030835
 20
184.3746499999999
 30
0.0
 11
122.415835
 21
199.87465
 31
0.0
  0
LINE
  5
289
330
1E
100
AcDbEntity
  8
0
100
AcDbLine
 10
109.399835
 20
184.33265
 30
0.0
 11
109.999835
 21
188.5326499999999
 31
0.0
  0
LINE
  5
28A
330
1E
100
AcDbEntity
  8
0
100
AcDbLine
 10
77.599835
 20
184.33265
 30
0.0
 11
79.19983499999998
 21
180.33265
 31
0.0
  0
LINE
  5
28B
330
1E
100
AcDbEntity
  8
0
100
AcDbLine
 10
63.191435
 20
202.8326499999999
 30
0.0
 11
65.19893499999999
 21
200.23265
 31
0.0
  0
LINE
  5
28C
330
1E
100
AcDbEntity
  8
0
100
AcDbLine
 10
60.897135
 20
204.4326499999999
 30
0.0
 11
63.191435
 21
202.8326499999999
 31
0.0
  0
LINE
  5
28D
330
1E
100
AcDbEntity
  8
0
100
AcDbLine
 10
62.240535
 20
204.9326499999998
 30
0.0
 11
63.35453499999999
 21
204.4326499999999
 31
0.0
  0
LINE
  5
28F
330
1E
100
AcDbEntity
  8
0
100
AcDbLine
 10
63.35453499999999
 20
204.4326499999999
 30
0.0
 11
65.64883499999999
 21
202.8326499999999
 31
0.0
  0
LINE
  5
290
330
1E
100
AcDbEntity
  8
0
100
AcDbLine
 10
67.607935
 20
192.73265
 30
0.0
 11
67.952135
 21
188.5326499999999
 31
0.0
  0
LINE
  5
291
330
1E
100
AcDbEntity
  8
0
100
AcDbLine
 10
66.690235
 20
196.73265
 30
0.0
 11
67.607935
 21
192.73265
 31
0.0
  0
LINE
  5
293
330
1E
100
AcDbEntity
  8
0
100
AcDbLine
 10
69.14763499999999
 20
196.73265
 30
0.0
 11
70.06543499999999
 21
192.73265
 31
0.0
  0
LINE
  5
294
330
1E
100
AcDbEntity
  8
0
100
AcDbLine
 10
70.06543499999999
 20
192.73265
 30
0.0
 11
70.40953499999997
 21
188.5326499999999
 31
0.0
  0
LINE
  5
295
330
1E
100
AcDbEntity
  8
0
100
AcDbLine
 10
81.45433500000001
 20
185.3506499999999
 30
0.0
 11
82.704435
 21
182.2826499999999
 31
0.0
  0
LINE
  5
296
330
1E
100
AcDbEntity
  8
0
100
AcDbLine
 10
81.45433500000001
 20
191.71465
 30
0.0
 11
82.704435
 21
194.7826499999999
 31
0.0
  0
LINE
  5
297
330
1E
100
AcDbEntity
  8
0
100
AcDbLine
 10
81.568035
 20
188.5326499999999
 30
0.0
 11
82.02253499999997
 21
185.46465
 31
0.0
  0
LINE
  5
298
330
1E
100
AcDbEntity
  8
0
100
AcDbLine
 10
81.568035
 20
188.5326499999999
 30
0.0
 11
82.02253499999997
 21
191.6006499999999
 31
0.0
  0
LINE
  5
299
330
1E
100
AcDbEntity
  8
0
100
AcDbLine
 10
80.999835
 20
188.5326499999999
 30
0.0
 11
81.45433500000001
 21
185.3506499999999
 31
0.0
  0
LINE
  5
29A
330
1E
100
AcDbEntity
  8
0
100
AcDbLine
 10
80.999835
 20
188.5326499999999
 30
0.0
 11
81.45433500000001
 21
191.71465
 31
0.0
  0
LINE
  5
29B
330
1E
100
AcDbEntity
  8
0
100
AcDbLine
 10
77.599835
 20
192.73265
 30
0.0
 11
79.19983499999998
 21
196.73265
 31
0.0
  0
LINE
  5
29C
330
1E
100
AcDbEntity
  8
0
100
AcDbLine
 10
76.999835
 20
188.5326499999999
 30
0.0
 11
77.599835
 21
192.73265
 31
0.0
  0
LINE
  5
29D
330
1E
100
AcDbEntity
  8
0
100
AcDbLine
 10
76.999835
 20
188.5326499999999
 30
0.0
 11
77.599835
 21
184.33265
 31
0.0
  0
LINE
  5
29E
330
1E
100
AcDbEntity
  8
0
100
AcDbLine
 10
76.999835
 20
188.5326499999999
 30
0.0
 11
77.599835
 21
184.33265
 31
0.0
  0
LINE
  5
29F
330
1E
100
AcDbEntity
  8
0
100
AcDbLine
 10
77.09983499999998
 20
192.9326499999999
 30
0.0
 11
78.799835
 21
197.0326499999999
 31
0.0
  0
LINE
  5
2A0
330
1E
100
AcDbEntity
  8
0
100
AcDbLine
 10
76.49983500000002
 20
188.5326499999999
 30
0.0
 11
77.09983499999998
 21
192.9326499999999
 31
0.0
  0
LINE
  5
2A1
330
1E
100
AcDbEntity
  8
0
100
AcDbLine
 10
76.49983500000002
 20
188.5326499999999
 30
0.0
 11
77.09983499999998
 21
184.13265
 31
0.0
  0
LINE
  5
2A2
330
1E
100
AcDbEntity
  8
0
100
AcDbLine
 10
65.19893499999999
 20
200.23265
 30
0.0
 11
66.690235
 21
196.73265
 31
0.0
  0
LINE
  5
2A4
330
1E
100
AcDbEntity
  8
0
100
AcDbLine
 10
66.652585
 20
201.53265
 30
0.0
 11
74.07713499999998
 21
201.53265
 31
0.0
  0
LINE
  5
2A5
330
1E
100
AcDbEntity
  8
0
100
AcDbLine
 10
67.65633499999998
 20
200.23265
 30
0.0
 11
69.14763499999999
 21
196.73265
 31
0.0
  0
LINE
  5
2A6
330
1E
100
AcDbEntity
  8
0
100
AcDbLine
 10
74.07713499999998
 20
201.53265
 30
0.0
 11
79.00463499999998
 21
201.53265
 31
0.0
  0
LINE
  5
2A7
330
1E
100
AcDbEntity
  8
0
100
AcDbLine
 10
66.652585
 20
201.53265
 30
0.0
 11
74.07713499999998
 21
201.53265
 31
0.0
  0
LINE
  5
2A8
330
1E
100
AcDbEntity
  8
0
100
AcDbLine
 10
81.799835
 20
200.23265
 30
0.0
 11
85.299835
 21
202.8326499999999
 31
0.0
  0
LINE
  5
2A9
330
1E
100
AcDbEntity
  8
0
100
AcDbLine
 10
79.00463499999998
 20
201.53265
 30
0.0
 11
82.79613129629629
 21
201.53265
 31
0.0
  0
LINE
  5
2AA
330
1E
100
AcDbEntity
  8
0
100
AcDbLine
 10
81.49983500000002
 20
200.5326499999999
 30
0.0
 11
84.999835
 21
203.2326499999999
 31
0.0
  0
LINE
  5
2AB
330
1E
100
AcDbEntity
  8
0
100
AcDbLine
 10
78.799835
 20
197.0326499999999
 30
0.0
 11
81.49983500000002
 21
200.5326499999999
 31
0.0
  0
LINE
  5
2AC
330
1E
100
AcDbEntity
  8
0
100
AcDbLine
 10
79.19983499999998
 20
196.73265
 30
0.0
 11
81.799835
 21
200.23265
 31
0.0
  0
LINE
  5
2AD
330
1E
100
AcDbEntity
  8
0
100
AcDbLine
 10
79.19983499999998
 20
196.73265
 30
0.0
 11
81.799835
 21
200.23265
 31
0.0
  0
LINE
  5
2AE
330
1E
100
AcDbEntity
  8
0
100
AcDbLine
 10
104.976835
 20
185.46465
 30
0.0
 11
105.431835
 21
188.5326499999999
 31
0.0
  0
LINE
  5
2AF
330
1E
100
AcDbEntity
  8
0
100
AcDbLine
 10
105.545835
 20
185.3506499999999
 30
0.0
 11
105.999835
 21
188.5326499999999
 31
0.0
  0
LINE
  5
2B0
330
1E
100
AcDbEntity
  8
0
100
AcDbLine
 10
82.99983500000001
 20
188.5326499999999
 30
0.0
 11
82.99983500000001
 21
187.7836499999999
 31
0.0
  0
LINE
  5
2B1
330
1E
100
AcDbEntity
  8
0
100
AcDbLine
 10
82.99983500000001
 20
185.55165
 30
0.0
 11
82.99983500000001
 21
187.7836499999999
 31
0.0
  0
LINE
  5
2B2
330
1E
100
AcDbEntity
  8
0
100
AcDbLine
 10
82.99983500000001
 20
185.55165
 30
0.0
 11
82.99983500000001
 21
181.8716499999999
 31
0.0
  0
LINE
  5
2B3
330
1E
100
AcDbEntity
  8
0
100
AcDbLine
 10
103.999835
 20
185.55165
 30
0.0
 11
103.999835
 21
181.8716499999999
 31
0.0
  0
LINE
  5
2B4
330
1E
100
AcDbEntity
  8
0
100
AcDbLine
 10
103.999835
 20
185.55165
 30
0.0
 11
103.999835
 21
187.7836499999999
 31
0.0
  0
LINE
  5
2B5
330
1E
100
AcDbEntity
  8
0
100
AcDbLine
 10
103.999835
 20
188.5326499999999
 30
0.0
 11
103.999835
 21
187.7836499999999
 31
0.0
  0
LINE
  5
2B6
330
1E
100
AcDbEntity
  8
0
100
AcDbLine
 10
103.999835
 20
187.7836499999999
 30
0.0
 11
103.999835
 21
185.55165
 31
0.0
  0
LINE
  5
2B7
330
1E
100
AcDbEntity
  8
0
100
AcDbLine
 10
103.999835
 20
187.7836499999999
 30
0.0
 11
103.999835
 21
188.5326499999999
 31
0.0
  0
LINE
  5
2B8
330
1E
100
AcDbEntity
  8
0
100
AcDbLine
 10
82.99983500000001
 20
187.7836499999999
 30
0.0
 11
82.99983500000001
 21
185.55165
 31
0.0
  0
LINE
  5
2B9
330
1E
100
AcDbEntity
  8
0
100
AcDbLine
 10
82.99983500000001
 20
187.7836499999999
 30
0.0
 11
82.99983500000001
 21
188.5326499999999
 31
0.0
  0
LINE
  5
2BA
330
1E
100
AcDbEntity
  8
0
100
AcDbLine
 10
82.02253499999997
 20
191.6006499999999
 30
0.0
 11
83.15893499999999
 21
194.44165
 31
0.0
  0
LINE
  5
2BB
330
1E
100
AcDbEntity
  8
0
100
AcDbLine
 10
105.545835
 20
191.71465
 30
0.0
 11
105.999835
 21
188.5326499999999
 31
0.0
  0
LINE
  5
2BC
330
1E
100
AcDbEntity
  8
0
100
AcDbLine
 10
104.976835
 20
191.6006499999999
 30
0.0
 11
105.431835
 21
188.5326499999999
 31
0.0
  0
LINE
  5
2BD
330
1E
100
AcDbEntity
  8
0
100
AcDbLine
 10
82.02253499999997
 20
185.46465
 30
0.0
 11
82.99983500000001
 21
183.0213999999999
 31
0.0
  0
LINE
  5
2BE
330
1E
100
AcDbEntity
  8
0
100
AcDbLine
 10
119.047835
 20
188.5326499999999
 30
0.0
 11
119.391835
 21
192.73265
 31
0.0
  0
LINE
  5
2BF
330
1E
100
AcDbEntity
  8
0
100
AcDbLine
 10
119.047835
 20
188.5326499999999
 30
0.0
 11
119.391835
 21
184.33265
 31
0.0
  0
LINE
  5
2C2
330
1E
100
AcDbEntity
  8
0
100
AcDbLine
 10
116.589835
 20
188.5326499999999
 30
0.0
 11
116.933835
 21
192.73265
 31
0.0
  0
LINE
  5
2C3
330
1E
100
AcDbEntity
  8
0
100
AcDbLine
 10
116.589835
 20
188.5326499999999
 30
0.0
 11
116.933835
 21
184.33265
 31
0.0
  0
LINE
  5
2C4
330
1E
100
AcDbEntity
  8
0
100
AcDbLine
 10
127.182835
 20
185.4326499999999
 30
0.0
 11
127.870835
 21
182.5326499999999
 31
0.0
  0
LINE
  5
2C5
330
1E
100
AcDbEntity
  8
0
100
AcDbLine
 10
151.921835
 20
185.33265
 30
0.0
 11
152.495835
 21
183.93265
 31
0.0
  0
LINE
  5
2C6
330
1E
100
AcDbEntity
  8
0
100
AcDbLine
 10
163.777835
 20
184.54265
 30
0.0
 11
164.836835
 21
182.5326499999999
 31
0.0
  0
LINE
  5
2C7
330
1E
100
AcDbEntity
  8
0
100
AcDbLine
 10
156.5337195294179
 20
184.487359490615
 30
0.0
 11
158.049835
 21
182.5326499999999
 31
0.0
  0
LINE
  5
2C8
330
1E
100
AcDbEntity
  8
0
100
AcDbLine
 10
178.351835
 20
184.54265
 30
0.0
 11
180.205835
 21
186.38665
 31
0.0
  0
LINE
  5
2C9
330
1E
100
AcDbEntity
  8
0
100
AcDbLine
 10
178.308950470582
 20
184.487359490615
 30
0.0
 11
179.942835
 21
185.9256499999999
 31
0.0
  0
LINE
  5
2CA
330
1E
100
AcDbEntity
  8
0
100
AcDbLine
 10
139.059835
 20
185.4326499999999
 30
0.0
 11
139.748835
 21
182.5326499999999
 31
0.0
  0
LINE
  5
2CB
330
1E
100
AcDbEntity
  8
0
100
AcDbLine
 10
137.831835
 20
185.4326499999999
 30
0.0
 11
138.519835
 21
182.5326499999999
 31
0.0
  0
LINE
  5
2CC
330
1E
100
AcDbEntity
  8
0
100
AcDbLine
 10
143.140835
 20
185.5326499999999
 30
0.0
 11
143.714835
 21
184.33265
 31
0.0
  0
LINE
  5
2CD
330
1E
100
AcDbEntity
  8
0
100
AcDbLine
 10
139.756835
 20
185.5326499999999
 30
0.0
 11
140.387835
 21
182.83265
 31
0.0
  0
LINE
  5
2CE
330
1E
100
AcDbEntity
  8
0
100
AcDbLine
 10
166.133835
 20
185.83265
 30
0.0
 11
166.706835
 21
183.33265
 31
0.0
  0
LINE
  5
2CF
330
1E
100
AcDbEntity
  8
0
100
AcDbLine
 10
154.8998349999999
 20
185.9256499999999
 30
0.0
 11
156.5337195294179
 21
184.487359490615
 31
0.0
  0
LINE
  5
2D0
330
1E
100
AcDbEntity
  8
0
100
AcDbLine
 10
177.719835
 20
185.83265
 30
0.0
 11
177.948835
 21
188.5326499999999
 31
0.0
  0
LINE
  5
2D1
330
1E
100
AcDbEntity
  8
0
100
AcDbLine
 10
153.4564499156859
 20
186.5614718634749
 30
0.0
 11
154.8998349999999
 21
185.9256499999999
 31
0.0
  0
LINE
  5
2D4
330
1E
100
AcDbEntity
  8
0
100
AcDbLine
 10
162.4728349999999
 20
186.38665
 30
0.0
 11
163.777835
 21
184.54265
 31
0.0
  0
LINE
  5
2D5
330
1E
100
AcDbEntity
  8
0
100
AcDbLine
 10
180.205835
 20
186.38665
 30
0.0
 11
182.669835
 21
187.43265
 31
0.0
  0
LINE
  5
2D6
330
1E
100
AcDbEntity
  8
0
100
AcDbLine
 10
179.942835
 20
185.9256499999999
 30
0.0
 11
181.6944726306618
 21
186.5959006661199
 31
0.0
  0
LINE
  5
2D8
330
1E
100
AcDbEntity
  8
0
100
AcDbLine
 10
151.5592635374509
 20
186.6889023536759
 30
0.0
 11
151.921835
 21
185.33265
 31
0.0
  0
LINE
  5
2D9
330
1E
100
AcDbEntity
  8
0
100
AcDbLine
 10
150.811835
 20
186.73265
 30
0.0
 11
153.4564499156859
 21
186.5614718634749
 31
0.0
  0
LINE
  5
2DA
330
1E
100
AcDbEntity
  8
0
100
AcDbLine
 10
181.6944726306618
 20
186.5959006661199
 30
0.0
 11
184.497860641025
 21
186.8223935897439
 31
0.0
  0
LINE
  5
2DB
330
1E
100
AcDbEntity
  8
0
100
AcDbLine
 10
142.796835
 20
187.03265
 30
0.0
 11
143.140835
 21
185.5326499999999
 31
0.0
  0
LINE
  5
2DC
330
1E
100
AcDbEntity
  8
0
100
AcDbLine
 10
147.721835
 20
187.73265
 30
0.0
 11
147.976835
 21
187.73265
 31
0.0
  0
LINE
  5
2DD
330
1E
100
AcDbEntity
  8
0
100
AcDbLine
 10
147.721835
 20
187.73265
 30
0.0
 11
147.745835
 21
188.5326499999999
 31
0.0
  0
LINE
  5
2DE
330
1E
100
AcDbEntity
  8
0
100
AcDbLine
 10
147.721835
 20
187.73265
 30
0.0
 11
148.177835
 21
187.2326499999999
 31
0.0
  0
LINE
  5
2E2
330
1E
100
AcDbEntity
  8
0
100
AcDbLine
 10
157.992835
 20
187.73265
 30
0.0
 11
158.9838349999999
 21
187.73265
 31
0.0
  0
LINE
  5
2E3
330
1E
100
AcDbEntity
  8
0
100
AcDbLine
 10
156.8188349999998
 20
187.73265
 30
0.0
 11
157.992835
 21
187.73265
 31
0.0
  0
LINE
  5
2E4
330
1E
100
AcDbEntity
  8
0
100
AcDbLine
 10
155.606835
 20
187.73265
 30
0.0
 11
156.8188349999998
 21
187.73265
 31
0.0
  0
LINE
  5
2E5
330
1E
100
AcDbEntity
  8
0
100
AcDbLine
 10
154.602835
 20
187.73265
 30
0.0
 11
155.606835
 21
187.73265
 31
0.0
  0
LINE
  5
2E6
330
1E
100
AcDbEntity
  8
0
100
AcDbLine
 10
153.390835
 20
187.73265
 30
0.0
 11
154.602835
 21
187.73265
 31
0.0
  0
LINE
  5
2E7
330
1E
100
AcDbEntity
  8
0
100
AcDbLine
 10
150.787835
 20
187.73265
 30
0.0
 11
153.390835
 21
187.73265
 31
0.0
  0
LINE
  5
2E9
330
1E
100
AcDbEntity
  8
0
100
AcDbLine
 10
148.177835
 20
187.2326499999999
 30
0.0
 11
150.818835
 21
186.73265
 31
0.0
  0
LINE
  5
2EA
330
1E
100
AcDbEntity
  8
0
100
AcDbLine
 10
147.976835
 20
187.73265
 30
0.0
 11
148.592835
 21
187.73265
 31
0.0
  0
LINE
  5
2EB
330
1E
100
AcDbEntity
  8
0
100
AcDbLine
 10
148.592835
 20
187.73265
 30
0.0
 11
150.787835
 21
187.73265
 31
0.0
  0
LINE
  5
2EC
330
1E
100
AcDbEntity
  8
0
100
AcDbLine
 10
160.871835
 20
187.43265
 30
0.0
 11
162.4728349999999
 21
186.38665
 31
0.0
  0
LINE
  5
2ED
330
1E
100
AcDbEntity
  8
0
100
AcDbLine
 10
158.9838349999999
 20
187.73265
 30
0.0
 11
160.871835
 21
187.43265
 31
0.0
  0
LINE
  5
2EE
330
1E
100
AcDbEntity
  8
0
100
AcDbLine
 10
182.669835
 20
187.43265
 30
0.0
 11
185.341835
 21
187.73265
 31
0.0
  0
LINE
  5
2EF
330
1E
100
AcDbEntity
  8
0
100
AcDbLine
 10
184.497860641025
 20
186.8223935897439
 30
0.0
 11
186.664835
 21
187.2326499999999
 31
0.0
  0
LINE
  5
2F1
330
1E
100
AcDbEntity
  8
0
100
AcDbLine
 10
185.341835
 20
187.73265
 30
0.0
 11
186.528835
 21
187.73265
 31
0.0
  0
LINE
  5
2F2
330
1E
100
AcDbEntity
  8
0
100
AcDbLine
 10
186.664835
 20
187.2326499999999
 30
0.0
 11
187.120835
 21
187.73265
 31
0.0
  0
LINE
  5
2F3
330
1E
100
AcDbEntity
  8
0
100
AcDbLine
 10
186.528835
 20
187.73265
 30
0.0
 11
187.073835
 21
187.73265
 31
0.0
  0
LINE
  5
2F4
330
1E
100
AcDbEntity
  8
0
100
AcDbLine
 10
142.681835
 20
188.5326499999999
 30
0.0
 11
142.796835
 21
187.03265
 31
0.0
  0
LINE
  5
2F5
330
1E
100
AcDbEntity
  8
0
100
AcDbLine
 10
142.681835
 20
188.5326499999999
 30
0.0
 11
142.796835
 21
190.03265
 31
0.0
  0
LINE
  5
2F6
330
1E
100
AcDbEntity
  8
0
100
AcDbLine
 10
165.903835
 20
188.5326499999999
 30
0.0
 11
166.133835
 21
185.83265
 31
0.0
  0
LINE
  5
2F7
330
1E
100
AcDbEntity
  8
0
100
AcDbLine
 10
165.903835
 20
188.5326499999999
 30
0.0
 11
166.133835
 21
191.2326499999999
 31
0.0
  0
LINE
  5
2F8
330
1E
100
AcDbEntity
  8
0
100
AcDbLine
 10
187.096835
 20
188.5326499999999
 30
0.0
 11
187.120835
 21
187.73265
 31
0.0
  0
LINE
  5
2F9
330
1E
100
AcDbEntity
  8
0
100
AcDbLine
 10
187.096835
 20
188.5326499999999
 30
0.0
 11
187.120835
 21
189.33265
 31
0.0
  0
LINE
  5
2FA
330
1E
100
AcDbEntity
  8
0
100
AcDbLine
 10
139.526835
 20
188.5326499999999
 30
0.0
 11
139.756835
 21
185.5326499999999
 31
0.0
  0
LINE
  5
2FB
330
1E
100
AcDbEntity
  8
0
100
AcDbLine
 10
139.526835
 20
188.5326499999999
 30
0.0
 11
139.756835
 21
191.5326499999999
 31
0.0
  0
LINE
  5
2FC
330
1E
100
AcDbEntity
  8
0
100
AcDbLine
 10
138.830835
 20
188.5326499999999
 30
0.0
 11
139.059835
 21
185.4326499999999
 31
0.0
  0
LINE
  5
2FD
330
1E
100
AcDbEntity
  8
0
100
AcDbLine
 10
138.830835
 20
188.5326499999999
 30
0.0
 11
139.059835
 21
191.63265
 31
0.0
  0
LINE
  5
2FE
330
1E
100
AcDbEntity
  8
0
100
AcDbLine
 10
137.601835
 20
188.5326499999999
 30
0.0
 11
137.831835
 21
185.4326499999999
 31
0.0
  0
LINE
  5
2FF
330
1E
100
AcDbEntity
  8
0
100
AcDbLine
 10
137.601835
 20
188.5326499999999
 30
0.0
 11
137.831835
 21
191.63265
 31
0.0
  0
LINE
  5
300
330
1E
100
AcDbEntity
  8
0
100
AcDbLine
 10
137.708835
 20
185.5326499999999
 30
0.0
 11
138.339835
 21
182.83265
 31
0.0
  0
LINE
  5
301
330
1E
100
AcDbEntity
  8
0
100
AcDbLine
 10
137.479835
 20
188.5326499999999
 30
0.0
 11
137.708835
 21
185.5326499999999
 31
0.0
  0
LINE
  5
302
330
1E
100
AcDbEntity
  8
0
100
AcDbLine
 10
137.479835
 20
188.5326499999999
 30
0.0
 11
137.708835
 21
191.5326499999999
 31
0.0
  0
LINE
  5
303
330
1E
100
AcDbEntity
  8
0
100
AcDbLine
 10
137.0128349999999
 20
185.4326499999999
 30
0.0
 11
137.700835
 21
182.5326499999999
 31
0.0
  0
LINE
  5
304
330
1E
100
AcDbEntity
  8
0
100
AcDbLine
 10
136.782835
 20
188.5326499999999
 30
0.0
 11
137.0128349999999
 21
185.4326499999999
 31
0.0
  0
LINE
  5
305
330
1E
100
AcDbEntity
  8
0
100
AcDbLine
 10
136.782835
 20
188.5326499999999
 30
0.0
 11
137.0128349999999
 21
191.63265
 31
0.0
  0
LINE
  5
306
330
1E
100
AcDbEntity
  8
0
100
AcDbLine
 10
119.391835
 20
192.73265
 30
0.0
 11
120.309835
 21
196.73265
 31
0.0
  0
LINE
  5
308
330
1E
100
AcDbEntity
  8
0
100
AcDbLine
 10
116.933835
 20
192.73265
 30
0.0
 11
117.851835
 21
196.73265
 31
0.0
  0
LINE
  5
309
330
1E
100
AcDbEntity
  8
0
100
AcDbLine
 10
147.721835
 20
189.33265
 30
0.0
 11
147.745835
 21
188.5326499999999
 31
0.0
  0
LINE
  5
30A
330
1E
100
AcDbEntity
  8
0
100
AcDbLine
 10
147.721835
 20
189.33265
 30
0.0
 11
147.976835
 21
189.33265
 31
0.0
  0
LINE
  5
30B
330
1E
100
AcDbEntity
  8
0
100
AcDbLine
 10
147.721835
 20
189.33265
 30
0.0
 11
148.177835
 21
189.8326499999999
 31
0.0
  0
LINE
  5
30C
330
1E
100
AcDbEntity
  8
0
100
AcDbLine
 10
157.992835
 20
189.33265
 30
0.0
 11
158.9838349999999
 21
189.33265
 31
0.0
  0
LINE
  5
30D
330
1E
100
AcDbEntity
  8
0
100
AcDbLine
 10
156.8188349999998
 20
189.33265
 30
0.0
 11
157.992835
 21
189.33265
 31
0.0
  0
LINE
  5
30E
330
1E
100
AcDbEntity
  8
0
100
AcDbLine
 10
155.606835
 20
189.33265
 30
0.0
 11
156.8188349999998
 21
189.33265
 31
0.0
  0
LINE
  5
30F
330
1E
100
AcDbEntity
  8
0
100
AcDbLine
 10
154.602835
 20
189.33265
 30
0.0
 11
155.606835
 21
189.33265
 31
0.0
  0
LINE
  5
310
330
1E
100
AcDbEntity
  8
0
100
AcDbLine
 10
153.390835
 20
189.33265
 30
0.0
 11
154.602835
 21
189.33265
 31
0.0
  0
LINE
  5
311
330
1E
100
AcDbEntity
  8
0
100
AcDbLine
 10
150.787835
 20
189.33265
 30
0.0
 11
153.390835
 21
189.33265
 31
0.0
  0
LINE
  5
312
330
1E
100
AcDbEntity
  8
0
100
AcDbLine
 10
147.976835
 20
189.33265
 30
0.0
 11
148.592835
 21
189.33265
 31
0.0
  0
LINE
  5
313
330
1E
100
AcDbEntity
  8
0
100
AcDbLine
 10
142.796835
 20
190.03265
 30
0.0
 11
143.140835
 21
191.5326499999999
 31
0.0
  0
LINE
  5
317
330
1E
100
AcDbEntity
  8
0
100
AcDbLine
 10
151.5592635374509
 20
190.3763976463238
 30
0.0
 11
151.921835
 21
191.73265
 31
0.0
  0
LINE
  5
318
330
1E
100
AcDbEntity
  8
0
100
AcDbLine
 10
150.811835
 20
190.33265
 30
0.0
 11
153.4564499156859
 21
190.503828136525
 31
0.0
  0
LINE
  5
31A
330
1E
100
AcDbEntity
  8
0
100
AcDbLine
 10
148.177835
 20
189.8326499999999
 30
0.0
 11
150.818835
 21
190.33265
 31
0.0
  0
LINE
  5
31B
330
1E
100
AcDbEntity
  8
0
100
AcDbLine
 10
148.592835
 20
189.33265
 30
0.0
 11
150.787835
 21
189.33265
 31
0.0
  0
LINE
  5
31C
330
1E
100
AcDbEntity
  8
0
100
AcDbLine
 10
160.871835
 20
189.63265
 30
0.0
 11
162.4728349999999
 21
190.67865
 31
0.0
  0
LINE
  5
31D
330
1E
100
AcDbEntity
  8
0
100
AcDbLine
 10
158.9838349999999
 20
189.33265
 30
0.0
 11
160.871835
 21
189.63265
 31
0.0
  0
LINE
  5
31E
330
1E
100
AcDbEntity
  8
0
100
AcDbLine
 10
153.4564499156859
 20
190.503828136525
 30
0.0
 11
154.8998349999999
 21
191.13965
 31
0.0
  0
LINE
  5
31F
330
1E
100
AcDbEntity
  8
0
100
AcDbLine
 10
162.4728349999999
 20
190.67865
 30
0.0
 11
163.777835
 21
192.5226499999999
 31
0.0
  0
LINE
  5
320
330
1E
100
AcDbEntity
  8
0
100
AcDbLine
 10
154.8998349999999
 20
191.13965
 30
0.0
 11
156.5337195294179
 21
192.577940509385
 31
0.0
  0
LINE
  5
323
330
1E
100
AcDbEntity
  8
0
100
AcDbLine
 10
180.205835
 20
190.67865
 30
0.0
 11
182.669835
 21
189.63265
 31
0.0
  0
LINE
  5
324
330
1E
100
AcDbEntity
  8
0
100
AcDbLine
 10
143.140835
 20
191.5326499999999
 30
0.0
 11
143.714835
 21
192.73265
 31
0.0
  0
LINE
  5
325
330
1E
100
AcDbEntity
  8
0
100
AcDbLine
 10
177.719835
 20
191.2326499999999
 30
0.0
 11
177.948835
 21
188.5326499999999
 31
0.0
  0
LINE
  5
326
330
1E
100
AcDbEntity
  8
0
100
AcDbLine
 10
166.133835
 20
191.2326499999999
 30
0.0
 11
166.706835
 21
193.73265
 31
0.0
  0
LINE
  5
327
330
1E
100
AcDbEntity
  8
0
100
AcDbLine
 10
179.942835
 20
191.13965
 30
0.0
 11
181.3862200843138
 21
190.503828136525
 31
0.0
  0
LINE
  5
328
330
1E
100
AcDbEntity
  8
0
100
AcDbLine
 10
185.341835
 20
189.33265
 30
0.0
 11
186.528835
 21
189.33265
 31
0.0
  0
LINE
  5
329
330
1E
100
AcDbEntity
  8
0
100
AcDbLine
 10
186.528835
 20
189.33265
 30
0.0
 11
187.073835
 21
189.33265
 31
0.0
  0
LINE
  5
32B
330
1E
100
AcDbEntity
  8
0
100
AcDbLine
 10
181.3862200843138
 20
190.503828136525
 30
0.0
 11
184.497860641025
 21
190.242906410257
 31
0.0
  0
LINE
  5
32C
330
1E
100
AcDbEntity
  8
0
100
AcDbLine
 10
184.497860641025
 20
190.242906410257
 30
0.0
 11
186.664835
 21
189.8326499999999
 31
0.0
  0
LINE
  5
32D
330
1E
100
AcDbEntity
  8
0
100
AcDbLine
 10
186.664835
 20
189.8326499999999
 30
0.0
 11
187.120835
 21
189.33265
 31
0.0
  0
LINE
  5
32E
330
1E
100
AcDbEntity
  8
0
100
AcDbLine
 10
182.669835
 20
189.63265
 30
0.0
 11
185.341835
 21
189.33265
 31
0.0
  0
LINE
  5
330
330
1E
100
AcDbEntity
  8
0
100
AcDbLine
 10
139.756835
 20
191.5326499999999
 30
0.0
 11
140.387835
 21
194.23265
 31
0.0
  0
LINE
  5
331
330
1E
100
AcDbEntity
  8
0
100
AcDbLine
 10
139.059835
 20
191.63265
 30
0.0
 11
139.748835
 21
194.53265
 31
0.0
  0
LINE
  5
332
330
1E
100
AcDbEntity
  8
0
100
AcDbLine
 10
137.831835
 20
191.63265
 30
0.0
 11
138.519835
 21
194.53265
 31
0.0
  0
LINE
  5
333
330
1E
100
AcDbEntity
  8
0
100
AcDbLine
 10
137.708835
 20
191.5326499999999
 30
0.0
 11
138.339835
 21
194.23265
 31
0.0
  0
LINE
  5
334
330
1E
100
AcDbEntity
  8
0
100
AcDbLine
 10
151.921835
 20
191.73265
 30
0.0
 11
152.495835
 21
193.13265
 31
0.0
  0
LINE
  5
335
330
1E
100
AcDbEntity
  8
0
100
AcDbLine
 10
143.714835
 20
192.73265
 30
0.0
 11
144.402835
 21
193.73265
 31
0.0
  0
LINE
  5
336
330
1E
100
AcDbEntity
  8
0
100
AcDbLine
 10
156.5337195294179
 20
192.577940509385
 30
0.0
 11
158.049835
 21
194.53265
 31
0.0
  0
LINE
  5
337
330
1E
100
AcDbEntity
  8
0
100
AcDbLine
 10
163.777835
 20
192.5226499999999
 30
0.0
 11
164.836835
 21
194.53265
 31
0.0
  0
LINE
  5
338
330
1E
100
AcDbEntity
  8
0
100
AcDbLine
 10
178.351835
 20
192.5226499999999
 30
0.0
 11
180.205835
 21
190.67865
 31
0.0
  0
LINE
  5
339
330
1E
100
AcDbEntity
  8
0
100
AcDbLine
 10
178.308950470582
 20
192.577940509385
 30
0.0
 11
179.942835
 21
191.13965
 31
0.0
  0
LINE
  5
33A
330
1E
100
AcDbEntity
  8
0
100
AcDbLine
 10
137.0128349999999
 20
191.63265
 30
0.0
 11
137.700835
 21
194.53265
 31
0.0
  0
LINE
  5
33B
330
1E
100
AcDbEntity
  8
0
100
AcDbLine
 10
127.182835
 20
191.63265
 30
0.0
 11
127.870835
 21
194.53265
 31
0.0
  0
LINE
  5
33C
330
1E
100
AcDbEntity
  8
0
100
AcDbLine
 10
126.952835
 20
188.5326499999999
 30
0.0
 11
127.182835
 21
185.4326499999999
 31
0.0
  0
LINE
  5
33D
330
1E
100
AcDbEntity
  8
0
100
AcDbLine
 10
126.952835
 20
188.5326499999999
 30
0.0
 11
127.182835
 21
191.63265
 31
0.0
  0
LINE
  5
33E
330
1E
100
AcDbEntity
  8
0
100
AcDbLine
 10
109.399835
 20
192.73265
 30
0.0
 11
109.999835
 21
188.5326499999999
 31
0.0
  0
LINE
  5
33F
330
1E
100
AcDbEntity
  8
0
100
AcDbLine
 10
84.399835
 20
193.73265
 30
0.0
 11
86.099835
 21
195.9326499999999
 31
0.0
  0
LINE
  5
340
330
1E
100
AcDbEntity
  8
0
100
AcDbLine
 10
82.704435
 20
194.7826499999999
 30
0.0
 11
84.636235
 21
197.3966499999999
 31
0.0
  0
LINE
  5
341
330
1E
100
AcDbEntity
  8
0
100
AcDbLine
 10
83.15893499999999
 20
194.44165
 30
0.0
 11
85.09073499999997
 21
196.94165
 31
0.0
  0
LINE
  5
342
330
1E
100
AcDbEntity
  8
0
100
AcDbLine
 10
100.8998349999999
 20
195.9326499999999
 30
0.0
 11
102.599835
 21
193.73265
 31
0.0
  0
LINE
  5
343
330
1E
100
AcDbEntity
  8
0
100
AcDbLine
 10
86.099835
 20
195.9326499999999
 30
0.0
 11
88.299835
 21
197.63265
 31
0.0
  0
LINE
  5
344
330
1E
100
AcDbEntity
  8
0
100
AcDbLine
 10
85.09073499999997
 20
196.94165
 30
0.0
 11
87.59073499999997
 21
198.87365
 31
0.0
  0
LINE
  5
345
330
1E
100
AcDbEntity
  8
0
100
AcDbLine
 10
84.636235
 20
197.3966499999999
 30
0.0
 11
87.249835
 21
199.32865
 31
0.0
  0
LINE
  5
346
330
1E
100
AcDbEntity
  8
0
100
AcDbLine
 10
87.249835
 20
199.32865
 30
0.0
 11
90.318035
 21
200.57865
 31
0.0
  0
LINE
  5
347
330
1E
100
AcDbEntity
  8
0
100
AcDbLine
 10
98.699835
 20
197.63265
 30
0.0
 11
100.8998349999999
 21
195.9326499999999
 31
0.0
  0
LINE
  5
348
330
1E
100
AcDbEntity
  8
0
100
AcDbLine
 10
93.499835
 20
199.0326499999999
 30
0.0
 11
96.199835
 21
198.63265
 31
0.0
  0
LINE
  5
349
330
1E
100
AcDbEntity
  8
0
100
AcDbLine
 10
96.199835
 20
198.63265
 30
0.0
 11
98.699835
 21
197.63265
 31
0.0
  0
LINE
  5
34A
330
1E
100
AcDbEntity
  8
0
100
AcDbLine
 10
90.799835
 20
198.63265
 30
0.0
 11
93.499835
 21
199.0326499999999
 31
0.0
  0
LINE
  5
34B
330
1E
100
AcDbEntity
  8
0
100
AcDbLine
 10
88.299835
 20
197.63265
 30
0.0
 11
90.799835
 21
198.63265
 31
0.0
  0
LINE
  5
34C
330
1E
100
AcDbEntity
  8
0
100
AcDbLine
 10
87.59073499999997
 20
198.87365
 30
0.0
 11
90.431635
 21
200.00965
 31
0.0
  0
LINE
  5
34D
330
1E
100
AcDbEntity
  8
0
100
AcDbLine
 10
90.431635
 20
200.00965
 30
0.0
 11
93.499835
 21
200.46465
 31
0.0
  0
LINE
  5
34E
330
1E
100
AcDbEntity
  8
0
100
AcDbLine
 10
99.749835
 20
199.32865
 30
0.0
 11
102.3638349999999
 21
197.3966499999999
 31
0.0
  0
LINE
  5
34F
330
1E
100
AcDbEntity
  8
0
100
AcDbLine
 10
99.40883499999999
 20
198.87365
 30
0.0
 11
101.908835
 21
196.94165
 31
0.0
  0
LINE
  5
350
330
1E
100
AcDbEntity
  8
0
100
AcDbLine
 10
96.56783500000001
 20
200.00965
 30
0.0
 11
99.40883499999999
 21
198.87365
 31
0.0
  0
LINE
  5
351
330
1E
100
AcDbEntity
  8
0
100
AcDbLine
 10
102.3638349999999
 20
197.3966499999999
 30
0.0
 11
104.2958349999999
 21
194.7826499999999
 31
0.0
  0
LINE
  5
352
330
1E
100
AcDbEntity
  8
0
100
AcDbLine
 10
101.908835
 20
196.94165
 30
0.0
 11
103.840835
 21
194.44165
 31
0.0
  0
LINE
  5
353
330
1E
100
AcDbEntity
  8
0
100
AcDbLine
 10
104.2958349999999
 20
194.7826499999999
 30
0.0
 11
105.545835
 21
191.71465
 31
0.0
  0
LINE
  5
354
330
1E
100
AcDbEntity
  8
0
100
AcDbLine
 10
103.840835
 20
194.44165
 30
0.0
 11
104.976835
 21
191.6006499999999
 31
0.0
  0
LINE
  5
355
330
1E
100
AcDbEntity
  8
0
100
AcDbLine
 10
93.499835
 20
200.46465
 30
0.0
 11
96.56783500000001
 21
200.00965
 31
0.0
  0
LINE
  5
356
330
1E
100
AcDbEntity
  8
0
100
AcDbLine
 10
105.199835
 20
200.23265
 30
0.0
 11
107.799835
 21
196.73265
 31
0.0
  0
LINE
  5
357
330
1E
100
AcDbEntity
  8
0
100
AcDbLine
 10
107.799835
 20
196.73265
 30
0.0
 11
109.399835
 21
192.73265
 31
0.0
  0
LINE
  5
358
330
1E
100
AcDbEntity
  8
0
100
AcDbLine
 10
90.318035
 20
200.57865
 30
0.0
 11
93.499835
 21
201.03265
 31
0.0
  0
LINE
  5
359
330
1E
100
AcDbEntity
  8
0
100
AcDbLine
 10
107.994835
 20
201.53265
 30
0.0
 11
112.9228349999999
 21
201.53265
 31
0.0
  0
LINE
  5
35A
330
1E
100
AcDbEntity
  8
0
100
AcDbLine
 10
104.203538703704
 20
201.53265
 30
0.0
 11
107.994835
 21
201.53265
 31
0.0
  0
LINE
  5
35B
330
1E
100
AcDbEntity
  8
0
100
AcDbLine
 10
96.68183500000001
 20
200.57865
 30
0.0
 11
99.749835
 21
199.32865
 31
0.0
  0
LINE
  5
35C
330
1E
100
AcDbEntity
  8
0
100
AcDbLine
 10
93.499835
 20
201.03265
 30
0.0
 11
96.68183500000001
 21
200.57865
 31
0.0
  0
LINE
  5
35D
330
1E
100
AcDbEntity
  8
0
100
AcDbLine
 10
105.4998349999999
 20
200.5326499999999
 30
0.0
 11
108.199835
 21
197.0326499999999
 31
0.0
  0
LINE
  5
35E
330
1E
100
AcDbEntity
  8
0
100
AcDbLine
 10
120.309835
 20
196.73265
 30
0.0
 11
121.800835
 21
200.23265
 31
0.0
  0
LINE
  5
35F
330
1E
100
AcDbEntity
  8
0
100
AcDbLine
 10
117.851835
 20
196.73265
 30
0.0
 11
119.342835
 21
200.23265
 31
0.0
  0
LINE
  5
360
330
1E
100
AcDbEntity
  8
0
100
AcDbLine
 10
138.519835
 20
194.53265
 30
0.0
 11
139.609835
 21
197.0326499999999
 31
0.0
  0
LINE
  5
361
330
1E
100
AcDbEntity
  8
0
100
AcDbLine
 10
138.339835
 20
194.23265
 30
0.0
 11
139.4298349999999
 21
196.63265
 31
0.0
  0
LINE
  5
362
330
1E
100
AcDbEntity
  8
0
100
AcDbLine
 10
137.700835
 20
194.53265
 30
0.0
 11
138.790835
 21
197.0326499999999
 31
0.0
  0
LINE
  5
363
330
1E
100
AcDbEntity
  8
0
100
AcDbLine
 10
127.870835
 20
194.53265
 30
0.0
 11
128.9608349999999
 21
197.0326499999999
 31
0.0
  0
LINE
  5
364
330
1E
100
AcDbEntity
  8
0
100
AcDbLine
 10
128.9608349999999
 20
197.0326499999999
 30
0.0
 11
130.3948349999999
 21
198.9326499999999
 31
0.0
  0
LINE
  5
365
330
1E
100
AcDbEntity
  8
0
100
AcDbLine
 10
139.748835
 20
194.53265
 30
0.0
 11
140.838835
 21
197.0326499999999
 31
0.0
  0
LINE
  5
366
330
1E
100
AcDbEntity
  8
0
100
AcDbLine
 10
139.609835
 20
197.0326499999999
 30
0.0
 11
141.0438349999999
 21
198.9326499999999
 31
0.0
  0
LINE
  5
367
330
1E
100
AcDbEntity
  8
0
100
AcDbLine
 10
139.4298349999999
 20
196.63265
 30
0.0
 11
139.609835
 21
197.0326499999999
 31
0.0
  0
LINE
  5
368
330
1E
100
AcDbEntity
  8
0
100
AcDbLine
 10
138.790835
 20
197.0326499999999
 30
0.0
 11
140.224835
 21
198.9326499999999
 31
0.0
  0
LINE
  5
369
330
1E
100
AcDbEntity
  8
0
100
AcDbLine
 10
127.330835
 20
199.87465
 30
0.0
 11
136.220835
 21
204.0326499999999
 31
0.0
  0
LINE
  5
36A
330
1E
100
AcDbEntity
  8
0
100
AcDbLine
 10
122.415835
 20
199.87465
 30
0.0
 11
127.330835
 21
199.87465
 31
0.0
  0
LINE
  5
36B
330
1E
100
AcDbEntity
  8
0
100
AcDbLine
 10
122.415835
 20
199.87465
 30
0.0
 11
131.3068349999998
 21
204.0326499999999
 31
0.0
  0
LINE
  5
36C
330
1E
100
AcDbEntity
  8
0
100
AcDbLine
 10
130.3948349999999
 20
198.9326499999999
 30
0.0
 11
132.057835
 21
200.13265
 31
0.0
  0
LINE
  5
36D
330
1E
100
AcDbEntity
  8
0
100
AcDbLine
 10
140.387835
 20
194.23265
 30
0.0
 11
141.4778349999999
 21
196.63265
 31
0.0
  0
LINE
  5
36E
330
1E
100
AcDbEntity
  8
0
100
AcDbLine
 10
141.4778349999999
 20
196.63265
 30
0.0
 11
142.853835
 21
198.53265
 31
0.0
  0
LINE
  5
36F
330
1E
100
AcDbEntity
  8
0
100
AcDbLine
 10
140.838835
 20
197.0326499999999
 30
0.0
 11
142.271835
 21
198.9326499999999
 31
0.0
  0
LINE
  5
370
330
1E
100
AcDbEntity
  8
0
100
AcDbLine
 10
141.0438349999999
 20
198.9326499999999
 30
0.0
 11
142.706835
 21
200.13265
 31
0.0
  0
LINE
  5
371
330
1E
100
AcDbEntity
  8
0
100
AcDbLine
 10
140.224835
 20
198.9326499999999
 30
0.0
 11
141.8878349999999
 21
200.13265
 31
0.0
  0
LINE
  5
372
330
1E
100
AcDbEntity
  8
0
100
AcDbLine
 10
121.800835
 20
200.23265
 30
0.0
 11
123.807835
 21
202.8326499999999
 31
0.0
  0
LINE
  5
373
330
1E
100
AcDbEntity
  8
0
100
AcDbLine
 10
119.342835
 20
200.23265
 30
0.0
 11
121.350835
 21
202.8326499999999
 31
0.0
  0
LINE
  5
374
330
1E
100
AcDbEntity
  8
0
100
AcDbLine
 10
133.835835
 20
200.5326499999999
 30
0.0
 11
143.665835
 21
200.5326499999999
 31
0.0
  0
LINE
  5
375
330
1E
100
AcDbEntity
  8
0
100
AcDbLine
 10
132.057835
 20
200.13265
 30
0.0
 11
133.835835
 21
200.5326499999999
 31
0.0
  0
LINE
  5
376
330
1E
100
AcDbEntity
  8
0
100
AcDbLine
 10
142.853835
 20
198.53265
 30
0.0
 11
144.402835
 21
199.63265
 31
0.0
  0
LINE
  5
377
330
1E
100
AcDbEntity
  8
0
100
AcDbLine
 10
142.271835
 20
198.9326499999999
 30
0.0
 11
143.935835
 21
200.13265
 31
0.0
  0
LINE
  5
378
330
1E
100
AcDbEntity
  8
0
100
AcDbLine
 10
144.402835
 20
193.73265
 30
0.0
 11
145.2628349999999
 21
194.3326499999999
 31
0.0
  0
LINE
  5
379
330
1E
100
AcDbEntity
  8
0
100
AcDbLine
 10
145.2628349999999
 20
194.3326499999999
 30
0.0
 11
146.123835
 21
194.53265
 31
0.0
  0
LINE
  5
37A
330
1E
100
AcDbEntity
  8
0
100
AcDbLine
 10
146.123835
 20
194.53265
 30
0.0
 11
153.7902635714289
 21
194.53265
 31
0.0
  0
LINE
  5
37B
330
1E
100
AcDbEntity
  8
0
100
AcDbLine
 10
147.843835
 20
199.63265
 30
0.0
 11
149.392835
 21
198.53265
 31
0.0
  0
LINE
  5
37C
330
1E
100
AcDbEntity
  8
0
100
AcDbLine
 10
152.495835
 20
193.13265
 30
0.0
 11
153.298835
 21
194.13265
 31
0.0
  0
LINE
  5
37D
330
1E
100
AcDbEntity
  8
0
100
AcDbLine
 10
177.145835
 20
193.73265
 30
0.0
 11
177.719835
 21
191.2326499999999
 31
0.0
  0
LINE
  5
37E
330
1E
100
AcDbEntity
  8
0
100
AcDbLine
 10
153.298835
 20
194.13265
 30
0.0
 11
154.158835
 21
194.83265
 31
0.0
  0
LINE
  5
37F
330
1E
100
AcDbEntity
  8
0
100
AcDbLine
 10
164.836835
 20
194.53265
 30
0.0
 11
165.8228349999999
 21
197.0326499999999
 31
0.0
  0
LINE
  5
380
330
1E
100
AcDbEntity
  8
0
100
AcDbLine
 10
155.1338349999998
 20
195.0326499999999
 30
0.0
 11
158.293635
 21
195.0326499999999
 31
0.0
  0
LINE
  5
381
330
1E
100
AcDbEntity
  8
0
100
AcDbLine
 10
154.158835
 20
194.83265
 30
0.0
 11
155.1338349999998
 21
195.0326499999999
 31
0.0
  0
LINE
  5
382
330
1E
100
AcDbEntity
  8
0
100
AcDbLine
 10
165.8228349999999
 20
197.0326499999999
 30
0.0
 11
167.373835
 21
198.9546499999999
 31
0.0
  0
LINE
  5
383
330
1E
100
AcDbEntity
  8
0
100
AcDbLine
 10
159.2688349999999
 20
197.0326499999999
 30
0.0
 11
160.585835
 21
198.9546499999999
 31
0.0
  0
LINE
  5
384
330
1E
100
AcDbEntity
  8
0
100
AcDbLine
 10
158.049835
 20
194.53265
 30
0.0
 11
159.2688349999999
 21
197.0326499999999
 31
0.0
  0
LINE
  5
385
330
1E
100
AcDbEntity
  8
0
100
AcDbLine
 10
176.792835
 20
194.53265
 30
0.0
 11
178.351835
 21
192.5226499999999
 31
0.0
  0
LINE
  5
386
330
1E
100
AcDbEntity
  8
0
100
AcDbLine
 10
176.170835
 20
195.9326499999999
 30
0.0
 11
177.145835
 21
193.73265
 31
0.0
  0
LINE
  5
387
330
1E
100
AcDbEntity
  8
0
100
AcDbLine
 10
175.572835
 20
197.0326499999999
 30
0.0
 11
175.9922170536539
 21
196.173260545791
 31
0.0
  0
LINE
  5
388
330
1E
100
AcDbEntity
  8
0
100
AcDbLine
 10
167.681835
 20
195.9326499999999
 30
0.0
 11
168.943835
 21
197.63265
 31
0.0
  0
LINE
  5
389
330
1E
100
AcDbEntity
  8
0
100
AcDbLine
 10
166.706835
 20
193.73265
 30
0.0
 11
167.681835
 21
195.9326499999999
 31
0.0
  0
LINE
  5
38A
330
1E
100
AcDbEntity
  8
0
100
AcDbLine
 10
150.769835
 20
196.63265
 30
0.0
 11
151.72271
 21
194.53265
 31
0.0
  0
LINE
  5
38B
330
1E
100
AcDbEntity
  8
0
100
AcDbLine
 10
174.908835
 20
197.63265
 30
0.0
 11
176.170835
 21
195.9326499999999
 31
0.0
  0
LINE
  5
38C
330
1E
100
AcDbEntity
  8
0
100
AcDbLine
 10
173.474835
 20
198.63265
 30
0.0
 11
174.908835
 21
197.63265
 31
0.0
  0
LINE
  5
38D
330
1E
100
AcDbEntity
  8
0
100
AcDbLine
 10
168.943835
 20
197.63265
 30
0.0
 11
170.377835
 21
198.63265
 31
0.0
  0
LINE
  5
38E
330
1E
100
AcDbEntity
  8
0
100
AcDbLine
 10
174.2568349999999
 20
198.9546499999999
 30
0.0
 11
175.572835
 21
197.0326499999999
 31
0.0
  0
LINE
  5
390
330
1E
100
AcDbEntity
  8
0
100
AcDbLine
 10
171.926835
 20
199.0326499999999
 30
0.0
 11
173.474835
 21
198.63265
 31
0.0
  0
LINE
  5
391
330
1E
100
AcDbEntity
  8
0
100
AcDbLine
 10
167.373835
 20
198.9546499999999
 30
0.0
 11
168.775835
 21
201.23665
 31
0.0
  0
LINE
  5
392
330
1E
100
AcDbEntity
  8
0
100
AcDbLine
 10
160.585835
 20
198.9546499999999
 30
0.0
 11
161.488835
 21
201.23665
 31
0.0
  0
LINE
  5
393
330
1E
100
AcDbEntity
  8
0
100
AcDbLine
 10
170.377835
 20
198.63265
 30
0.0
 11
171.926835
 21
199.0326499999999
 31
0.0
  0
LINE
  5
394
330
1E
100
AcDbEntity
  8
0
100
AcDbLine
 10
149.392835
 20
198.53265
 30
0.0
 11
150.769835
 21
196.63265
 31
0.0
  0
LINE
  5
395
330
1E
100
AcDbEntity
  8
0
100
AcDbLine
 10
150.588835
 20
197.0326499999999
 30
0.0
 11
150.769835
 21
196.63265
 31
0.0
  0
LINE
  5
396
330
1E
100
AcDbEntity
  8
0
100
AcDbLine
 10
149.154835
 20
198.9326499999999
 30
0.0
 11
150.588835
 21
197.0326499999999
 31
0.0
  0
LINE
  5
397
330
1E
100
AcDbEntity
  8
0
100
AcDbLine
 10
146.123835
 20
200.0326499999999
 30
0.0
 11
147.843835
 21
199.63265
 31
0.0
  0
LINE
  5
398
330
1E
100
AcDbEntity
  8
0
100
AcDbLine
 10
147.491835
 20
200.13265
 30
0.0
 11
149.154835
 21
198.9326499999999
 31
0.0
  0
LINE
  5
399
330
1E
100
AcDbEntity
  8
0
100
AcDbLine
 10
144.402835
 20
199.63265
 30
0.0
 11
146.123835
 21
200.0326499999999
 31
0.0
  0
LINE
  5
39A
330
1E
100
AcDbEntity
  8
0
100
AcDbLine
 10
143.935835
 20
200.13265
 30
0.0
 11
145.713835
 21
200.5326499999999
 31
0.0
  0
LINE
  5
39B
330
1E
100
AcDbEntity
  8
0
100
AcDbLine
 10
143.665835
 20
200.5326499999999
 30
0.0
 11
144.075335
 21
200.4405240157479
 31
0.0
  0
LINE
  5
39C
330
1E
100
AcDbEntity
  8
0
100
AcDbLine
 10
161.488835
 20
201.23665
 30
0.0
 11
162.271835
 21
203.9906499999999
 31
0.0
  0
LINE
  5
39D
330
1E
100
AcDbEntity
  8
0
100
AcDbLine
 10
173.353835
 20
201.23665
 30
0.0
 11
174.2568349999999
 21
198.9546499999999
 31
0.0
  0
LINE
  5
39E
330
1E
100
AcDbEntity
  8
0
100
AcDbLine
 10
168.775835
 20
201.23665
 30
0.0
 11
170.107835
 21
203.9906499999999
 31
0.0
  0
LINE
  5
39F
330
1E
100
AcDbEntity
  8
0
100
AcDbLine
 10
145.713835
 20
200.5326499999999
 30
0.0
 11
147.491835
 21
200.13265
 31
0.0
  0
LINE
  5
3A0
330
1E
100
AcDbEntity
  8
0
100
AcDbLine
 10
144.484835
 20
200.5326499999999
 30
0.0
 11
145.713835
 21
200.5326499999999
 31
0.0
  0
LINE
  5
3A1
330
1E
100
AcDbEntity
  8
0
100
AcDbLine
 10
142.706835
 20
200.13265
 30
0.0
 11
144.484835
 21
200.5326499999999
 31
0.0
  0
LINE
  5
3A2
330
1E
100
AcDbEntity
  8
0
100
AcDbLine
 10
141.8878349999999
 20
200.13265
 30
0.0
 11
143.665835
 21
200.5326499999999
 31
0.0
  0
LINE
  5
3A3
330
1E
100
AcDbEntity
  8
0
100
AcDbLine
 10
112.9228349999999
 20
201.53265
 30
0.0
 11
120.346835
 21
201.53265
 31
0.0
  0
LINE
  5
3A4
330
1E
100
AcDbEntity
  8
0
100
AcDbLine
 10
112.9228349999999
 20
201.53265
 30
0.0
 11
120.346835
 21
201.53265
 31
0.0
  0
LINE
  5
3A5
330
1E
100
AcDbEntity
  8
0
100
AcDbLine
 10
108.199835
 20
197.0326499999999
 30
0.0
 11
109.899835
 21
192.9326499999999
 31
0.0
  0
LINE
  5
3A6
330
1E
100
AcDbEntity
  8
0
100
AcDbLine
 10
109.899835
 20
192.9326499999999
 30
0.0
 11
110.499835
 21
188.5326499999999
 31
0.0
  0
LINE
  5
3A7
330
1E
100
AcDbEntity
  8
0
100
AcDbLine
 10
81.8926921428571
 20
201.53265
 30
0.0
 11
84.79983500000001
 21
203.73265
 31
0.0
  0
LINE
  5
3A8
330
1E
100
AcDbEntity
  8
0
100
AcDbLine
 10
65.64883499999999
 20
202.8326499999999
 30
0.0
 11
67.65633499999998
 21
200.23265
 31
0.0
  0
LINE
  5
3A9
330
1E
100
AcDbEntity
  8
0
100
AcDbLine
 10
85.299835
 20
202.8326499999999
 30
0.0
 11
89.299835
 21
204.4326499999999
 31
0.0
  0
LINE
  5
3AA
330
1E
100
AcDbEntity
  8
0
100
AcDbLine
 10
84.999835
 20
203.2326499999999
 30
0.0
 11
89.099835
 21
204.9326499999998
 31
0.0
  0
LINE
  5
3AB
330
1E
100
AcDbEntity
  8
0
100
AcDbLine
 10
84.79983500000001
 20
203.73265
 30
0.0
 11
88.99983500000002
 21
205.43265
 31
0.0
  0
LINE
  5
3AC
330
1E
100
AcDbEntity
  8
0
100
AcDbLine
 10
75.89983499999998
 20
206.13265
 30
0.0
 11
81.099835
 21
210.23265
 31
0.0
  0
LINE
  5
3AE
330
1E
100
AcDbEntity
  8
0
100
AcDbLine
 10
101.6998349999999
 20
202.8326499999999
 30
0.0
 11
105.199835
 21
200.23265
 31
0.0
  0
LINE
  5
3AF
330
1E
100
AcDbEntity
  8
0
100
AcDbLine
 10
97.699835
 20
204.4326499999999
 30
0.0
 11
101.6998349999999
 21
202.8326499999999
 31
0.0
  0
LINE
  5
3B0
330
1E
100
AcDbEntity
  8
0
100
AcDbLine
 10
123.807835
 20
202.8326499999999
 30
0.0
 11
126.102835
 21
204.4326499999999
 31
0.0
  0
LINE
  5
3B2
330
1E
100
AcDbEntity
  8
0
100
AcDbLine
 10
126.102835
 20
204.4326499999999
 30
0.0
 11
128.511835
 21
205.0326499999999
 31
0.0
  0
LINE
  5
3B3
330
1E
100
AcDbEntity
  8
0
100
AcDbLine
 10
123.644835
 20
204.4326499999999
 30
0.0
 11
124.758835
 21
204.9326499999998
 31
0.0
  0
LINE
  5
3B4
330
1E
100
AcDbEntity
  8
0
100
AcDbLine
 10
121.350835
 20
202.8326499999999
 30
0.0
 11
123.644835
 21
204.4326499999999
 31
0.0
  0
LINE
  5
3B5
330
1E
100
AcDbEntity
  8
0
100
AcDbLine
 10
162.271835
 20
203.9906499999999
 30
0.0
 11
162.440835
 21
207.53465
 31
0.0
  0
LINE
  5
3B6
330
1E
100
AcDbEntity
  8
0
100
AcDbLine
 10
172.570835
 20
203.9906499999999
 30
0.0
 11
173.353835
 21
201.23665
 31
0.0
  0
LINE
  5
3B7
330
1E
100
AcDbEntity
  8
0
100
AcDbLine
 10
170.107835
 20
203.9906499999999
 30
0.0
 11
171.139835
 21
207.53465
 31
0.0
  0
LINE
  5
3B8
330
1E
100
AcDbEntity
  8
0
100
AcDbLine
 10
136.220835
 20
204.0326499999999
 30
0.0
 11
138.228505604832
 21
200.5326499999999
 31
0.0
  0
LINE
  5
3B9
330
1E
100
AcDbEntity
  8
0
100
AcDbLine
 10
131.3068349999998
 20
204.0326499999999
 30
0.0
 11
136.220835
 21
204.0326499999999
 31
0.0
  0
LINE
  5
3BA
330
1E
100
AcDbEntity
  8
0
100
AcDbLine
 10
130.920835
 20
204.4326499999999
 30
0.0
 11
131.494335
 21
204.0326499999999
 31
0.0
  0
LINE
  5
3BB
330
1E
100
AcDbEntity
  8
0
100
AcDbLine
 10
101.999835
 20
203.2326499999999
 30
0.0
 11
105.4998349999999
 21
200.5326499999999
 31
0.0
  0
LINE
  5
3BC
330
1E
100
AcDbEntity
  8
0
100
AcDbLine
 10
93.499835
 20
205.0326499999999
 30
0.0
 11
97.699835
 21
204.4326499999999
 31
0.0
  0
LINE
  5
3BD
330
1E
100
AcDbEntity
  8
0
100
AcDbLine
 10
97.89983499999999
 20
204.9326499999998
 30
0.0
 11
101.999835
 21
203.2326499999999
 31
0.0
  0
LINE
  5
3BE
330
1E
100
AcDbEntity
  8
0
100
AcDbLine
 10
124.758835
 20
204.9326499999998
 30
0.0
 11
127.282835
 21
205.53265
 31
0.0
  0
LINE
  5
3BF
330
1E
100
AcDbEntity
  8
0
100
AcDbLine
 10
129.806835
 20
204.9326499999998
 30
0.0
 11
130.920835
 21
204.4326499999999
 31
0.0
  0
LINE
  5
3C0
330
1E
100
AcDbEntity
  8
0
100
AcDbLine
 10
128.511835
 20
205.0326499999999
 30
0.0
 11
130.920835
 21
204.4326499999999
 31
0.0
  0
LINE
  5
3C1
330
1E
100
AcDbEntity
  8
0
100
AcDbLine
 10
97.99983500000001
 20
205.43265
 30
0.0
 11
102.199835
 21
203.73265
 31
0.0
  0
LINE
  5
3C2
330
1E
100
AcDbEntity
  8
0
100
AcDbLine
 10
89.299835
 20
204.4326499999999
 30
0.0
 11
93.499835
 21
205.0326499999999
 31
0.0
  0
LINE
  5
3C3
330
1E
100
AcDbEntity
  8
0
100
AcDbLine
 10
89.099835
 20
204.9326499999998
 30
0.0
 11
93.499835
 21
205.53265
 31
0.0
  0
LINE
  5
3F5
330
1E
100
AcDbEntity
  8
0
100
AcDbLine
 10
93.499835
 20
205.53265
 30
0.0
 11
97.89983499999999
 21
204.9326499999998
 31
0.0
  0
LINE
  5
3F6
330
1E
100
AcDbEntity
  8
0
100
AcDbLine
 10
95.95767959518671
 20
205.704937387308
 30
0.0
 11
97.99983500000001
 21
205.43265
 31
0.0
  0
LINE
  5
3F7
330
1E
100
AcDbEntity
  8
0
100
AcDbLine
 10
127.282835
 20
205.53265
 30
0.0
 11
129.806835
 21
204.9326499999998
 31
0.0
  0
LINE
  5
3F8
330
1E
100
AcDbEntity
  8
0
100
AcDbLine
 10
162.220835
 20
211.5096499999999
 30
0.0
 11
162.440835
 21
207.53465
 31
0.0
  0
LINE
  5
3F9
330
1E
100
AcDbEntity
  8
0
100
AcDbLine
 10
172.621835
 20
211.5096499999999
 30
0.0
 11
172.719835
 21
213.4076499999999
 31
0.0
  0
LINE
  5
3FA
330
1E
100
AcDbEntity
  8
0
100
AcDbLine
 10
171.7038349999999
 20
211.5096499999999
 30
0.0
 11
171.801835
 21
213.4076499999999
 31
0.0
  0
LINE
  5
3FB
330
1E
100
AcDbEntity
  8
0
100
AcDbLine
 10
172.401835
 20
207.53465
 30
0.0
 11
172.621835
 21
211.5096499999999
 31
0.0
  0
LINE
  5
3FC
330
1E
100
AcDbEntity
  8
0
100
AcDbLine
 10
172.401835
 20
207.53465
 30
0.0
 11
172.570835
 21
203.9906499999999
 31
0.0
  0
LINE
  5
3FD
330
1E
100
AcDbEntity
  8
0
100
AcDbLine
 10
171.139835
 20
207.53465
 30
0.0
 11
171.7038349999999
 21
211.5096499999999
 31
0.0
  0
LINE
  5
3FE
330
1E
100
AcDbEntity
  8
0
100
AcDbLine
 10
111.099835
 20
206.13265
 30
0.0
 11
114.726758076923
 21
201.53265
 31
0.0
  0
LINE
  5
3FF
330
1E
100
AcDbEntity
  8
0
100
AcDbLine
 10
105.899835
 20
210.23265
 30
0.0
 11
111.099835
 21
206.13265
 31
0.0
  0
LINE
  5
401
330
1E
100
AcDbEntity
  8
0
100
AcDbLine
 10
162.122835
 20
213.4076499999999
 30
0.0
 11
162.437835
 21
214.90765
 31
0.0
  0
LINE
  5
402
330
1E
100
AcDbEntity
  8
0
100
AcDbLine
 10
162.122835
 20
213.4076499999999
 30
0.0
 11
162.220835
 21
211.5096499999999
 31
0.0
  0
LINE
  5
405
330
1E
100
AcDbEntity
  8
0
100
AcDbLine
 10
162.437835
 20
214.90765
 30
0.0
 11
163.019835
 21
216.0036499999999
 31
0.0
  0
LINE
  5
406
330
1E
100
AcDbEntity
  8
0
100
AcDbLine
 10
163.019835
 20
216.0036499999999
 30
0.0
 11
163.649835
 21
216.65765
 31
0.0
  0
LINE
  5
407
330
1E
100
AcDbEntity
  8
0
100
AcDbLine
 10
163.649835
 20
216.65765
 30
0.0
 11
164.562835
 21
217.1766499999999
 31
0.0
  0
LINE
  5
408
330
1E
100
AcDbEntity
  8
0
100
AcDbLine
 10
164.562835
 20
217.1766499999999
 30
0.0
 11
166.962835
 21
217.53265
 31
0.0
  0
LINE
  5
40C
330
1E
100
AcDbEntity
  8
0
100
AcDbLine
 10
172.404835
 20
214.90765
 30
0.0
 11
172.719835
 21
213.4076499999999
 31
0.0
  0
LINE
  5
40D
330
1E
100
AcDbEntity
  8
0
100
AcDbLine
 10
171.8228349999999
 20
216.0036499999999
 30
0.0
 11
172.404835
 21
214.90765
 31
0.0
  0
LINE
  5
40E
330
1E
100
AcDbEntity
  8
0
100
AcDbLine
 10
171.487835
 20
214.90765
 30
0.0
 11
171.801835
 21
213.4076499999999
 31
0.0
  0
LINE
  5
40F
330
1E
100
AcDbEntity
  8
0
100
AcDbLine
 10
171.1928349999999
 20
216.65765
 30
0.0
 11
171.8228349999999
 21
216.0036499999999
 31
0.0
  0
LINE
  5
410
330
1E
100
AcDbEntity
  8
0
100
AcDbLine
 10
170.279835
 20
217.1766499999999
 30
0.0
 11
171.1928349999999
 21
216.65765
 31
0.0
  0
LINE
  5
411
330
1E
100
AcDbEntity
  8
0
100
AcDbLine
 10
170.904835
 20
216.0036499999999
 30
0.0
 11
171.487835
 21
214.90765
 31
0.0
  0
LINE
  5
412
330
1E
100
AcDbEntity
  8
0
100
AcDbLine
 10
170.274835
 20
216.65765
 30
0.0
 11
170.904835
 21
216.0036499999999
 31
0.0
  0
LINE
  5
413
330
1E
100
AcDbEntity
  8
0
100
AcDbLine
 10
167.879835
 20
217.53265
 30
0.0
 11
170.279835
 21
217.1766499999999
 31
0.0
  0
LINE
  5
414
330
1E
100
AcDbEntity
  8
0
100
AcDbLine
 10
167.420835
 20
217.53265
 30
0.0
 11
167.879835
 21
217.53265
 31
0.0
  0
LINE
  5
415
330
1E
100
AcDbEntity
  8
0
100
AcDbLine
 10
169.361835
 20
217.1766499999999
 30
0.0
 11
170.274835
 21
216.65765
 31
0.0
  0
LINE
  5
416
330
1E
100
AcDbEntity
  8
0
100
AcDbLine
 10
166.962835
 20
217.53265
 30
0.0
 11
167.420835
 21
217.53265
 31
0.0
  0
LINE
  5
417
330
1E
100
AcDbEntity
  8
0
100
AcDbLine
 10
166.962835
 20
217.53265
 30
0.0
 11
169.361835
 21
217.1766499999999
 31
0.0
  0
LINE
  5
418
330
1E
100
AcDbEntity
  8
0
100
AcDbLine
 10
99.89983500000001
 20
212.63265
 30
0.0
 11
105.899835
 21
210.23265
 31
0.0
  0
LINE
  5
419
330
1E
100
AcDbEntity
  8
0
100
AcDbLine
 10
95.9523748736966
 20
213.187761580261
 30
0.0
 11
99.89983500000001
 21
212.63265
 31
0.0
  0
LINE
  5
41A
330
1E
100
AcDbEntity
  8
0
100
AcDbLine
 10
88.99983500000002
 20
205.43265
 30
0.0
 11
91.00723652230721
 21
205.7003035363079
 31
0.0
  0
LINE
  5
41B
330
1E
100
AcDbEntity
  8
0
100
AcDbLine
 10
87.09983499999998
 20
212.63265
 30
0.0
 11
91.00175372806829
 21
213.1813573211348
 31
0.0
  0
LINE
  5
41C
330
1E
100
AcDbEntity
  8
0
100
AcDbLine
 10
72.2729119230769
 20
201.53265
 30
0.0
 11
75.89983499999998
 21
206.13265
 31
0.0
  0
LINE
  5
41D
330
1E
100
AcDbEntity
  8
0
100
AcDbLine
 10
64.583735
 20
199.87465
 30
0.0
 11
66.968935
 21
184.3746499999999
 31
0.0
  0
LINE
  5
41E
330
1E
100
AcDbEntity
  8
0
100
AcDbLine
 10
62.054035
 20
184.3746499999999
 30
0.0
 11
66.968935
 21
184.3746499999999
 31
0.0
  0
LINE
  5
41F
330
1E
100
AcDbEntity
  8
0
100
AcDbLine
 10
59.817035
 20
185.4326499999999
 30
0.0
 11
60.04653499999999
 21
188.5326499999999
 31
0.0
  0
LINE
  5
420
330
1E
100
AcDbEntity
  8
0
100
AcDbLine
 10
70.06543499999999
 20
184.33265
 30
0.0
 11
70.40953499999997
 21
188.5326499999999
 31
0.0
  0
LINE
  5
421
330
1E
100
AcDbEntity
  8
0
100
AcDbLine
 10
56.07903499999999
 20
172.63265
 30
0.0
 11
58.48803499999998
 21
172.0326499999999
 31
0.0
  0
LINE
  5
422
330
1E
100
AcDbEntity
  8
0
100
AcDbLine
 10
56.07903499999999
 20
172.63265
 30
0.0
 11
57.19303499999998
 21
172.13265
 31
0.0
  0
LINE
  5
423
330
1E
100
AcDbEntity
  8
0
100
AcDbLine
 10
57.19303499999998
 20
172.13265
 30
0.0
 11
59.716835
 21
171.5326499999999
 31
0.0
  0
LINE
  5
424
330
1E
100
AcDbEntity
  8
0
100
AcDbLine
 10
36.230335
 20
180.4326499999999
 30
0.0
 11
36.410435
 21
180.0326499999999
 31
0.0
  0
LINE
  5
425
330
1E
100
AcDbEntity
  8
0
100
AcDbLine
 10
36.230335
 20
180.4326499999999
 30
0.0
 11
37.606935
 21
178.53265
 31
0.0
  0
LINE
  5
42A
330
1E
100
AcDbEntity
  8
0
100
AcDbLine
 10
82.99983500000001
 20
188.5326499999999
 30
0.0
 11
83.53996743469815
 21
191.797273168649
 31
0.0
  0
LINE
  5
42B
330
1E
100
AcDbEntity
  8
0
100
AcDbLine
 10
83.53996743469815
 20
191.797273168649
 30
0.0
 11
84.399835
 21
193.73265
 31
0.0
  0
LINE
  5
42C
330
1E
100
AcDbEntity
  8
0
100
AcDbLine
 10
103.999835
 20
188.5326499999999
 30
0.0
 11
103.624123341492
 21
191.2238205368933
 31
0.0
  0
LINE
  5
42D
330
1E
100
AcDbEntity
  8
0
100
AcDbLine
 10
103.624123341492
 20
191.2238205368933
 30
0.0
 11
102.599835
 21
193.73265
 31
0.0
  0
LINE
  5
42E
330
1E
100
AcDbEntity
  8
0
100
AcDbLine
 10
102.199835
 20
203.73265
 30
0.0
 11
104.9630672157552
 21
201.5459625980049
 31
0.0
  0
LINE
  5
437
330
1E
100
AcDbEntity
  8
0
100
AcDbLine
 10
87.09983499999998
 20
212.63265
 30
0.0
 11
81.099835
 21
210.23265
 31
0.0
  0
LINE
  5
438
330
1E
100
AcDbEntity
  8
0
100
AcDbLine
 10
91.00175372806829
 20
213.1813573211348
 30
0.0
 11
93.82787751708042
 21
213.3566451532475
 31
0.0
  0
LINE
  5
439
330
1E
100
AcDbEntity
  8
0
100
AcDbLine
 10
93.82787751708042
 20
213.3566451532475
 30
0.0
 11
95.9523748736966
 21
213.187761580261
 31
0.0
  0
LINE
  5
43A
330
1E
100
AcDbEntity
  8
0
100
AcDbLine
 10
91.00723652230721
 20
205.7003035363079
 30
0.0
 11
93.50279922156028
 21
205.9597786183462
 31
0.0
  0
LINE
  5
43B
330
1E
100
AcDbEntity
  8
0
100
AcDbLine
 10
93.50279922156028
 20
205.9597786183462
 30
0.0
 11
95.95767959518671
 21
205.704937387308
 31
0.0
  0
ENDSEC
  0
SECTION
  2
OBJECTS
  0
DICTIONARY
  5
C
330
0
100
AcDbDictionary
281
     1
  3
ACAD_GROUP
350
D
  3
ACAD_LAYOUT
350
19
  3
ACAD_MLINESTYLE
350
16
  3
ACAD_PLOTSETTINGS
350
18
  3
ACAD_PLOTSTYLENAME
350
E
  3
AcDbVariableDictionary
350
42F
  0
DICTIONARY
  5
D
102
{ACAD_REACTORS
330
C
102
}
330
C
100
AcDbDictionary
281
     1
  0
DICTIONARY
  5
19
102
{ACAD_REACTORS
330
C
102
}
330
C
100
AcDbDictionary
281
     1
  3
Layout1
350
1D
  3
Model
350
21
  0
DICTIONARY
  5
16
102
{ACAD_REACTORS
330
C
102
}
330
C
100
AcDbDictionary
281
     1
  3
Standard
350
17
  0
DICTIONARY
  5
18
102
{ACAD_REACTORS
330
C
102
}
330
C
100
AcDbDictionary
281
     1
  0
ACDBDICTIONARYWDFLT
  5
E
102
{ACAD_REACTORS
330
C
102
}
330
C
100
AcDbDictionary
281
     1
  3
Normal
350
F
100
AcDbDictionaryWithDefault
340
F
  0
DICTIONARY
  5
42F
102
{ACAD_REACTORS
330
C
102
}
330
C
100
AcDbDictionary
281
     1
  3
DIMASSOC
350
430
  0
LAYOUT
  5
1D
102
{ACAD_REACTORS
330
19
102
}
330
19
100
AcDbPlotSettings
  1

  2
hp deskjet 980c series
  4

  6

 40
0.0
 41
0.0
 42
0.0
 43
0.0
 44
0.0
 45
0.0
 46
0.0
 47
0.0
 48
0.0
 49
0.0
140
0.0
141
0.0
142
1.0
143
1.0
 70
   688
 72
     0
 73
     0
 74
     5
  7

 75
    16
147
1.0
148
0.0
149
0.0
100
AcDbLayout
  1
Layout1
 70
     1
 71
     1
 10
0.0
 20
0.0
 11
12.0
 21
9.0
 12
0.0
 22
0.0
 32
0.0
 14
1.000000000000000E+20
 24
1.000000000000000E+20
 34
1.000000000000000E+20
 15
-1.000000000000000E+20
 25
-1.000000000000000E+20
 35
-1.000000000000000E+20
146
0.0
 13
0.0
 23
0.0
 33
0.0
 16
1.0
 26
0.0
 36
0.0
 17
0.0
 27
1.0
 37
0.0
 76
     0
330
1A
  0
LAYOUT
  5
21
102
{ACAD_REACTORS
330
19
102
}
330
19
100
AcDbPlotSettings
  1

  2
hp deskjet 980c series
  4

  6

 40
0.0
 41
0.0
 42
0.0
 43
0.0
 44
0.0
 45
0.0
 46
0.0
 47
0.0
 48
0.0
 49
0.0
140
0.0
141
0.0
142
1.0
143
1.0
 70
  1712
 72
     0
 73
     0
 74
     0
  7

 75
     0
147
1.0
148
0.0
149
0.0
100
AcDbLayout
  1
Model
 70
     1
 71
     0
 10
0.0
 20
0.0
 11
12.0
 21
9.0
 12
0.0
 22
0.0
 32
0.0
 14
0.0
 24
0.0
 34
0.0
 15
0.0
 25
0.0
 35
0.0
146
0.0
 13
0.0
 23
0.0
 33
0.0
 16
1.0
 26
0.0
 36
0.0
 17
0.0
 27
1.0
 37
0.0
 76
     0
330
1E
  0
MLINESTYLE
  5
17
102
{ACAD_REACTORS
330
16
102
}
330
16
100
AcDbMlineStyle
  2
STANDARD
 70
     0
  3

 62
   256
 51
90.0
 52
90.0
 71
     2
 49
0.5
 62
   256
  6
BYLAYER
 49
-0.5
 62
   256
  6
BYLAYER
  0
ACDBPLACEHOLDER
  5
F
102
{ACAD_REACTORS
330
E
102
}
330
E
  0
DICTIONARYVAR
  5
430
102
{ACAD_REACTORS
330
42F
102
}
330
42F
100
DictionaryVariables
280
     0
  1
1
  0
ENDSEC
  0
EOF
