  0
SECTION
  2
HEADER
  9
$ACADVER
  1
AC1015
  9
$ACADMAINTVER
 70
    13
  9
$DWGCODEPAGE
  3
ANSI_1252
  9
$INSBASE
 10
0.0
 20
0.0
 30
0.0
  9
$EXTMIN
 10
-0.173649999999994
 20
-0.0000000000000219
 30
0.0
  9
$EXTMAX
 10
217.53265
 20
323.0
 30
0.0
  9
$LIMMIN
 10
0.0
 20
0.0
  9
$LIMMAX
 10
12.0
 20
9.0
  9
$ORTHOMODE
 70
     0
  9
$REGENMODE
 70
     1
  9
$FILLMODE
 70
     1
  9
$QTEXTMODE
 70
     0
  9
$MIRRTEXT
 70
     1
  9
$LTSCALE
 40
1.0
  9
$ATTMODE
 70
     1
  9
$TEXTSIZE
 40
0.2
  9
$TRACEWID
 40
0.05
  9
$TEXTSTYLE
  7
Standard
  9
$CLAYER
  8
0
  9
$CELTYPE
  6
Continuous
  9
$CECOLOR
 62
   256
  9
$CELTSCALE
 40
1.0
  9
$DISPSILH
 70
     0
  9
$DIMSCALE
 40
1.0
  9
$DIMASZ
 40
0.18
  9
$DIMEXO
 40
0.0625
  9
$DIMDLI
 40
0.38
  9
$DIMRND
 40
0.0
  9
$DIMDLE
 40
0.0
  9
$DIMEXE
 40
0.18
  9
$DIMTP
 40
0.0
  9
$DIMTM
 40
0.0
  9
$DIMTXT
 40
0.18
  9
$DIMCEN
 40
0.09
  9
$DIMTSZ
 40
0.0
  9
$DIMTOL
 70
     0
  9
$DIMLIM
 70
     0
  9
$DIMTIH
 70
     1
  9
$DIMTOH
 70
     1
  9
$DIMSE1
 70
     0
  9
$DIMSE2
 70
     0
  9
$DIMTAD
 70
     0
  9
$DIMZIN
 70
     0
  9
$DIMBLK
  1

  9
$DIMASO
 70
     1
  9
$DIMSHO
 70
     1
  9
$DIMPOST
  1

  9
$DIMAPOST
  1

  9
$DIMALT
 70
     0
  9
$DIMALTD
 70
     2
  9
$DIMALTF
 40
25.4
  9
$DIMLFAC
 40
1.0
  9
$DIMTOFL
 70
     0
  9
$DIMTVP
 40
0.0
  9
$DIMTIX
 70
     0
  9
$DIMSOXD
 70
     0
  9
$DIMSAH
 70
     0
  9
$DIMBLK1
  1

  9
$DIMBLK2
  1

  9
$DIMSTYLE
  2
Standard
  9
$DIMCLRD
 70
     0
  9
$DIMCLRE
 70
     0
  9
$DIMCLRT
 70
     0
  9
$DIMTFAC
 40
1.0
  9
$DIMGAP
 40
0.09
  9
$DIMJUST
 70
     0
  9
$DIMSD1
 70
     0
  9
$DIMSD2
 70
     0
  9
$DIMTOLJ
 70
     1
  9
$DIMTZIN
 70
     0
  9
$DIMALTZ
 70
     0
  9
$DIMALTTZ
 70
     0
  9
$DIMUPT
 70
     0
  9
$DIMDEC
 70
     4
  9
$DIMTDEC
 70
     4
  9
$DIMALTU
 70
     2
  9
$DIMALTTD
 70
     2
  9
$DIMTXSTY
  7
Standard
  9
$DIMAUNIT
 70
     0
  9
$DIMADEC
 70
     0
  9
$DIMALTRND
 40
0.0
  9
$DIMAZIN
 70
     0
  9
$DIMDSEP
 70
    46
  9
$DIMATFIT
 70
     3
  9
$DIMFRAC
 70
     0
  9
$DIMLDRBLK
  1

  9
$DIMLUNIT
 70
     2
  9
$DIMLWD
 70
    -2
  9
$DIMLWE
 70
    -2
  9
$DIMTMOVE
 70
     0
  9
$LUNITS
 70
     2
  9
$LUPREC
 70
     4
  9
$SKETCHINC
 40
0.1
  9
$FILLETRAD
 40
0.0
  9
$AUNITS
 70
     0
  9
$AUPREC
 70
     0
  9
$MENU
  1
.
  9
$ELEVATION
 40
0.0
  9
$PELEVATION
 40
0.0
  9
$THICKNESS
 40
0.0
  9
$LIMCHECK
 70
     0
  9
$CHAMFERA
 40
0.0
  9
$CHAMFERB
 40
0.0
  9
$CHAMFERC
 40
0.0
  9
$CHAMFERD
 40
0.0
  9
$SKPOLY
 70
     0
  9
$TDCREATE
 40
2454748.464247453
  9
$TDUCREATE
 40
2454748.380914120
  9
$TDUPDATE
 40
2454748.472403194
  9
$TDUUPDATE
 40
2454748.389069861
  9
$TDINDWG
 40
0.0026231481
  9
$TDUSRTIMER
 40
0.0026231481
  9
$USRTIMER
 70
     1
  9
$ANGBASE
 50
0.0
  9
$ANGDIR
 70
     0
  9
$PDMODE
 70
     0
  9
$PDSIZE
 40
0.0
  9
$PLINEWID
 40
0.0
  9
$SPLFRAME
 70
     0
  9
$SPLINETYPE
 70
     6
  9
$SPLINESEGS
 70
     8
  9
$HANDSEED
  5
2E8
  9
$SURFTAB1
 70
     6
  9
$SURFTAB2
 70
     6
  9
$SURFTYPE
 70
     6
  9
$SURFU
 70
     6
  9
$SURFV
 70
     6
  9
$UCSBASE
  2

  9
$UCSNAME
  2

  9
$UCSORG
 10
0.0
 20
0.0
 30
0.0
  9
$UCSXDIR
 10
1.0
 20
0.0
 30
0.0
  9
$UCSYDIR
 10
0.0
 20
1.0
 30
0.0
  9
$UCSORTHOREF
  2

  9
$UCSORTHOVIEW
 70
     1
  9
$UCSORGTOP
 10
0.0
 20
0.0
 30
0.0
  9
$UCSORGBOTTOM
 10
0.0
 20
0.0
 30
0.0
  9
$UCSORGLEFT
 10
0.0
 20
0.0
 30
0.0
  9
$UCSORGRIGHT
 10
0.0
 20
0.0
 30
0.0
  9
$UCSORGFRONT
 10
0.0
 20
0.0
 30
0.0
  9
$UCSORGBACK
 10
0.0
 20
0.0
 30
0.0
  9
$PUCSBASE
  2

  9
$PUCSNAME
  2

  9
$PUCSORG
 10
0.0
 20
0.0
 30
0.0
  9
$PUCSXDIR
 10
1.0
 20
0.0
 30
0.0
  9
$PUCSYDIR
 10
0.0
 20
1.0
 30
0.0
  9
$PUCSORTHOREF
  2

  9
$PUCSORTHOVIEW
 70
     0
  9
$PUCSORGTOP
 10
0.0
 20
0.0
 30
0.0
  9
$PUCSORGBOTTOM
 10
0.0
 20
0.0
 30
0.0
  9
$PUCSORGLEFT
 10
0.0
 20
0.0
 30
0.0
  9
$PUCSORGRIGHT
 10
0.0
 20
0.0
 30
0.0
  9
$PUCSORGFRONT
 10
0.0
 20
0.0
 30
0.0
  9
$PUCSORGBACK
 10
0.0
 20
0.0
 30
0.0
  9
$USERI1
 70
     0
  9
$USERI2
 70
     0
  9
$USERI3
 70
     0
  9
$USERI4
 70
     0
  9
$USERI5
 70
     0
  9
$USERR1
 40
0.0
  9
$USERR2
 40
0.0
  9
$USERR3
 40
0.0
  9
$USERR4
 40
0.0
  9
$USERR5
 40
0.0
  9
$WORLDVIEW
 70
     1
  9
$SHADEDGE
 70
     3
  9
$SHADEDIF
 70
    70
  9
$TILEMODE
 70
     1
  9
$MAXACTVP
 70
    64
  9
$PINSBASE
 10
0.0
 20
0.0
 30
0.0
  9
$PLIMCHECK
 70
     0
  9
$PEXTMIN
 10
1.000000000000000E+20
 20
1.000000000000000E+20
 30
1.000000000000000E+20
  9
$PEXTMAX
 10
-1.000000000000000E+20
 20
-1.000000000000000E+20
 30
-1.000000000000000E+20
  9
$PLIMMIN
 10
0.0
 20
0.0
  9
$PLIMMAX
 10
12.0
 20
9.0
  9
$UNITMODE
 70
     0
  9
$VISRETAIN
 70
     1
  9
$PLINEGEN
 70
     0
  9
$PSLTSCALE
 70
     1
  9
$TREEDEPTH
 70
  3020
  9
$CMLSTYLE
  2
Standard
  9
$CMLJUST
 70
     0
  9
$CMLSCALE
 40
1.0
  9
$PROXYGRAPHICS
 70
     1
  9
$MEASUREMENT
 70
     0
  9
$CELWEIGHT
370
    -1
  9
$ENDCAPS
280
     0
  9
$JOINSTYLE
280
     0
  9
$LWDISPLAY
290
     0
  9
$INSUNITS
 70
     0
  9
$HYPERLINKBASE
  1

  9
$STYLESHEET
  1

  9
$XEDIT
290
     1
  9
$CEPSNTYPE
380
     0
  9
$PSTYLEMODE
290
     1
  9
$FINGERPRINTGUID
  2
{D3B3BDC7-F2C6-4AF0-81AA-61772CCFCCA0}
  9
$VERSIONGUID
  2
{1DD6260F-0AD4-4A54-9477-CCF38709E2CD}
  9
$EXTNAMES
290
     1
  9
$PSVPSCALE
 40
0.0
  9
$OLESTARTUP
290
     0
  0
ENDSEC
  0
SECTION
  2
CLASSES
  0
CLASS
  1
ACDBDICTIONARYWDFLT
  2
AcDbDictionaryWithDefault
  3
AutoCAD 2000
 90
        0
280
     0
281
     0
  0
CLASS
  1
ACDBPLACEHOLDER
  2
AcDbPlaceHolder
  3
AutoCAD 2000
 90
        0
280
     0
281
     0
  0
CLASS
  1
LAYOUT
  2
AcDbLayout
  3
AutoCAD 2000
 90
        0
280
     0
281
     0
  0
CLASS
  1
DICTIONARYVAR
  2
AcDbDictionaryVar
  3
AutoCAD 2000
 90
        0
280
     0
281
     0
  0
ENDSEC
  0
SECTION
  2
TABLES
  0
TABLE
  2
VPORT
  5
8
330
0
100
AcDbSymbolTable
 70
     2
  0
VPORT
  5
2E7
330
8
100
AcDbSymbolTableRecord
100
AcDbViewportTableRecord
  2
*Active
 70
     0
 10
0.0
 20
0.0
 11
1.0
 21
1.0
 12
108.6794999999999
 22
161.4999999999999
 13
0.0
 23
0.0
 14
1.0
 24
1.0
 15
0.0
 25
0.0
 16
0.0
 26
0.0
 36
1.0
 17
0.0
 27
0.0
 37
0.0
 40
325.4782608695652
 41
2.078104993597951
 42
50.0
 43
0.0
 44
0.0
 50
0.0
 51
0.0
 71
     0
 72
   100
 73
     1
 74
     3
 75
     0
 76
     0
 77
     0
 78
     0
281
     0
 65
     1
110
0.0
120
0.0
130
0.0
111
1.0
121
0.0
131
0.0
112
0.0
122
1.0
132
0.0
 79
     1
146
0.0
  0
ENDTAB
  0
TABLE
  2
LTYPE
  5
5
330
0
100
AcDbSymbolTable
 70
     1
  0
LTYPE
  5
13
330
5
100
AcDbSymbolTableRecord
100
AcDbLinetypeTableRecord
  2
ByBlock
 70
     0
  3

 72
    65
 73
     0
 40
0.0
  0
LTYPE
  5
14
330
5
100
AcDbSymbolTableRecord
100
AcDbLinetypeTableRecord
  2
ByLayer
 70
     0
  3

 72
    65
 73
     0
 40
0.0
  0
LTYPE
  5
15
330
5
100
AcDbSymbolTableRecord
100
AcDbLinetypeTableRecord
  2
Continuous
 70
     0
  3
Solid line
 72
    65
 73
     0
 40
0.0
  0
ENDTAB
  0
TABLE
  2
LAYER
  5
2
330
0
100
AcDbSymbolTable
 70
     1
  0
LAYER
  5
10
330
2
100
AcDbSymbolTableRecord
100
AcDbLayerTableRecord
  2
0
 70
     0
 62
     7
  6
Continuous
370
    -3
390
F
  0
ENDTAB
  0
TABLE
  2
STYLE
  5
3
330
0
100
AcDbSymbolTable
 70
     1
  0
STYLE
  5
11
330
3
100
AcDbSymbolTableRecord
100
AcDbTextStyleTableRecord
  2
Standard
 70
     0
 40
0.0
 41
1.0
 50
0.0
 71
     0
 42
0.2
  3
txt
  4

  0
ENDTAB
  0
TABLE
  2
VIEW
  5
6
330
0
100
AcDbSymbolTable
 70
     0
  0
ENDTAB
  0
TABLE
  2
UCS
  5
7
330
0
100
AcDbSymbolTable
 70
     0
  0
ENDTAB
  0
TABLE
  2
APPID
  5
9
330
0
100
AcDbSymbolTable
 70
     1
  0
APPID
  5
12
330
9
100
AcDbSymbolTableRecord
100
AcDbRegAppTableRecord
  2
ACAD
 70
     0
  0
ENDTAB
  0
TABLE
  2
DIMSTYLE
  5
A
330
0
100
AcDbSymbolTable
 70
     1
100
AcDbDimStyleTable
 71
     0
  0
DIMSTYLE
105
2D7
330
A
100
AcDbSymbolTableRecord
100
AcDbDimStyleTableRecord
  2
Standard
 70
     0
340
11
  0
ENDTAB
  0
TABLE
  2
BLOCK_RECORD
  5
1
330
0
100
AcDbSymbolTable
 70
     0
  0
BLOCK_RECORD
  5
1E
330
1
100
AcDbSymbolTableRecord
100
AcDbBlockTableRecord
  2
*Model_Space
340
21
  0
BLOCK_RECORD
  5
1A
330
1
100
AcDbSymbolTableRecord
100
AcDbBlockTableRecord
  2
*Paper_Space
340
1D
  0
ENDTAB
  0
ENDSEC
  0
SECTION
  2
BLOCKS
  0
BLOCK
  5
1F
330
1E
100
AcDbEntity
  8
0
100
AcDbBlockBegin
  2
*Model_Space
 70
     0
 10
0.0
 20
0.0
 30
0.0
  3
*Model_Space
  1

  0
ENDBLK
  5
20
330
1E
100
AcDbEntity
  8
0
100
AcDbBlockEnd
  0
BLOCK
  5
1B
330
1A
100
AcDbEntity
 67
     1
  8
0
100
AcDbBlockBegin
  2
*Paper_Space
 70
     0
 10
0.0
 20
0.0
 30
0.0
  3
*Paper_Space
  1

  0
ENDBLK
  5
1C
330
1A
100
AcDbEntity
 67
     1
  8
0
100
AcDbBlockEnd
  0
ENDSEC
  0
SECTION
  2
ENTITIES
  0
LINE
  5
22
330
1E
100
AcDbEntity
  8
0
100
AcDbLine
 10
163.5326499999998
 20
-0.0000000000000188
 30
0.0
 11
164.03265
 21
1.49999999999998
 31
0.0
  0
LINE
  5
23
330
1E
100
AcDbEntity
  8
0
100
AcDbLine
 10
170.9326499999999
 20
-0.0000000000000193
 30
0.0
 11
176.13265
 21
-0.0000000000000196
 31
0.0
  0
LINE
  5
24
330
1E
100
AcDbEntity
  8
0
100
AcDbLine
 10
163.63865
 20
95.3531
 30
0.0
 11
165.53165
 21
95.40989999999998
 31
0.0
  0
LINE
  5
25
330
1E
100
AcDbEntity
  8
0
100
AcDbLine
 10
164.43265
 20
-0.0000000000000189
 30
0.0
 11
166.83265
 21
-0.0000000000000191
 31
0.0
  0
LINE
  5
26
330
1E
100
AcDbEntity
  8
0
100
AcDbLine
 10
171.0326499999998
 20
14.0
 30
0.0
 11
171.0326499999998
 21
13.5
 31
0.0
  0
LINE
  5
27
330
1E
100
AcDbEntity
  8
0
100
AcDbLine
 10
171.0326499999998
 20
14.0
 30
0.0
 11
171.5326499999999
 21
15.0
 31
0.0
  0
LINE
  5
28
330
1E
100
AcDbEntity
  8
0
100
AcDbLine
 10
171.5326499999999
 20
95.0
 30
0.0
 11
172.0326499999999
 21
93.49999999999999
 31
0.0
  0
LINE
  5
29
330
1E
100
AcDbEntity
  8
0
100
AcDbLine
 10
171.5326499999999
 20
95.0
 30
0.0
 11
171.5806367701709
 21
95.14396031051191
 31
0.0
  0
LINE
  5
2A
330
1E
100
AcDbEntity
  8
0
100
AcDbLine
 10
171.5326499999999
 20
95.0
 30
0.0
 11
172.13265
 21
95.0
 31
0.0
  0
LINE
  5
2B
330
1E
100
AcDbEntity
  8
0
100
AcDbLine
 10
171.5326499999999
 20
15.0
 30
0.0
 11
172.5326499999999
 21
15.5
 31
0.0
  0
LINE
  5
2C
330
1E
100
AcDbEntity
  8
0
100
AcDbLine
 10
171.5326499999999
 20
15.0
 30
0.0
 11
172.13265
 21
15.0
 31
0.0
  0
LINE
  5
2D
330
1E
100
AcDbEntity
  8
0
100
AcDbLine
 10
171.0326499999998
 20
13.5
 30
0.0
 11
171.5326499999999
 21
12.5
 31
0.0
  0
LINE
  5
2E
330
1E
100
AcDbEntity
  8
0
100
AcDbLine
 10
171.0326499999998
 20
13.5
 30
0.0
 11
171.0326499999998
 21
14.0
 31
0.0
  0
LINE
  5
2F
330
1E
100
AcDbEntity
  8
0
100
AcDbLine
 10
171.5326499999999
 20
12.5
 30
0.0
 11
171.73265
 21
11.4
 31
0.0
  0
LINE
  5
30
330
1E
100
AcDbEntity
  8
0
100
AcDbLine
 10
171.5326499999999
 20
9.99999999999998
 30
0.0
 11
171.73265
 21
11.4
 31
0.0
  0
LINE
  5
31
330
1E
100
AcDbEntity
  8
0
100
AcDbLine
 10
170.5326499999999
 20
6.999999999999981
 30
0.0
 11
171.5326499999999
 21
9.99999999999998
 31
0.0
  0
LINE
  5
32
330
1E
100
AcDbEntity
  8
0
100
AcDbLine
 10
168.5326499999999
 20
3.999999999999978
 30
0.0
 11
170.5326499999999
 21
6.999999999999981
 31
0.0
  0
LINE
  5
33
330
1E
100
AcDbEntity
  8
0
100
AcDbLine
 10
165.03265
 20
2.49999999999998
 30
0.0
 11
168.5326499999999
 21
3.999999999999978
 31
0.0
  0
LINE
  5
34
330
1E
100
AcDbEntity
  8
0
100
AcDbLine
 10
164.03265
 20
1.49999999999998
 30
0.0
 11
165.03265
 21
2.49999999999998
 31
0.0
  0
LINE
  5
35
330
1E
100
AcDbEntity
  8
0
100
AcDbLine
 10
166.83265
 20
-0.0000000000000191
 30
0.0
 11
170.9326499999999
 21
-0.0000000000000193
 31
0.0
  0
LINE
  5
36
330
1E
100
AcDbEntity
  8
0
100
AcDbLine
 10
163.5326499999998
 20
-0.0000000000000188
 30
0.0
 11
164.43265
 21
-0.0000000000000189
 31
0.0
  0
LINE
  5
37
330
1E
100
AcDbEntity
  8
0
100
AcDbLine
 10
163.5326499999998
 20
-0.0000000000000188
 30
0.0
 11
164.03265
 21
1.49999999999998
 31
0.0
  0
LINE
  5
38
330
1E
100
AcDbEntity
  8
0
100
AcDbLine
 10
160.8116499999999
 20
96.25709999999999
 30
0.0
 11
161.38865
 21
95.8826
 31
0.0
  0
LINE
  5
39
330
1E
100
AcDbEntity
  8
0
100
AcDbLine
 10
162.3506499999999
 20
95.5189
 30
0.0
 11
163.63865
 21
95.3531
 31
0.0
  0
LINE
  5
3A
330
1E
100
AcDbEntity
  8
0
100
AcDbLine
 10
161.38865
 20
95.8826
 30
0.0
 11
162.3506499999999
 21
95.5189
 31
0.0
  0
LINE
  5
3B
330
1E
100
AcDbEntity
  8
0
100
AcDbLine
 10
160.4076499999998
 20
96.54569999999999
 30
0.0
 11
160.8116499999999
 21
96.25709999999999
 31
0.0
  0
LINE
  5
3C
330
1E
100
AcDbEntity
  8
0
100
AcDbLine
 10
159.88865
 20
97.18519999999999
 30
0.0
 11
160.4076499999998
 21
96.54569999999999
 31
0.0
  0
LINE
  5
3D
330
1E
100
AcDbEntity
  8
0
100
AcDbLine
 10
2.755050000000009
 20
212.297
 30
0.0
 11
4.451260000000009
 21
212.183
 31
0.0
  0
LINE
  5
3E
330
1E
100
AcDbEntity
  8
0
100
AcDbLine
 10
4.451260000000009
 20
212.183
 30
0.0
 11
6.746089999999998
 21
212.029
 31
0.0
  0
LINE
  5
3F
330
1E
100
AcDbEntity
  8
0
100
AcDbLine
 10
0.726850000000003
 20
213.4349999999999
 30
0.0
 11
1.92415000000001
 21
213.355
 31
0.0
  0
LINE
  5
40
330
1E
100
AcDbEntity
  8
0
100
AcDbLine
 10
-0.140149999999995
 20
221.5409999999998
 30
0.0
 11
0.459250000000004
 21
223.004
 31
0.0
  0
LINE
  5
41
330
1E
100
AcDbEntity
  8
0
100
AcDbLine
 10
-0.140149999999995
 20
221.5409999999998
 30
0.0
 11
0.459250000000004
 21
223.004
 31
0.0
  0
LINE
  5
42
330
1E
100
AcDbEntity
  8
0
100
AcDbLine
 10
-0.173649999999994
 20
221.042
 30
0.0
 11
0.258250000000005
 21
220.011
 31
0.0
  0
LINE
  5
43
330
1E
100
AcDbEntity
  8
0
100
AcDbLine
 10
-0.173649999999994
 20
221.042
 30
0.0
 11
-0.140149999999995
 21
221.5409999999998
 31
0.0
  0
LINE
  5
44
330
1E
100
AcDbEntity
  8
0
100
AcDbLine
 10
0.723550000000004
 20
219.479
 30
0.0
 11
1.122650000000009
 21
219.452
 31
0.0
  0
LINE
  5
45
330
1E
100
AcDbEntity
  8
0
100
AcDbLine
 10
1.122650000000009
 20
219.452
 30
0.0
 11
2.319950000000009
 21
219.3709999999999
 31
0.0
  0
LINE
  5
46
330
1E
100
AcDbEntity
  8
0
100
AcDbLine
 10
0.459250000000004
 20
223.004
 30
0.0
 11
2.55525
 21
224.367
 31
0.0
  0
LINE
  5
47
330
1E
100
AcDbEntity
  8
0
100
AcDbLine
 10
0.258250000000005
 20
220.011
 30
0.0
 11
0.723550000000004
 21
219.479
 31
0.0
  0
LINE
  5
48
330
1E
100
AcDbEntity
  8
0
100
AcDbLine
 10
0.327750000000006
 20
213.462
 30
0.0
 11
1.25845000000001
 21
212.397
 31
0.0
  0
LINE
  5
49
330
1E
100
AcDbEntity
  8
0
100
AcDbLine
 10
0.327750000000006
 20
213.462
 30
0.0
 11
0.723550000000004
 21
219.479
 31
0.0
  0
LINE
  5
4A
330
1E
100
AcDbEntity
  8
0
100
AcDbLine
 10
0.327750000000006
 20
213.462
 30
0.0
 11
0.726850000000003
 21
213.4349999999999
 31
0.0
  0
LINE
  5
4B
330
1E
100
AcDbEntity
  8
0
100
AcDbLine
 10
1.92415000000001
 20
213.355
 30
0.0
 11
3.819850000000009
 21
213.2279999999999
 31
0.0
  0
LINE
  5
4C
330
1E
100
AcDbEntity
  8
0
100
AcDbLine
 10
2.319950000000009
 20
219.3709999999999
 30
0.0
 11
4.2157
 21
219.244
 31
0.0
  0
LINE
  5
4D
330
1E
100
AcDbEntity
  8
0
100
AcDbLine
 10
3.819850000000009
 20
213.2279999999999
 30
0.0
 11
6.314240000000008
 21
213.06
 31
0.0
  0
LINE
  5
4E
330
1E
100
AcDbEntity
  8
0
100
AcDbLine
 10
6.314240000000008
 20
213.06
 30
0.0
 11
9.207720000000009
 21
212.8659999999999
 31
0.0
  0
LINE
  5
4F
330
1E
100
AcDbEntity
  8
0
100
AcDbLine
 10
2.954350000000009
 20
224.34
 30
0.0
 11
3.952149999999998
 21
224.2729999999999
 31
0.0
  0
LINE
  5
50
330
1E
100
AcDbEntity
  8
0
100
AcDbLine
 10
3.952149999999998
 20
224.2729999999999
 30
0.0
 11
5.648320000000008
 21
224.159
 31
0.0
  0
LINE
  5
51
330
1E
100
AcDbEntity
  8
0
100
AcDbLine
 10
5.648320000000008
 20
224.159
 30
0.0
 11
7.84338
 21
224.012
 31
0.0
  0
LINE
  5
52
330
1E
100
AcDbEntity
  8
0
100
AcDbLine
 10
4.2157
 20
219.244
 30
0.0
 11
6.710080000000008
 21
219.077
 31
0.0
  0
LINE
  5
53
330
1E
100
AcDbEntity
  8
0
100
AcDbLine
 10
6.710080000000008
 20
219.077
 30
0.0
 11
9.603560000000008
 21
218.882
 31
0.0
  0
LINE
  5
54
330
1E
100
AcDbEntity
  8
0
100
AcDbLine
 10
2.55525
 20
224.367
 30
0.0
 11
3.871050000000008
 21
237.792
 31
0.0
  0
LINE
  5
55
330
1E
100
AcDbEntity
  8
0
100
AcDbLine
 10
2.55525
 20
224.367
 30
0.0
 11
2.954350000000009
 21
224.34
 31
0.0
  0
LINE
  5
56
330
1E
100
AcDbEntity
  8
0
100
AcDbLine
 10
6.371920000000008
 20
250.364
 30
0.0
 11
10.49246
 21
262.5029999999999
 31
0.0
  0
LINE
  5
57
330
1E
100
AcDbEntity
  8
0
100
AcDbLine
 10
3.871050000000008
 20
237.792
 30
0.0
 11
6.371920000000008
 21
250.364
 31
0.0
  0
LINE
  5
58
330
1E
100
AcDbEntity
  8
0
100
AcDbLine
 10
1.25845000000001
 20
212.397
 30
0.0
 11
1.65755
 21
212.3709999999999
 31
0.0
  0
LINE
  5
59
330
1E
100
AcDbEntity
  8
0
100
AcDbLine
 10
1.65755
 20
212.3709999999999
 30
0.0
 11
2.755050000000009
 21
212.297
 31
0.0
  0
LINE
  5
5A
330
1E
100
AcDbEntity
  8
0
100
AcDbLine
 10
23.20899
 20
210.923
 30
0.0
 11
24.27375
 21
211.854
 31
0.0
  0
LINE
  5
5B
330
1E
100
AcDbEntity
  8
0
100
AcDbLine
 10
22.80988999999999
 20
210.9499999999999
 30
0.0
 11
23.20899
 21
210.923
 31
0.0
  0
LINE
  5
5C
330
1E
100
AcDbEntity
  8
0
100
AcDbLine
 10
21.71237
 20
211.024
 30
0.0
 11
22.80988999999999
 21
210.9499999999999
 31
0.0
  0
LINE
  5
5D
330
1E
100
AcDbEntity
  8
0
100
AcDbLine
 10
20.01618999999998
 20
211.138
 30
0.0
 11
21.71237
 21
211.024
 31
0.0
  0
LINE
  5
5E
330
1E
100
AcDbEntity
  8
0
100
AcDbLine
 10
17.72136
 20
211.2919999999999
 30
0.0
 11
20.01618999999998
 21
211.138
 31
0.0
  0
LINE
  5
5F
330
1E
100
AcDbEntity
  8
0
100
AcDbLine
 10
14.97754
 20
211.4759999999999
 30
0.0
 11
17.72136
 21
211.2919999999999
 31
0.0
  0
LINE
  5
60
330
1E
100
AcDbEntity
  8
0
100
AcDbLine
 10
9.207720000000009
 20
212.8659999999999
 30
0.0
 11
12.30075
 21
212.6579999999999
 31
0.0
  0
LINE
  5
61
330
1E
100
AcDbEntity
  8
0
100
AcDbLine
 10
9.48991
 20
211.845
 30
0.0
 11
12.23373
 21
211.66
 31
0.0
  0
LINE
  5
62
330
1E
100
AcDbEntity
  8
0
100
AcDbLine
 10
15.39377
 20
212.4499999999999
 30
0.0
 11
18.28725
 21
212.2559999999999
 31
0.0
  0
LINE
  5
63
330
1E
100
AcDbEntity
  8
0
100
AcDbLine
 10
12.30075
 20
212.6579999999999
 30
0.0
 11
15.39377
 21
212.4499999999999
 31
0.0
  0
LINE
  5
64
330
1E
100
AcDbEntity
  8
0
100
AcDbLine
 10
20.78162999999999
 20
212.088
 30
0.0
 11
22.67736
 21
211.9609999999999
 31
0.0
  0
LINE
  5
65
330
1E
100
AcDbEntity
  8
0
100
AcDbLine
 10
18.28725
 20
212.2559999999999
 30
0.0
 11
20.78162999999999
 21
212.088
 31
0.0
  0
LINE
  5
66
330
1E
100
AcDbEntity
  8
0
100
AcDbLine
 10
23.87465
 20
211.8809999999998
 30
0.0
 11
24.27375
 21
211.854
 31
0.0
  0
LINE
  5
67
330
1E
100
AcDbEntity
  8
0
100
AcDbLine
 10
22.67736
 20
211.9609999999999
 30
0.0
 11
23.87465
 21
211.8809999999998
 31
0.0
  0
LINE
  5
68
330
1E
100
AcDbEntity
  8
0
100
AcDbLine
 10
24.27055
 20
217.897
 30
0.0
 11
24.66965
 21
217.87
 31
0.0
  0
LINE
  5
69
330
1E
100
AcDbEntity
  8
0
100
AcDbLine
 10
23.07320999999999
 20
217.9769999999999
 30
0.0
 11
24.27055
 21
217.897
 31
0.0
  0
LINE
  5
6A
330
1E
100
AcDbEntity
  8
0
100
AcDbLine
 10
21.17748
 20
218.1049999999999
 30
0.0
 11
23.07320999999999
 21
217.9769999999999
 31
0.0
  0
LINE
  5
6B
330
1E
100
AcDbEntity
  8
0
100
AcDbLine
 10
18.6831
 20
218.272
 30
0.0
 11
21.17748
 21
218.1049999999999
 31
0.0
  0
LINE
  5
6C
330
1E
100
AcDbEntity
  8
0
100
AcDbLine
 10
15.78962
 20
218.467
 30
0.0
 11
18.6831
 21
218.272
 31
0.0
  0
LINE
  5
6D
330
1E
100
AcDbEntity
  8
0
100
AcDbLine
 10
12.69659199999999
 20
218.6739999999999
 30
0.0
 11
15.78962
 21
218.467
 31
0.0
  0
LINE
  5
6E
330
1E
100
AcDbEntity
  8
0
100
AcDbLine
 10
9.603560000000008
 20
218.882
 30
0.0
 11
12.69659199999999
 21
218.6739999999999
 31
0.0
  0
LINE
  5
6F
330
1E
100
AcDbEntity
  8
0
100
AcDbLine
 10
7.84338
 20
224.012
 30
0.0
 11
10.33776
 21
223.844
 31
0.0
  0
LINE
  5
70
330
1E
100
AcDbEntity
  8
0
100
AcDbLine
 10
10.33776
 20
223.844
 30
0.0
 11
13.031687
 21
223.6629999999999
 31
0.0
  0
LINE
  5
71
330
1E
100
AcDbEntity
  8
0
100
AcDbLine
 10
22.11123
 20
223.0529999999999
 30
0.0
 11
23.10897999999999
 21
222.9859999999999
 31
0.0
  0
LINE
  5
72
330
1E
100
AcDbEntity
  8
0
100
AcDbLine
 10
20.41505
 20
223.167
 30
0.0
 11
22.11123
 21
223.0529999999999
 31
0.0
  0
LINE
  5
73
330
1E
100
AcDbEntity
  8
0
100
AcDbLine
 10
18.22
 20
223.315
 30
0.0
 11
20.41505
 21
223.167
 31
0.0
  0
LINE
  5
74
330
1E
100
AcDbEntity
  8
0
100
AcDbLine
 10
15.72562
 20
223.482
 30
0.0
 11
18.22
 21
223.315
 31
0.0
  0
LINE
  5
75
330
1E
100
AcDbEntity
  8
0
100
AcDbLine
 10
13.031687
 20
223.6629999999999
 30
0.0
 11
15.72562
 21
223.482
 31
0.0
  0
LINE
  5
76
330
1E
100
AcDbEntity
  8
0
100
AcDbLine
 10
23.28402
 20
284.6589999999998
 30
0.0
 11
31.73614999999999
 21
294.2959999999998
 31
0.0
  0
LINE
  5
77
330
1E
100
AcDbEntity
  8
0
100
AcDbLine
 10
16.16216
 20
274.0
 30
0.0
 11
23.28402
 21
284.6589999999998
 31
0.0
  0
LINE
  5
78
330
1E
100
AcDbEntity
  8
0
100
AcDbLine
 10
23.53495
 20
223.1929999999999
 30
0.0
 11
24.69135
 21
235.0509999999999
 31
0.0
  0
LINE
  5
79
330
1E
100
AcDbEntity
  8
0
100
AcDbLine
 10
23.10897999999999
 20
222.9859999999999
 30
0.0
 11
23.53495
 21
223.1929999999999
 31
0.0
  0
LINE
  5
7A
330
1E
100
AcDbEntity
  8
0
100
AcDbLine
 10
23.10897999999999
 20
222.9859999999999
 30
0.0
 11
23.50808
 21
222.9589999999999
 31
0.0
  0
LINE
  5
7B
330
1E
100
AcDbEntity
  8
0
100
AcDbLine
 10
10.49246
 20
262.5029999999999
 30
0.0
 11
16.16216
 21
274.0
 31
0.0
  0
LINE
  5
7C
330
1E
100
AcDbEntity
  8
0
100
AcDbLine
 10
23.50808
 20
222.9589999999999
 30
0.0
 11
25.40305
 21
221.329
 31
0.0
  0
LINE
  5
7D
330
1E
100
AcDbEntity
  8
0
100
AcDbLine
 10
24.69135
 20
235.0509999999999
 30
0.0
 11
26.65634999999999
 21
244.9289999999999
 31
0.0
  0
LINE
  5
7E
330
1E
100
AcDbEntity
  8
0
100
AcDbLine
 10
26.65634999999999
 20
244.9289999999999
 30
0.0
 11
29.89395
 21
254.4669999999999
 31
0.0
  0
LINE
  5
7F
330
1E
100
AcDbEntity
  8
0
100
AcDbLine
 10
39.94445
 20
271.875
 30
0.0
 11
46.58545
 21
279.447
 31
0.0
  0
LINE
  5
80
330
1E
100
AcDbEntity
  8
0
100
AcDbLine
 10
34.34865
 20
263.5
 30
0.0
 11
39.94445
 21
271.875
 31
0.0
  0
LINE
  5
81
330
1E
100
AcDbEntity
  8
0
100
AcDbLine
 10
29.89395
 20
254.4669999999999
 30
0.0
 11
34.34865
 21
263.5
 31
0.0
  0
LINE
  5
82
330
1E
100
AcDbEntity
  8
0
100
AcDbLine
 10
46.58545
 20
279.447
 30
0.0
 11
54.15805
 21
286.0879999999998
 31
0.0
  0
LINE
  5
83
330
1E
100
AcDbEntity
  8
0
100
AcDbLine
 10
62.53264999999998
 20
291.684
 30
0.0
 11
71.56605
 21
296.139
 31
0.0
  0
LINE
  5
84
330
1E
100
AcDbEntity
  8
0
100
AcDbLine
 10
71.56605
 20
296.139
 30
0.0
 11
81.10355
 21
299.3759999999998
 31
0.0
  0
LINE
  5
85
330
1E
100
AcDbEntity
  8
0
100
AcDbLine
 10
54.15805
 20
286.0879999999998
 30
0.0
 11
62.53264999999998
 21
291.684
 31
0.0
  0
LINE
  5
86
330
1E
100
AcDbEntity
  8
0
100
AcDbLine
 10
31.73614999999999
 20
294.2959999999998
 30
0.0
 11
41.37405
 21
302.749
 31
0.0
  0
LINE
  5
87
330
1E
100
AcDbEntity
  8
0
100
AcDbLine
 10
90.98215000000001
 20
301.341
 30
0.0
 11
101.03265
 21
302.0
 31
0.0
  0
LINE
  5
88
330
1E
100
AcDbEntity
  8
0
100
AcDbLine
 10
81.10355
 20
299.3759999999998
 30
0.0
 11
90.98215000000001
 21
301.341
 31
0.0
  0
LINE
  5
89
330
1E
100
AcDbEntity
  8
0
100
AcDbLine
 10
52.03265
 20
309.87
 30
0.0
 11
63.52965
 21
315.54
 31
0.0
  0
LINE
  5
8A
330
1E
100
AcDbEntity
  8
0
100
AcDbLine
 10
63.52965
 20
315.54
 30
0.0
 11
75.66835000000001
 21
319.661
 31
0.0
  0
LINE
  5
8B
330
1E
100
AcDbEntity
  8
0
100
AcDbLine
 10
41.37405
 20
302.749
 30
0.0
 11
52.03265
 21
309.87
 31
0.0
  0
LINE
  5
8C
330
1E
100
AcDbEntity
  8
0
100
AcDbLine
 10
88.24105000000001
 20
322.162
 30
0.0
 11
101.03265
 21
323.0
 31
0.0
  0
LINE
  5
8D
330
1E
100
AcDbEntity
  8
0
100
AcDbLine
 10
75.66835000000001
 20
319.661
 30
0.0
 11
88.24105000000001
 21
322.162
 31
0.0
  0
LINE
  5
8E
330
1E
100
AcDbEntity
  8
0
100
AcDbLine
 10
101.03265
 20
323.0
 30
0.0
 11
113.82465
 21
322.162
 31
0.0
  0
LINE
  5
8F
330
1E
100
AcDbEntity
  8
0
100
AcDbLine
 10
101.03265
 20
302.0
 30
0.0
 11
111.0831499999999
 21
301.341
 31
0.0
  0
LINE
  5
90
330
1E
100
AcDbEntity
  8
0
100
AcDbLine
 10
111.0831499999999
 20
301.341
 30
0.0
 11
120.96165
 21
299.3759999999998
 31
0.0
  0
LINE
  5
91
330
1E
100
AcDbEntity
  8
0
100
AcDbLine
 10
120.96165
 20
299.3759999999998
 30
0.0
 11
130.49965
 21
296.139
 31
0.0
  0
LINE
  5
92
330
1E
100
AcDbEntity
  8
0
100
AcDbLine
 10
126.3966499999999
 20
319.661
 30
0.0
 11
138.53565
 21
315.54
 31
0.0
  0
LINE
  5
93
330
1E
100
AcDbEntity
  8
0
100
AcDbLine
 10
113.82465
 20
322.162
 30
0.0
 11
126.3966499999999
 21
319.661
 31
0.0
  0
LINE
  5
94
330
1E
100
AcDbEntity
  8
0
100
AcDbLine
 10
130.49965
 20
296.139
 30
0.0
 11
139.5326499999999
 21
291.684
 31
0.0
  0
LINE
  5
95
330
1E
100
AcDbEntity
  8
0
100
AcDbLine
 10
147.9076499999998
 20
286.0879999999998
 30
0.0
 11
155.4796499999999
 21
279.447
 31
0.0
  0
LINE
  5
96
330
1E
100
AcDbEntity
  8
0
100
AcDbLine
 10
139.5326499999999
 20
291.684
 30
0.0
 11
147.9076499999998
 21
286.0879999999998
 31
0.0
  0
LINE
  5
97
330
1E
100
AcDbEntity
  8
0
100
AcDbLine
 10
150.0326499999999
 20
309.87
 30
0.0
 11
160.69165
 21
302.749
 31
0.0
  0
LINE
  5
98
330
1E
100
AcDbEntity
  8
0
100
AcDbLine
 10
138.53565
 20
315.54
 30
0.0
 11
150.0326499999999
 21
309.87
 31
0.0
  0
LINE
  5
99
330
1E
100
AcDbEntity
  8
0
100
AcDbLine
 10
155.4796499999999
 20
279.447
 30
0.0
 11
162.12065
 21
271.875
 31
0.0
  0
LINE
  5
9A
330
1E
100
AcDbEntity
  8
0
100
AcDbLine
 10
25.40305
 20
221.329
 30
0.0
 11
25.80144999999999
 21
219.799
 31
0.0
  0
LINE
  5
9B
330
1E
100
AcDbEntity
  8
0
100
AcDbLine
 10
25.76785
 20
219.3
 30
0.0
 11
25.80144999999999
 21
219.799
 31
0.0
  0
LINE
  5
9C
330
1E
100
AcDbEntity
  8
0
100
AcDbLine
 10
25.20195
 20
218.3359999999999
 30
0.0
 11
25.76785
 21
219.3
 31
0.0
  0
LINE
  5
9D
330
1E
100
AcDbEntity
  8
0
100
AcDbLine
 10
24.66965
 20
217.87
 30
0.0
 11
25.20195
 21
218.3359999999999
 31
0.0
  0
LINE
  5
9E
330
1E
100
AcDbEntity
  8
0
100
AcDbLine
 10
24.27375
 20
211.854
 30
0.0
 11
24.66965
 21
217.87
 31
0.0
  0
LINE
  5
9F
330
1E
100
AcDbEntity
  8
0
100
AcDbLine
 10
12.23373
 20
211.66
 30
0.0
 11
14.97754
 21
211.4759999999999
 31
0.0
  0
LINE
  5
A0
330
1E
100
AcDbEntity
  8
0
100
AcDbLine
 10
6.746089999999998
 20
212.029
 30
0.0
 11
9.48991
 21
211.845
 31
0.0
  0
LINE
  5
A1
330
1E
100
AcDbEntity
  8
0
100
AcDbLine
 10
159.5326499999998
 20
100.1759999999999
 30
0.0
 11
159.5326499999998
 21
99.52049999999999
 31
0.0
  0
LINE
  5
A2
330
1E
100
AcDbEntity
  8
0
100
AcDbLine
 10
159.5326499999998
 20
100.1759999999999
 30
0.0
 11
159.88865
 21
101.856
 31
0.0
  0
LINE
  5
A6
330
1E
100
AcDbEntity
  8
0
100
AcDbLine
 10
161.0616499999999
 20
101.626
 30
0.0
 11
162.1576499999999
 21
102.034
 31
0.0
  0
LINE
  5
A7
330
1E
100
AcDbEntity
  8
0
100
AcDbLine
 10
160.4076499999998
 20
101.185
 30
0.0
 11
161.0616499999999
 21
101.626
 31
0.0
  0
LINE
  5
A8
330
1E
100
AcDbEntity
  8
0
100
AcDbLine
 10
159.88865
 20
100.5449999999999
 30
0.0
 11
160.4076499999998
 21
101.185
 31
0.0
  0
LINE
  5
A9
330
1E
100
AcDbEntity
  8
0
100
AcDbLine
 10
160.8116499999999
 20
102.7839999999998
 30
0.0
 11
161.38865
 21
103.1579999999999
 31
0.0
  0
LINE
  5
AA
330
1E
100
AcDbEntity
  8
0
100
AcDbLine
 10
161.0616499999999
 20
102.936
 30
0.0
 11
162.1576499999999
 21
103.3439999999999
 31
0.0
  0
LINE
  5
AB
330
1E
100
AcDbEntity
  8
0
100
AcDbLine
 10
163.6576499999998
 20
102.254
 30
0.0
 11
165.55565
 21
102.185
 31
0.0
  0
LINE
  5
AC
330
1E
100
AcDbEntity
  8
0
100
AcDbLine
 10
162.1576499999999
 20
102.034
 30
0.0
 11
163.6576499999998
 21
102.254
 31
0.0
  0
LINE
  5
AD
330
1E
100
AcDbEntity
  8
0
100
AcDbLine
 10
165.55565
 20
102.185
 30
0.0
 11
169.53065
 21
101.665
 31
0.0
  0
LINE
  5
AE
330
1E
100
AcDbEntity
  8
0
100
AcDbLine
 10
162.1576499999999
 20
103.3439999999999
 30
0.0
 11
163.6576499999998
 21
103.5649999999999
 31
0.0
  0
LINE
  5
AF
330
1E
100
AcDbEntity
  8
0
100
AcDbLine
 10
163.6576499999998
 20
103.5649999999999
 30
0.0
 11
165.55565
 21
103.496
 31
0.0
  0
LINE
  5
B0
330
1E
100
AcDbEntity
  8
0
100
AcDbLine
 10
165.55565
 20
103.496
 30
0.0
 11
169.53065
 21
103.467
 31
0.0
  0
LINE
  5
B1
330
1E
100
AcDbEntity
  8
0
100
AcDbLine
 10
162.3506499999999
 20
103.522
 30
0.0
 11
163.63865
 21
103.6879999999999
 31
0.0
  0
LINE
  5
B2
330
1E
100
AcDbEntity
  8
0
100
AcDbLine
 10
161.38865
 20
103.1579999999999
 30
0.0
 11
162.3506499999999
 21
103.522
 31
0.0
  0
LINE
  5
B3
330
1E
100
AcDbEntity
  8
0
100
AcDbLine
 10
160.4076499999998
 20
102.495
 30
0.0
 11
160.8116499999999
 21
102.7839999999998
 31
0.0
  0
LINE
  5
B4
330
1E
100
AcDbEntity
  8
0
100
AcDbLine
 10
160.4076499999998
 20
102.495
 30
0.0
 11
161.0616499999999
 21
102.936
 31
0.0
  0
LINE
  5
B5
330
1E
100
AcDbEntity
  8
0
100
AcDbLine
 10
159.88865
 20
101.856
 30
0.0
 11
160.4076499999998
 21
102.495
 31
0.0
  0
LINE
  5
B6
330
1E
100
AcDbEntity
  8
0
100
AcDbLine
 10
169.51065
 20
103.56
 30
0.0
 11
172.76065
 21
104.089
 31
0.0
  0
LINE
  5
B7
330
1E
100
AcDbEntity
  8
0
100
AcDbLine
 10
160.69165
 20
302.749
 30
0.0
 11
170.32865
 21
294.2959999999998
 31
0.0
  0
LINE
  5
B8
330
1E
100
AcDbEntity
  8
0
100
AcDbLine
 10
162.12065
 20
271.875
 30
0.0
 11
167.71665
 21
263.5
 31
0.0
  0
LINE
  5
B9
330
1E
100
AcDbEntity
  8
0
100
AcDbLine
 10
167.71665
 20
263.5
 30
0.0
 11
172.17165
 21
254.4669999999999
 31
0.0
  0
LINE
  5
BA
330
1E
100
AcDbEntity
  8
0
100
AcDbLine
 10
163.63865
 20
103.6879999999999
 30
0.0
 11
165.53165
 21
103.631
 31
0.0
  0
LINE
  5
BB
330
1E
100
AcDbEntity
  8
0
100
AcDbLine
 10
165.53165
 20
103.631
 30
0.0
 11
169.51065
 21
103.56
 31
0.0
  0
LINE
  5
BC
330
1E
100
AcDbEntity
  8
0
100
AcDbLine
 10
159.5326499999998
 20
99.52049999999999
 30
0.0
 11
159.5326499999998
 21
98.8652
 31
0.0
  0
LINE
  5
BD
330
1E
100
AcDbEntity
  8
0
100
AcDbLine
 10
159.5326499999998
 20
99.52049999999999
 30
0.0
 11
159.5326499999998
 21
100.1759999999999
 31
0.0
  0
LINE
  5
BE
330
1E
100
AcDbEntity
  8
0
100
AcDbLine
 10
159.5326499999998
 20
98.8652
 30
0.0
 11
159.88865
 21
97.18519999999999
 31
0.0
  0
LINE
  5
BF
330
1E
100
AcDbEntity
  8
0
100
AcDbLine
 10
159.5326499999998
 20
98.8652
 30
0.0
 11
159.5326499999998
 21
99.52049999999999
 31
0.0
  0
LINE
  5
C0
330
1E
100
AcDbEntity
  8
0
100
AcDbLine
 10
159.5326499999998
 20
98.8652
 30
0.0
 11
159.88865
 21
100.5449999999999
 31
0.0
  0
LINE
  5
C1
330
1E
100
AcDbEntity
  8
0
100
AcDbLine
 10
170.32865
 20
294.2959999999998
 30
0.0
 11
178.78165
 21
284.6589999999998
 31
0.0
  0
LINE
  5
C2
330
1E
100
AcDbEntity
  8
0
100
AcDbLine
 10
169.53065
 20
103.467
 30
0.0
 11
173.0746499999999
 21
104.022
 31
0.0
  0
LINE
  5
C3
330
1E
100
AcDbEntity
  8
0
100
AcDbLine
 10
169.53065
 20
101.665
 30
0.0
 11
173.0746499999999
 21
100.506
 31
0.0
  0
LINE
  5
C4
330
1E
100
AcDbEntity
  8
0
100
AcDbLine
 10
169.51065
 20
95.4814
 30
0.0
 11
171.5806367701709
 21
95.14396031051191
 31
0.0
  0
LINE
  5
C5
330
1E
100
AcDbEntity
  8
0
100
AcDbLine
 10
169.51065
 20
95.4814
 30
0.0
 11
172.76065
 21
94.9516
 31
0.0
  0
LINE
  5
C6
330
1E
100
AcDbEntity
  8
0
100
AcDbLine
 10
165.53165
 20
95.40989999999998
 30
0.0
 11
169.51065
 21
95.4814
 31
0.0
  0
LINE
  5
C7
330
1E
100
AcDbEntity
  8
0
100
AcDbLine
 10
172.13265
 20
15.0
 30
0.0
 11
173.83265
 21
15.0
 31
0.0
  0
LINE
  5
C8
330
1E
100
AcDbEntity
  8
0
100
AcDbLine
 10
173.83265
 20
15.0
 30
0.0
 11
184.13265
 21
15.0
 31
0.0
  0
LINE
  5
C9
330
1E
100
AcDbEntity
  8
0
100
AcDbLine
 10
184.13265
 20
15.0
 30
0.0
 11
188.5326499999999
 21
15.0
 31
0.0
  0
LINE
  5
CA
330
1E
100
AcDbEntity
  8
0
100
AcDbLine
 10
182.1326499999999
 20
-0.00000000000002
 30
0.0
 11
188.5326499999999
 21
-0.0000000000000204
 31
0.0
  0
LINE
  5
CB
330
1E
100
AcDbEntity
  8
0
100
AcDbLine
 10
176.13265
 20
-0.0000000000000196
 30
0.0
 11
182.1326499999999
 21
-0.00000000000002
 31
0.0
  0
LINE
  5
CC
330
1E
100
AcDbEntity
  8
0
100
AcDbLine
 10
172.63265
 20
68.8352
 30
0.0
 11
174.23265
 21
65.5586
 31
0.0
  0
LINE
  5
CD
330
1E
100
AcDbEntity
  8
0
100
AcDbLine
 10
172.0326499999999
 20
72.2756
 30
0.0
 11
172.63265
 21
68.8352
 31
0.0
  0
LINE
  5
CE
330
1E
100
AcDbEntity
  8
0
100
AcDbLine
 10
172.0326499999999
 20
72.2756
 30
0.0
 11
172.63265
 21
75.71609999999998
 31
0.0
  0
LINE
  5
CF
330
1E
100
AcDbEntity
  8
0
100
AcDbLine
 10
172.13265
 20
67.81100000000001
 30
0.0
 11
173.83265
 21
64.4525
 31
0.0
  0
LINE
  5
D0
330
1E
100
AcDbEntity
  8
0
100
AcDbLine
 10
173.53265
 20
18.0
 30
0.0
 11
173.53265
 21
65.0451764705882
 31
0.0
  0
LINE
  5
D1
330
1E
100
AcDbEntity
  8
0
100
AcDbLine
 10
173.0326499999999
 20
16.0
 30
0.0
 11
173.53265
 21
18.0
 31
0.0
  0
LINE
  5
D2
330
1E
100
AcDbEntity
  8
0
100
AcDbLine
 10
172.5326499999999
 20
15.5
 30
0.0
 11
173.0326499999999
 21
16.0
 31
0.0
  0
LINE
  5
D3
330
1E
100
AcDbEntity
  8
0
100
AcDbLine
 10
175.13265
 20
16.0
 30
0.0
 11
177.63265
 21
16.0
 31
0.0
  0
LINE
  5
D4
330
1E
100
AcDbEntity
  8
0
100
AcDbLine
 10
173.0326499999999
 20
16.0
 30
0.0
 11
175.13265
 21
16.0
 31
0.0
  0
LINE
  5
D5
330
1E
100
AcDbEntity
  8
0
100
AcDbLine
 10
177.63265
 20
16.0
 30
0.0
 11
180.8326499999999
 21
16.0
 31
0.0
  0
LINE
  5
D7
330
1E
100
AcDbEntity
  8
0
100
AcDbLine
 10
174.23265
 20
65.5586
 30
0.0
 11
176.83265
 21
62.6916
 31
0.0
  0
LINE
  5
D8
330
1E
100
AcDbEntity
  8
0
100
AcDbLine
 10
173.83265
 20
64.4525
 30
0.0
 11
174.23265
 21
63.8379
 31
0.0
  0
LINE
  5
DA
330
1E
100
AcDbEntity
  8
0
100
AcDbLine
 10
174.23265
 20
63.8379
 30
0.0
 11
176.83265
 21
60.9708
 31
0.0
  0
LINE
  5
E0
330
1E
100
AcDbEntity
  8
0
100
AcDbLine
 10
184.33265
 20
57.5304
 30
0.0
 11
188.5326499999999
 21
57.0389
 31
0.0
  0
LINE
  5
E1
330
1E
100
AcDbEntity
  8
0
100
AcDbLine
 10
180.33265
 20
60.5618
 30
0.0
 11
184.33265
 21
59.2511
 31
0.0
  0
LINE
  5
E3
330
1E
100
AcDbEntity
  8
0
100
AcDbLine
 10
177.19165
 20
63.272
 30
0.0
 11
177.19165
 21
66.7135
 31
0.0
  0
LINE
  5
E4
330
1E
100
AcDbEntity
  8
0
100
AcDbLine
 10
177.19165
 20
63.272
 30
0.0
 11
192.69065
 21
59.8656
 31
0.0
  0
LINE
  5
E5
330
1E
100
AcDbEntity
  8
0
100
AcDbLine
 10
178.13265
 20
71.089
 30
0.0
 11
180.0326499999999
 21
69.0411
 31
0.0
  0
LINE
  5
E6
330
1E
100
AcDbEntity
  8
0
100
AcDbLine
 10
176.93265
 20
73.4645
 30
0.0
 11
178.13265
 21
71.089
 31
0.0
  0
LINE
  5
E7
330
1E
100
AcDbEntity
  8
0
100
AcDbLine
 10
180.0326499999999
 20
69.0411
 30
0.0
 11
182.5326499999999
 21
67.48470000000001
 31
0.0
  0
LINE
  5
E8
330
1E
100
AcDbEntity
  8
0
100
AcDbLine
 10
177.19165
 20
66.7135
 30
0.0
 11
177.19165
 21
63.272
 31
0.0
  0
LINE
  5
E9
330
1E
100
AcDbEntity
  8
0
100
AcDbLine
 10
177.19165
 20
66.7135
 30
0.0
 11
192.69065
 21
63.307
 31
0.0
  0
LINE
  5
EA
330
1E
100
AcDbEntity
  8
0
100
AcDbLine
 10
176.83265
 20
62.6916
 30
0.0
 11
180.33265
 21
60.5618
 31
0.0
  0
LINE
  5
EB
330
1E
100
AcDbEntity
  8
0
100
AcDbLine
 10
176.83265
 20
60.9708
 30
0.0
 11
180.33265
 21
58.841
 31
0.0
  0
LINE
  5
EC
330
1E
100
AcDbEntity
  8
0
100
AcDbLine
 10
182.5326499999999
 20
67.48470000000001
 30
0.0
 11
185.4326499999999
 21
66.5017
 31
0.0
  0
LINE
  5
ED
330
1E
100
AcDbEntity
  8
0
100
AcDbLine
 10
185.4326499999999
 20
66.5017
 30
0.0
 11
188.5326499999999
 21
66.17409999999999
 31
0.0
  0
LINE
  5
EE
330
1E
100
AcDbEntity
  8
0
100
AcDbLine
 10
185.4326499999999
 20
73.9582
 30
0.0
 11
188.5326499999999
 21
73.6306
 31
0.0
  0
LINE
  5
EF
330
1E
100
AcDbEntity
  8
0
100
AcDbLine
 10
182.5326499999999
 20
74.36759999999998
 30
0.0
 11
185.4326499999999
 21
73.38460000000002
 31
0.0
  0
LINE
  5
F0
330
1E
100
AcDbEntity
  8
0
100
AcDbLine
 10
185.4326499999999
 20
73.38460000000002
 30
0.0
 11
188.5326499999999
 21
73.057
 31
0.0
  0
LINE
  5
F1
330
1E
100
AcDbEntity
  8
0
100
AcDbLine
 10
188.5326499999999
 20
74.1862
 30
0.0
 11
189.33265
 21
74.1626
 31
0.0
  0
LINE
  5
F2
330
1E
100
AcDbEntity
  8
0
100
AcDbLine
 10
187.73265
 20
74.1626
 30
0.0
 11
188.5326499999999
 21
74.1862
 31
0.0
  0
LINE
  5
F3
330
1E
100
AcDbEntity
  8
0
100
AcDbLine
 10
187.73265
 20
74.1626
 30
0.0
 11
187.73265
 21
74.3769
 31
0.0
  0
LINE
  5
F4
330
1E
100
AcDbEntity
  8
0
100
AcDbLine
 10
185.4326499999999
 20
74.81860000000001
 30
0.0
 11
187.2300797835438
 21
74.62859427739759
 31
0.0
  0
LINE
  5
F5
330
1E
100
AcDbEntity
  8
0
100
AcDbLine
 10
182.5326499999999
 20
74.94119999999998
 30
0.0
 11
185.4326499999999
 21
73.9582
 31
0.0
  0
LINE
  5
F6
330
1E
100
AcDbEntity
  8
0
100
AcDbLine
 10
187.2326499999999
 20
74.6144
 30
0.0
 11
187.73265
 21
74.1626
 31
0.0
  0
LINE
  5
F7
330
1E
100
AcDbEntity
  8
0
100
AcDbLine
 10
187.73265
 20
74.3769
 30
0.0
 11
187.73265
 21
74.1626
 31
0.0
  0
LINE
  5
F8
330
1E
100
AcDbEntity
  8
0
100
AcDbLine
 10
187.73265
 20
74.3769
 30
0.0
 11
187.73265
 21
75.7651
 31
0.0
  0
LINE
  5
F9
330
1E
100
AcDbEntity
  8
0
100
AcDbLine
 10
188.5326499999999
 20
73.6306
 30
0.0
 11
191.63265
 21
73.9582
 31
0.0
  0
LINE
  5
FA
330
1E
100
AcDbEntity
  8
0
100
AcDbLine
 10
188.5326499999999
 20
66.17409999999999
 30
0.0
 11
191.63265
 21
66.5017
 31
0.0
  0
LINE
  5
FB
330
1E
100
AcDbEntity
  8
0
100
AcDbLine
 10
188.5326499999999
 20
73.057
 30
0.0
 11
191.63265
 21
73.38460000000002
 31
0.0
  0
LINE
  5
FC
330
1E
100
AcDbEntity
  8
0
100
AcDbLine
 10
184.33265
 20
59.2511
 30
0.0
 11
188.5326499999999
 21
58.7596
 31
0.0
  0
LINE
  5
FD
330
1E
100
AcDbEntity
  8
0
100
AcDbLine
 10
180.33265
 20
58.841
 30
0.0
 11
184.33265
 21
57.5304
 31
0.0
  0
LINE
  5
FE
330
1E
100
AcDbEntity
  8
0
100
AcDbLine
 10
188.5326499999999
 20
58.7596
 30
0.0
 11
192.73265
 21
59.2511
 31
0.0
  0
LINE
  5
100
330
1E
100
AcDbEntity
  8
0
100
AcDbLine
 10
188.5326499999999
 20
57.0389
 30
0.0
 11
192.73265
 21
57.5304
 31
0.0
  0
LINE
  5
103
330
1E
100
AcDbEntity
  8
0
100
AcDbLine
 10
180.8326499999999
 20
16.0
 30
0.0
 11
184.5326499999999
 21
16.0
 31
0.0
  0
LINE
  5
104
330
1E
100
AcDbEntity
  8
0
100
AcDbLine
 10
173.53265
 20
65.0451764705882
 30
0.0
 11
173.53265
 21
18.0
 31
0.0
  0
LINE
  5
105
330
1E
100
AcDbEntity
  8
0
100
AcDbLine
 10
188.5326499999999
 20
15.0
 30
0.0
 11
192.9326499999999
 21
15.0
 31
0.0
  0
LINE
  5
106
330
1E
100
AcDbEntity
  8
0
100
AcDbLine
 10
206.13265
 20
-0.0000000000000215
 30
0.0
 11
210.23265
 21
-0.0000000000000217
 31
0.0
  0
LINE
  5
107
330
1E
100
AcDbEntity
  8
0
100
AcDbLine
 10
210.23265
 20
-0.0000000000000217
 30
0.0
 11
212.63265
 21
-0.0000000000000219
 31
0.0
  0
LINE
  5
108
330
1E
100
AcDbEntity
  8
0
100
AcDbLine
 10
212.63265
 20
-0.0000000000000219
 30
0.0
 11
213.53265
 21
-0.0000000000000219
 31
0.0
  0
LINE
  5
109
330
1E
100
AcDbEntity
  8
0
100
AcDbLine
 10
200.9326499999999
 20
-0.0000000000000211
 30
0.0
 11
206.13265
 21
-0.0000000000000215
 31
0.0
  0
LINE
  5
10A
330
1E
100
AcDbEntity
  8
0
100
AcDbLine
 10
192.9326499999999
 20
15.0
 30
0.0
 11
203.2326499999999
 21
15.0
 31
0.0
  0
LINE
  5
10B
330
1E
100
AcDbEntity
  8
0
100
AcDbLine
 10
203.2326499999999
 20
15.0
 30
0.0
 11
204.9326499999998
 21
15.0
 31
0.0
  0
LINE
  5
10C
330
1E
100
AcDbEntity
  8
0
100
AcDbLine
 10
204.9326499999998
 20
15.0
 30
0.0
 11
205.53265
 21
15.0
 31
0.0
  0
LINE
  5
10D
330
1E
100
AcDbEntity
  8
0
100
AcDbLine
 10
196.2326499999999
 20
16.0
 30
0.0
 11
199.4326499999999
 21
16.0
 31
0.0
  0
LINE
  5
10E
330
1E
100
AcDbEntity
  8
0
100
AcDbLine
 10
184.5326499999999
 20
16.0
 30
0.0
 11
196.2326499999999
 21
16.0
 31
0.0
  0
LINE
  5
10F
330
1E
100
AcDbEntity
  8
0
100
AcDbLine
 10
199.4326499999999
 20
16.0
 30
0.0
 11
201.93265
 21
16.0
 31
0.0
  0
LINE
  5
110
330
1E
100
AcDbEntity
  8
0
100
AcDbLine
 10
192.69065
 20
59.8656
 30
0.0
 11
192.69065
 21
63.307
 31
0.0
  0
LINE
  5
111
330
1E
100
AcDbEntity
  8
0
100
AcDbLine
 10
192.69065
 20
59.8656
 30
0.0
 11
204.0326499999999
 21
69.15600000000001
 31
0.0
  0
LINE
  5
112
330
1E
100
AcDbEntity
  8
0
100
AcDbLine
 10
189.33265
 20
74.1626
 30
0.0
 11
189.33265
 21
74.3769
 31
0.0
  0
LINE
  5
113
330
1E
100
AcDbEntity
  8
0
100
AcDbLine
 10
189.33265
 20
74.1626
 30
0.0
 11
189.8326499999999
 21
74.6144
 31
0.0
  0
LINE
  5
114
330
1E
100
AcDbEntity
  8
0
100
AcDbLine
 10
189.8326499999999
 20
74.6144
 30
0.0
 11
190.33265
 21
77.37569999999998
 31
0.0
  0
LINE
  5
115
330
1E
100
AcDbEntity
  8
0
100
AcDbLine
 10
189.33265
 20
74.3769
 30
0.0
 11
189.33265
 21
75.7651
 31
0.0
  0
LINE
  5
116
330
1E
100
AcDbEntity
  8
0
100
AcDbLine
 10
189.33265
 20
74.3769
 30
0.0
 11
189.33265
 21
74.1626
 31
0.0
  0
LINE
  5
117
330
1E
100
AcDbEntity
  8
0
100
AcDbLine
 10
191.63265
 20
74.81860000000001
 30
0.0
 11
194.53265
 21
75.80159999999998
 31
0.0
  0
LINE
  5
118
330
1E
100
AcDbEntity
  8
0
100
AcDbLine
 10
189.8352202164559
 20
74.62859427739759
 30
0.0
 11
191.63265
 21
74.81860000000001
 31
0.0
  0
LINE
  5
119
330
1E
100
AcDbEntity
  8
0
100
AcDbLine
 10
191.63265
 20
73.9582
 30
0.0
 11
194.53265
 21
74.94119999999998
 31
0.0
  0
LINE
  5
11A
330
1E
100
AcDbEntity
  8
0
100
AcDbLine
 10
191.63265
 20
66.5017
 30
0.0
 11
194.53265
 21
67.48470000000001
 31
0.0
  0
LINE
  5
11B
330
1E
100
AcDbEntity
  8
0
100
AcDbLine
 10
191.63265
 20
73.38460000000002
 30
0.0
 11
194.53265
 21
74.36759999999998
 31
0.0
  0
LINE
  5
11C
330
1E
100
AcDbEntity
  8
0
100
AcDbLine
 10
192.69065
 20
63.307
 30
0.0
 11
204.0326499999999
 21
72.59739999999998
 31
0.0
  0
LINE
  5
11D
330
1E
100
AcDbEntity
  8
0
100
AcDbLine
 10
192.69065
 20
63.307
 30
0.0
 11
192.69065
 21
59.8656
 31
0.0
  0
LINE
  5
11E
330
1E
100
AcDbEntity
  8
0
100
AcDbLine
 10
194.53265
 20
74.94119999999998
 30
0.0
 11
197.0326499999999
 21
76.4976
 31
0.0
  0
LINE
  5
11F
330
1E
100
AcDbEntity
  8
0
100
AcDbLine
 10
194.53265
 20
67.48470000000001
 30
0.0
 11
197.0326499999999
 21
69.0411
 31
0.0
  0
LINE
  5
120
330
1E
100
AcDbEntity
  8
0
100
AcDbLine
 10
194.53265
 20
74.36759999999998
 30
0.0
 11
197.0326499999999
 21
75.92399999999997
 31
0.0
  0
LINE
  5
121
330
1E
100
AcDbEntity
  8
0
100
AcDbLine
 10
196.73265
 20
60.5618
 30
0.0
 11
200.23265
 21
62.6916
 31
0.0
  0
LINE
  5
122
330
1E
100
AcDbEntity
  8
0
100
AcDbLine
 10
192.73265
 20
59.2511
 30
0.0
 11
196.73265
 21
60.5618
 31
0.0
  0
LINE
  5
125
330
1E
100
AcDbEntity
  8
0
100
AcDbLine
 10
197.0326499999999
 20
69.0411
 30
0.0
 11
198.9326499999999
 21
71.089
 31
0.0
  0
LINE
  5
126
330
1E
100
AcDbEntity
  8
0
100
AcDbLine
 10
198.9326499999999
 20
71.089
 30
0.0
 11
200.13265
 21
73.4645
 31
0.0
  0
LINE
  5
127
330
1E
100
AcDbEntity
  8
0
100
AcDbLine
 10
200.13265
 20
73.4645
 30
0.0
 11
200.5326499999999
 21
76.0039
 31
0.0
  0
LINE
  5
129
330
1E
100
AcDbEntity
  8
0
100
AcDbLine
 10
200.23265
 20
62.6916
 30
0.0
 11
202.8326499999999
 21
65.5586
 31
0.0
  0
LINE
  5
12A
330
1E
100
AcDbEntity
  8
0
100
AcDbLine
 10
200.23265
 20
60.9708
 30
0.0
 11
202.8326499999999
 21
63.8379
 31
0.0
  0
LINE
  5
12B
330
1E
100
AcDbEntity
  8
0
100
AcDbLine
 10
196.73265
 20
58.841
 30
0.0
 11
200.23265
 21
60.9708
 31
0.0
  0
LINE
  5
12C
330
1E
100
AcDbEntity
  8
0
100
AcDbLine
 10
192.73265
 20
57.5304
 30
0.0
 11
196.73265
 21
58.841
 31
0.0
  0
LINE
  5
12F
330
1E
100
AcDbEntity
  8
0
100
AcDbLine
 10
203.53265
 20
18.7414181655511
 30
0.0
 11
203.53265
 21
18.0
 31
0.0
  0
LINE
  5
130
330
1E
100
AcDbEntity
  8
0
100
AcDbLine
 10
203.53265
 20
28.6907247775306
 30
0.0
 11
203.53265
 21
65.0451764705882
 31
0.0
  0
LINE
  5
132
330
1E
100
AcDbEntity
  8
0
100
AcDbLine
 10
202.8326499999999
 20
65.5586
 30
0.0
 11
204.4326499999999
 21
68.8352
 31
0.0
  0
LINE
  5
133
330
1E
100
AcDbEntity
  8
0
100
AcDbLine
 10
203.53265
 20
65.0451764705882
 30
0.0
 11
203.53265
 21
28.6907247775306
 31
0.0
  0
LINE
  5
134
330
1E
100
AcDbEntity
  8
0
100
AcDbLine
 10
203.2326499999999
 20
64.4525
 30
0.0
 11
204.9326499999998
 21
67.81100000000001
 31
0.0
  0
LINE
  5
135
330
1E
100
AcDbEntity
  8
0
100
AcDbLine
 10
202.8326499999999
 20
63.8379
 30
0.0
 11
203.2326499999999
 21
64.4525
 31
0.0
  0
LINE
  5
138
330
1E
100
AcDbEntity
  8
0
100
AcDbLine
 10
201.93265
 20
16.0
 30
0.0
 11
204.0326499999999
 21
16.0
 31
0.0
  0
LINE
  5
139
330
1E
100
AcDbEntity
  8
0
100
AcDbLine
 10
204.0326499999999
 20
69.15600000000001
 30
0.0
 11
204.0326499999999
 21
72.59739999999998
 31
0.0
  0
LINE
  5
13A
330
1E
100
AcDbEntity
  8
0
100
AcDbLine
 10
204.0326499999999
 20
72.59739999999998
 30
0.0
 11
204.0326499999999
 21
69.15600000000001
 31
0.0
  0
LINE
  5
13B
330
1E
100
AcDbEntity
  8
0
100
AcDbLine
 10
204.4326499999999
 20
68.8352
 30
0.0
 11
205.0326499999999
 21
72.2756
 31
0.0
  0
LINE
  5
13C
330
1E
100
AcDbEntity
  8
0
100
AcDbLine
 10
203.53265
 20
18.0
 30
0.0
 11
204.0326499999999
 21
16.0
 31
0.0
  0
LINE
  5
13D
330
1E
100
AcDbEntity
  8
0
100
AcDbLine
 10
203.53265
 20
18.0
 30
0.0
 11
203.53265
 21
18.7414181655511
 31
0.0
  0
LINE
  5
13E
330
1E
100
AcDbEntity
  8
0
100
AcDbLine
 10
204.0326499999999
 20
16.0
 30
0.0
 11
204.5326499999999
 21
15.5
 31
0.0
  0
LINE
  5
13F
330
1E
100
AcDbEntity
  8
0
100
AcDbLine
 10
204.9326499999998
 20
75.01949999999998
 30
0.0
 11
205.53265
 21
71.4153
 31
0.0
  0
LINE
  5
140
330
1E
100
AcDbEntity
  8
0
100
AcDbLine
 10
204.9326499999998
 20
67.81100000000001
 30
0.0
 11
205.53265
 21
71.4153
 31
0.0
  0
LINE
  5
141
330
1E
100
AcDbEntity
  8
0
100
AcDbLine
 10
204.5326499999999
 20
15.5
 30
0.0
 11
205.53265
 21
15.0
 31
0.0
  0
LINE
  5
142
330
1E
100
AcDbEntity
  8
0
100
AcDbLine
 10
205.53265
 20
15.0
 30
0.0
 11
206.0326499999999
 21
14.0
 31
0.0
  0
LINE
  5
143
330
1E
100
AcDbEntity
  8
0
100
AcDbLine
 10
205.53265
 20
12.5
 30
0.0
 11
206.0326499999999
 21
13.5
 31
0.0
  0
LINE
  5
144
330
1E
100
AcDbEntity
  8
0
100
AcDbLine
 10
205.3326499999999
 20
11.4
 30
0.0
 11
205.53265
 21
9.99999999999998
 31
0.0
  0
LINE
  5
145
330
1E
100
AcDbEntity
  8
0
100
AcDbLine
 10
205.3326499999999
 20
11.4
 30
0.0
 11
205.53265
 21
12.5
 31
0.0
  0
LINE
  5
152
330
1E
100
AcDbEntity
  8
0
100
AcDbLine
 10
206.0326499999999
 20
14.0
 30
0.0
 11
206.0326499999999
 21
13.5
 31
0.0
  0
LINE
  5
153
330
1E
100
AcDbEntity
  8
0
100
AcDbLine
 10
206.0326499999999
 20
13.5
 30
0.0
 11
206.0326499999999
 21
14.0
 31
0.0
  0
LINE
  5
154
330
1E
100
AcDbEntity
  8
0
100
AcDbLine
 10
205.53265
 20
9.99999999999998
 30
0.0
 11
206.5326499999999
 21
6.999999999999981
 31
0.0
  0
LINE
  5
155
330
1E
100
AcDbEntity
  8
0
100
AcDbLine
 10
206.5326499999999
 20
6.999999999999981
 30
0.0
 11
208.5326499999999
 21
3.999999999999978
 31
0.0
  0
LINE
  5
162
330
1E
100
AcDbEntity
  8
0
100
AcDbLine
 10
208.5326499999999
 20
3.999999999999978
 30
0.0
 11
212.03265
 21
2.49999999999998
 31
0.0
  0
LINE
  5
163
330
1E
100
AcDbEntity
  8
0
100
AcDbLine
 10
212.03265
 20
2.49999999999998
 30
0.0
 11
213.0326499999999
 21
1.49999999999998
 31
0.0
  0
LINE
  5
17B
330
1E
100
AcDbEntity
  8
0
100
AcDbLine
 10
213.0326499999999
 20
1.49999999999998
 30
0.0
 11
213.53265
 21
-0.0000000000000219
 31
0.0
  0
LINE
  5
17C
330
1E
100
AcDbEntity
  8
0
100
AcDbLine
 10
213.0326499999999
 20
1.49999999999998
 30
0.0
 11
213.53265
 21
-0.0000000000000219
 31
0.0
  0
LINE
  5
17D
330
1E
100
AcDbEntity
  8
0
100
AcDbLine
 10
194.9326499999999
 20
-0.0000000000000208
 30
0.0
 11
200.9326499999999
 21
-0.0000000000000211
 31
0.0
  0
LINE
  5
17E
330
1E
100
AcDbEntity
  8
0
100
AcDbLine
 10
188.5326499999999
 20
-0.0000000000000204
 30
0.0
 11
194.9326499999999
 21
-0.0000000000000208
 31
0.0
  0
LINE
  5
17F
330
1E
100
AcDbEntity
  8
0
100
AcDbLine
 10
172.63265
 20
75.71609999999998
 30
0.0
 11
173.0326499999999
 21
76.53525000000001
 31
0.0
  0
LINE
  5
180
330
1E
100
AcDbEntity
  8
0
100
AcDbLine
 10
173.0326499999999
 20
75.96890000000001
 30
0.0
 11
177.19165
 21
63.272
 31
0.0
  0
LINE
  5
181
330
1E
100
AcDbEntity
  8
0
100
AcDbLine
 10
173.0326499999999
 20
75.96890000000001
 30
0.0
 11
173.0326499999999
 21
79.41030000000002
 31
0.0
  0
LINE
  5
182
330
1E
100
AcDbEntity
  8
0
100
AcDbLine
 10
172.63265
 20
93.49999999999999
 30
0.0
 11
174.23265
 21
93.49999999999999
 31
0.0
  0
LINE
  5
183
330
1E
100
AcDbEntity
  8
0
100
AcDbLine
 10
172.17165
 20
254.4669999999999
 30
0.0
 11
175.4086499999999
 21
244.9289999999999
 31
0.0
  0
LINE
  5
184
330
1E
100
AcDbEntity
  8
0
100
AcDbLine
 10
172.76065
 20
104.089
 30
0.0
 11
175.5736499999999
 21
105.2589999999999
 31
0.0
  0
LINE
  5
185
330
1E
100
AcDbEntity
  8
0
100
AcDbLine
 10
172.76065
 20
94.9516
 30
0.0
 11
175.5736499999999
 21
93.78159999999999
 31
0.0
  0
LINE
  5
186
330
1E
100
AcDbEntity
  8
0
100
AcDbLine
 10
172.13265
 20
95.0
 30
0.0
 11
172.4637455077389
 21
95.0
 31
0.0
  0
LINE
  5
187
330
1E
100
AcDbEntity
  8
0
100
AcDbLine
 10
172.0326499999999
 20
93.49999999999999
 30
0.0
 11
173.0326499999999
 21
93.0
 31
0.0
  0
LINE
  5
188
330
1E
100
AcDbEntity
  8
0
100
AcDbLine
 10
172.0326499999999
 20
93.49999999999999
 30
0.0
 11
172.63265
 21
93.49999999999999
 31
0.0
  0
LINE
  5
189
330
1E
100
AcDbEntity
  8
0
100
AcDbLine
 10
173.0326499999999
 20
93.0
 30
0.0
 11
173.53265
 21
91.5
 31
0.0
  0
LINE
  5
18A
330
1E
100
AcDbEntity
  8
0
100
AcDbLine
 10
173.0326499999999
 20
93.0
 30
0.0
 11
173.63265
 21
93.0
 31
0.0
  0
LINE
  5
18B
330
1E
100
AcDbEntity
  8
0
100
AcDbLine
 10
173.0326499999999
 20
79.41030000000002
 30
0.0
 11
173.0326499999999
 21
76.79758235294109
 31
0.0
  0
LINE
  5
18C
330
1E
100
AcDbEntity
  8
0
100
AcDbLine
 10
173.0326499999999
 20
79.41030000000002
 30
0.0
 11
177.19165
 21
66.7135
 31
0.0
  0
LINE
  5
18D
330
1E
100
AcDbEntity
  8
0
100
AcDbLine
 10
173.0326499999999
 20
79.41030000000002
 30
0.0
 11
173.0326499999999
 21
75.96890000000001
 31
0.0
  0
LINE
  5
18E
330
1E
100
AcDbEntity
  8
0
100
AcDbLine
 10
173.0326499999999
 20
79.41030000000002
 30
0.0
 11
176.53265
 21
82.27720178099103
 31
0.0
  0
LINE
  5
18F
330
1E
100
AcDbEntity
  8
0
100
AcDbLine
 10
173.53265
 20
79.81985739728441
 30
0.0
 11
173.53265
 21
91.5
 31
0.0
  0
LINE
  5
190
330
1E
100
AcDbEntity
  8
0
100
AcDbLine
 10
185.5326499999999
 20
75.5149
 30
0.0
 11
187.100596207559
 21
75.34368027413449
 31
0.0
  0
LINE
  5
191
330
1E
100
AcDbEntity
  8
0
100
AcDbLine
 10
189.33265
 20
75.7651
 30
0.0
 11
189.33265
 21
74.3769
 31
0.0
  0
LINE
  5
192
330
1E
100
AcDbEntity
  8
0
100
AcDbLine
 10
189.33265
 20
75.7651
 30
0.0
 11
189.33265
 21
77.73690000000001
 31
0.0
  0
LINE
  5
193
330
1E
100
AcDbEntity
  8
0
100
AcDbLine
 10
182.5326499999999
 20
75.80159999999998
 30
0.0
 11
185.4326499999999
 21
74.81860000000001
 31
0.0
  0
LINE
  5
194
330
1E
100
AcDbEntity
  8
0
100
AcDbLine
 10
180.0326499999999
 20
75.92399999999997
 30
0.0
 11
182.5326499999999
 21
74.36759999999998
 31
0.0
  0
LINE
  5
195
330
1E
100
AcDbEntity
  8
0
100
AcDbLine
 10
187.73265
 20
75.7651
 30
0.0
 11
187.73265
 21
77.73690000000001
 31
0.0
  0
LINE
  5
196
330
1E
100
AcDbEntity
  8
0
100
AcDbLine
 10
187.73265
 20
75.7651
 30
0.0
 11
187.73265
 21
74.3769
 31
0.0
  0
LINE
  5
197
330
1E
100
AcDbEntity
  8
0
100
AcDbLine
 10
191.5326499999999
 20
75.5149
 30
0.0
 11
194.23265
 21
76.416
 31
0.0
  0
LINE
  5
198
330
1E
100
AcDbEntity
  8
0
100
AcDbLine
 10
189.9647037924409
 20
75.34368027413449
 30
0.0
 11
191.5326499999999
 21
75.5149
 31
0.0
  0
LINE
  5
199
330
1E
100
AcDbEntity
  8
0
100
AcDbLine
 10
194.53265
 20
75.80159999999998
 30
0.0
 11
197.0326499999999
 21
77.3579
 31
0.0
  0
LINE
  5
19A
330
1E
100
AcDbEntity
  8
0
100
AcDbLine
 10
197.0326499999999
 20
75.92399999999997
 30
0.0
 11
198.9326499999999
 21
77.9719
 31
0.0
  0
LINE
  5
19B
330
1E
100
AcDbEntity
  8
0
100
AcDbLine
 10
200.5326499999999
 20
76.0039
 30
0.0
 11
200.5326499999999
 21
82.88679999999997
 31
0.0
  0
LINE
  5
19C
330
1E
100
AcDbEntity
  8
0
100
AcDbLine
 10
176.53265
 20
84.32070000000001
 30
0.0
 11
176.93265
 21
86.86010000000001
 31
0.0
  0
LINE
  5
19D
330
1E
100
AcDbEntity
  8
0
100
AcDbLine
 10
176.53265
 20
84.32070000000001
 30
0.0
 11
176.53265
 21
83.4604
 31
0.0
  0
LINE
  5
19E
330
1E
100
AcDbEntity
  8
0
100
AcDbLine
 10
176.53265
 20
84.32070000000001
 30
0.0
 11
176.93265
 21
81.7814
 31
0.0
  0
LINE
  5
19F
330
1E
100
AcDbEntity
  8
0
100
AcDbLine
 10
176.53265
 20
83.4604
 30
0.0
 11
176.53265
 21
84.32070000000001
 31
0.0
  0
LINE
  5
1A0
330
1E
100
AcDbEntity
  8
0
100
AcDbLine
 10
176.53265
 20
83.4604
 30
0.0
 11
176.93265
 21
80.921
 31
0.0
  0
LINE
  5
1A1
330
1E
100
AcDbEntity
  8
0
100
AcDbLine
 10
176.93265
 20
81.7814
 30
0.0
 11
178.13265
 21
79.4058
 31
0.0
  0
LINE
  5
1A2
330
1E
100
AcDbEntity
  8
0
100
AcDbLine
 10
176.93265
 20
80.921
 30
0.0
 11
178.13265
 21
78.5455
 31
0.0
  0
LINE
  5
1A3
330
1E
100
AcDbEntity
  8
0
100
AcDbLine
 10
176.93265
 20
80.34739999999997
 30
0.0
 11
178.13265
 21
77.9719
 31
0.0
  0
LINE
  5
1A4
330
1E
100
AcDbEntity
  8
0
100
AcDbLine
 10
182.83265
 20
76.416
 30
0.0
 11
185.5326499999999
 21
75.5149
 31
0.0
  0
LINE
  5
1A5
330
1E
100
AcDbEntity
  8
0
100
AcDbLine
 10
180.0326499999999
 20
76.4976
 30
0.0
 11
182.5326499999999
 21
74.94119999999998
 31
0.0
  0
LINE
  5
1A6
330
1E
100
AcDbEntity
  8
0
100
AcDbLine
 10
190.33265
 20
77.2925
 30
0.0
 11
190.33265
 21
77.37569999999998
 31
0.0
  0
LINE
  5
1A7
330
1E
100
AcDbEntity
  8
0
100
AcDbLine
 10
190.33265
 20
77.2925
 30
0.0
 11
190.5326499999999
 21
80.68000000000003
 31
0.0
  0
LINE
  5
1A8
330
1E
100
AcDbEntity
  8
0
100
AcDbLine
 10
180.0326499999999
 20
77.3579
 30
0.0
 11
182.5326499999999
 21
75.80159999999998
 31
0.0
  0
LINE
  5
1A9
330
1E
100
AcDbEntity
  8
0
100
AcDbLine
 10
186.73265
 20
77.2925
 30
0.0
 11
186.73265
 21
77.37569999999998
 31
0.0
  0
LINE
  5
1AA
330
1E
100
AcDbEntity
  8
0
100
AcDbLine
 10
194.23265
 20
76.416
 30
0.0
 11
196.63265
 21
77.97239999999998
 31
0.0
  0
LINE
  5
1AB
330
1E
100
AcDbEntity
  8
0
100
AcDbLine
 10
178.13265
 20
77.9719
 30
0.0
 11
180.0326499999999
 21
75.92399999999997
 31
0.0
  0
LINE
  5
1AC
330
1E
100
AcDbEntity
  8
0
100
AcDbLine
 10
186.73265
 20
77.37569999999998
 30
0.0
 11
187.2326499999999
 21
74.6144
 31
0.0
  0
LINE
  5
1AD
330
1E
100
AcDbEntity
  8
0
100
AcDbLine
 10
186.73265
 20
77.37569999999998
 30
0.0
 11
186.73265
 21
77.2925
 31
0.0
  0
LINE
  5
1AE
330
1E
100
AcDbEntity
  8
0
100
AcDbLine
 10
189.33265
 20
77.73690000000001
 30
0.0
 11
189.33265
 21
78.80169999999998
 31
0.0
  0
LINE
  5
1AF
330
1E
100
AcDbEntity
  8
0
100
AcDbLine
 10
189.33265
 20
77.73690000000001
 30
0.0
 11
189.33265
 21
75.7651
 31
0.0
  0
LINE
  5
1B0
330
1E
100
AcDbEntity
  8
0
100
AcDbLine
 10
190.33265
 20
77.37569999999998
 30
0.0
 11
190.33265
 21
77.2925
 31
0.0
  0
LINE
  5
1B1
330
1E
100
AcDbEntity
  8
0
100
AcDbLine
 10
187.73265
 20
77.73690000000001
 30
0.0
 11
187.73265
 21
75.7651
 31
0.0
  0
LINE
  5
1B2
330
1E
100
AcDbEntity
  8
0
100
AcDbLine
 10
187.73265
 20
77.73690000000001
 30
0.0
 11
187.73265
 21
78.80169999999998
 31
0.0
  0
LINE
  5
1B3
330
1E
100
AcDbEntity
  8
0
100
AcDbLine
 10
197.0326499999999
 20
77.3579
 30
0.0
 11
198.9326499999999
 21
79.4058
 31
0.0
  0
LINE
  5
1B4
330
1E
100
AcDbEntity
  8
0
100
AcDbLine
 10
197.0326499999999
 20
76.4976
 30
0.0
 11
198.9326499999999
 21
78.5455
 31
0.0
  0
LINE
  5
1B5
330
1E
100
AcDbEntity
  8
0
100
AcDbLine
 10
178.13265
 20
78.5455
 30
0.0
 11
180.0326499999999
 21
76.4976
 31
0.0
  0
LINE
  5
1B6
330
1E
100
AcDbEntity
  8
0
100
AcDbLine
 10
180.4326499999999
 20
77.97239999999998
 30
0.0
 11
182.83265
 21
76.416
 31
0.0
  0
LINE
  5
1B7
330
1E
100
AcDbEntity
  8
0
100
AcDbLine
 10
196.63265
 20
77.97239999999998
 30
0.0
 11
198.53265
 21
79.9384
 31
0.0
  0
LINE
  5
1BA
330
1E
100
AcDbEntity
  8
0
100
AcDbLine
 10
189.33265
 20
78.80169999999998
 30
0.0
 11
189.33265
 21
79.7784
 31
0.0
  0
LINE
  5
1BB
330
1E
100
AcDbEntity
  8
0
100
AcDbLine
 10
189.33265
 20
78.80169999999998
 30
0.0
 11
189.33265
 21
77.73690000000001
 31
0.0
  0
LINE
  5
1BC
330
1E
100
AcDbEntity
  8
0
100
AcDbLine
 10
187.73265
 20
78.80169999999998
 30
0.0
 11
187.73265
 21
77.73690000000001
 31
0.0
  0
LINE
  5
1BD
330
1E
100
AcDbEntity
  8
0
100
AcDbLine
 10
187.73265
 20
78.80169999999998
 30
0.0
 11
187.73265
 21
79.7784
 31
0.0
  0
LINE
  5
1BE
330
1E
100
AcDbEntity
  8
0
100
AcDbLine
 10
178.13265
 20
79.4058
 30
0.0
 11
180.0326499999999
 21
77.3579
 31
0.0
  0
LINE
  5
1BF
330
1E
100
AcDbEntity
  8
0
100
AcDbLine
 10
178.53265
 20
79.9384
 30
0.0
 11
180.4326499999999
 21
77.97239999999998
 31
0.0
  0
LINE
  5
1C4
330
1E
100
AcDbEntity
  8
0
100
AcDbLine
 10
189.33265
 20
79.7784
 30
0.0
 11
189.33265
 21
81.08400000000001
 31
0.0
  0
LINE
  5
1C5
330
1E
100
AcDbEntity
  8
0
100
AcDbLine
 10
189.33265
 20
79.7784
 30
0.0
 11
189.33265
 21
78.80169999999998
 31
0.0
  0
LINE
  5
1C6
330
1E
100
AcDbEntity
  8
0
100
AcDbLine
 10
187.73265
 20
79.7784
 30
0.0
 11
187.73265
 21
78.80169999999998
 31
0.0
  0
LINE
  5
1C7
330
1E
100
AcDbEntity
  8
0
100
AcDbLine
 10
187.73265
 20
79.7784
 30
0.0
 11
187.73265
 21
81.08400000000001
 31
0.0
  0
LINE
  5
1C8
330
1E
100
AcDbEntity
  8
0
100
AcDbLine
 10
177.4326499999999
 20
82.15009999999997
 30
0.0
 11
178.53265
 21
79.9384
 31
0.0
  0
LINE
  5
1C9
330
1E
100
AcDbEntity
  8
0
100
AcDbLine
 10
183.33265
 20
82.15009999999997
 30
0.0
 11
184.33265
 21
81.16710000000002
 31
0.0
  0
LINE
  5
1CA
330
1E
100
AcDbEntity
  8
0
100
AcDbLine
 10
184.33265
 20
81.16710000000002
 30
0.0
 11
185.5326499999999
 21
80.34789999999999
 31
0.0
  0
LINE
  5
1CB
330
1E
100
AcDbEntity
  8
0
100
AcDbLine
 10
185.5326499999999
 20
80.34789999999999
 30
0.0
 11
186.572371450145
 21
80.00721793816909
 31
0.0
  0
LINE
  5
1CC
330
1E
100
AcDbEntity
  8
0
100
AcDbLine
 10
186.5326499999999
 20
80.68000000000003
 30
0.0
 11
186.73265
 21
77.2925
 31
0.0
  0
LINE
  5
1D0
330
1E
100
AcDbEntity
  8
0
100
AcDbLine
 10
187.73265
 20
82.53299999999999
 30
0.0
 11
187.73265
 21
81.08400000000001
 31
0.0
  0
LINE
  5
1D1
330
1E
100
AcDbEntity
  8
0
100
AcDbLine
 10
187.73265
 20
82.53299999999999
 30
0.0
 11
187.73265
 21
84.0186
 31
0.0
  0
LINE
  5
1D2
330
1E
100
AcDbEntity
  8
0
100
AcDbLine
 10
191.5326499999999
 20
80.34789999999999
 30
0.0
 11
192.73265
 21
81.16710000000002
 31
0.0
  0
LINE
  5
1D3
330
1E
100
AcDbEntity
  8
0
100
AcDbLine
 10
190.492928549855
 20
80.00721793816909
 30
0.0
 11
191.5326499999999
 21
80.34789999999999
 31
0.0
  0
LINE
  5
1D4
330
1E
100
AcDbEntity
  8
0
100
AcDbLine
 10
189.33265
 20
82.53299999999999
 30
0.0
 11
189.33265
 21
84.0186
 31
0.0
  0
LINE
  5
1D5
330
1E
100
AcDbEntity
  8
0
100
AcDbLine
 10
189.33265
 20
82.53299999999999
 30
0.0
 11
189.33265
 21
81.08400000000001
 31
0.0
  0
LINE
  5
1D6
330
1E
100
AcDbEntity
  8
0
100
AcDbLine
 10
192.73265
 20
81.16710000000002
 30
0.0
 11
193.73265
 21
82.15009999999997
 31
0.0
  0
LINE
  5
1D7
330
1E
100
AcDbEntity
  8
0
100
AcDbLine
 10
193.73265
 20
82.15009999999997
 30
0.0
 11
194.3326499999999
 21
83.3788
 31
0.0
  0
LINE
  5
1DB
330
1E
100
AcDbEntity
  8
0
100
AcDbLine
 10
189.33265
 20
81.08400000000001
 30
0.0
 11
189.33265
 21
82.53299999999999
 31
0.0
  0
LINE
  5
1DC
330
1E
100
AcDbEntity
  8
0
100
AcDbLine
 10
189.33265
 20
81.08400000000001
 30
0.0
 11
189.33265
 21
79.7784
 31
0.0
  0
LINE
  5
1DD
330
1E
100
AcDbEntity
  8
0
100
AcDbLine
 10
190.5326499999999
 20
80.68000000000003
 30
0.0
 11
190.7353898572375
 21
82.89432472074928
 31
0.0
  0
LINE
  5
1DE
330
1E
100
AcDbEntity
  8
0
100
AcDbLine
 10
187.73265
 20
81.08400000000001
 30
0.0
 11
187.73265
 21
79.7784
 31
0.0
  0
LINE
  5
1DF
330
1E
100
AcDbEntity
  8
0
100
AcDbLine
 10
187.73265
 20
81.08400000000001
 30
0.0
 11
187.73265
 21
82.53299999999999
 31
0.0
  0
LINE
  5
1E0
330
1E
100
AcDbEntity
  8
0
100
AcDbLine
 10
198.53265
 20
79.9384
 30
0.0
 11
199.63265
 21
82.15009999999997
 31
0.0
  0
LINE
  5
1E1
330
1E
100
AcDbEntity
  8
0
100
AcDbLine
 10
199.63265
 20
82.15009999999997
 30
0.0
 11
200.0326499999999
 21
84.6075
 31
0.0
  0
LINE
  5
1E2
330
1E
100
AcDbEntity
  8
0
100
AcDbLine
 10
198.9326499999999
 20
79.4058
 30
0.0
 11
200.13265
 21
81.7814
 31
0.0
  0
LINE
  5
1E3
330
1E
100
AcDbEntity
  8
0
100
AcDbLine
 10
200.13265
 20
81.7814
 30
0.0
 11
200.5326499999999
 21
84.32070000000001
 31
0.0
  0
LINE
  5
1E4
330
1E
100
AcDbEntity
  8
0
100
AcDbLine
 10
198.9326499999999
 20
78.5455
 30
0.0
 11
200.13265
 21
80.921
 31
0.0
  0
LINE
  5
1E5
330
1E
100
AcDbEntity
  8
0
100
AcDbLine
 10
200.13265
 20
80.921
 30
0.0
 11
200.5326499999999
 21
83.4604
 31
0.0
  0
LINE
  5
1E6
330
1E
100
AcDbEntity
  8
0
100
AcDbLine
 10
198.9326499999999
 20
77.9719
 30
0.0
 11
200.13265
 21
80.34739999999997
 31
0.0
  0
LINE
  5
1E7
330
1E
100
AcDbEntity
  8
0
100
AcDbLine
 10
201.4328090425919
 20
80.536293855726
 30
0.0
 11
202.8326499999999
 21
78.9927
 31
0.0
  0
LINE
  5
1E8
330
1E
100
AcDbEntity
  8
0
100
AcDbLine
 10
200.13265
 20
80.34739999999997
 30
0.0
 11
200.5326499999999
 21
82.88679999999997
 31
0.0
  0
LINE
  5
1E9
330
1E
100
AcDbEntity
  8
0
100
AcDbLine
 10
182.73265
 20
83.3788
 30
0.0
 11
183.33265
 21
82.15009999999997
 31
0.0
  0
LINE
  5
1EA
330
1E
100
AcDbEntity
  8
0
100
AcDbLine
 10
182.5326499999999
 20
84.6075
 30
0.0
 11
182.73265
 21
83.3788
 31
0.0
  0
LINE
  5
1EB
330
1E
100
AcDbEntity
  8
0
100
AcDbLine
 10
182.5326499999999
 20
84.6075
 30
0.0
 11
182.5326499999999
 21
88.38274515103341
 31
0.0
  0
LINE
  5
1EC
330
1E
100
AcDbEntity
  8
0
100
AcDbLine
 10
184.21965
 20
86.6995
 30
0.0
 11
185.815008740494
 21
84.331804340529
 31
0.0
  0
LINE
  5
1ED
330
1E
100
AcDbEntity
  8
0
100
AcDbLine
 10
185.815008740494
 20
84.331804340529
 30
0.0
 11
186.329910142763
 21
82.89432472074759
 31
0.0
  0
LINE
  5
1EE
330
1E
100
AcDbEntity
  8
0
100
AcDbLine
 10
186.329910142763
 20
82.89432472074759
 30
0.0
 11
186.5326499999999
 21
80.68000000000003
 31
0.0
  0
LINE
  5
1EF
330
1E
100
AcDbEntity
  8
0
100
AcDbLine
 10
194.3326499999999
 20
83.3788
 30
0.0
 11
194.53265
 21
84.6075
 31
0.0
  0
LINE
  5
1F0
330
1E
100
AcDbEntity
  8
0
100
AcDbLine
 10
190.735389857237
 20
82.89432472074759
 30
0.0
 11
191.250291259505
 21
84.33180434052784
 31
0.0
  0
LINE
  5
1F1
330
1E
100
AcDbEntity
  8
0
100
AcDbLine
 10
194.53265
 20
84.6075
 30
0.0
 11
194.53265
 21
88.38274515103341
 31
0.0
  0
LINE
  5
1F2
330
1E
100
AcDbEntity
  8
0
100
AcDbLine
 10
192.84565
 20
86.6995
 30
0.0
 11
194.73265
 21
88.5823
 31
0.0
  0
LINE
  5
1F3
330
1E
100
AcDbEntity
  8
0
100
AcDbLine
 10
191.2502912595059
 20
84.33180434052911
 30
0.0
 11
192.84565
 21
86.6995
 31
0.0
  0
LINE
  5
1F4
330
1E
100
AcDbEntity
  8
0
100
AcDbLine
 10
189.33265
 20
84.0186
 30
0.0
 11
189.63265
 21
87.0007
 31
0.0
  0
LINE
  5
1F5
330
1E
100
AcDbEntity
  8
0
100
AcDbLine
 10
189.33265
 20
84.0186
 30
0.0
 11
189.33265
 21
82.53299999999999
 31
0.0
  0
LINE
  5
1F6
330
1E
100
AcDbEntity
  8
0
100
AcDbLine
 10
187.73265
 20
84.0186
 30
0.0
 11
187.73265
 21
82.53299999999999
 31
0.0
  0
LINE
  5
1F7
330
1E
100
AcDbEntity
  8
0
100
AcDbLine
 10
200.13265
 20
86.86010000000001
 30
0.0
 11
200.5326499999999
 21
84.32070000000001
 31
0.0
  0
LINE
  5
1F8
330
1E
100
AcDbEntity
  8
0
100
AcDbLine
 10
200.5326499999999
 20
83.4604
 30
0.0
 11
200.5326499999999
 21
84.32070000000001
 31
0.0
  0
LINE
  5
1F9
330
1E
100
AcDbEntity
  8
0
100
AcDbLine
 10
200.513997401388
 20
83.3419839777103
 30
0.0
 11
204.0326499999999
 21
72.59739999999998
 31
0.0
  0
LINE
  5
1FA
330
1E
100
AcDbEntity
  8
0
100
AcDbLine
 10
200.5326499999999
 20
84.32070000000001
 30
0.0
 11
200.5326499999999
 21
83.4604
 31
0.0
  0
LINE
  5
1FB
330
1E
100
AcDbEntity
  8
0
100
AcDbLine
 10
200.4874739741668
 20
83.17359999999998
 30
0.0
 11
200.5326499999999
 21
82.88679999999997
 31
0.0
  0
LINE
  5
1FC
330
1E
100
AcDbEntity
  8
0
100
AcDbLine
 10
200.5326499999999
 20
82.88679999999997
 30
0.0
 11
200.5326499999999
 21
76.0039
 31
0.0
  0
LINE
  5
1FD
330
1E
100
AcDbEntity
  8
0
100
AcDbLine
 10
177.0326499999999
 20
84.6075
 30
0.0
 11
177.4326499999999
 21
87.065
 31
0.0
  0
LINE
  5
1FE
330
1E
100
AcDbEntity
  8
0
100
AcDbLine
 10
177.0326499999999
 20
84.6075
 30
0.0
 11
177.4326499999999
 21
82.15009999999997
 31
0.0
  0
LINE
  5
1FF
330
1E
100
AcDbEntity
  8
0
100
AcDbLine
 10
177.73365
 20
92.34939999999999
 30
0.0
 11
179.73265
 21
90.3045
 31
0.0
  0
LINE
  5
200
330
1E
100
AcDbEntity
  8
0
100
AcDbLine
 10
177.4326499999999
 20
87.065
 30
0.0
 11
178.53265
 21
89.2767
 31
0.0
  0
LINE
  5
201
330
1E
100
AcDbEntity
  8
0
100
AcDbLine
 10
182.5326499999999
 20
88.38274515103341
 30
0.0
 11
182.5326499999999
 21
84.6075
 31
0.0
  0
LINE
  5
202
330
1E
100
AcDbEntity
  8
0
100
AcDbLine
 10
182.33265
 20
88.5823
 30
0.0
 11
184.21965
 21
86.6995
 31
0.0
  0
LINE
  5
203
330
1E
100
AcDbEntity
  8
0
100
AcDbLine
 10
194.53265
 20
88.38274515103341
 30
0.0
 11
194.53265
 21
84.6075
 31
0.0
  0
LINE
  5
204
330
1E
100
AcDbEntity
  8
0
100
AcDbLine
 10
194.73265
 20
88.5823
 30
0.0
 11
197.3326499999999
 21
90.3045
 31
0.0
  0
LINE
  5
205
330
1E
100
AcDbEntity
  8
0
100
AcDbLine
 10
189.63265
 20
87.0007
 30
0.0
 11
190.67865
 21
89.6016
 31
0.0
  0
LINE
  5
206
330
1E
100
AcDbEntity
  8
0
100
AcDbLine
 10
187.43265
 20
87.0007
 30
0.0
 11
187.73265
 21
84.0186
 31
0.0
  0
LINE
  5
207
330
1E
100
AcDbEntity
  8
0
100
AcDbLine
 10
198.53265
 20
89.2767
 30
0.0
 11
199.63265
 21
87.065
 31
0.0
  0
LINE
  5
208
330
1E
100
AcDbEntity
  8
0
100
AcDbLine
 10
199.63265
 20
87.065
 30
0.0
 11
200.0326499999999
 21
84.6075
 31
0.0
  0
LINE
  5
209
330
1E
100
AcDbEntity
  8
0
100
AcDbLine
 10
198.9326499999999
 20
89.23569999999998
 30
0.0
 11
200.13265
 21
86.86010000000001
 31
0.0
  0
LINE
  5
20A
330
1E
100
AcDbEntity
  8
0
100
AcDbLine
 10
179.73265
 20
90.3045
 30
0.0
 11
182.33265
 21
88.5823
 31
0.0
  0
LINE
  5
20B
330
1E
100
AcDbEntity
  8
0
100
AcDbLine
 10
197.3326499999999
 20
90.3045
 30
0.0
 11
199.3316499999999
 21
92.34939999999999
 31
0.0
  0
LINE
  5
20C
330
1E
100
AcDbEntity
  8
0
100
AcDbLine
 10
190.67865
 20
89.6016
 30
0.0
 11
192.5226499999999
 21
91.66529999999999
 31
0.0
  0
LINE
  5
20D
330
1E
100
AcDbEntity
  8
0
100
AcDbLine
 10
186.38665
 20
89.6016
 30
0.0
 11
187.43265
 21
87.0007
 31
0.0
  0
LINE
  5
20E
330
1E
100
AcDbEntity
  8
0
100
AcDbLine
 10
192.5226499999999
 20
91.66529999999999
 30
0.0
 11
194.53265
 21
93.35939999999999
 31
0.0
  0
LINE
  5
20F
330
1E
100
AcDbEntity
  8
0
100
AcDbLine
 10
184.54265
 20
91.66529999999999
 30
0.0
 11
186.38665
 21
89.6016
 31
0.0
  0
LINE
  5
210
330
1E
100
AcDbEntity
  8
0
100
AcDbLine
 10
197.436593424627
 20
90.4108301195699
 30
0.0
 11
198.53265
 21
89.2767
 31
0.0
  0
LINE
  5
211
330
1E
100
AcDbEntity
  8
0
100
AcDbLine
 10
199.3316499999999
 20
92.34939999999999
 30
0.0
 11
201.4916499999999
 21
93.78159999999999
 31
0.0
  0
LINE
  5
212
330
1E
100
AcDbEntity
  8
0
100
AcDbLine
 10
197.6447589420489
 20
90.62377542551121
 30
0.0
 11
198.9326499999999
 21
89.23569999999998
 31
0.0
  0
LINE
  5
213
330
1E
100
AcDbEntity
  8
0
100
AcDbLine
 10
178.53265
 20
89.2767
 30
0.0
 11
179.6287065753729
 21
90.4108301195699
 31
0.0
  0
LINE
  5
214
330
1E
100
AcDbEntity
  8
0
100
AcDbLine
 10
178.13265
 20
89.23569999999998
 30
0.0
 11
179.4205410579508
 21
90.62377542551121
 31
0.0
  0
LINE
  5
215
330
1E
100
AcDbEntity
  8
0
100
AcDbLine
 10
176.93265
 20
86.86010000000001
 30
0.0
 11
178.13265
 21
89.23569999999998
 31
0.0
  0
LINE
  5
216
330
1E
100
AcDbEntity
  8
0
100
AcDbLine
 10
176.53265
 20
82.88679999999997
 30
0.0
 11
176.577826025833
 21
83.17359999999998
 31
0.0
  0
LINE
  5
217
330
1E
100
AcDbEntity
  8
0
100
AcDbLine
 10
176.53265
 20
82.88679999999997
 30
0.0
 11
176.53265
 21
76.0039
 31
0.0
  0
LINE
  5
218
330
1E
100
AcDbEntity
  8
0
100
AcDbLine
 10
176.53265
 20
82.88679999999997
 30
0.0
 11
176.93265
 21
80.34739999999997
 31
0.0
  0
LINE
  5
219
330
1E
100
AcDbEntity
  8
0
100
AcDbLine
 10
176.53265
 20
76.0039
 30
0.0
 11
176.53265
 21
82.88679999999997
 31
0.0
  0
LINE
  5
21A
330
1E
100
AcDbEntity
  8
0
100
AcDbLine
 10
176.53265
 20
76.0039
 30
0.0
 11
176.93265
 21
73.4645
 31
0.0
  0
LINE
  5
21B
330
1E
100
AcDbEntity
  8
0
100
AcDbLine
 10
175.13265
 20
93.0
 30
0.0
 11
176.7524350858819
 21
93.0
 31
0.0
  0
LINE
  5
21C
330
1E
100
AcDbEntity
  8
0
100
AcDbLine
 10
173.63265
 20
93.0
 30
0.0
 11
175.13265
 21
93.0
 31
0.0
  0
LINE
  5
21D
330
1E
100
AcDbEntity
  8
0
100
AcDbLine
 10
173.53265
 20
91.5
 30
0.0
 11
173.53265
 21
79.81985739728441
 31
0.0
  0
LINE
  5
21E
330
1E
100
AcDbEntity
  8
0
100
AcDbLine
 10
200.312864914118
 20
93.0
 30
0.0
 11
201.93265
 21
93.0
 31
0.0
  0
LINE
  5
21F
330
1E
100
AcDbEntity
  8
0
100
AcDbLine
 10
203.53265
 20
77.78540588235291
 30
0.0
 11
203.53265
 21
91.5
 31
0.0
  0
LINE
  5
220
330
1E
100
AcDbEntity
  8
0
100
AcDbLine
 10
202.8326499999999
 20
78.9927
 30
0.0
 11
204.4326499999999
 21
75.71609999999998
 31
0.0
  0
LINE
  5
221
330
1E
100
AcDbEntity
  8
0
100
AcDbLine
 10
202.8326499999999
 20
78.9927
 30
0.0
 11
203.2326499999999
 21
78.37810000000001
 31
0.0
  0
LINE
  5
222
330
1E
100
AcDbEntity
  8
0
100
AcDbLine
 10
203.2326499999999
 20
78.37810000000001
 30
0.0
 11
204.9326499999998
 21
75.01949999999998
 31
0.0
  0
LINE
  5
223
330
1E
100
AcDbEntity
  8
0
100
AcDbLine
 10
201.93265
 20
93.0
 30
0.0
 11
203.43265
 21
93.0
 31
0.0
  0
LINE
  5
224
330
1E
100
AcDbEntity
  8
0
100
AcDbLine
 10
194.53265
 20
93.35939999999999
 30
0.0
 11
197.0326499999999
 21
94.852
 31
0.0
  0
LINE
  5
225
330
1E
100
AcDbEntity
  8
0
100
AcDbLine
 10
182.5326499999999
 20
93.35939999999999
 30
0.0
 11
184.54265
 21
91.66529999999999
 31
0.0
  0
LINE
  5
226
330
1E
100
AcDbEntity
  8
0
100
AcDbLine
 10
174.23265
 20
93.49999999999999
 30
0.0
 11
175.99835046083
 21
93.49999999999999
 31
0.0
  0
LINE
  5
227
330
1E
100
AcDbEntity
  8
0
100
AcDbLine
 10
175.5736499999999
 20
93.78159999999999
 30
0.0
 11
177.73365
 21
92.34939999999999
 31
0.0
  0
LINE
  5
228
330
1E
100
AcDbEntity
  8
0
100
AcDbLine
 10
180.0326499999999
 20
94.852
 30
0.0
 11
182.5326499999999
 21
93.35939999999999
 31
0.0
  0
LINE
  5
229
330
1E
100
AcDbEntity
  8
0
100
AcDbLine
 10
197.0326499999999
 20
94.852
 30
0.0
 11
198.9546499999999
 21
96.9819
 31
0.0
  0
LINE
  5
22A
330
1E
100
AcDbEntity
  8
0
100
AcDbLine
 10
191.2326499999999
 20
94.40179999999999
 30
0.0
 11
193.73265
 21
95.2209
 31
0.0
  0
LINE
  5
22B
330
1E
100
AcDbEntity
  8
0
100
AcDbLine
 10
188.5326499999999
 20
94.0741
 30
0.0
 11
191.2326499999999
 21
94.40179999999999
 31
0.0
  0
LINE
  5
22C
330
1E
100
AcDbEntity
  8
0
100
AcDbLine
 10
201.4916499999999
 20
93.78159999999999
 30
0.0
 11
204.3046499999999
 21
94.9516
 31
0.0
  0
LINE
  5
22D
330
1E
100
AcDbEntity
  8
0
100
AcDbLine
 10
185.83265
 20
94.40179999999999
 30
0.0
 11
188.5326499999999
 21
94.0741
 31
0.0
  0
LINE
  5
22E
330
1E
100
AcDbEntity
  8
0
100
AcDbLine
 10
201.06694953917
 20
93.49999999999999
 30
0.0
 11
202.8326499999999
 21
93.49999999999999
 31
0.0
  0
LINE
  5
22F
330
1E
100
AcDbEntity
  8
0
100
AcDbLine
 10
202.8326499999999
 20
93.49999999999999
 30
0.0
 11
204.4326499999999
 21
93.49999999999999
 31
0.0
  0
LINE
  5
230
330
1E
100
AcDbEntity
  8
0
100
AcDbLine
 10
203.43265
 20
93.0
 30
0.0
 11
204.0326499999999
 21
93.0
 31
0.0
  0
LINE
  5
231
330
1E
100
AcDbEntity
  8
0
100
AcDbLine
 10
204.4326499999999
 20
75.71609999999998
 30
0.0
 11
205.0326499999999
 21
72.2756
 31
0.0
  0
LINE
  5
232
330
1E
100
AcDbEntity
  8
0
100
AcDbLine
 10
204.3046499999999
 20
94.9516
 30
0.0
 11
207.55465
 21
95.4814
 31
0.0
  0
LINE
  5
233
330
1E
100
AcDbEntity
  8
0
100
AcDbLine
 10
204.601554492261
 20
95.0
 30
0.0
 11
204.9326499999998
 21
95.0
 31
0.0
  0
LINE
  5
234
330
1E
100
AcDbEntity
  8
0
100
AcDbLine
 10
204.9326499999998
 20
95.0
 30
0.0
 11
205.53265
 21
95.0
 31
0.0
  0
LINE
  5
235
330
1E
100
AcDbEntity
  8
0
100
AcDbLine
 10
204.4326499999999
 20
93.49999999999999
 30
0.0
 11
205.0326499999999
 21
93.49999999999999
 31
0.0
  0
LINE
  5
236
330
1E
100
AcDbEntity
  8
0
100
AcDbLine
 10
205.0326499999999
 20
93.49999999999999
 30
0.0
 11
205.53265
 21
95.0
 31
0.0
  0
LINE
  5
237
330
1E
100
AcDbEntity
  8
0
100
AcDbLine
 10
204.0326499999999
 20
93.0
 30
0.0
 11
205.0326499999999
 21
93.49999999999999
 31
0.0
  0
LINE
  5
238
330
1E
100
AcDbEntity
  8
0
100
AcDbLine
 10
203.53265
 20
91.5
 30
0.0
 11
204.0326499999999
 21
93.0
 31
0.0
  0
LINE
  5
239
330
1E
100
AcDbEntity
  8
0
100
AcDbLine
 10
203.53265
 20
91.5
 30
0.0
 11
203.53265
 21
77.78540588235291
 31
0.0
  0
LINE
  5
23A
330
1E
100
AcDbEntity
  8
0
100
AcDbLine
 10
173.0746499999999
 20
104.022
 30
0.0
 11
175.82865
 21
105.34
 31
0.0
  0
LINE
  5
23B
330
1E
100
AcDbEntity
  8
0
100
AcDbLine
 10
178.1106499999999
 20
96.9819
 30
0.0
 11
180.0326499999999
 21
94.852
 31
0.0
  0
LINE
  5
23C
330
1E
100
AcDbEntity
  8
0
100
AcDbLine
 10
175.82865
 20
98.80320000000001
 30
0.0
 11
178.1106499999999
 21
96.9819
 31
0.0
  0
LINE
  5
23D
330
1E
100
AcDbEntity
  8
0
100
AcDbLine
 10
179.4326499999999
 20
98.41560000000001
 30
0.0
 11
181.13265
 21
96.6135
 31
0.0
  0
LINE
  5
23E
330
1E
100
AcDbEntity
  8
0
100
AcDbLine
 10
178.4326499999998
 20
100.4629999999999
 30
0.0
 11
179.4326499999999
 21
98.41560000000001
 31
0.0
  0
LINE
  5
23F
330
1E
100
AcDbEntity
  8
0
100
AcDbLine
 10
178.0326499999999
 20
102.675
 30
0.0
 11
178.4326499999998
 21
100.4629999999999
 31
0.0
  0
LINE
  5
240
330
1E
100
AcDbEntity
  8
0
100
AcDbLine
 10
178.0326499999999
 20
102.675
 30
0.0
 11
178.4326499999998
 21
104.8869999999999
 31
0.0
  0
LINE
  5
241
330
1E
100
AcDbEntity
  8
0
100
AcDbLine
 10
173.0746499999999
 20
100.506
 30
0.0
 11
175.82865
 21
98.80320000000001
 31
0.0
  0
LINE
  5
242
330
1E
100
AcDbEntity
  8
0
100
AcDbLine
 10
181.13265
 20
96.6135
 30
0.0
 11
183.33265
 21
95.2209
 31
0.0
  0
LINE
  5
244
330
1E
100
AcDbEntity
  8
0
100
AcDbLine
 10
193.73265
 20
95.2209
 30
0.0
 11
195.9326499999999
 21
96.6135
 31
0.0
  0
LINE
  5
245
330
1E
100
AcDbEntity
  8
0
100
AcDbLine
 10
195.9326499999999
 20
96.6135
 30
0.0
 11
197.63265
 21
98.41560000000001
 31
0.0
  0
LINE
  5
246
330
1E
100
AcDbEntity
  8
0
100
AcDbLine
 10
197.63265
 20
98.41560000000001
 30
0.0
 11
198.63265
 21
100.4629999999999
 31
0.0
  0
LINE
  5
247
330
1E
100
AcDbEntity
  8
0
100
AcDbLine
 10
198.63265
 20
100.4629999999999
 30
0.0
 11
199.0326499999999
 21
102.675
 31
0.0
  0
LINE
  5
248
330
1E
100
AcDbEntity
  8
0
100
AcDbLine
 10
198.9546499999999
 20
96.9819
 30
0.0
 11
201.23665
 21
98.80320000000001
 31
0.0
  0
LINE
  5
249
330
1E
100
AcDbEntity
  8
0
100
AcDbLine
 10
201.23665
 20
98.80320000000001
 30
0.0
 11
203.9906499999999
 21
100.506
 31
0.0
  0
LINE
  5
24A
330
1E
100
AcDbEntity
  8
0
100
AcDbLine
 10
203.9906499999999
 20
100.506
 30
0.0
 11
207.53465
 21
101.665
 31
0.0
  0
LINE
  5
24B
330
1E
100
AcDbEntity
  8
0
100
AcDbLine
 10
207.53465
 20
101.665
 30
0.0
 11
211.5096499999999
 21
102.185
 31
0.0
  0
LINE
  5
24C
330
1E
100
AcDbEntity
  8
0
100
AcDbLine
 10
203.9906499999999
 20
104.022
 30
0.0
 11
207.53465
 21
103.467
 31
0.0
  0
LINE
  5
24D
330
1E
100
AcDbEntity
  8
0
100
AcDbLine
 10
207.53465
 20
103.467
 30
0.0
 11
211.5096499999999
 21
103.496
 31
0.0
  0
LINE
  5
24E
330
1E
100
AcDbEntity
  8
0
100
AcDbLine
 10
183.33265
 20
95.2209
 30
0.0
 11
185.83265
 21
94.40179999999999
 31
0.0
  0
LINE
  5
250
330
1E
100
AcDbEntity
  8
0
100
AcDbLine
 10
205.4846632298288
 20
95.14396031051191
 30
0.0
 11
205.53265
 21
95.0
 31
0.0
  0
LINE
  5
251
330
1E
100
AcDbEntity
  8
0
100
AcDbLine
 10
207.55465
 20
95.4814
 30
0.0
 11
211.53365
 21
95.40989999999998
 31
0.0
  0
LINE
  5
252
330
1E
100
AcDbEntity
  8
0
100
AcDbLine
 10
198.63265
 20
104.8869999999999
 30
0.0
 11
199.0326499999999
 21
102.675
 31
0.0
  0
LINE
  5
253
330
1E
100
AcDbEntity
  8
0
100
AcDbLine
 10
201.4916499999999
 20
105.2589999999999
 30
0.0
 11
204.3046499999999
 21
104.089
 31
0.0
  0
LINE
  5
254
330
1E
100
AcDbEntity
  8
0
100
AcDbLine
 10
178.4326499999998
 20
104.8869999999999
 30
0.0
 11
179.4326499999999
 21
106.935
 31
0.0
  0
LINE
  5
255
330
1E
100
AcDbEntity
  8
0
100
AcDbLine
 10
204.3046499999999
 20
104.089
 30
0.0
 11
207.55465
 21
103.56
 31
0.0
  0
LINE
  5
256
330
1E
100
AcDbEntity
  8
0
100
AcDbLine
 10
211.53365
 20
95.40989999999998
 30
0.0
 11
213.4266499999998
 21
95.3531
 31
0.0
  0
LINE
  5
257
330
1E
100
AcDbEntity
  8
0
100
AcDbLine
 10
213.4266499999998
 20
95.3531
 30
0.0
 11
214.71465
 21
95.5189
 31
0.0
  0
LINE
  5
258
330
1E
100
AcDbEntity
  8
0
100
AcDbLine
 10
215.6766499999999
 20
95.8826
 30
0.0
 11
216.2536499999999
 21
96.25709999999999
 31
0.0
  0
LINE
  5
25C
330
1E
100
AcDbEntity
  8
0
100
AcDbLine
 10
211.5096499999999
 20
102.185
 30
0.0
 11
213.4076499999999
 21
102.254
 31
0.0
  0
LINE
  5
25D
330
1E
100
AcDbEntity
  8
0
100
AcDbLine
 10
213.4076499999999
 20
102.254
 30
0.0
 11
214.90765
 21
102.034
 31
0.0
  0
LINE
  5
25E
330
1E
100
AcDbEntity
  8
0
100
AcDbLine
 10
214.90765
 20
102.034
 30
0.0
 11
216.0036499999999
 21
101.626
 31
0.0
  0
LINE
  5
25F
330
1E
100
AcDbEntity
  8
0
100
AcDbLine
 10
216.0036499999999
 20
101.626
 30
0.0
 11
216.65765
 21
101.185
 31
0.0
  0
LINE
  5
260
330
1E
100
AcDbEntity
  8
0
100
AcDbLine
 10
215.6766499999999
 20
103.1579999999999
 30
0.0
 11
216.2536499999999
 21
102.7839999999998
 31
0.0
  0
LINE
  5
261
330
1E
100
AcDbEntity
  8
0
100
AcDbLine
 10
211.5096499999999
 20
103.496
 30
0.0
 11
213.4076499999999
 21
103.5649999999999
 31
0.0
  0
LINE
  5
262
330
1E
100
AcDbEntity
  8
0
100
AcDbLine
 10
214.90765
 20
103.3439999999999
 30
0.0
 11
216.0036499999999
 21
102.936
 31
0.0
  0
LINE
  5
263
330
1E
100
AcDbEntity
  8
0
100
AcDbLine
 10
216.2536499999999
 20
102.7839999999998
 30
0.0
 11
216.65765
 21
102.495
 31
0.0
  0
LINE
  5
264
330
1E
100
AcDbEntity
  8
0
100
AcDbLine
 10
216.0036499999999
 20
102.936
 30
0.0
 11
216.65765
 21
102.495
 31
0.0
  0
LINE
  5
265
330
1E
100
AcDbEntity
  8
0
100
AcDbLine
 10
214.71465
 20
95.5189
 30
0.0
 11
215.6766499999999
 21
95.8826
 31
0.0
  0
LINE
  5
266
330
1E
100
AcDbEntity
  8
0
100
AcDbLine
 10
216.65765
 20
96.54569999999999
 30
0.0
 11
217.1766499999999
 21
97.18519999999999
 31
0.0
  0
LINE
  5
267
330
1E
100
AcDbEntity
  8
0
100
AcDbLine
 10
217.1766499999999
 20
97.18519999999999
 30
0.0
 11
217.53265
 21
98.8652
 31
0.0
  0
LINE
  5
268
330
1E
100
AcDbEntity
  8
0
100
AcDbLine
 10
217.53265
 20
98.8652
 30
0.0
 11
217.53265
 21
99.52049999999999
 31
0.0
  0
LINE
  5
269
330
1E
100
AcDbEntity
  8
0
100
AcDbLine
 10
217.53265
 20
99.52049999999999
 30
0.0
 11
217.53265
 21
100.1759999999999
 31
0.0
  0
LINE
  5
26A
330
1E
100
AcDbEntity
  8
0
100
AcDbLine
 10
217.53265
 20
99.52049999999999
 30
0.0
 11
217.53265
 21
98.8652
 31
0.0
  0
LINE
  5
26B
330
1E
100
AcDbEntity
  8
0
100
AcDbLine
 10
216.65765
 20
101.185
 30
0.0
 11
217.1766499999999
 21
100.5449999999999
 31
0.0
  0
LINE
  5
26C
330
1E
100
AcDbEntity
  8
0
100
AcDbLine
 10
217.1766499999999
 20
100.5449999999999
 30
0.0
 11
217.53265
 21
98.8652
 31
0.0
  0
LINE
  5
26D
330
1E
100
AcDbEntity
  8
0
100
AcDbLine
 10
216.65765
 20
102.495
 30
0.0
 11
217.1766499999999
 21
101.856
 31
0.0
  0
LINE
  5
26E
330
1E
100
AcDbEntity
  8
0
100
AcDbLine
 10
217.1766499999999
 20
101.856
 30
0.0
 11
217.53265
 21
100.1759999999999
 31
0.0
  0
LINE
  5
26F
330
1E
100
AcDbEntity
  8
0
100
AcDbLine
 10
217.53265
 20
100.1759999999999
 30
0.0
 11
217.53265
 21
99.52049999999999
 31
0.0
  0
LINE
  5
270
330
1E
100
AcDbEntity
  8
0
100
AcDbLine
 10
216.2536499999999
 20
96.25709999999999
 30
0.0
 11
216.65765
 21
96.54569999999999
 31
0.0
  0
LINE
  5
271
330
1E
100
AcDbEntity
  8
0
100
AcDbLine
 10
211.53365
 20
103.631
 30
0.0
 11
213.4266499999998
 21
103.6879999999999
 31
0.0
  0
LINE
  5
272
330
1E
100
AcDbEntity
  8
0
100
AcDbLine
 10
213.4266499999998
 20
103.6879999999999
 30
0.0
 11
214.71465
 21
103.522
 31
0.0
  0
LINE
  5
273
330
1E
100
AcDbEntity
  8
0
100
AcDbLine
 10
213.4076499999999
 20
103.5649999999999
 30
0.0
 11
214.90765
 21
103.3439999999999
 31
0.0
  0
LINE
  5
274
330
1E
100
AcDbEntity
  8
0
100
AcDbLine
 10
214.71465
 20
103.522
 30
0.0
 11
215.6766499999999
 21
103.1579999999999
 31
0.0
  0
LINE
  5
275
330
1E
100
AcDbEntity
  8
0
100
AcDbLine
 10
207.55465
 20
103.56
 30
0.0
 11
211.53365
 21
103.631
 31
0.0
  0
LINE
  5
276
330
1E
100
AcDbEntity
  8
0
100
AcDbLine
 10
177.37365
 20
235.0509999999999
 30
0.0
 11
178.0326499999999
 21
225.0
 31
0.0
  0
LINE
  5
277
330
1E
100
AcDbEntity
  8
0
100
AcDbLine
 10
175.4086499999999
 20
244.9289999999999
 30
0.0
 11
177.37365
 21
235.0509999999999
 31
0.0
  0
LINE
  5
278
330
1E
100
AcDbEntity
  8
0
100
AcDbLine
 10
175.82865
 20
105.34
 30
0.0
 11
178.1106499999999
 21
106.812
 31
0.0
  0
LINE
  5
279
330
1E
100
AcDbEntity
  8
0
100
AcDbLine
 10
178.1106499999999
 20
106.812
 30
0.0
 11
180.0326499999999
 21
108.7779999999999
 31
0.0
  0
LINE
  5
27A
330
1E
100
AcDbEntity
  8
0
100
AcDbLine
 10
198.9546499999999
 20
106.812
 30
0.0
 11
201.23665
 21
105.34
 31
0.0
  0
LINE
  5
27B
330
1E
100
AcDbEntity
  8
0
100
AcDbLine
 10
199.3316499999999
 20
106.692
 30
0.0
 11
201.4916499999999
 21
105.2589999999999
 31
0.0
  0
LINE
  5
27D
330
1E
100
AcDbEntity
  8
0
100
AcDbLine
 10
197.63265
 20
106.935
 30
0.0
 11
198.63265
 21
104.8869999999999
 31
0.0
  0
LINE
  5
27E
330
1E
100
AcDbEntity
  8
0
100
AcDbLine
 10
201.23665
 20
105.34
 30
0.0
 11
203.9906499999999
 21
104.022
 31
0.0
  0
LINE
  5
27F
330
1E
100
AcDbEntity
  8
0
100
AcDbLine
 10
179.4326499999999
 20
106.935
 30
0.0
 11
181.13265
 21
108.737
 31
0.0
  0
LINE
  5
281
330
1E
100
AcDbEntity
  8
0
100
AcDbLine
 10
178.0326499999999
 20
106.9978804402198
 30
0.0
 11
178.0326499999999
 21
225.0
 31
0.0
  0
LINE
  5
282
330
1E
100
AcDbEntity
  8
0
100
AcDbLine
 10
179.73265
 20
108.737
 30
0.0
 11
182.33265
 21
110.4589999999999
 31
0.0
  0
LINE
  5
283
330
1E
100
AcDbEntity
  8
0
100
AcDbLine
 10
180.0326499999999
 20
108.7779999999999
 30
0.0
 11
182.5326499999999
 21
110.434
 31
0.0
  0
LINE
  5
284
330
1E
100
AcDbEntity
  8
0
100
AcDbLine
 10
182.5326499999999
 20
110.434
 30
0.0
 11
184.54265
 21
112.4779999999999
 31
0.0
  0
LINE
  5
285
330
1E
100
AcDbEntity
  8
0
100
AcDbLine
 10
182.33265
 20
110.4589999999999
 30
0.0
 11
184.21965
 21
112.342
 31
0.0
  0
LINE
  5
286
330
1E
100
AcDbEntity
  8
0
100
AcDbLine
 10
181.13265
 20
108.737
 30
0.0
 11
183.33265
 21
110.1289999999998
 31
0.0
  0
LINE
  5
287
330
1E
100
AcDbEntity
  8
0
100
AcDbLine
 10
183.33265
 20
110.1289999999998
 30
0.0
 11
185.83265
 21
110.949
 31
0.0
  0
LINE
  5
288
330
1E
100
AcDbEntity
  8
0
100
AcDbLine
 10
184.54265
 20
112.4779999999999
 30
0.0
 11
186.38665
 21
114.9259999999999
 31
0.0
  0
LINE
  5
289
330
1E
100
AcDbEntity
  8
0
100
AcDbLine
 10
184.21965
 20
112.342
 30
0.0
 11
185.8143653750234
 21
114.7078995393812
 31
0.0
  0
LINE
  5
28A
330
1E
100
AcDbEntity
  8
0
100
AcDbLine
 10
185.83265
 20
110.949
 30
0.0
 11
188.5326499999999
 21
111.276
 31
0.0
  0
LINE
  5
28B
330
1E
100
AcDbEntity
  8
0
100
AcDbLine
 10
186.38665
 20
114.9259999999999
 30
0.0
 11
187.43265
 21
118.132
 31
0.0
  0
LINE
  5
28C
330
1E
100
AcDbEntity
  8
0
100
AcDbLine
 10
185.8143653750234
 20
114.7078995393812
 30
0.0
 11
186.33000487468
 21
116.147439747751
 31
0.0
  0
LINE
  5
28D
330
1E
100
AcDbEntity
  8
0
100
AcDbLine
 10
178.0326499999999
 20
225.0
 30
0.0
 11
178.0326499999999
 21
106.9978804402198
 31
0.0
  0
LINE
  5
28E
330
1E
100
AcDbEntity
  8
0
100
AcDbLine
 10
185.9026499999999
 20
274.0
 30
0.0
 11
191.57265
 21
262.5029999999999
 31
0.0
  0
LINE
  5
28F
330
1E
100
AcDbEntity
  8
0
100
AcDbLine
 10
178.78165
 20
284.6589999999998
 30
0.0
 11
185.9026499999999
 21
274.0
 31
0.0
  0
LINE
  5
290
330
1E
100
AcDbEntity
  8
0
100
AcDbLine
 10
186.33000487468
 20
116.1474397477499
 30
0.0
 11
186.5326499999999
 21
118.361
 31
0.0
  0
LINE
  5
291
330
1E
100
AcDbEntity
  8
0
100
AcDbLine
 10
188.5326499999999
 20
111.276
 30
0.0
 11
191.2326499999999
 21
110.949
 31
0.0
  0
LINE
  5
292
330
1E
100
AcDbEntity
  8
0
100
AcDbLine
 10
189.63265
 20
118.132
 30
0.0
 11
190.67865
 21
114.9259999999999
 31
0.0
  0
LINE
  5
293
330
1E
100
AcDbEntity
  8
0
100
AcDbLine
 10
197.0326499999999
 20
108.7779999999999
 30
0.0
 11
198.9546499999999
 21
106.812
 31
0.0
  0
LINE
  5
294
330
1E
100
AcDbEntity
  8
0
100
AcDbLine
 10
197.3326499999999
 20
108.737
 30
0.0
 11
199.3316499999999
 21
106.692
 31
0.0
  0
LINE
  5
295
330
1E
100
AcDbEntity
  8
0
100
AcDbLine
 10
195.9326499999999
 20
108.737
 30
0.0
 11
197.63265
 21
106.935
 31
0.0
  0
LINE
  5
296
330
1E
100
AcDbEntity
  8
0
100
AcDbLine
 10
192.5226499999999
 20
112.4779999999999
 30
0.0
 11
194.53265
 21
110.434
 31
0.0
  0
LINE
  5
297
330
1E
100
AcDbEntity
  8
0
100
AcDbLine
 10
194.53265
 20
110.434
 30
0.0
 11
197.0326499999999
 21
108.7779999999999
 31
0.0
  0
LINE
  5
298
330
1E
100
AcDbEntity
  8
0
100
AcDbLine
 10
194.73265
 20
110.4589999999999
 30
0.0
 11
197.3326499999999
 21
108.737
 31
0.0
  0
LINE
  5
299
330
1E
100
AcDbEntity
  8
0
100
AcDbLine
 10
192.84565
 20
112.342
 30
0.0
 11
194.73265
 21
110.4589999999999
 31
0.0
  0
LINE
  5
29A
330
1E
100
AcDbEntity
  8
0
100
AcDbLine
 10
193.73265
 20
110.1289999999998
 30
0.0
 11
195.9326499999999
 21
108.737
 31
0.0
  0
LINE
  5
29B
330
1E
100
AcDbEntity
  8
0
100
AcDbLine
 10
191.2326499999999
 20
110.949
 30
0.0
 11
193.73265
 21
110.1289999999998
 31
0.0
  0
LINE
  5
29C
330
1E
100
AcDbEntity
  8
0
100
AcDbLine
 10
190.67865
 20
114.9259999999999
 30
0.0
 11
192.5226499999999
 21
112.4779999999999
 31
0.0
  0
LINE
  5
29D
330
1E
100
AcDbEntity
  8
0
100
AcDbLine
 10
191.2509346249765
 20
114.707899539381
 30
0.0
 11
192.84565
 21
112.342
 31
0.0
  0
LINE
  5
29F
330
1E
100
AcDbEntity
  8
0
100
AcDbLine
 10
190.7352951253198
 20
116.1474397477511
 30
0.0
 11
191.2509346249765
 21
114.707899539381
 31
0.0
  0
LINE
  5
2A0
330
1E
100
AcDbEntity
  8
0
100
AcDbLine
 10
186.73265
 20
121.7489999999999
 30
0.0
 11
186.73265
 21
121.665
 31
0.0
  0
LINE
  5
2A1
330
1E
100
AcDbEntity
  8
0
100
AcDbLine
 10
186.5326499999999
 20
118.361
 30
0.0
 11
186.73265
 21
121.665
 31
0.0
  0
LINE
  5
2A2
330
1E
100
AcDbEntity
  8
0
100
AcDbLine
 10
186.73265
 20
121.665
 30
0.0
 11
186.73265
 21
121.7489999999999
 31
0.0
  0
LINE
  5
2A4
330
1E
100
AcDbEntity
  8
0
100
AcDbLine
 10
186.963419230769
 20
122.939769230769
 30
0.0
 11
187.2326499999999
 21
124.4269999999999
 31
0.0
  0
LINE
  5
2A5
330
1E
100
AcDbEntity
  8
0
100
AcDbLine
 10
187.73265
 20
121.662
 30
0.0
 11
187.73265
 21
123.285
 31
0.0
  0
LINE
  5
2AA
330
1E
100
AcDbEntity
  8
0
100
AcDbLine
 10
187.2326499999999
 20
124.4269999999999
 30
0.0
 11
187.73265
 21
124.8779999999999
 31
0.0
  0
LINE
  5
2AC
330
1E
100
AcDbEntity
  8
0
100
AcDbLine
 10
187.73265
 20
123.285
 30
0.0
 11
187.73265
 21
121.662
 31
0.0
  0
LINE
  5
2AD
330
1E
100
AcDbEntity
  8
0
100
AcDbLine
 10
187.73265
 20
123.285
 30
0.0
 11
187.73265
 21
124.2939999999999
 31
0.0
  0
LINE
  5
2AE
330
1E
100
AcDbEntity
  8
0
100
AcDbLine
 10
187.73265
 20
124.2939999999999
 30
0.0
 11
187.73265
 21
123.285
 31
0.0
  0
LINE
  5
2AF
330
1E
100
AcDbEntity
  8
0
100
AcDbLine
 10
187.73265
 20
124.2939999999999
 30
0.0
 11
187.73265
 21
124.7839999999999
 31
0.0
  0
LINE
  5
2B0
330
1E
100
AcDbEntity
  8
0
100
AcDbLine
 10
187.73265
 20
124.7839999999999
 30
0.0
 11
187.73265
 21
124.2939999999999
 31
0.0
  0
LINE
  5
2B1
330
1E
100
AcDbEntity
  8
0
100
AcDbLine
 10
187.73265
 20
124.7839999999999
 30
0.0
 11
187.73265
 21
124.8779999999999
 31
0.0
  0
LINE
  5
2B2
330
1E
100
AcDbEntity
  8
0
100
AcDbLine
 10
189.33265
 20
123.285
 30
0.0
 11
189.33265
 21
124.2939999999999
 31
0.0
  0
LINE
  5
2B3
330
1E
100
AcDbEntity
  8
0
100
AcDbLine
 10
189.33265
 20
123.285
 30
0.0
 11
189.33265
 21
121.662
 31
0.0
  0
LINE
  5
2B4
330
1E
100
AcDbEntity
  8
0
100
AcDbLine
 10
189.33265
 20
124.2939999999999
 30
0.0
 11
189.33265
 21
124.7839999999999
 31
0.0
  0
LINE
  5
2B5
330
1E
100
AcDbEntity
  8
0
100
AcDbLine
 10
189.33265
 20
124.2939999999999
 30
0.0
 11
189.33265
 21
123.285
 31
0.0
  0
LINE
  5
2B6
330
1E
100
AcDbEntity
  8
0
100
AcDbLine
 10
189.33265
 20
124.7839999999999
 30
0.0
 11
189.33265
 21
124.8779999999999
 31
0.0
  0
LINE
  5
2B7
330
1E
100
AcDbEntity
  8
0
100
AcDbLine
 10
189.33265
 20
124.7839999999999
 30
0.0
 11
189.33265
 21
124.2939999999999
 31
0.0
  0
LINE
  5
2B8
330
1E
100
AcDbEntity
  8
0
100
AcDbLine
 10
189.33265
 20
124.8779999999999
 30
0.0
 11
189.8326499999999
 21
124.4269999999999
 31
0.0
  0
LINE
  5
2B9
330
1E
100
AcDbEntity
  8
0
100
AcDbLine
 10
189.33265
 20
124.8779999999999
 30
0.0
 11
189.33265
 21
124.7839999999999
 31
0.0
  0
LINE
  5
2BA
330
1E
100
AcDbEntity
  8
0
100
AcDbLine
 10
188.5326499999999
 20
124.855
 30
0.0
 11
189.33265
 21
124.8779999999999
 31
0.0
  0
LINE
  5
2BC
330
1E
100
AcDbEntity
  8
0
100
AcDbLine
 10
190.33265
 20
121.7489999999999
 30
0.0
 11
190.5326499999999
 21
118.361
 31
0.0
  0
LINE
  5
2BF
330
1E
100
AcDbEntity
  8
0
100
AcDbLine
 10
191.57265
 20
262.5029999999999
 30
0.0
 11
195.6936499999999
 21
250.364
 31
0.0
  0
LINE
  5
2C0
330
1E
100
AcDbEntity
  8
0
100
AcDbLine
 10
198.19465
 20
237.792
 30
0.0
 11
199.0326499999999
 21
225.0
 31
0.0
  0
LINE
  5
2C1
330
1E
100
AcDbEntity
  8
0
100
AcDbLine
 10
195.6936499999999
 20
250.364
 30
0.0
 11
198.19465
 21
237.792
 31
0.0
  0
LINE
  5
2C2
330
1E
100
AcDbEntity
  8
0
100
AcDbLine
 10
199.0326499999999
 20
225.0
 30
0.0
 11
199.0326499999999
 21
106.9978804402198
 31
0.0
  0
LINE
  5
2C3
330
1E
100
AcDbEntity
  8
0
100
AcDbLine
 10
189.8326499999999
 20
124.4269999999999
 30
0.0
 11
190.101880769231
 21
122.939769230769
 31
0.0
  0
LINE
  5
2C7
330
1E
100
AcDbEntity
  8
0
100
AcDbLine
 10
189.33265
 20
121.662
 30
0.0
 11
189.63265
 21
118.132
 31
0.0
  0
LINE
  5
2C8
330
1E
100
AcDbEntity
  8
0
100
AcDbLine
 10
189.33265
 20
121.662
 30
0.0
 11
189.33265
 21
123.285
 31
0.0
  0
LINE
  5
2C9
330
1E
100
AcDbEntity
  8
0
100
AcDbLine
 10
190.5326499999999
 20
118.361
 30
0.0
 11
190.7352951253199
 21
116.1474397477499
 31
0.0
  0
LINE
  5
2CA
330
1E
100
AcDbEntity
  8
0
100
AcDbLine
 10
187.73265
 20
124.8779999999999
 30
0.0
 11
188.5326499999999
 21
124.855
 31
0.0
  0
LINE
  5
2CB
330
1E
100
AcDbEntity
  8
0
100
AcDbLine
 10
187.73265
 20
124.8779999999999
 30
0.0
 11
187.73265
 21
124.7839999999999
 31
0.0
  0
LINE
  5
2CC
330
1E
100
AcDbEntity
  8
0
100
AcDbLine
 10
187.43265
 20
118.132
 30
0.0
 11
187.73265
 21
121.662
 31
0.0
  0
LINE
  5
2CE
330
1E
100
AcDbEntity
  8
0
100
AcDbLine
 10
199.0326499999999
 20
106.9978804402198
 30
0.0
 11
199.3316499999999
 21
106.692
 31
0.0
  0
LINE
  5
2CF
330
1E
100
AcDbEntity
  8
0
100
AcDbLine
 10
199.0326499999999
 20
106.9978804402198
 30
0.0
 11
199.0326499999999
 21
225.0
 31
0.0
  0
LINE
  5
2D0
330
1E
100
AcDbEntity
  8
0
100
AcDbLine
 10
177.73365
 20
106.692
 30
0.0
 11
178.0326499999999
 21
106.9978804402198
 31
0.0
  0
LINE
  5
2D1
330
1E
100
AcDbEntity
  8
0
100
AcDbLine
 10
177.73365
 20
106.692
 30
0.0
 11
179.73265
 21
108.737
 31
0.0
  0
LINE
  5
2D2
330
1E
100
AcDbEntity
  8
0
100
AcDbLine
 10
175.5736499999999
 20
105.2589999999999
 30
0.0
 11
177.73365
 21
106.692
 31
0.0
  0
LINE
  5
2D3
330
1E
100
AcDbEntity
  8
0
100
AcDbLine
 10
173.0326499999999
 20
76.79758235294109
 30
0.0
 11
173.0326499999999
 21
79.41030000000002
 31
0.0
  0
LINE
  5
2D4
330
1E
100
AcDbEntity
  8
0
100
AcDbLine
 10
172.13265
 20
75.01949999999998
 30
0.0
 11
173.0326499999999
 21
76.79758235294109
 31
0.0
  0
LINE
  5
2D5
330
1E
100
AcDbEntity
  8
0
100
AcDbLine
 10
171.5326499999999
 20
71.4153
 30
0.0
 11
172.13265
 21
67.81100000000001
 31
0.0
  0
LINE
  5
2D6
330
1E
100
AcDbEntity
  8
0
100
AcDbLine
 10
171.5326499999999
 20
71.4153
 30
0.0
 11
172.13265
 21
75.01949999999998
 31
0.0
  0
LINE
  5
2DB
330
1E
100
AcDbEntity
  8
0
100
AcDbLine
 10
203.53265
 20
28.6907247775306
 30
0.0
 11
203.53265
 21
18.7414181655511
 31
0.0
  0
LINE
  5
2DD
330
1E
100
AcDbEntity
  8
0
100
AcDbLine
 10
190.33265
 20
121.7489999999999
 30
0.0
 11
190.101880769231
 21
122.939769230769
 31
0.0
  0
LINE
  5
2DE
330
1E
100
AcDbEntity
  8
0
100
AcDbLine
 10
186.963419230769
 20
122.939769230769
 30
0.0
 11
186.73265
 21
121.665
 31
0.0
  0
ENDSEC
  0
SECTION
  2
OBJECTS
  0
DICTIONARY
  5
C
330
0
100
AcDbDictionary
281
     1
  3
ACAD_GROUP
350
D
  3
ACAD_LAYOUT
350
19
  3
ACAD_MLINESTYLE
350
16
  3
ACAD_PLOTSETTINGS
350
18
  3
ACAD_PLOTSTYLENAME
350
E
  3
AcDbVariableDictionary
350
2DF
  0
DICTIONARY
  5
D
102
{ACAD_REACTORS
330
C
102
}
330
C
100
AcDbDictionary
281
     1
  0
DICTIONARY
  5
19
102
{ACAD_REACTORS
330
C
102
}
330
C
100
AcDbDictionary
281
     1
  3
Layout1
350
1D
  3
Model
350
21
  0
DICTIONARY
  5
16
102
{ACAD_REACTORS
330
C
102
}
330
C
100
AcDbDictionary
281
     1
  3
Standard
350
17
  0
DICTIONARY
  5
18
102
{ACAD_REACTORS
330
C
102
}
330
C
100
AcDbDictionary
281
     1
  0
ACDBDICTIONARYWDFLT
  5
E
102
{ACAD_REACTORS
330
C
102
}
330
C
100
AcDbDictionary
281
     1
  3
Normal
350
F
100
AcDbDictionaryWithDefault
340
F
  0
DICTIONARY
  5
2DF
102
{ACAD_REACTORS
330
C
102
}
330
C
100
AcDbDictionary
281
     1
  3
DIMASSOC
350
2E0
  0
LAYOUT
  5
1D
102
{ACAD_REACTORS
330
19
102
}
330
19
100
AcDbPlotSettings
  1

  2
hp deskjet 980c series
  4

  6

 40
0.0
 41
0.0
 42
0.0
 43
0.0
 44
0.0
 45
0.0
 46
0.0
 47
0.0
 48
0.0
 49
0.0
140
0.0
141
0.0
142
1.0
143
1.0
 70
   688
 72
     0
 73
     0
 74
     5
  7

 75
    16
147
1.0
148
0.0
149
0.0
100
AcDbLayout
  1
Layout1
 70
     1
 71
     1
 10
0.0
 20
0.0
 11
12.0
 21
9.0
 12
0.0
 22
0.0
 32
0.0
 14
1.000000000000000E+20
 24
1.000000000000000E+20
 34
1.000000000000000E+20
 15
-1.000000000000000E+20
 25
-1.000000000000000E+20
 35
-1.000000000000000E+20
146
0.0
 13
0.0
 23
0.0
 33
0.0
 16
1.0
 26
0.0
 36
0.0
 17
0.0
 27
1.0
 37
0.0
 76
     0
330
1A
  0
LAYOUT
  5
21
102
{ACAD_REACTORS
330
19
102
}
330
19
100
AcDbPlotSettings
  1

  2
hp deskjet 980c series
  4

  6

 40
0.0
 41
0.0
 42
0.0
 43
0.0
 44
0.0
 45
0.0
 46
0.0
 47
0.0
 48
0.0
 49
0.0
140
0.0
141
0.0
142
1.0
143
1.0
 70
  1712
 72
     0
 73
     0
 74
     0
  7

 75
     0
147
1.0
148
0.0
149
0.0
100
AcDbLayout
  1
Model
 70
     1
 71
     0
 10
0.0
 20
0.0
 11
12.0
 21
9.0
 12
0.0
 22
0.0
 32
0.0
 14
0.0
 24
0.0
 34
0.0
 15
0.0
 25
0.0
 35
0.0
146
0.0
 13
0.0
 23
0.0
 33
0.0
 16
1.0
 26
0.0
 36
0.0
 17
0.0
 27
1.0
 37
0.0
 76
     0
330
1E
  0
MLINESTYLE
  5
17
102
{ACAD_REACTORS
330
16
102
}
330
16
100
AcDbMlineStyle
  2
STANDARD
 70
     0
  3

 62
   256
 51
90.0
 52
90.0
 71
     2
 49
0.5
 62
   256
  6
BYLAYER
 49
-0.5
 62
   256
  6
BYLAYER
  0
ACDBPLACEHOLDER
  5
F
102
{ACAD_REACTORS
330
E
102
}
330
E
  0
DICTIONARYVAR
  5
2E0
102
{ACAD_REACTORS
330
2DF
102
}
330
2DF
100
DictionaryVariables
280
     0
  1
1
  0
ENDSEC
  0
EOF
