  0
SECTION
  2
HEADER
  9
$ACADVER
  1
AC1015
  9
$ACADMAINTVER
 70
    13
  9
$DWGCODEPAGE
  3
ANSI_1252
  9
$INSBASE
 10
0.0
 20
0.0
 30
0.0
  9
$EXTMIN
 10
-0.120835000000003
 20
-0.000000000000019
 30
0.0
  9
$EXTMAX
 10
187.120835
 20
243.0
 30
0.0
  9
$LIMMIN
 10
0.0
 20
0.0
  9
$LIMMAX
 10
12.0
 20
9.0
  9
$ORTHOMODE
 70
     0
  9
$REGENMODE
 70
     1
  9
$FILLMODE
 70
     1
  9
$QTEXTMODE
 70
     0
  9
$MIRRTEXT
 70
     1
  9
$LTSCALE
 40
1.0
  9
$ATTMODE
 70
     1
  9
$TEXTSIZE
 40
0.2
  9
$TRACEWID
 40
0.05
  9
$TEXTSTYLE
  7
Standard
  9
$CLAYER
  8
0
  9
$CELTYPE
  6
Continuous
  9
$CECOLOR
 62
   256
  9
$CELTSCALE
 40
1.0
  9
$DISPSILH
 70
     0
  9
$DIMSCALE
 40
1.0
  9
$DIMASZ
 40
0.18
  9
$DIMEXO
 40
0.0625
  9
$DIMDLI
 40
0.38
  9
$DIMRND
 40
0.0
  9
$DIMDLE
 40
0.0
  9
$DIMEXE
 40
0.18
  9
$DIMTP
 40
0.0
  9
$DIMTM
 40
0.0
  9
$DIMTXT
 40
0.18
  9
$DIMCEN
 40
0.09
  9
$DIMTSZ
 40
0.0
  9
$DIMTOL
 70
     0
  9
$DIMLIM
 70
     0
  9
$DIMTIH
 70
     1
  9
$DIMTOH
 70
     1
  9
$DIMSE1
 70
     0
  9
$DIMSE2
 70
     0
  9
$DIMTAD
 70
     0
  9
$DIMZIN
 70
     0
  9
$DIMBLK
  1

  9
$DIMASO
 70
     1
  9
$DIMSHO
 70
     1
  9
$DIMPOST
  1

  9
$DIMAPOST
  1

  9
$DIMALT
 70
     0
  9
$DIMALTD
 70
     2
  9
$DIMALTF
 40
25.4
  9
$DIMLFAC
 40
1.0
  9
$DIMTOFL
 70
     0
  9
$DIMTVP
 40
0.0
  9
$DIMTIX
 70
     0
  9
$DIMSOXD
 70
     0
  9
$DIMSAH
 70
     0
  9
$DIMBLK1
  1

  9
$DIMBLK2
  1

  9
$DIMSTYLE
  2
Standard
  9
$DIMCLRD
 70
     0
  9
$DIMCLRE
 70
     0
  9
$DIMCLRT
 70
     0
  9
$DIMTFAC
 40
1.0
  9
$DIMGAP
 40
0.09
  9
$DIMJUST
 70
     0
  9
$DIMSD1
 70
     0
  9
$DIMSD2
 70
     0
  9
$DIMTOLJ
 70
     1
  9
$DIMTZIN
 70
     0
  9
$DIMALTZ
 70
     0
  9
$DIMALTTZ
 70
     0
  9
$DIMUPT
 70
     0
  9
$DIMDEC
 70
     4
  9
$DIMTDEC
 70
     4
  9
$DIMALTU
 70
     2
  9
$DIMALTTD
 70
     2
  9
$DIMTXSTY
  7
Standard
  9
$DIMAUNIT
 70
     0
  9
$DIMADEC
 70
     0
  9
$DIMALTRND
 40
0.0
  9
$DIMAZIN
 70
     0
  9
$DIMDSEP
 70
    46
  9
$DIMATFIT
 70
     3
  9
$DIMFRAC
 70
     0
  9
$DIMLDRBLK
  1

  9
$DIMLUNIT
 70
     2
  9
$DIMLWD
 70
    -2
  9
$DIMLWE
 70
    -2
  9
$DIMTMOVE
 70
     0
  9
$LUNITS
 70
     2
  9
$LUPREC
 70
     4
  9
$SKETCHINC
 40
0.1
  9
$FILLETRAD
 40
0.0
  9
$AUNITS
 70
     0
  9
$AUPREC
 70
     0
  9
$MENU
  1
.
  9
$ELEVATION
 40
0.0
  9
$PELEVATION
 40
0.0
  9
$THICKNESS
 40
0.0
  9
$LIMCHECK
 70
     0
  9
$CHAMFERA
 40
0.0
  9
$CHAMFERB
 40
0.0
  9
$CHAMFERC
 40
0.0
  9
$CHAMFERD
 40
0.0
  9
$SKPOLY
 70
     0
  9
$TDCREATE
 40
2454750.864658564
  9
$TDUCREATE
 40
2454750.781325231
  9
$TDUPDATE
 40
2454750.866025208
  9
$TDUUPDATE
 40
2454750.782691875
  9
$TDINDWG
 40
0.0013666435
  9
$TDUSRTIMER
 40
0.0013666435
  9
$USRTIMER
 70
     1
  9
$ANGBASE
 50
0.0
  9
$ANGDIR
 70
     0
  9
$PDMODE
 70
     0
  9
$PDSIZE
 40
0.0
  9
$PLINEWID
 40
0.0
  9
$SPLFRAME
 70
     0
  9
$SPLINETYPE
 70
     6
  9
$SPLINESEGS
 70
     8
  9
$HANDSEED
  5
65C
  9
$SURFTAB1
 70
     6
  9
$SURFTAB2
 70
     6
  9
$SURFTYPE
 70
     6
  9
$SURFU
 70
     6
  9
$SURFV
 70
     6
  9
$UCSBASE
  2

  9
$UCSNAME
  2

  9
$UCSORG
 10
0.0
 20
0.0
 30
0.0
  9
$UCSXDIR
 10
1.0
 20
0.0
 30
0.0
  9
$UCSYDIR
 10
0.0
 20
1.0
 30
0.0
  9
$UCSORTHOREF
  2

  9
$UCSORTHOVIEW
 70
     1
  9
$UCSORGTOP
 10
0.0
 20
0.0
 30
0.0
  9
$UCSORGBOTTOM
 10
0.0
 20
0.0
 30
0.0
  9
$UCSORGLEFT
 10
0.0
 20
0.0
 30
0.0
  9
$UCSORGRIGHT
 10
0.0
 20
0.0
 30
0.0
  9
$UCSORGFRONT
 10
0.0
 20
0.0
 30
0.0
  9
$UCSORGBACK
 10
0.0
 20
0.0
 30
0.0
  9
$PUCSBASE
  2

  9
$PUCSNAME
  2

  9
$PUCSORG
 10
0.0
 20
0.0
 30
0.0
  9
$PUCSXDIR
 10
1.0
 20
0.0
 30
0.0
  9
$PUCSYDIR
 10
0.0
 20
1.0
 30
0.0
  9
$PUCSORTHOREF
  2

  9
$PUCSORTHOVIEW
 70
     0
  9
$PUCSORGTOP
 10
0.0
 20
0.0
 30
0.0
  9
$PUCSORGBOTTOM
 10
0.0
 20
0.0
 30
0.0
  9
$PUCSORGLEFT
 10
0.0
 20
0.0
 30
0.0
  9
$PUCSORGRIGHT
 10
0.0
 20
0.0
 30
0.0
  9
$PUCSORGFRONT
 10
0.0
 20
0.0
 30
0.0
  9
$PUCSORGBACK
 10
0.0
 20
0.0
 30
0.0
  9
$USERI1
 70
     0
  9
$USERI2
 70
     0
  9
$USERI3
 70
     0
  9
$USERI4
 70
     0
  9
$USERI5
 70
     0
  9
$USERR1
 40
0.0
  9
$USERR2
 40
0.0
  9
$USERR3
 40
0.0
  9
$USERR4
 40
0.0
  9
$USERR5
 40
0.0
  9
$WORLDVIEW
 70
     1
  9
$SHADEDGE
 70
     3
  9
$SHADEDIF
 70
    70
  9
$TILEMODE
 70
     1
  9
$MAXACTVP
 70
    64
  9
$PINSBASE
 10
0.0
 20
0.0
 30
0.0
  9
$PLIMCHECK
 70
     0
  9
$PEXTMIN
 10
1.000000000000000E+20
 20
1.000000000000000E+20
 30
1.000000000000000E+20
  9
$PEXTMAX
 10
-1.000000000000000E+20
 20
-1.000000000000000E+20
 30
-1.000000000000000E+20
  9
$PLIMMIN
 10
0.0
 20
0.0
  9
$PLIMMAX
 10
12.0
 20
9.0
  9
$UNITMODE
 70
     0
  9
$VISRETAIN
 70
     1
  9
$PLINEGEN
 70
     0
  9
$PSLTSCALE
 70
     1
  9
$TREEDEPTH
 70
  3020
  9
$CMLSTYLE
  2
Standard
  9
$CMLJUST
 70
     0
  9
$CMLSCALE
 40
1.0
  9
$PROXYGRAPHICS
 70
     1
  9
$MEASUREMENT
 70
     0
  9
$CELWEIGHT
370
    -1
  9
$ENDCAPS
280
     0
  9
$JOINSTYLE
280
     0
  9
$LWDISPLAY
290
     0
  9
$INSUNITS
 70
     0
  9
$HYPERLINKBASE
  1

  9
$STYLESHEET
  1

  9
$XEDIT
290
     1
  9
$CEPSNTYPE
380
     0
  9
$PSTYLEMODE
290
     1
  9
$FINGERPRINTGUID
  2
{383B219E-DCEC-428D-94B5-2817D6E0076B}
  9
$VERSIONGUID
  2
{AAE8C87E-3037-43DE-8D91-CEAF7A0B8054}
  9
$EXTNAMES
290
     1
  9
$PSVPSCALE
 40
0.0
  9
$OLESTARTUP
290
     0
  0
ENDSEC
  0
SECTION
  2
CLASSES
  0
CLASS
  1
ACDBDICTIONARYWDFLT
  2
AcDbDictionaryWithDefault
  3
AutoCAD 2000
 90
        0
280
     0
281
     0
  0
CLASS
  1
ACDBPLACEHOLDER
  2
AcDbPlaceHolder
  3
AutoCAD 2000
 90
        0
280
     0
281
     0
  0
CLASS
  1
LAYOUT
  2
AcDbLayout
  3
AutoCAD 2000
 90
        0
280
     0
281
     0
  0
CLASS
  1
DICTIONARYVAR
  2
AcDbDictionaryVar
  3
AutoCAD 2000
 90
        0
280
     0
281
     0
  0
ENDSEC
  0
SECTION
  2
TABLES
  0
TABLE
  2
VPORT
  5
8
330
0
100
AcDbSymbolTable
 70
     2
  0
VPORT
  5
65B
330
8
100
AcDbSymbolTableRecord
100
AcDbViewportTableRecord
  2
*Active
 70
     0
 10
0.0
 20
0.0
 11
1.0
 21
1.0
 12
93.49999999999999
 22
121.5
 13
0.0
 23
0.0
 14
1.0
 24
1.0
 15
0.0
 25
0.0
 16
0.0
 26
0.0
 36
1.0
 17
0.0
 27
0.0
 37
0.0
 40
244.8644501278772
 41
2.078104993597951
 42
50.0
 43
0.0
 44
0.0
 50
0.0
 51
0.0
 71
     0
 72
   100
 73
     1
 74
     3
 75
     0
 76
     0
 77
     0
 78
     0
281
     0
 65
     1
110
0.0
120
0.0
130
0.0
111
1.0
121
0.0
131
0.0
112
0.0
122
1.0
132
0.0
 79
     1
146
0.0
  0
ENDTAB
  0
TABLE
  2
LTYPE
  5
5
330
0
100
AcDbSymbolTable
 70
     1
  0
LTYPE
  5
13
330
5
100
AcDbSymbolTableRecord
100
AcDbLinetypeTableRecord
  2
ByBlock
 70
     0
  3

 72
    65
 73
     0
 40
0.0
  0
LTYPE
  5
14
330
5
100
AcDbSymbolTableRecord
100
AcDbLinetypeTableRecord
  2
ByLayer
 70
     0
  3

 72
    65
 73
     0
 40
0.0
  0
LTYPE
  5
15
330
5
100
AcDbSymbolTableRecord
100
AcDbLinetypeTableRecord
  2
Continuous
 70
     0
  3
Solid line
 72
    65
 73
     0
 40
0.0
  0
ENDTAB
  0
TABLE
  2
LAYER
  5
2
330
0
100
AcDbSymbolTable
 70
     1
  0
LAYER
  5
10
330
2
100
AcDbSymbolTableRecord
100
AcDbLayerTableRecord
  2
0
 70
     0
 62
     7
  6
Continuous
370
    -3
390
F
  0
ENDTAB
  0
TABLE
  2
STYLE
  5
3
330
0
100
AcDbSymbolTable
 70
     1
  0
STYLE
  5
11
330
3
100
AcDbSymbolTableRecord
100
AcDbTextStyleTableRecord
  2
Standard
 70
     0
 40
0.0
 41
1.0
 50
0.0
 71
     0
 42
0.2
  3
txt
  4

  0
ENDTAB
  0
TABLE
  2
VIEW
  5
6
330
0
100
AcDbSymbolTable
 70
     0
  0
ENDTAB
  0
TABLE
  2
UCS
  5
7
330
0
100
AcDbSymbolTable
 70
     0
  0
ENDTAB
  0
TABLE
  2
APPID
  5
9
330
0
100
AcDbSymbolTable
 70
     1
  0
APPID
  5
12
330
9
100
AcDbSymbolTableRecord
100
AcDbRegAppTableRecord
  2
ACAD
 70
     0
  0
ENDTAB
  0
TABLE
  2
DIMSTYLE
  5
A
330
0
100
AcDbSymbolTable
 70
     1
100
AcDbDimStyleTable
 71
     0
  0
DIMSTYLE
105
4C5
330
A
100
AcDbSymbolTableRecord
100
AcDbDimStyleTableRecord
  2
Standard
 70
     0
340
11
  0
ENDTAB
  0
TABLE
  2
BLOCK_RECORD
  5
1
330
0
100
AcDbSymbolTable
 70
     0
  0
BLOCK_RECORD
  5
1E
330
1
100
AcDbSymbolTableRecord
100
AcDbBlockTableRecord
  2
*Model_Space
340
21
  0
BLOCK_RECORD
  5
1A
330
1
100
AcDbSymbolTableRecord
100
AcDbBlockTableRecord
  2
*Paper_Space
340
1D
  0
ENDTAB
  0
ENDSEC
  0
SECTION
  2
BLOCKS
  0
BLOCK
  5
1F
330
1E
100
AcDbEntity
  8
0
100
AcDbBlockBegin
  2
*Model_Space
 70
     0
 10
0.0
 20
0.0
 30
0.0
  3
*Model_Space
  1

  0
ENDBLK
  5
20
330
1E
100
AcDbEntity
  8
0
100
AcDbBlockEnd
  0
BLOCK
  5
1B
330
1A
100
AcDbEntity
 67
     1
  8
0
100
AcDbBlockBegin
  2
*Paper_Space
 70
     0
 10
0.0
 20
0.0
 30
0.0
  3
*Paper_Space
  1

  0
ENDBLK
  5
1C
330
1A
100
AcDbEntity
 67
     1
  8
0
100
AcDbBlockEnd
  0
ENDSEC
  0
SECTION
  2
ENTITIES
  0
LINE
  5
23
330
1E
100
AcDbEntity
  8
0
100
AcDbLine
 10
49.96603499999999
 20
57.48969999999999
 30
0.0
 11
51.481535
 21
57.0389
 31
0.0
  0
LINE
  5
24
330
1E
100
AcDbEntity
  8
0
100
AcDbLine
 10
51.825635
 20
57.5304
 30
0.0
 11
52.743435
 21
58.841
 31
0.0
  0
LINE
  5
25
330
1E
100
AcDbEntity
  8
0
100
AcDbLine
 10
51.481535
 20
57.0389
 30
0.0
 11
51.825635
 21
57.5304
 31
0.0
  0
LINE
  5
26
330
1E
100
AcDbEntity
  8
0
100
AcDbLine
 10
51.481535
 20
57.0389
 30
0.0
 11
52.46463499999999
 21
57.5713
 31
0.0
  0
LINE
  5
27
330
1E
100
AcDbEntity
  8
0
100
AcDbLine
 10
44.27313499999999
 20
63.307
 30
0.0
 11
46.408425372688
 21
66.3565144927782
 31
0.0
  0
LINE
  5
28
330
1E
100
AcDbEntity
  8
0
100
AcDbLine
 10
44.27313499999999
 20
63.307
 30
0.0
 11
49.188035
 21
59.8656
 31
0.0
  0
LINE
  5
29
330
1E
100
AcDbEntity
  8
0
100
AcDbLine
 10
44.27313499999999
 20
63.307
 30
0.0
 11
46.658435
 21
66.7135
 31
0.0
  0
LINE
  5
2B
330
1E
100
AcDbEntity
  8
0
100
AcDbLine
 10
46.658435
 20
66.7135
 30
0.0
 11
55.54883499999999
 21
79.41030000000001
 31
0.0
  0
LINE
  5
2C
330
1E
100
AcDbEntity
  8
0
100
AcDbLine
 10
48.288235
 20
69.0411
 30
0.0
 11
49.72213499999999
 21
71.089
 31
0.0
  0
LINE
  5
2D
330
1E
100
AcDbEntity
  8
0
100
AcDbLine
 10
47.19843499999999
 20
67.48470000000001
 30
0.0
 11
48.288235
 21
69.0411
 31
0.0
  0
LINE
  5
2E
330
1E
100
AcDbEntity
  8
0
100
AcDbLine
 10
47.19843499999999
 20
67.48470000000001
 30
0.0
 11
48.288235
 21
69.0411
 31
0.0
  0
LINE
  5
2F
330
1E
100
AcDbEntity
  8
0
100
AcDbLine
 10
47.1431339966505
 20
67.4057215221668
 30
0.0
 11
47.19843499999999
 21
67.48470000000001
 31
0.0
  0
LINE
  5
30
330
1E
100
AcDbEntity
  8
0
100
AcDbLine
 10
46.28063499999999
 20
66.17409999999999
 30
0.0
 11
46.4960266237911
 21
66.48156098454879
 31
0.0
  0
LINE
  5
31
330
1E
100
AcDbEntity
  8
0
100
AcDbLine
 10
35.63173499999999
 20
73.6306
 30
0.0
 11
35.86113499999999
 21
73.9582
 31
0.0
  0
LINE
  5
32
330
1E
100
AcDbEntity
  8
0
100
AcDbLine
 10
35.63173499999999
 20
73.6306
 30
0.0
 11
36.328035
 21
73.75329999999999
 31
0.0
  0
LINE
  5
33
330
1E
100
AcDbEntity
  8
0
100
AcDbLine
 10
7.764335
 20
74.25709999999999
 30
0.0
 11
8.975435
 21
74.74720000000001
 31
0.0
  0
LINE
  5
34
330
1E
100
AcDbEntity
  8
0
100
AcDbLine
 10
7.38597850446024
 20
74.2215231951955
 30
0.0
 11
7.630535
 21
74.2334
 31
0.0
  0
LINE
  5
35
330
1E
100
AcDbEntity
  8
0
100
AcDbLine
 10
7.38597850446024
 20
74.2215231951955
 30
0.0
 11
7.66925205686993
 21
74.248159365049
 31
0.0
  0
LINE
  5
36
330
1E
100
AcDbEntity
  8
0
100
AcDbLine
 10
6.759335
 20
74.1626
 30
0.0
 11
7.764335
 21
74.25709999999999
 31
0.0
  0
LINE
  5
37
330
1E
100
AcDbEntity
  8
0
100
AcDbLine
 10
5.548235
 20
74.3769
 30
0.0
 11
6.759335
 21
74.1626
 31
0.0
  0
LINE
  5
3B
330
1E
100
AcDbEntity
  8
0
100
AcDbLine
 10
8.975435
 20
74.74720000000001
 30
0.0
 11
10.150335
 21
75.7556
 31
0.0
  0
LINE
  5
3C
330
1E
100
AcDbEntity
  8
0
100
AcDbLine
 10
10.150335
 20
75.7556
 30
0.0
 11
11.140535
 21
77.3789
 31
0.0
  0
LINE
  5
3D
330
1E
100
AcDbEntity
  8
0
100
AcDbLine
 10
11.083535
 20
77.2644
 30
0.0
 11
11.38296357915699
 21
77.8321248760092
 31
0.0
  0
LINE
  5
3E
330
1E
100
AcDbEntity
  8
0
100
AcDbLine
 10
10.7848610740031
 20
76.7958203352143
 30
0.0
 11
11.083535
 21
77.2644
 31
0.0
  0
LINE
  5
3F
330
1E
100
AcDbEntity
  8
0
100
AcDbLine
 10
9.84721601086108
 20
75.49543727240809
 30
0.0
 11
10.068535
 21
75.67199999999999
 31
0.0
  0
LINE
  5
40
330
1E
100
AcDbEntity
  8
0
100
AcDbLine
 10
2.944634999999999
 20
75.7651
 30
0.0
 11
5.548235
 21
74.3769
 31
0.0
  0
LINE
  5
41
330
1E
100
AcDbEntity
  8
0
100
AcDbLine
 10
11.140535
 20
77.3789
 30
0.0
 11
13.028935
 21
80.9093
 31
0.0
  0
LINE
  5
42
330
1E
100
AcDbEntity
  8
0
100
AcDbLine
 10
0.7496349999999971
 20
77.73690000000001
 30
0.0
 11
2.944634999999999
 21
75.7651
 31
0.0
  0
LINE
  5
43
330
1E
100
AcDbEntity
  8
0
100
AcDbLine
 10
0.134074999999997
 20
78.80169999999999
 30
0.0
 11
0.7496349999999971
 21
77.73690000000001
 31
0.0
  0
LINE
  5
44
330
1E
100
AcDbEntity
  8
0
100
AcDbLine
 10
-0.0973450000000032
 20
79.64449999999999
 30
0.0
 11
-0.0247238817558147
 21
79.41014559966621
 31
0.0
  0
LINE
  5
45
330
1E
100
AcDbEntity
  8
0
100
AcDbLine
 10
-0.0745550000000035
 20
81.08400000000001
 30
0.0
 11
0.471204999999998
 21
82.53299999999999
 31
0.0
  0
LINE
  5
46
330
1E
100
AcDbEntity
  8
0
100
AcDbLine
 10
-0.0745550000000035
 20
81.08400000000001
 30
0.0
 11
0.471204999999998
 21
82.53299999999999
 31
0.0
  0
LINE
  5
47
330
1E
100
AcDbEntity
  8
0
100
AcDbLine
 10
-0.120835000000003
 20
79.7784
 30
0.0
 11
0.134074999999997
 21
78.80169999999999
 31
0.0
  0
LINE
  5
48
330
1E
100
AcDbEntity
  8
0
100
AcDbLine
 10
-0.120835000000003
 20
79.7784
 30
0.0
 11
-0.0745550000000035
 21
81.08400000000001
 31
0.0
  0
LINE
  5
49
330
1E
100
AcDbEntity
  8
0
100
AcDbLine
 10
-0.0973450000000032
 20
79.64449999999999
 30
0.0
 11
-0.0247238817558146
 21
79.41014559966621
 31
0.0
  0
LINE
  5
4A
330
1E
100
AcDbEntity
  8
0
100
AcDbLine
 10
0.329989153740437
 20
82.15807006517499
 30
0.0
 11
0.4417528454097751
 21
82.45480414101209
 31
0.0
  0
LINE
  5
4B
330
1E
100
AcDbEntity
  8
0
100
AcDbLine
 10
0.329989153740437
 20
82.15807006517499
 30
0.0
 11
0.4205949999999971
 21
82.4276
 31
0.0
  0
LINE
  5
4C
330
1E
100
AcDbEntity
  8
0
100
AcDbLine
 10
13.028935
 20
80.9093
 30
0.0
 11
14.630035
 21
84.11469999999999
 31
0.0
  0
LINE
  5
4D
330
1E
100
AcDbEntity
  8
0
100
AcDbLine
 10
13.028935
 20
80.9093
 30
0.0
 11
13.8430489265373
 21
82.53915496229
 31
0.0
  0
LINE
  5
51
330
1E
100
AcDbEntity
  8
0
100
AcDbLine
 10
13.8430489265373
 20
82.53915496229
 30
0.0
 11
14.792135
 21
84.39149999999999
 31
0.0
  0
LINE
  5
52
330
1E
100
AcDbEntity
  8
0
100
AcDbLine
 10
1.569874999999999
 20
83.9259
 30
0.0
 11
2.00343220448954
 21
84.40420315491321
 31
0.0
  0
LINE
  5
53
330
1E
100
AcDbEntity
  8
0
100
AcDbLine
 10
1.569874999999999
 20
83.9259
 30
0.0
 11
2.003432204489549
 21
84.40420315491321
 31
0.0
  0
LINE
  5
54
330
1E
100
AcDbEntity
  8
0
100
AcDbLine
 10
14.630035
 20
84.11469999999999
 30
0.0
 11
15.935235
 21
86.56270000000001
 31
0.0
  0
LINE
  5
55
330
1E
100
AcDbEntity
  8
0
100
AcDbLine
 10
14.630035
 20
84.11469999999999
 30
0.0
 11
14.792135
 21
84.39149999999999
 31
0.0
  0
LINE
  5
56
330
1E
100
AcDbEntity
  8
0
100
AcDbLine
 10
28.252135
 20
85.7562
 30
0.0
 11
28.65363499999999
 21
86.3296
 31
0.0
  0
LINE
  5
57
330
1E
100
AcDbEntity
  8
0
100
AcDbLine
 10
28.13743499999999
 20
85.5924
 30
0.0
 11
28.252135
 21
85.7562
 31
0.0
  0
LINE
  5
58
330
1E
100
AcDbEntity
  8
0
100
AcDbLine
 10
28.65363499999999
 20
86.3296
 30
0.0
 11
29.227135
 21
87.14879999999999
 31
0.0
  0
LINE
  5
59
330
1E
100
AcDbEntity
  8
0
100
AcDbLine
 10
28.4242097775013
 20
86.00194763989849
 30
0.0
 11
37.43482828307429
 21
79.6926047032718
 31
0.0
  0
LINE
  5
5A
330
1E
100
AcDbEntity
  8
0
100
AcDbLine
 10
28.93027555430729
 20
86.72475944566441
 30
0.0
 11
29.456635
 21
87.4764
 31
0.0
  0
LINE
  5
5B
330
1E
100
AcDbEntity
  8
0
100
AcDbLine
 10
15.935235
 20
86.56270000000001
 30
0.0
 11
16.994135
 21
88.6067
 31
0.0
  0
LINE
  5
5C
330
1E
100
AcDbEntity
  8
0
100
AcDbLine
 10
14.792135
 20
84.39149999999999
 30
0.0
 11
15.1381378688333
 21
85.06768484745929
 31
0.0
  0
LINE
  5
5D
330
1E
100
AcDbEntity
  8
0
100
AcDbLine
 10
5.585743591648969
 20
88.3264346017528
 30
0.0
 11
6.998735
 21
89.84849999999999
 31
0.0
  0
LINE
  5
5E
330
1E
100
AcDbEntity
  8
0
100
AcDbLine
 10
16.97627648793019
 20
88.5349163152532
 30
0.0
 11
19.085535
 21
90.0994
 31
0.0
  0
LINE
  5
5F
330
1E
100
AcDbEntity
  8
0
100
AcDbLine
 10
29.227135
 20
87.14879999999999
 30
0.0
 11
30.03023499999999
 21
88.29559999999998
 31
0.0
  0
LINE
  5
60
330
1E
100
AcDbEntity
  8
0
100
AcDbLine
 10
30.03023499999999
 20
88.29559999999998
 30
0.0
 11
30.89053499999999
 21
89.52429999999999
 31
0.0
  0
LINE
  5
61
330
1E
100
AcDbEntity
  8
0
100
AcDbLine
 10
29.456635
 20
87.4764
 30
0.0
 11
30.14493499999999
 21
88.4594
 31
0.0
  0
LINE
  5
62
330
1E
100
AcDbEntity
  8
0
100
AcDbLine
 10
30.89053499999999
 20
89.52429999999999
 30
0.0
 11
31.865635
 21
90.91689999999999
 31
0.0
  0
LINE
  5
63
330
1E
100
AcDbEntity
  8
0
100
AcDbLine
 10
30.14493499999999
 20
88.4594
 30
0.0
 11
31.00523499999999
 21
89.68810000000001
 31
0.0
  0
LINE
  5
64
330
1E
100
AcDbEntity
  8
0
100
AcDbLine
 10
31.00523499999999
 20
89.68810000000001
 30
0.0
 11
31.865635
 21
90.91689999999999
 31
0.0
  0
LINE
  5
65
330
1E
100
AcDbEntity
  8
0
100
AcDbLine
 10
16.994135
 20
88.6067
 30
0.0
 11
17.979535
 21
90.26340000000001
 31
0.0
  0
LINE
  5
66
330
1E
100
AcDbEntity
  8
0
100
AcDbLine
 10
7.513197733600339
 20
90.4021049262843
 30
0.0
 11
8.648034999999991
 21
91.66529999999999
 31
0.0
  0
LINE
  5
67
330
1E
100
AcDbEntity
  8
0
100
AcDbLine
 10
19.085535
 20
90.0994
 30
0.0
 11
19.257535
 21
90.3452
 31
0.0
  0
LINE
  5
68
330
1E
100
AcDbEntity
  8
0
100
AcDbLine
 10
19.085535
 20
90.0994
 30
0.0
 11
21.58413499999999
 21
90.181
 31
0.0
  0
LINE
  5
69
330
1E
100
AcDbEntity
  8
0
100
AcDbLine
 10
19.257535
 20
90.3452
 30
0.0
 11
19.716435
 21
91.00050000000001
 31
0.0
  0
LINE
  5
6A
330
1E
100
AcDbEntity
  8
0
100
AcDbLine
 10
17.979535
 20
90.26340000000001
 30
0.0
 11
19.530635
 21
92.22929999999999
 31
0.0
  0
LINE
  5
6B
330
1E
100
AcDbEntity
  8
0
100
AcDbLine
 10
20.46213499999999
 20
92.0654
 30
0.0
 11
21.379835
 21
93.376
 31
0.0
  0
LINE
  5
6C
330
1E
100
AcDbEntity
  8
0
100
AcDbLine
 10
19.716435
 20
91.00050000000001
 30
0.0
 11
20.46213499999999
 21
92.0654
 31
0.0
  0
LINE
  5
6D
330
1E
100
AcDbEntity
  8
0
100
AcDbLine
 10
31.865635
 20
90.91689999999999
 30
0.0
 11
32.72603499999999
 21
92.1456
 31
0.0
  0
LINE
  5
6E
330
1E
100
AcDbEntity
  8
0
100
AcDbLine
 10
31.865635
 20
90.91689999999999
 30
0.0
 11
32.84073499999999
 21
92.3094
 31
0.0
  0
LINE
  5
6F
330
1E
100
AcDbEntity
  8
0
100
AcDbLine
 10
31.865635
 20
90.91689999999999
 30
0.0
 11
32.7362245727858
 21
92.1601529792885
 31
0.0
  0
LINE
  5
70
330
1E
100
AcDbEntity
  8
0
100
AcDbLine
 10
32.84073499999999
 20
92.3094
 30
0.0
 11
33.70103499999999
 21
93.5382
 31
0.0
  0
LINE
  5
71
330
1E
100
AcDbEntity
  8
0
100
AcDbLine
 10
32.9882349999063
 20
92.5200799952166
 30
0.0
 11
33.58633499999999
 21
93.37430000000001
 31
0.0
  0
LINE
  5
72
330
1E
100
AcDbEntity
  8
0
100
AcDbLine
 10
32.9882349999063
 20
92.5200799952166
 30
0.0
 11
33.70103499999999
 21
93.5382
 31
0.0
  0
LINE
  5
73
330
1E
100
AcDbEntity
  8
0
100
AcDbLine
 10
22.673935
 20
91.7374
 30
0.0
 11
23.476935
 21
92.8842
 31
0.0
  0
LINE
  5
74
330
1E
100
AcDbEntity
  8
0
100
AcDbLine
 10
22.100435
 20
90.9182
 30
0.0
 11
22.673935
 21
91.7374
 31
0.0
  0
LINE
  5
75
330
1E
100
AcDbEntity
  8
0
100
AcDbLine
 10
21.698935
 20
90.3448
 30
0.0
 11
22.100435
 21
90.9182
 31
0.0
  0
LINE
  5
76
330
1E
100
AcDbEntity
  8
0
100
AcDbLine
 10
21.58413499999999
 20
90.181
 30
0.0
 11
21.698935
 21
90.3448
 31
0.0
  0
LINE
  5
77
330
1E
100
AcDbEntity
  8
0
100
AcDbLine
 10
21.58413499999999
 20
90.181
 30
0.0
 11
28.13743499999999
 21
85.5924
 31
0.0
  0
LINE
  5
78
330
1E
100
AcDbEntity
  8
0
100
AcDbLine
 10
19.530635
 20
92.22929999999999
 30
0.0
 11
20.93323499999999
 21
93.7007
 31
0.0
  0
LINE
  5
79
330
1E
100
AcDbEntity
  8
0
100
AcDbLine
 10
21.379835
 20
93.376
 30
0.0
 11
22.469635
 21
94.9324
 31
0.0
  0
LINE
  5
7A
330
1E
100
AcDbEntity
  8
0
100
AcDbLine
 10
33.70103499999999
 20
93.5382
 30
0.0
 11
34.50413499999999
 21
94.685
 31
0.0
  0
LINE
  5
7B
330
1E
100
AcDbEntity
  8
0
100
AcDbLine
 10
33.70103499999999
 20
93.5382
 30
0.0
 11
34.1779474261046
 21
94.21921502958129
 31
0.0
  0
LINE
  5
7C
330
1E
100
AcDbEntity
  8
0
100
AcDbLine
 10
33.58633499999999
 20
93.37430000000001
 30
0.0
 11
34.1779474261046
 21
94.21921502958129
 31
0.0
  0
LINE
  5
7D
330
1E
100
AcDbEntity
  8
0
100
AcDbLine
 10
23.476935
 20
92.8842
 30
0.0
 11
24.337335
 21
94.11289999999999
 31
0.0
  0
LINE
  5
7E
330
1E
100
AcDbEntity
  8
0
100
AcDbLine
 10
24.337335
 20
94.11289999999999
 30
0.0
 11
25.312435
 21
95.50549999999999
 31
0.0
  0
LINE
  5
7F
330
1E
100
AcDbEntity
  8
0
100
AcDbLine
 10
20.93323499999999
 20
93.7007
 30
0.0
 11
22.265235
 21
95.01890000000001
 31
0.0
  0
LINE
  5
80
330
1E
100
AcDbEntity
  8
0
100
AcDbLine
 10
10.206635
 20
93.35939999999999
 30
0.0
 11
11.426335
 21
94.852
 31
0.0
  0
LINE
  5
81
330
1E
100
AcDbEntity
  8
0
100
AcDbLine
 10
9.501235000000001
 20
95.5896
 30
0.0
 11
9.673334999999999
 21
95.83540000000001
 31
0.0
  0
LINE
  5
82
330
1E
100
AcDbEntity
  8
0
100
AcDbLine
 10
11.426335
 20
94.852
 30
0.0
 11
12.743135
 21
96.9819
 31
0.0
  0
LINE
  5
83
330
1E
100
AcDbEntity
  8
0
100
AcDbLine
 10
9.673334999999999
 20
95.83540000000001
 30
0.0
 11
12.082335
 21
99.2758
 31
0.0
  0
LINE
  5
84
330
1E
100
AcDbEntity
  8
0
100
AcDbLine
 10
10.828535
 20
96.6135
 30
0.0
 11
12.090435
 21
98.41560000000001
 31
0.0
  0
LINE
  5
85
330
1E
100
AcDbEntity
  8
0
100
AcDbLine
 10
12.743135
 20
96.9819
 30
0.0
 11
13.646035
 21
98.80320000000001
 31
0.0
  0
LINE
  5
86
330
1E
100
AcDbEntity
  8
0
100
AcDbLine
 10
12.090435
 20
98.41560000000001
 30
0.0
 11
13.524335
 21
100.4629999999999
 31
0.0
  0
LINE
  5
87
330
1E
100
AcDbEntity
  8
0
100
AcDbLine
 10
12.082335
 20
99.2758
 30
0.0
 11
13.344235
 21
101.078
 31
0.0
  0
LINE
  5
88
330
1E
100
AcDbEntity
  8
0
100
AcDbLine
 10
13.344235
 20
101.078
 30
0.0
 11
14.66343499999999
 21
102.9619999999999
 31
0.0
  0
LINE
  5
89
330
1E
100
AcDbEntity
  8
0
100
AcDbLine
 10
13.524335
 20
100.4629999999999
 30
0.0
 11
14.37971900370039
 21
101.684740437906
 31
0.0
  0
LINE
  5
8A
330
1E
100
AcDbEntity
  8
0
100
AcDbLine
 10
13.646035
 20
98.80320000000001
 30
0.0
 11
14.429235
 21
100.506
 31
0.0
  0
LINE
  5
8B
330
1E
100
AcDbEntity
  8
0
100
AcDbLine
 10
22.469635
 20
94.9324
 30
0.0
 11
22.6902275228852
 21
95.2474379890968
 31
0.0
  0
LINE
  5
8C
330
1E
100
AcDbEntity
  8
0
100
AcDbLine
 10
34.50413499999999
 20
94.685
 30
0.0
 11
35.077635
 21
95.50409999999999
 31
0.0
  0
LINE
  5
8D
330
1E
100
AcDbEntity
  8
0
100
AcDbLine
 10
23.263535
 20
95.3531
 30
0.0
 11
23.959035
 21
95.4765
 31
0.0
  0
LINE
  5
8E
330
1E
100
AcDbEntity
  8
0
100
AcDbLine
 10
23.959035
 20
95.4765
 30
0.0
 11
24.402335
 21
96.14270000000001
 31
0.0
  0
LINE
  5
8F
330
1E
100
AcDbEntity
  8
0
100
AcDbLine
 10
22.265235
 20
95.01890000000001
 30
0.0
 11
23.02568570137359
 21
95.42782925108271
 31
0.0
  0
LINE
  5
90
330
1E
100
AcDbEntity
  8
0
100
AcDbLine
 10
16.13023499999999
 20
99.7375
 30
0.0
 11
18.431235
 21
97.8822
 31
0.0
  0
LINE
  5
93
330
1E
100
AcDbEntity
  8
0
100
AcDbLine
 10
15.806835
 20
101.185
 30
0.0
 11
16.72023499999999
 21
100.5449999999999
 31
0.0
  0
LINE
  5
94
330
1E
100
AcDbEntity
  8
0
100
AcDbLine
 10
16.72023499999999
 20
100.5449999999999
 30
0.0
 11
19.119535
 21
98.8652
 31
0.0
  0
LINE
  5
95
330
1E
100
AcDbEntity
  8
0
100
AcDbLine
 10
18.431235
 20
97.8822
 30
0.0
 11
20.961635
 21
96.35460000000001
 31
0.0
  0
LINE
  5
96
330
1E
100
AcDbEntity
  8
0
100
AcDbLine
 10
20.961635
 20
96.35460000000001
 30
0.0
 11
23.263535
 21
95.3531
 31
0.0
  0
LINE
  5
9A
330
1E
100
AcDbEntity
  8
0
100
AcDbLine
 10
25.312435
 20
95.50549999999999
 30
0.0
 11
26.287535
 21
96.89799999999999
 31
0.0
  0
LINE
  5
9B
330
1E
100
AcDbEntity
  8
0
100
AcDbLine
 10
23.644535
 20
95.69679999999999
 30
0.0
 11
23.959035
 21
95.4765
 31
0.0
  0
LINE
  5
9C
330
1E
100
AcDbEntity
  8
0
100
AcDbLine
 10
26.287535
 20
96.89799999999999
 30
0.0
 11
27.14783499999999
 21
98.1268
 31
0.0
  0
LINE
  5
9D
330
1E
100
AcDbEntity
  8
0
100
AcDbLine
 10
24.562235
 20
97.00740000000001
 30
0.0
 11
24.876735
 21
96.7871
 31
0.0
  0
LINE
  5
9E
330
1E
100
AcDbEntity
  8
0
100
AcDbLine
 10
24.402335
 20
96.14270000000001
 30
0.0
 11
24.876735
 21
96.7871
 31
0.0
  0
LINE
  5
9F
330
1E
100
AcDbEntity
  8
0
100
AcDbLine
 10
23.062035
 20
96.10460000000001
 30
0.0
 11
23.644535
 21
95.69679999999999
 31
0.0
  0
LINE
  5
A0
330
1E
100
AcDbEntity
  8
0
100
AcDbLine
 10
22.43213499999999
 20
96.54569999999999
 30
0.0
 11
23.062035
 21
96.10460000000001
 31
0.0
  0
LINE
  5
A1
330
1E
100
AcDbEntity
  8
0
100
AcDbLine
 10
23.979835
 20
97.41520000000001
 30
0.0
 11
24.562235
 21
97.00740000000001
 31
0.0
  0
LINE
  5
A2
330
1E
100
AcDbEntity
  8
0
100
AcDbLine
 10
23.02643499999999
 20
99.3035
 30
0.0
 11
24.754835
 21
97.4829
 31
0.0
  0
LINE
  5
A5
330
1E
100
AcDbEntity
  8
0
100
AcDbLine
 10
23.349835
 20
97.85630000000001
 30
0.0
 11
23.979835
 21
97.41520000000001
 31
0.0
  0
LINE
  5
A6
330
1E
100
AcDbEntity
  8
0
100
AcDbLine
 10
22.436535
 20
98.49580000000001
 30
0.0
 11
23.349835
 21
97.85630000000001
 31
0.0
  0
LINE
  5
A7
330
1E
100
AcDbEntity
  8
0
100
AcDbLine
 10
20.725535
 20
101.1589999999999
 30
0.0
 11
23.02643499999999
 21
99.3035
 31
0.0
  0
LINE
  5
A8
330
1E
100
AcDbEntity
  8
0
100
AcDbLine
 10
20.03723499999999
 20
100.1759999999999
 30
0.0
 11
22.436535
 21
98.49580000000001
 31
0.0
  0
LINE
  5
AA
330
1E
100
AcDbEntity
  8
0
100
AcDbLine
 10
24.754835
 20
97.4829
 30
0.0
 11
24.876735
 21
96.7871
 31
0.0
  0
LINE
  5
AB
330
1E
100
AcDbEntity
  8
0
100
AcDbLine
 10
24.65809694476289
 20
98.05792148906229
 30
0.0
 11
24.878635
 21
98.37290000000001
 31
0.0
  0
LINE
  5
AC
330
1E
100
AcDbEntity
  8
0
100
AcDbLine
 10
25.968435
 20
99.92919999999999
 30
0.0
 11
26.88613499999999
 21
101.2399999999999
 31
0.0
  0
LINE
  5
AD
330
1E
100
AcDbEntity
  8
0
100
AcDbLine
 10
24.878635
 20
98.37290000000001
 30
0.0
 11
25.968435
 21
99.92919999999999
 31
0.0
  0
LINE
  5
AE
330
1E
100
AcDbEntity
  8
0
100
AcDbLine
 10
27.950835
 20
99.2736
 30
0.0
 11
28.52443499999999
 21
100.0929999999999
 31
0.0
  0
LINE
  5
AF
330
1E
100
AcDbEntity
  8
0
100
AcDbLine
 10
28.52443499999999
 20
100.0929999999999
 30
0.0
 11
28.925935
 21
100.6659999999999
 31
0.0
  0
LINE
  5
B0
330
1E
100
AcDbEntity
  8
0
100
AcDbLine
 10
27.14783499999999
 20
98.1268
 30
0.0
 11
27.950835
 21
99.2736
 31
0.0
  0
LINE
  5
B1
330
1E
100
AcDbEntity
  8
0
100
AcDbLine
 10
26.88613499999999
 20
101.2399999999999
 30
0.0
 11
27.631835
 21
102.305
 31
0.0
  0
LINE
  5
B2
330
1E
100
AcDbEntity
  8
0
100
AcDbLine
 10
29.04063499999999
 20
100.8299999999999
 30
0.0
 11
35.593835
 21
96.2414
 31
0.0
  0
LINE
  5
B3
330
1E
100
AcDbEntity
  8
0
100
AcDbLine
 10
28.925935
 20
100.6659999999999
 30
0.0
 11
29.04063499999999
 21
100.8299999999999
 31
0.0
  0
LINE
  5
B4
330
1E
100
AcDbEntity
  8
0
100
AcDbLine
 10
25.510635
 20
100.238
 30
0.0
 11
26.41353499999999
 21
102.0589999999999
 31
0.0
  0
LINE
  5
B5
330
1E
100
AcDbEntity
  8
0
100
AcDbLine
 10
24.72743499999999
 20
98.53530000000001
 30
0.0
 11
25.510635
 21
100.238
 31
0.0
  0
LINE
  5
B6
330
1E
100
AcDbEntity
  8
0
100
AcDbLine
 10
24.6033185715403
 20
97.6807834491915
 30
0.0
 11
24.72743499999999
 21
98.53530000000001
 31
0.0
  0
LINE
  5
B8
330
1E
100
AcDbEntity
  8
0
100
AcDbLine
 10
21.51883499999999
 20
97.18519999999999
 30
0.0
 11
22.43213499999999
 21
96.54569999999999
 31
0.0
  0
LINE
  5
B9
330
1E
100
AcDbEntity
  8
0
100
AcDbLine
 10
19.119535
 20
98.8652
 30
0.0
 11
21.51883499999999
 21
97.18519999999999
 31
0.0
  0
LINE
  5
BB
330
1E
100
AcDbEntity
  8
0
100
AcDbLine
 10
14.429235
 20
100.506
 30
0.0
 11
14.5533910532514
 21
101.35998733364
 31
0.0
  0
LINE
  5
BD
330
1E
100
AcDbEntity
  8
0
100
AcDbLine
 10
14.401935
 20
101.5579999999999
 30
0.0
 11
16.13023499999999
 21
99.7375
 31
0.0
  0
LINE
  5
BE
330
1E
100
AcDbEntity
  8
0
100
AcDbLine
 10
14.66343499999999
 20
102.9619999999999
 30
0.0
 11
15.982635
 21
104.8459999999999
 31
0.0
  0
LINE
  5
BF
330
1E
100
AcDbEntity
  8
0
100
AcDbLine
 10
14.754335
 20
102.898
 30
0.0
 11
15.197635
 21
103.5649999999999
 31
0.0
  0
LINE
  5
C0
330
1E
100
AcDbEntity
  8
0
100
AcDbLine
 10
14.279935
 20
102.254
 30
0.0
 11
14.754335
 21
102.898
 31
0.0
  0
LINE
  5
C1
330
1E
100
AcDbEntity
  8
0
100
AcDbLine
 10
14.279935
 20
102.254
 30
0.0
 11
14.594535
 21
102.034
 31
0.0
  0
LINE
  5
C2
330
1E
100
AcDbEntity
  8
0
100
AcDbLine
 10
14.279935
 20
102.254
 30
0.0
 11
14.401935
 21
101.5579999999999
 31
0.0
  0
LINE
  5
C3
330
1E
100
AcDbEntity
  8
0
100
AcDbLine
 10
14.594535
 20
102.034
 30
0.0
 11
15.176935
 21
101.626
 31
0.0
  0
LINE
  5
C4
330
1E
100
AcDbEntity
  8
0
100
AcDbLine
 10
15.197635
 20
103.5649999999999
 30
0.0
 11
15.512235
 21
103.3439999999999
 31
0.0
  0
LINE
  5
C5
330
1E
100
AcDbEntity
  8
0
100
AcDbLine
 10
15.197635
 20
103.5649999999999
 30
0.0
 11
15.893235
 21
103.6879999999999
 31
0.0
  0
LINE
  5
C7
330
1E
100
AcDbEntity
  8
0
100
AcDbLine
 10
15.512235
 20
103.3439999999999
 30
0.0
 11
16.094635
 21
102.936
 31
0.0
  0
LINE
  5
C8
330
1E
100
AcDbEntity
  8
0
100
AcDbLine
 10
16.094635
 20
102.936
 30
0.0
 11
16.724535
 21
102.495
 31
0.0
  0
LINE
  5
CA
330
1E
100
AcDbEntity
  8
0
100
AcDbLine
 10
18.195135
 20
102.686
 30
0.0
 11
20.725535
 21
101.1589999999999
 31
0.0
  0
LINE
  5
CB
330
1E
100
AcDbEntity
  8
0
100
AcDbLine
 10
16.724535
 20
102.495
 30
0.0
 11
17.637935
 21
101.856
 31
0.0
  0
LINE
  5
CC
330
1E
100
AcDbEntity
  8
0
100
AcDbLine
 10
17.637935
 20
101.856
 30
0.0
 11
20.03723499999999
 21
100.1759999999999
 31
0.0
  0
LINE
  5
CD
330
1E
100
AcDbEntity
  8
0
100
AcDbLine
 10
16.13136377161699
 20
103.613161531544
 30
0.0
 11
16.891435
 21
104.022
 31
0.0
  0
LINE
  5
CE
330
1E
100
AcDbEntity
  8
0
100
AcDbLine
 10
15.7665428621149
 20
103.665597566188
 30
0.0
 11
16.621635
 21
104.8869999999999
 31
0.0
  0
LINE
  5
CF
330
1E
100
AcDbEntity
  8
0
100
AcDbLine
 10
15.982635
 20
104.8459999999999
 30
0.0
 11
18.33433499999999
 21
108.2049999999999
 31
0.0
  0
LINE
  5
D0
330
1E
100
AcDbEntity
  8
0
100
AcDbLine
 10
16.621635
 20
104.8869999999999
 30
0.0
 11
18.055635
 21
106.935
 31
0.0
  0
LINE
  5
D2
330
1E
100
AcDbEntity
  8
0
100
AcDbLine
 10
15.893235
 20
103.6879999999999
 30
0.0
 11
18.195135
 21
102.686
 31
0.0
  0
LINE
  5
D3
330
1E
100
AcDbEntity
  8
0
100
AcDbLine
 10
19.626035
 20
106.812
 30
0.0
 11
21.177135
 21
108.7779999999999
 31
0.0
  0
LINE
  5
D4
330
1E
100
AcDbEntity
  8
0
100
AcDbLine
 10
18.33433499999999
 20
108.2049999999999
 30
0.0
 11
19.653535
 21
110.0889999999999
 31
0.0
  0
LINE
  5
D5
330
1E
100
AcDbEntity
  8
0
100
AcDbLine
 10
19.825635
 20
110.3339999999999
 30
0.0
 11
21.095535
 21
111.276
 31
0.0
  0
LINE
  5
D6
330
1E
100
AcDbEntity
  8
0
100
AcDbLine
 10
19.653535
 20
110.0889999999999
 30
0.0
 11
19.825635
 21
110.3339999999999
 31
0.0
  0
LINE
  5
D7
330
1E
100
AcDbEntity
  8
0
100
AcDbLine
 10
19.31743499999999
 20
108.737
 30
0.0
 11
20.292535
 21
110.1289999999999
 31
0.0
  0
LINE
  5
D8
330
1E
100
AcDbEntity
  8
0
100
AcDbLine
 10
21.177135
 20
108.7779999999999
 30
0.0
 11
22.162635
 21
110.434
 31
0.0
  0
LINE
  5
D9
330
1E
100
AcDbEntity
  8
0
100
AcDbLine
 10
20.292535
 20
110.1289999999999
 30
0.0
 11
20.86613499999999
 21
110.949
 31
0.0
  0
LINE
  5
DA
330
1E
100
AcDbEntity
  8
0
100
AcDbLine
 10
21.095535
 20
111.276
 30
0.0
 11
22.3924352492471
 21
110.8900789044529
 31
0.0
  0
LINE
  5
DB
330
1E
100
AcDbEntity
  8
0
100
AcDbLine
 10
20.86613499999999
 20
110.949
 30
0.0
 11
21.095535
 21
111.276
 31
0.0
  0
LINE
  5
DC
330
1E
100
AcDbEntity
  8
0
100
AcDbLine
 10
18.055635
 20
106.935
 30
0.0
 11
19.31743499999999
 21
108.737
 31
0.0
  0
LINE
  5
DD
330
1E
100
AcDbEntity
  8
0
100
AcDbLine
 10
18.223435
 20
105.34
 30
0.0
 11
19.626035
 21
106.812
 31
0.0
  0
LINE
  5
DE
330
1E
100
AcDbEntity
  8
0
100
AcDbLine
 10
16.891435
 20
104.022
 30
0.0
 11
18.223435
 21
105.34
 31
0.0
  0
LINE
  5
E0
330
1E
100
AcDbEntity
  8
0
100
AcDbLine
 10
22.4964431757576
 20
111.0784124586779
 30
0.0
 11
23.221435
 21
112.4779999999999
 31
0.0
  0
LINE
  5
E1
330
1E
100
AcDbEntity
  8
0
100
AcDbLine
 10
22.3924352492471
 20
110.8900789044529
 30
0.0
 11
22.4964431757576
 21
111.0784124586779
 31
0.0
  0
LINE
  5
E2
330
1E
100
AcDbEntity
  8
0
100
AcDbLine
 10
22.162635
 20
110.434
 30
0.0
 11
23.221435
 21
112.4779999999999
 31
0.0
  0
LINE
  5
E3
330
1E
100
AcDbEntity
  8
0
100
AcDbLine
 10
21.85614268957539
 20
109.9189809578249
 30
0.0
 11
22.4964431757576
 21
111.0784124586779
 31
0.0
  0
LINE
  5
E4
330
1E
100
AcDbEntity
  8
0
100
AcDbLine
 10
24.364535
 20
114.65
 30
0.0
 11
24.52663499999999
 21
114.9259999999999
 31
0.0
  0
LINE
  5
E5
330
1E
100
AcDbEntity
  8
0
100
AcDbLine
 10
23.221435
 20
112.4779999999999
 30
0.0
 11
24.52663499999999
 21
114.9259999999999
 31
0.0
  0
LINE
  5
E6
330
1E
100
AcDbEntity
  8
0
100
AcDbLine
 10
27.631835
 20
102.305
 30
0.0
 11
28.090635
 21
102.9599999999999
 31
0.0
  0
LINE
  5
E7
330
1E
100
AcDbEntity
  8
0
100
AcDbLine
 10
28.262735
 20
103.2059999999999
 30
0.0
 11
29.04063499999999
 21
100.8299999999999
 31
0.0
  0
LINE
  5
E8
330
1E
100
AcDbEntity
  8
0
100
AcDbLine
 10
28.262735
 20
103.2059999999999
 30
0.0
 11
29.0040058541451
 21
105.698005278298
 31
0.0
  0
LINE
  5
E9
330
1E
100
AcDbEntity
  8
0
100
AcDbLine
 10
28.090635
 20
102.9599999999999
 30
0.0
 11
28.262735
 21
103.2059999999999
 31
0.0
  0
LINE
  5
EA
330
1E
100
AcDbEntity
  8
0
100
AcDbLine
 10
27.73033499999999
 20
104.1889999999999
 30
0.0
 11
28.95013499999999
 21
105.682
 31
0.0
  0
LINE
  5
EB
330
1E
100
AcDbEntity
  8
0
100
AcDbLine
 10
26.41353499999999
 20
102.0589999999999
 30
0.0
 11
27.73033499999999
 21
104.1889999999999
 31
0.0
  0
LINE
  5
EC
330
1E
100
AcDbEntity
  8
0
100
AcDbLine
 10
28.95013499999999
 20
105.682
 30
0.0
 11
30.508635
 21
107.376
 31
0.0
  0
LINE
  5
ED
330
1E
100
AcDbEntity
  8
0
100
AcDbLine
 10
30.508635
 20
107.376
 30
0.0
 11
32.36263499999999
 21
109.4389999999999
 31
0.0
  0
LINE
  5
EE
330
1E
100
AcDbEntity
  8
0
100
AcDbLine
 10
30.508635
 20
107.376
 30
0.0
 11
31.6542605801345
 21
108.650771074335
 31
0.0
  0
LINE
  5
EF
330
1E
100
AcDbEntity
  8
0
100
AcDbLine
 10
28.5704489311385
 20
105.2172752083859
 30
0.0
 11
29.4454334890974
 21
106.220361014136
 31
0.0
  0
LINE
  5
F0
330
1E
100
AcDbEntity
  8
0
100
AcDbLine
 10
31.6542605801343
 20
108.650771074335
 30
0.0
 11
32.15793499999999
 21
109.193
 31
0.0
  0
LINE
  5
F1
330
1E
100
AcDbEntity
  8
0
100
AcDbLine
 10
25.31483982117769
 20
116.5042803426989
 30
0.0
 11
26.127735
 21
118.132
 31
0.0
  0
LINE
  5
F2
330
1E
100
AcDbEntity
  8
0
100
AcDbLine
 10
32.36263499999999
 20
109.4389999999999
 30
0.0
 11
34.827135
 21
112.04
 31
0.0
  0
LINE
  5
F3
330
1E
100
AcDbEntity
  8
0
100
AcDbLine
 10
32.15793499999999
 20
109.193
 30
0.0
 11
33.5319038411571
 21
110.6730305359499
 31
0.0
  0
LINE
  5
F4
330
1E
100
AcDbEntity
  8
0
100
AcDbLine
 10
32.15793499999999
 20
109.193
 30
0.0
 11
32.36263499999999
 21
109.4389999999999
 31
0.0
  0
LINE
  5
F5
330
1E
100
AcDbEntity
  8
0
100
AcDbLine
 10
24.52663499999999
 20
114.9259999999999
 30
0.0
 11
26.127735
 21
118.132
 31
0.0
  0
LINE
  5
F6
330
1E
100
AcDbEntity
  8
0
100
AcDbLine
 10
27.7609531968868
 20
121.184825117824
 30
0.0
 11
28.07323499999999
 21
121.777
 31
0.0
  0
LINE
  5
F7
330
1E
100
AcDbEntity
  8
0
100
AcDbLine
 10
27.7609531968868
 20
121.184825117824
 30
0.0
 11
28.01623499999999
 21
121.662
 31
0.0
  0
LINE
  5
F8
330
1E
100
AcDbEntity
  8
0
100
AcDbLine
 10
28.07323499999999
 20
121.777
 30
0.0
 11
28.3795217585046
 21
122.257449817262
 31
0.0
  0
LINE
  5
F9
330
1E
100
AcDbEntity
  8
0
100
AcDbLine
 10
28.01623499999999
 20
121.662
 30
0.0
 11
29.00643499999999
 21
123.285
 31
0.0
  0
LINE
  5
FB
330
1E
100
AcDbEntity
  8
0
100
AcDbLine
 10
29.0686489823633
 20
123.338433697825
 30
0.0
 11
29.3139059642657
 21
123.549077462499
 31
0.0
  0
LINE
  5
FD
330
1E
100
AcDbEntity
  8
0
100
AcDbLine
 10
29.08813499999999
 20
123.3689999999999
 30
0.0
 11
29.3139059642657
 21
123.549077462499
 31
0.0
  0
LINE
  5
FE
330
1E
100
AcDbEntity
  8
0
100
AcDbLine
 10
29.00643499999999
 20
123.285
 30
0.0
 11
30.18123499999999
 21
124.2939999999999
 31
0.0
  0
LINE
  5
FF
330
1E
100
AcDbEntity
  8
0
100
AcDbLine
 10
30.18123499999999
 20
124.2939999999999
 30
0.0
 11
31.392335
 21
124.7839999999999
 31
0.0
  0
LINE
  5
101
330
1E
100
AcDbEntity
  8
0
100
AcDbLine
 10
31.4864071761643
 20
124.792798790606
 30
0.0
 11
31.7803064355011
 21
124.820287875559
 31
0.0
  0
LINE
  5
102
330
1E
100
AcDbEntity
  8
0
100
AcDbLine
 10
31.52623499999999
 20
124.8079999999999
 30
0.0
 11
31.7803064355011
 21
124.820287875559
 31
0.0
  0
LINE
  5
103
330
1E
100
AcDbEntity
  8
0
100
AcDbLine
 10
31.392335
 20
124.7839999999999
 30
0.0
 11
32.39733499999999
 21
124.8779999999999
 31
0.0
  0
LINE
  5
104
330
1E
100
AcDbEntity
  8
0
100
AcDbLine
 10
32.39733499999999
 20
124.8779999999999
 30
0.0
 11
33.608435
 21
124.6639999999999
 31
0.0
  0
LINE
  5
105
330
1E
100
AcDbEntity
  8
0
100
AcDbLine
 10
33.608435
 20
124.6639999999999
 30
0.0
 11
36.212035
 21
123.276
 31
0.0
  0
LINE
  5
106
330
1E
100
AcDbEntity
  8
0
100
AcDbLine
 10
26.127735
 20
118.132
 30
0.0
 11
28.01623499999999
 21
121.662
 31
0.0
  0
LINE
  5
107
330
1E
100
AcDbEntity
  8
0
100
AcDbLine
 10
15.176935
 20
101.626
 30
0.0
 11
15.806835
 21
101.185
 31
0.0
  0
LINE
  5
109
330
1E
100
AcDbEntity
  8
0
100
AcDbLine
 10
9.853435000000001
 20
95.2209
 30
0.0
 11
10.828535
 21
96.6135
 31
0.0
  0
LINE
  5
10A
330
1E
100
AcDbEntity
  8
0
100
AcDbLine
 10
9.279935
 20
94.40179999999999
 30
0.0
 11
9.853435000000001
 21
95.2209
 31
0.0
  0
LINE
  5
10B
330
1E
100
AcDbEntity
  8
0
100
AcDbLine
 10
9.050435
 20
94.0741
 30
0.0
 11
9.846174297604679
 21
93.00137246918449
 31
0.0
  0
LINE
  5
10C
330
1E
100
AcDbEntity
  8
0
100
AcDbLine
 10
9.050435
 20
94.0741
 30
0.0
 11
9.279935
 21
94.40179999999999
 31
0.0
  0
LINE
  5
10D
330
1E
100
AcDbEntity
  8
0
100
AcDbLine
 10
9.050435
 20
94.0741
 30
0.0
 11
9.501235000000001
 21
95.5896
 31
0.0
  0
LINE
  5
10E
330
1E
100
AcDbEntity
  8
0
100
AcDbLine
 10
9.71932274306606
 20
92.82972227994878
 30
0.0
 11
10.5846897790344
 21
93.82204209493059
 31
0.0
  0
LINE
  5
10F
330
1E
100
AcDbEntity
  8
0
100
AcDbLine
 10
8.648034999999991
 20
91.66529999999999
 30
0.0
 11
10.206635
 21
93.35939999999999
 31
0.0
  0
LINE
  5
110
330
1E
100
AcDbEntity
  8
0
100
AcDbLine
 10
6.998735
 20
89.84849999999999
 30
0.0
 11
7.513197733600339
 21
90.4021049262843
 31
0.0
  0
LINE
  5
111
330
1E
100
AcDbEntity
  8
0
100
AcDbLine
 10
6.794035
 20
89.6016
 30
0.0
 11
8.648034999999991
 21
91.66529999999999
 31
0.0
  0
LINE
  5
112
330
1E
100
AcDbEntity
  8
0
100
AcDbLine
 10
6.794035
 20
89.6016
 30
0.0
 11
6.998735
 21
89.84849999999999
 31
0.0
  0
LINE
  5
113
330
1E
100
AcDbEntity
  8
0
100
AcDbLine
 10
4.329534999999999
 20
87.0007
 30
0.0
 11
6.794035
 21
89.6016
 31
0.0
  0
LINE
  5
114
330
1E
100
AcDbEntity
  8
0
100
AcDbLine
 10
1.657984999999999
 20
84.0186
 30
0.0
 11
4.329534999999999
 21
87.0007
 31
0.0
  0
LINE
  5
115
330
1E
100
AcDbEntity
  8
0
100
AcDbLine
 10
1.23082134611761
 20
83.48388057078171
 30
0.0
 11
1.569874999999999
 21
83.9259
 31
0.0
  0
LINE
  5
116
330
1E
100
AcDbEntity
  8
0
100
AcDbLine
 10
0.471204999999998
 20
82.53299999999999
 30
0.0
 11
1.657984999999999
 21
84.0186
 31
0.0
  0
LINE
  5
117
330
1E
100
AcDbEntity
  8
0
100
AcDbLine
 10
0.329989153740436
 20
82.15807006517499
 30
0.0
 11
0.4205949999999971
 21
82.4276
 31
0.0
  0
LINE
  5
118
330
1E
100
AcDbEntity
  8
0
100
AcDbLine
 10
0.134074999999997
 20
78.80169999999999
 30
0.0
 11
0.7496349999999971
 21
77.73690000000001
 31
0.0
  0
LINE
  5
119
330
1E
100
AcDbEntity
  8
0
100
AcDbLine
 10
0.7496349999999971
 20
77.73690000000001
 30
0.0
 11
2.944634999999999
 21
75.7651
 31
0.0
  0
LINE
  5
11A
330
1E
100
AcDbEntity
  8
0
100
AcDbLine
 10
34.50963499999999
 20
75.5149
 30
0.0
 11
35.140535
 21
76.416
 31
0.0
  0
LINE
  5
11B
330
1E
100
AcDbEntity
  8
0
100
AcDbLine
 10
34.28013499999999
 20
75.18729999999999
 30
0.0
 11
34.402935
 21
74.49089999999999
 31
0.0
  0
LINE
  5
11C
330
1E
100
AcDbEntity
  8
0
100
AcDbLine
 10
34.28013499999999
 20
75.18729999999999
 30
0.0
 11
34.50963499999999
 21
75.5149
 31
0.0
  0
LINE
  5
11D
330
1E
100
AcDbEntity
  8
0
100
AcDbLine
 10
35.077635
 20
95.50409999999999
 30
0.0
 11
35.47913499999999
 21
96.07750000000001
 31
0.0
  0
LINE
  5
11E
330
1E
100
AcDbEntity
  8
0
100
AcDbLine
 10
34.827135
 20
112.04
 30
0.0
 11
37.49873499999999
 21
115.022
 31
0.0
  0
LINE
  5
11F
330
1E
100
AcDbEntity
  8
0
100
AcDbLine
 10
35.47913499999999
 20
96.07750000000001
 30
0.0
 11
35.593835
 21
96.2414
 31
0.0
  0
LINE
  5
120
330
1E
100
AcDbEntity
  8
0
100
AcDbLine
 10
35.30713499999999
 20
95.8318
 30
0.0
 11
44.317735
 21
89.52240000000001
 31
0.0
  0
LINE
  5
121
330
1E
100
AcDbEntity
  8
0
100
AcDbLine
 10
35.262158094677
 20
95.76762563508792
 30
0.0
 11
35.30713499999999
 21
95.8318
 31
0.0
  0
LINE
  5
122
330
1E
100
AcDbEntity
  8
0
100
AcDbLine
 10
36.212035
 20
123.276
 30
0.0
 11
38.407035
 21
121.304
 31
0.0
  0
LINE
  5
123
330
1E
100
AcDbEntity
  8
0
100
AcDbLine
 10
36.230335
 20
77.97239999999999
 30
0.0
 11
37.606935
 21
79.9384
 31
0.0
  0
LINE
  5
124
330
1E
100
AcDbEntity
  8
0
100
AcDbLine
 10
36.230335
 20
77.97239999999999
 30
0.0
 11
37.43482828307429
 21
79.6926047032718
 31
0.0
  0
LINE
  5
125
330
1E
100
AcDbEntity
  8
0
100
AcDbLine
 10
36.410435
 20
77.3579
 30
0.0
 11
37.844435
 21
79.4058
 31
0.0
  0
LINE
  5
126
330
1E
100
AcDbEntity
  8
0
100
AcDbLine
 10
35.140535
 20
76.416
 30
0.0
 11
36.230335
 21
77.97239999999999
 31
0.0
  0
LINE
  5
127
330
1E
100
AcDbEntity
  8
0
100
AcDbLine
 10
35.320735
 20
75.80159999999999
 30
0.0
 11
36.410435
 21
77.3579
 31
0.0
  0
LINE
  5
128
330
1E
100
AcDbEntity
  8
0
100
AcDbLine
 10
34.632435
 20
74.81860000000001
 30
0.0
 11
35.320735
 21
75.80159999999999
 31
0.0
  0
LINE
  5
129
330
1E
100
AcDbEntity
  8
0
100
AcDbLine
 10
34.402935
 20
74.49089999999999
 30
0.0
 11
34.632435
 21
74.81860000000001
 31
0.0
  0
LINE
  5
12A
330
1E
100
AcDbEntity
  8
0
100
AcDbLine
 10
34.402935
 20
74.49089999999999
 30
0.0
 11
35.63173499999999
 21
73.6306
 31
0.0
  0
LINE
  5
12B
330
1E
100
AcDbEntity
  8
0
100
AcDbLine
 10
36.54943499999999
 20
74.94119999999999
 30
0.0
 11
37.639235
 21
76.4976
 31
0.0
  0
LINE
  5
12C
330
1E
100
AcDbEntity
  8
0
100
AcDbLine
 10
35.86113499999999
 20
73.9582
 30
0.0
 11
36.54943499999999
 21
74.94119999999999
 31
0.0
  0
LINE
  5
12D
330
1E
100
AcDbEntity
  8
0
100
AcDbLine
 10
36.55753499999999
 20
74.08100000000001
 30
0.0
 11
37.188435
 21
74.9821
 31
0.0
  0
LINE
  5
12E
330
1E
100
AcDbEntity
  8
0
100
AcDbLine
 10
36.328035
 20
73.75329999999999
 30
0.0
 11
36.450835
 21
73.057
 31
0.0
  0
LINE
  5
12F
330
1E
100
AcDbEntity
  8
0
100
AcDbLine
 10
36.328035
 20
73.75329999999999
 30
0.0
 11
36.55753499999999
 21
74.08100000000001
 31
0.0
  0
LINE
  5
130
330
1E
100
AcDbEntity
  8
0
100
AcDbLine
 10
37.1826885133822
 20
114.669233634116
 30
0.0
 11
37.586835
 21
115.1149999999999
 31
0.0
  0
LINE
  5
131
330
1E
100
AcDbEntity
  8
0
100
AcDbLine
 10
37.639235
 20
76.4976
 30
0.0
 11
39.073135
 21
78.5455
 31
0.0
  0
LINE
  5
132
330
1E
100
AcDbEntity
  8
0
100
AcDbLine
 10
37.606935
 20
79.9384
 30
0.0
 11
39.155535
 21
82.15009999999999
 31
0.0
  0
LINE
  5
133
330
1E
100
AcDbEntity
  8
0
100
AcDbLine
 10
37.844435
 20
79.4058
 30
0.0
 11
39.507835
 21
81.7814
 31
0.0
  0
LINE
  5
134
330
1E
100
AcDbEntity
  8
0
100
AcDbLine
 10
39.073135
 20
78.5455
 30
0.0
 11
40.73653499999999
 21
80.921
 31
0.0
  0
LINE
  5
135
330
1E
100
AcDbEntity
  8
0
100
AcDbLine
 10
38.27823499999999
 20
76.5385
 30
0.0
 11
39.65483499999999
 21
78.5044
 31
0.0
  0
LINE
  5
136
330
1E
100
AcDbEntity
  8
0
100
AcDbLine
 10
39.65483499999999
 20
78.5044
 30
0.0
 11
41.20343499999999
 21
80.71609999999999
 31
0.0
  0
LINE
  5
137
330
1E
100
AcDbEntity
  8
0
100
AcDbLine
 10
38.45833499999999
 20
75.92399999999999
 30
0.0
 11
39.89233499999999
 21
77.9719
 31
0.0
  0
LINE
  5
138
330
1E
100
AcDbEntity
  8
0
100
AcDbLine
 10
39.89233499999999
 20
77.9719
 30
0.0
 11
41.55563499999999
 21
80.34739999999999
 31
0.0
  0
LINE
  5
13A
330
1E
100
AcDbEntity
  8
0
100
AcDbLine
 10
37.586835
 20
115.1149999999999
 30
0.0
 11
37.9186736621017
 21
115.5478079304709
 31
0.0
  0
LINE
  5
13B
330
1E
100
AcDbEntity
  8
0
100
AcDbLine
 10
37.49873499999999
 20
115.022
 30
0.0
 11
38.68553499999999
 21
116.5079999999999
 31
0.0
  0
LINE
  5
13E
330
1E
100
AcDbEntity
  8
0
100
AcDbLine
 10
38.73613499999999
 20
116.6139999999999
 30
0.0
 11
38.824920528516
 21
116.8781111065049
 31
0.0
  0
LINE
  5
13F
330
1E
100
AcDbEntity
  8
0
100
AcDbLine
 10
38.68553499999999
 20
116.5079999999999
 30
0.0
 11
39.23123499999999
 21
117.957
 31
0.0
  0
LINE
  5
140
330
1E
100
AcDbEntity
  8
0
100
AcDbLine
 10
39.23123499999999
 20
117.957
 30
0.0
 11
39.277535
 21
119.2629999999999
 31
0.0
  0
LINE
  5
141
330
1E
100
AcDbEntity
  8
0
100
AcDbLine
 10
39.1810652105185
 20
119.632378244543
 30
0.0
 11
39.25403499999999
 21
119.3969999999999
 31
0.0
  0
LINE
  5
142
330
1E
100
AcDbEntity
  8
0
100
AcDbLine
 10
39.022635
 20
120.2389999999999
 30
0.0
 11
39.277535
 21
119.2629999999999
 31
0.0
  0
LINE
  5
143
330
1E
100
AcDbEntity
  8
0
100
AcDbLine
 10
38.407035
 20
121.304
 30
0.0
 11
39.022635
 21
120.2389999999999
 31
0.0
  0
LINE
  5
144
330
1E
100
AcDbEntity
  8
0
100
AcDbLine
 10
39.155535
 20
82.15009999999999
 30
0.0
 11
40.87633499999999
 21
84.6075
 31
0.0
  0
LINE
  5
145
330
1E
100
AcDbEntity
  8
0
100
AcDbLine
 10
40.87633499999999
 20
84.6075
 30
0.0
 11
42.59703499999999
 21
87.065
 31
0.0
  0
LINE
  5
146
330
1E
100
AcDbEntity
  8
0
100
AcDbLine
 10
40.87633499999999
 20
84.6075
 30
0.0
 11
41.73663499999999
 21
85.83629999999999
 31
0.0
  0
LINE
  5
147
330
1E
100
AcDbEntity
  8
0
100
AcDbLine
 10
39.507835
 20
81.7814
 30
0.0
 11
41.285835
 21
84.32070000000001
 31
0.0
  0
LINE
  5
148
330
1E
100
AcDbEntity
  8
0
100
AcDbLine
 10
40.73653499999999
 20
80.921
 30
0.0
 11
42.51463499999999
 21
83.4604
 31
0.0
  0
LINE
  5
149
330
1E
100
AcDbEntity
  8
0
100
AcDbLine
 10
41.73663499999999
 20
85.83629999999999
 30
0.0
 11
42.59703499999999
 21
87.065
 31
0.0
  0
LINE
  5
14A
330
1E
100
AcDbEntity
  8
0
100
AcDbLine
 10
42.59703499999999
 20
87.065
 30
0.0
 11
44.14573499999999
 21
89.2767
 31
0.0
  0
LINE
  5
14B
330
1E
100
AcDbEntity
  8
0
100
AcDbLine
 10
42.59703499999999
 20
87.065
 30
0.0
 11
43.65737088800839
 21
88.5792667291975
 31
0.0
  0
LINE
  5
14C
330
1E
100
AcDbEntity
  8
0
100
AcDbLine
 10
42.59703499999999
 20
87.065
 30
0.0
 11
43.65737088800839
 21
88.5792667291975
 31
0.0
  0
LINE
  5
14D
330
1E
100
AcDbEntity
  8
0
100
AcDbLine
 10
42.59703499999999
 20
87.065
 30
0.0
 11
43.28533499999999
 21
88.04799999999998
 31
0.0
  0
LINE
  5
14E
330
1E
100
AcDbEntity
  8
0
100
AcDbLine
 10
43.28533499999999
 20
88.04799999999998
 30
0.0
 11
43.65737088800839
 21
88.5792667291975
 31
0.0
  0
LINE
  5
14F
330
1E
100
AcDbEntity
  8
0
100
AcDbLine
 10
43.937443252357
 20
88.97923834941421
 30
0.0
 11
44.14573499999999
 21
89.2767
 31
0.0
  0
LINE
  5
150
330
1E
100
AcDbEntity
  8
0
100
AcDbLine
 10
43.937443252357
 20
88.97923834941421
 30
0.0
 11
44.203035
 21
89.35859999999999
 31
0.0
  0
LINE
  5
151
330
1E
100
AcDbEntity
  8
0
100
AcDbLine
 10
44.203035
 20
89.35859999999999
 30
0.0
 11
44.317735
 21
89.52240000000001
 31
0.0
  0
LINE
  5
152
330
1E
100
AcDbEntity
  8
0
100
AcDbLine
 10
44.14573499999999
 20
89.2767
 30
0.0
 11
45.52223499999999
 21
91.2427
 31
0.0
  0
LINE
  5
153
330
1E
100
AcDbEntity
  8
0
100
AcDbLine
 10
43.063935
 20
86.86010000000001
 30
0.0
 11
44.72733499999999
 21
89.23569999999999
 31
0.0
  0
LINE
  5
154
330
1E
100
AcDbEntity
  8
0
100
AcDbLine
 10
41.285835
 20
84.32070000000001
 30
0.0
 11
43.063935
 21
86.86010000000001
 31
0.0
  0
LINE
  5
155
330
1E
100
AcDbEntity
  8
0
100
AcDbLine
 10
44.29273499999999
 20
85.9997
 30
0.0
 11
45.956035
 21
88.37529999999999
 31
0.0
  0
LINE
  5
156
330
1E
100
AcDbEntity
  8
0
100
AcDbLine
 10
42.51463499999999
 20
83.4604
 30
0.0
 11
44.29273499999999
 21
85.9997
 31
0.0
  0
LINE
  5
157
330
1E
100
AcDbEntity
  8
0
100
AcDbLine
 10
44.72733499999999
 20
89.23569999999999
 30
0.0
 11
46.16123499999999
 21
91.28350000000001
 31
0.0
  0
LINE
  5
158
330
1E
100
AcDbEntity
  8
0
100
AcDbLine
 10
44.64493499999999
 20
85.631
 30
0.0
 11
46.19353499999999
 21
87.8428
 31
0.0
  0
LINE
  5
159
330
1E
100
AcDbEntity
  8
0
100
AcDbLine
 10
42.92423499999999
 20
83.17359999999998
 30
0.0
 11
44.64493499999999
 21
85.631
 31
0.0
  0
LINE
  5
15A
330
1E
100
AcDbEntity
  8
0
100
AcDbLine
 10
45.52223499999999
 20
91.2427
 30
0.0
 11
46.612035
 21
92.79899999999999
 31
0.0
  0
LINE
  5
15B
330
1E
100
AcDbEntity
  8
0
100
AcDbLine
 10
46.16123499999999
 20
91.28350000000001
 30
0.0
 11
47.25103499999999
 21
92.83990000000001
 31
0.0
  0
LINE
  5
15C
330
1E
100
AcDbEntity
  8
0
100
AcDbLine
 10
45.956035
 20
88.37529999999999
 30
0.0
 11
47.39003499999999
 21
90.4232
 31
0.0
  0
LINE
  5
15D
330
1E
100
AcDbEntity
  8
0
100
AcDbLine
 10
47.570135
 20
89.80870000000001
 30
0.0
 11
48.659935
 21
91.36509999999999
 31
0.0
  0
LINE
  5
15E
330
1E
100
AcDbEntity
  8
0
100
AcDbLine
 10
47.39003499999999
 20
90.4232
 30
0.0
 11
48.47983499999999
 21
91.9796
 31
0.0
  0
LINE
  5
15F
330
1E
100
AcDbEntity
  8
0
100
AcDbLine
 10
46.612035
 20
92.79899999999999
 30
0.0
 11
47.243035
 21
93.7001
 31
0.0
  0
LINE
  5
160
330
1E
100
AcDbEntity
  8
0
100
AcDbLine
 10
47.47243499999999
 20
94.02779999999999
 30
0.0
 11
48.16883499999999
 21
94.1506
 31
0.0
  0
LINE
  5
161
330
1E
100
AcDbEntity
  8
0
100
AcDbLine
 10
47.243035
 20
93.7001
 30
0.0
 11
47.47243499999999
 21
94.02779999999999
 31
0.0
  0
LINE
  5
162
330
1E
100
AcDbEntity
  8
0
100
AcDbLine
 10
47.25103499999999
 20
92.83990000000001
 30
0.0
 11
47.939335
 21
93.82290000000001
 31
0.0
  0
LINE
  5
163
330
1E
100
AcDbEntity
  8
0
100
AcDbLine
 10
48.16883499999999
 20
94.1506
 30
0.0
 11
49.397535
 21
93.29019999999999
 31
0.0
  0
LINE
  5
164
330
1E
100
AcDbEntity
  8
0
100
AcDbLine
 10
47.939335
 20
93.82290000000001
 30
0.0
 11
48.16883499999999
 21
94.1506
 31
0.0
  0
LINE
  5
165
330
1E
100
AcDbEntity
  8
0
100
AcDbLine
 10
48.47983499999999
 20
91.9796
 30
0.0
 11
49.16813499999999
 21
92.9625
 31
0.0
  0
LINE
  5
166
330
1E
100
AcDbEntity
  8
0
100
AcDbLine
 10
48.659935
 20
91.36509999999999
 30
0.0
 11
49.290935
 21
92.2662
 31
0.0
  0
LINE
  5
167
330
1E
100
AcDbEntity
  8
0
100
AcDbLine
 10
48.20913499999999
 20
89.84959999999999
 30
0.0
 11
49.298935
 21
91.406
 31
0.0
  0
LINE
  5
168
330
1E
100
AcDbEntity
  8
0
100
AcDbLine
 10
46.19353499999999
 20
87.8428
 30
0.0
 11
47.570135
 21
89.80870000000001
 31
0.0
  0
LINE
  5
169
330
1E
100
AcDbEntity
  8
0
100
AcDbLine
 10
46.77523499999999
 20
87.8017
 30
0.0
 11
48.20913499999999
 21
89.84959999999999
 31
0.0
  0
LINE
  5
16A
330
1E
100
AcDbEntity
  8
0
100
AcDbLine
 10
45.111835
 20
85.42619999999999
 30
0.0
 11
46.77523499999999
 21
87.8017
 31
0.0
  0
LINE
  5
16B
330
1E
100
AcDbEntity
  8
0
100
AcDbLine
 10
43.33373499999999
 20
82.88679999999999
 30
0.0
 11
45.111835
 21
85.42619999999999
 31
0.0
  0
LINE
  5
16C
330
1E
100
AcDbEntity
  8
0
100
AcDbLine
 10
41.20343499999999
 20
80.71609999999999
 30
0.0
 11
42.92423499999999
 21
83.17359999999998
 31
0.0
  0
LINE
  5
16D
330
1E
100
AcDbEntity
  8
0
100
AcDbLine
 10
41.55563499999999
 20
80.34739999999999
 30
0.0
 11
43.33373499999999
 21
82.88679999999999
 31
0.0
  0
LINE
  5
16E
330
1E
100
AcDbEntity
  8
0
100
AcDbLine
 10
37.188435
 20
74.9821
 30
0.0
 11
38.27823499999999
 21
76.5385
 31
0.0
  0
LINE
  5
16F
330
1E
100
AcDbEntity
  8
0
100
AcDbLine
 10
37.36853499999999
 20
74.36759999999999
 30
0.0
 11
38.45833499999999
 21
75.92399999999999
 31
0.0
  0
LINE
  5
170
330
1E
100
AcDbEntity
  8
0
100
AcDbLine
 10
36.68023499999999
 20
73.38460000000001
 30
0.0
 11
37.36853499999999
 21
74.36759999999999
 31
0.0
  0
LINE
  5
171
330
1E
100
AcDbEntity
  8
0
100
AcDbLine
 10
36.450835
 20
73.057
 30
0.0
 11
36.68023499999999
 21
73.38460000000001
 31
0.0
  0
LINE
  5
172
330
1E
100
AcDbEntity
  8
0
100
AcDbLine
 10
36.450835
 20
73.057
 30
0.0
 11
46.28063499999999
 21
66.17409999999999
 31
0.0
  0
LINE
  5
173
330
1E
100
AcDbEntity
  8
0
100
AcDbLine
 10
49.188035
 20
59.8656
 30
0.0
 11
51.573335
 21
63.272
 31
0.0
  0
LINE
  5
174
330
1E
100
AcDbEntity
  8
0
100
AcDbLine
 10
49.49944730316879
 20
70.7709568070712
 30
0.0
 11
49.9549309760445
 21
71.42145571786321
 31
0.0
  0
LINE
  5
175
330
1E
100
AcDbEntity
  8
0
100
AcDbLine
 10
49.49944730316879
 20
70.7709568070712
 30
0.0
 11
49.9549309760445
 21
71.42145571786321
 31
0.0
  0
LINE
  5
176
330
1E
100
AcDbEntity
  8
0
100
AcDbLine
 10
49.16813499999999
 20
92.9625
 30
0.0
 11
49.397535
 21
93.29019999999999
 31
0.0
  0
LINE
  5
177
330
1E
100
AcDbEntity
  8
0
100
AcDbLine
 10
49.397535
 20
93.29019999999999
 30
0.0
 11
49.52033499999999
 21
92.5938
 31
0.0
  0
LINE
  5
178
330
1E
100
AcDbEntity
  8
0
100
AcDbLine
 10
49.52033499999999
 20
92.5938
 30
0.0
 11
50.21663499999999
 21
92.7166
 31
0.0
  0
LINE
  5
179
330
1E
100
AcDbEntity
  8
0
100
AcDbLine
 10
49.290935
 20
92.2662
 30
0.0
 11
49.52033499999999
 21
92.5938
 31
0.0
  0
LINE
  5
17A
330
1E
100
AcDbEntity
  8
0
100
AcDbLine
 10
49.298935
 20
91.406
 30
0.0
 11
49.987235
 21
92.38899999999999
 31
0.0
  0
LINE
  5
17B
330
1E
100
AcDbEntity
  8
0
100
AcDbLine
 10
50.21663499999999
 20
92.7166
 30
0.0
 11
60.04653499999999
 21
85.8337
 31
0.0
  0
LINE
  5
17C
330
1E
100
AcDbEntity
  8
0
100
AcDbLine
 10
49.987235
 20
92.38899999999999
 30
0.0
 11
50.21663499999999
 21
92.7166
 31
0.0
  0
LINE
  5
17D
330
1E
100
AcDbEntity
  8
0
100
AcDbLine
 10
49.72213499999999
 20
71.089
 30
0.0
 11
51.385535
 21
73.4645
 31
0.0
  0
LINE
  5
17E
330
1E
100
AcDbEntity
  8
0
100
AcDbLine
 10
49.474835
 20
60.2751
 30
0.0
 11
49.761635
 21
60.6847
 31
0.0
  0
LINE
  5
17F
330
1E
100
AcDbEntity
  8
0
100
AcDbLine
 10
49.474835
 20
60.2751
 30
0.0
 11
49.761635
 21
60.6847
 31
0.0
  0
LINE
  5
180
330
1E
100
AcDbEntity
  8
0
100
AcDbLine
 10
51.573335
 20
63.272
 30
0.0
 11
55.841535
 21
69.3677
 31
0.0
  0
LINE
  5
181
330
1E
100
AcDbEntity
  8
0
100
AcDbLine
 10
51.385535
 20
73.4645
 30
0.0
 11
53.163635
 21
76.0039
 31
0.0
  0
LINE
  5
182
330
1E
100
AcDbEntity
  8
0
100
AcDbLine
 10
51.77723499999999
 20
62.6916
 30
0.0
 11
53.784735
 21
65.5586
 31
0.0
  0
LINE
  5
183
330
1E
100
AcDbEntity
  8
0
100
AcDbLine
 10
50.62203499999999
 20
61.9134
 30
0.0
 11
51.50604652431971
 21
63.1759066517598
 31
0.0
  0
LINE
  5
184
330
1E
100
AcDbEntity
  8
0
100
AcDbLine
 10
50.62203499999999
 20
61.9134
 30
0.0
 11
51.50604652431971
 21
63.1759066517598
 31
0.0
  0
LINE
  5
185
330
1E
100
AcDbEntity
  8
0
100
AcDbLine
 10
50.28593499999999
 20
60.5618
 30
0.0
 11
51.77723499999999
 21
62.6916
 31
0.0
  0
LINE
  5
186
330
1E
100
AcDbEntity
  8
0
100
AcDbLine
 10
49.368235
 20
59.2511
 30
0.0
 11
50.28593499999999
 21
60.5618
 31
0.0
  0
LINE
  5
187
330
1E
100
AcDbEntity
  8
0
100
AcDbLine
 10
49.024035
 20
58.7596
 30
0.0
 11
49.96603499999999
 21
57.48969999999999
 31
0.0
  0
LINE
  5
188
330
1E
100
AcDbEntity
  8
0
100
AcDbLine
 10
49.024035
 20
58.7596
 30
0.0
 11
49.368235
 21
59.2511
 31
0.0
  0
LINE
  5
189
330
1E
100
AcDbEntity
  8
0
100
AcDbLine
 10
49.024035
 20
58.7596
 30
0.0
 11
49.474835
 21
60.2751
 31
0.0
  0
LINE
  5
18B
330
1E
100
AcDbEntity
  8
0
100
AcDbLine
 10
53.6885227097982
 20
76.75356245796479
 30
0.0
 11
57.694117317468
 21
82.47412195114549
 31
0.0
  0
LINE
  5
18C
330
1E
100
AcDbEntity
  8
0
100
AcDbLine
 10
53.6885227097982
 20
76.7535624579649
 30
0.0
 11
57.694117317468
 21
82.47412195114549
 31
0.0
  0
LINE
  5
18D
330
1E
100
AcDbEntity
  8
0
100
AcDbLine
 10
53.163635
 20
76.0039
 30
0.0
 11
54.94163499999999
 21
78.5433
 31
0.0
  0
LINE
  5
18E
330
1E
100
AcDbEntity
  8
0
100
AcDbLine
 10
53.784735
 20
65.5586
 30
0.0
 11
56.07903499999999
 21
68.8352
 31
0.0
  0
LINE
  5
18F
330
1E
100
AcDbEntity
  8
0
100
AcDbLine
 10
53.784735
 20
65.5586
 30
0.0
 11
56.07903499999999
 21
68.8352
 31
0.0
  0
LINE
  5
190
330
1E
100
AcDbEntity
  8
0
100
AcDbLine
 10
54.234735
 20
60.9708
 30
0.0
 11
56.242235
 21
63.8379
 31
0.0
  0
LINE
  5
191
330
1E
100
AcDbEntity
  8
0
100
AcDbLine
 10
52.743435
 20
58.841
 30
0.0
 11
54.234735
 21
60.9708
 31
0.0
  0
LINE
  5
192
330
1E
100
AcDbEntity
  8
0
100
AcDbLine
 10
52.46463499999999
 20
57.5713
 30
0.0
 11
54.42293499999999
 21
59.0743
 31
0.0
  0
LINE
  5
193
330
1E
100
AcDbEntity
  8
0
100
AcDbLine
 10
68.499835
 20
-0.0000000000000175
 30
0.0
 11
68.99983500000001
 21
1.49999999999998
 31
0.0
  0
LINE
  5
194
330
1E
100
AcDbEntity
  8
0
100
AcDbLine
 10
99.89983500000001
 20
-0.000000000000019
 30
0.0
 11
105.899835
 21
-0.0000000000000188
 31
0.0
  0
LINE
  5
195
330
1E
100
AcDbEntity
  8
0
100
AcDbLine
 10
93.499835
 20
-0.000000000000019
 30
0.0
 11
99.89983500000001
 21
-0.000000000000019
 31
0.0
  0
LINE
  5
196
330
1E
100
AcDbEntity
  8
0
100
AcDbLine
 10
75.89983499999999
 20
-0.0000000000000186
 30
0.0
 11
81.099835
 21
-0.0000000000000188
 31
0.0
  0
LINE
  5
197
330
1E
100
AcDbEntity
  8
0
100
AcDbLine
 10
111.099835
 20
-0.0000000000000186
 30
0.0
 11
115.199835
 21
-0.0000000000000183
 31
0.0
  0
LINE
  5
198
330
1E
100
AcDbEntity
  8
0
100
AcDbLine
 10
115.199835
 20
-0.0000000000000183
 30
0.0
 11
117.599835
 21
-0.0000000000000179
 31
0.0
  0
LINE
  5
199
330
1E
100
AcDbEntity
  8
0
100
AcDbLine
 10
117.599835
 20
-0.0000000000000179
 30
0.0
 11
118.499835
 21
-0.0000000000000175
 31
0.0
  0
LINE
  5
19A
330
1E
100
AcDbEntity
  8
0
100
AcDbLine
 10
105.899835
 20
-0.0000000000000188
 30
0.0
 11
111.099835
 21
-0.0000000000000186
 31
0.0
  0
LINE
  5
19B
330
1E
100
AcDbEntity
  8
0
100
AcDbLine
 10
81.099835
 20
-0.0000000000000188
 30
0.0
 11
87.09983499999999
 21
-0.000000000000019
 31
0.0
  0
LINE
  5
19C
330
1E
100
AcDbEntity
  8
0
100
AcDbLine
 10
87.09983499999999
 20
-0.000000000000019
 30
0.0
 11
93.499835
 21
-0.000000000000019
 31
0.0
  0
LINE
  5
19D
330
1E
100
AcDbEntity
  8
0
100
AcDbLine
 10
71.799835
 20
-0.0000000000000183
 30
0.0
 11
75.89983499999999
 21
-0.0000000000000186
 31
0.0
  0
LINE
  5
19E
330
1E
100
AcDbEntity
  8
0
100
AcDbLine
 10
71.799835
 20
-0.0000000000000167
 30
0.0
 11
75.89983499999999
 21
-0.0000000000000164
 31
0.0
  0
LINE
  5
19F
330
1E
100
AcDbEntity
  8
0
100
AcDbLine
 10
69.399835
 20
-0.0000000000000171
 30
0.0
 11
71.799835
 21
-0.0000000000000167
 31
0.0
  0
LINE
  5
1A0
330
1E
100
AcDbEntity
  8
0
100
AcDbLine
 10
75.89983499999999
 20
-0.0000000000000164
 30
0.0
 11
81.099835
 21
-0.0000000000000162
 31
0.0
  0
LINE
  5
1A1
330
1E
100
AcDbEntity
  8
0
100
AcDbLine
 10
81.099835
 20
-0.0000000000000162
 30
0.0
 11
87.09983499999999
 21
-0.000000000000016
 31
0.0
  0
LINE
  5
1A2
330
1E
100
AcDbEntity
  8
0
100
AcDbLine
 10
105.899835
 20
-0.0000000000000162
 30
0.0
 11
111.099835
 21
-0.0000000000000164
 31
0.0
  0
LINE
  5
1A3
330
1E
100
AcDbEntity
  8
0
100
AcDbLine
 10
99.89983500000001
 20
-0.000000000000016
 30
0.0
 11
105.899835
 21
-0.0000000000000162
 31
0.0
  0
LINE
  5
1A4
330
1E
100
AcDbEntity
  8
0
100
AcDbLine
 10
93.499835
 20
-0.000000000000016
 30
0.0
 11
99.89983500000001
 21
-0.000000000000016
 31
0.0
  0
LINE
  5
1A5
330
1E
100
AcDbEntity
  8
0
100
AcDbLine
 10
111.099835
 20
-0.0000000000000164
 30
0.0
 11
115.199835
 21
-0.0000000000000167
 31
0.0
  0
LINE
  5
1A6
330
1E
100
AcDbEntity
  8
0
100
AcDbLine
 10
115.199835
 20
-0.0000000000000167
 30
0.0
 11
117.599835
 21
-0.0000000000000171
 31
0.0
  0
LINE
  5
1A7
330
1E
100
AcDbEntity
  8
0
100
AcDbLine
 10
117.599835
 20
-0.0000000000000171
 30
0.0
 11
118.499835
 21
-0.0000000000000175
 31
0.0
  0
LINE
  5
1A8
330
1E
100
AcDbEntity
  8
0
100
AcDbLine
 10
87.09983499999999
 20
-0.000000000000016
 30
0.0
 11
93.499835
 21
-0.000000000000016
 31
0.0
  0
LINE
  5
1A9
330
1E
100
AcDbEntity
  8
0
100
AcDbLine
 10
116.9998349999999
 20
2.49999999999998
 30
0.0
 11
117.9998349999999
 21
1.49999999999998
 31
0.0
  0
LINE
  5
1AA
330
1E
100
AcDbEntity
  8
0
100
AcDbLine
 10
117.9998349999999
 20
1.49999999999998
 30
0.0
 11
118.499835
 21
-0.0000000000000175
 31
0.0
  0
LINE
  5
1AB
330
1E
100
AcDbEntity
  8
0
100
AcDbLine
 10
117.9998349999999
 20
1.49999999999998
 30
0.0
 11
118.499835
 21
-0.0000000000000175
 31
0.0
  0
LINE
  5
1AC
330
1E
100
AcDbEntity
  8
0
100
AcDbLine
 10
72.44733499999999
 20
46.4549
 30
0.0
 11
75.004435
 21
44.3802
 31
0.0
  0
LINE
  5
1AD
330
1E
100
AcDbEntity
  8
0
100
AcDbLine
 10
111.499835
 20
6.999999999999981
 30
0.0
 11
113.499835
 21
3.999999999999979
 31
0.0
  0
LINE
  5
1AE
330
1E
100
AcDbEntity
  8
0
100
AcDbLine
 10
113.499835
 20
3.999999999999979
 30
0.0
 11
116.9998349999999
 21
2.49999999999998
 31
0.0
  0
LINE
  5
1AF
330
1E
100
AcDbEntity
  8
0
100
AcDbLine
 10
75.004435
 20
44.3802
 30
0.0
 11
76.84143500000001
 21
41.7299
 31
0.0
  0
LINE
  5
1B0
330
1E
100
AcDbEntity
  8
0
100
AcDbLine
 10
75.999835
 20
14.0
 30
0.0
 11
75.999835
 21
13.5
 31
0.0
  0
LINE
  5
1B1
330
1E
100
AcDbEntity
  8
0
100
AcDbLine
 10
75.999835
 20
14.0
 30
0.0
 11
76.49983500000001
 21
15.0
 31
0.0
  0
LINE
  5
1B2
330
1E
100
AcDbEntity
  8
0
100
AcDbLine
 10
76.49983500000001
 20
15.0
 30
0.0
 11
77.499835
 21
15.5
 31
0.0
  0
LINE
  5
1B3
330
1E
100
AcDbEntity
  8
0
100
AcDbLine
 10
76.49983500000001
 20
15.0
 30
0.0
 11
77.09983499999999
 21
15.0
 31
0.0
  0
LINE
  5
1B4
330
1E
100
AcDbEntity
  8
0
100
AcDbLine
 10
75.999835
 20
13.5
 30
0.0
 11
76.49983500000001
 21
12.5
 31
0.0
  0
LINE
  5
1B5
330
1E
100
AcDbEntity
  8
0
100
AcDbLine
 10
75.999835
 20
13.5
 30
0.0
 11
75.999835
 21
14.0
 31
0.0
  0
LINE
  5
1B6
330
1E
100
AcDbEntity
  8
0
100
AcDbLine
 10
76.49983500000001
 20
12.5
 30
0.0
 11
76.69983499999999
 21
11.4
 31
0.0
  0
LINE
  5
1B7
330
1E
100
AcDbEntity
  8
0
100
AcDbLine
 10
77.09983499999999
 20
15.0
 30
0.0
 11
108.199835
 21
15.0
 31
0.0
  0
LINE
  5
1BB
330
1E
100
AcDbEntity
  8
0
100
AcDbLine
 10
108.199835
 20
15.0
 30
0.0
 11
109.899835
 21
15.0
 31
0.0
  0
LINE
  5
1BC
330
1E
100
AcDbEntity
  8
0
100
AcDbLine
 10
109.899835
 20
15.0
 30
0.0
 11
110.499835
 21
15.0
 31
0.0
  0
LINE
  5
1BE
330
1E
100
AcDbEntity
  8
0
100
AcDbLine
 10
109.499835
 20
15.5
 30
0.0
 11
110.499835
 21
15.0
 31
0.0
  0
LINE
  5
1BF
330
1E
100
AcDbEntity
  8
0
100
AcDbLine
 10
110.499835
 20
15.0
 30
0.0
 11
110.999835
 21
14.0
 31
0.0
  0
LINE
  5
1C0
330
1E
100
AcDbEntity
  8
0
100
AcDbLine
 10
110.499835
 20
12.5
 30
0.0
 11
110.999835
 21
13.5
 31
0.0
  0
LINE
  5
1C1
330
1E
100
AcDbEntity
  8
0
100
AcDbLine
 10
110.299835
 20
11.4
 30
0.0
 11
110.499835
 21
9.99999999999998
 31
0.0
  0
LINE
  5
1C2
330
1E
100
AcDbEntity
  8
0
100
AcDbLine
 10
110.299835
 20
11.4
 30
0.0
 11
110.499835
 21
12.5
 31
0.0
  0
LINE
  5
1C3
330
1E
100
AcDbEntity
  8
0
100
AcDbLine
 10
110.999835
 20
14.0
 30
0.0
 11
110.999835
 21
13.5
 31
0.0
  0
LINE
  5
1C4
330
1E
100
AcDbEntity
  8
0
100
AcDbLine
 10
110.999835
 20
13.5
 30
0.0
 11
110.999835
 21
14.0
 31
0.0
  0
LINE
  5
1C5
330
1E
100
AcDbEntity
  8
0
100
AcDbLine
 10
110.499835
 20
9.99999999999998
 30
0.0
 11
111.499835
 21
6.999999999999981
 31
0.0
  0
LINE
  5
1C6
330
1E
100
AcDbEntity
  8
0
100
AcDbLine
 10
76.84143500000001
 20
41.7299
 30
0.0
 11
78.07883499999999
 21
38.76189999999999
 31
0.0
  0
LINE
  5
1C8
330
1E
100
AcDbEntity
  8
0
100
AcDbLine
 10
77.999835
 20
16.0
 30
0.0
 11
108.999835
 21
16.0
 31
0.0
  0
LINE
  5
1CF
330
1E
100
AcDbEntity
  8
0
100
AcDbLine
 10
108.499835
 20
35.9850044534412
 30
0.0
 11
108.499835
 21
18.0
 31
0.0
  0
LINE
  5
1D0
330
1E
100
AcDbEntity
  8
0
100
AcDbLine
 10
78.499835
 20
35.9866898037628
 30
0.0
 11
78.499835
 21
18.0
 31
0.0
  0
LINE
  5
1D1
330
1E
100
AcDbEntity
  8
0
100
AcDbLine
 10
108.499835
 20
35.9850044534412
 30
0.0
 11
108.920835
 21
38.76189999999999
 31
0.0
  0
LINE
  5
1D2
330
1E
100
AcDbEntity
  8
0
100
AcDbLine
 10
78.07883499999999
 20
38.76189999999999
 30
0.0
 11
78.499835
 21
35.9866898037628
 31
0.0
  0
LINE
  5
1D3
330
1E
100
AcDbEntity
  8
0
100
AcDbLine
 10
78.499835
 20
18.0
 30
0.0
 11
78.499835
 21
35.9866898037628
 31
0.0
  0
LINE
  5
1D4
330
1E
100
AcDbEntity
  8
0
100
AcDbLine
 10
111.994835
 20
44.3802
 30
0.0
 11
114.551835
 21
46.4549
 31
0.0
  0
LINE
  5
1E0
330
1E
100
AcDbEntity
  8
0
100
AcDbLine
 10
110.157835
 20
41.7299
 30
0.0
 11
111.994835
 21
44.3802
 31
0.0
  0
LINE
  5
1E1
330
1E
100
AcDbEntity
  8
0
100
AcDbLine
 10
108.920835
 20
38.76189999999999
 30
0.0
 11
110.157835
 21
41.7299
 31
0.0
  0
LINE
  5
1E2
330
1E
100
AcDbEntity
  8
0
100
AcDbLine
 10
108.499835
 20
18.0
 30
0.0
 11
108.999835
 21
16.0
 31
0.0
  0
LINE
  5
1E3
330
1E
100
AcDbEntity
  8
0
100
AcDbLine
 10
108.499835
 20
18.0
 30
0.0
 11
108.499835
 21
35.9850044534412
 31
0.0
  0
LINE
  5
1E4
330
1E
100
AcDbEntity
  8
0
100
AcDbLine
 10
108.999835
 20
16.0
 30
0.0
 11
109.499835
 21
15.5
 31
0.0
  0
LINE
  5
1E5
330
1E
100
AcDbEntity
  8
0
100
AcDbLine
 10
77.999835
 20
16.0
 30
0.0
 11
78.499835
 21
18.0
 31
0.0
  0
LINE
  5
1E6
330
1E
100
AcDbEntity
  8
0
100
AcDbLine
 10
77.499835
 20
15.5
 30
0.0
 11
77.999835
 21
16.0
 31
0.0
  0
LINE
  5
1E7
330
1E
100
AcDbEntity
  8
0
100
AcDbLine
 10
76.49983500000001
 20
9.99999999999998
 30
0.0
 11
76.69983499999999
 21
11.4
 31
0.0
  0
LINE
  5
1E8
330
1E
100
AcDbEntity
  8
0
100
AcDbLine
 10
75.499835
 20
6.999999999999981
 30
0.0
 11
76.49983500000001
 21
9.99999999999998
 31
0.0
  0
LINE
  5
1E9
330
1E
100
AcDbEntity
  8
0
100
AcDbLine
 10
73.499835
 20
3.999999999999979
 30
0.0
 11
75.499835
 21
6.999999999999981
 31
0.0
  0
LINE
  5
1EA
330
1E
100
AcDbEntity
  8
0
100
AcDbLine
 10
69.999835
 20
2.49999999999998
 30
0.0
 11
73.499835
 21
3.999999999999979
 31
0.0
  0
LINE
  5
1EB
330
1E
100
AcDbEntity
  8
0
100
AcDbLine
 10
68.99983500000001
 20
1.49999999999998
 30
0.0
 11
69.999835
 21
2.49999999999998
 31
0.0
  0
LINE
  5
1EC
330
1E
100
AcDbEntity
  8
0
100
AcDbLine
 10
69.399835
 20
-0.0000000000000179
 30
0.0
 11
71.799835
 21
-0.0000000000000183
 31
0.0
  0
LINE
  5
1ED
330
1E
100
AcDbEntity
  8
0
100
AcDbLine
 10
68.499835
 20
-0.0000000000000175
 30
0.0
 11
69.399835
 21
-0.0000000000000179
 31
0.0
  0
LINE
  5
1EE
330
1E
100
AcDbEntity
  8
0
100
AcDbLine
 10
68.499835
 20
-0.0000000000000175
 30
0.0
 11
69.399835
 21
-0.0000000000000171
 31
0.0
  0
LINE
  5
1EF
330
1E
100
AcDbEntity
  8
0
100
AcDbLine
 10
68.499835
 20
-0.0000000000000175
 30
0.0
 11
68.99983500000001
 21
1.49999999999998
 31
0.0
  0
LINE
  5
1F0
330
1E
100
AcDbEntity
  8
0
100
AcDbLine
 10
54.94163499999999
 20
78.5433
 30
0.0
 11
56.605035
 21
80.91880000000001
 31
0.0
  0
LINE
  5
1F2
330
1E
100
AcDbEntity
  8
0
100
AcDbLine
 10
56.242235
 20
63.8379
 30
0.0
 11
58.536535
 21
67.11450000000001
 31
0.0
  0
LINE
  5
1F3
330
1E
100
AcDbEntity
  8
0
100
AcDbLine
 10
56.600235
 20
62.18379999999999
 30
0.0
 11
58.18103499999999
 21
64.4414
 31
0.0
  0
LINE
  5
20A
330
1E
100
AcDbEntity
  8
0
100
AcDbLine
 10
58.18103499999999
 20
64.4414
 30
0.0
 11
59.97063499999999
 21
66.99720000000001
 31
0.0
  0
LINE
  5
20C
330
1E
100
AcDbEntity
  8
0
100
AcDbLine
 10
55.54883499999999
 20
79.41030000000001
 30
0.0
 11
62.054035
 21
88.7007
 31
0.0
  0
LINE
  5
20D
330
1E
100
AcDbEntity
  8
0
100
AcDbLine
 10
55.841535
 20
69.3677
 30
0.0
 11
58.078535
 21
72.5624
 31
0.0
  0
LINE
  5
20E
330
1E
100
AcDbEntity
  8
0
100
AcDbLine
 10
56.68330907386461
 20
70.56985271961341
 30
0.0
 11
60.463735
 21
75.96890000000001
 31
0.0
  0
LINE
  5
20F
330
1E
100
AcDbEntity
  8
0
100
AcDbLine
 10
56.6833090738645
 20
70.56985271961329
 30
0.0
 11
60.463735
 21
75.96890000000001
 31
0.0
  0
LINE
  5
210
330
1E
100
AcDbEntity
  8
0
100
AcDbLine
 10
58.039035
 20
82.9667
 30
0.0
 11
59.12883499999999
 21
84.5231
 31
0.0
  0
LINE
  5
211
330
1E
100
AcDbEntity
  8
0
100
AcDbLine
 10
56.605035
 20
80.91880000000001
 30
0.0
 11
58.039035
 21
82.9667
 31
0.0
  0
LINE
  5
212
330
1E
100
AcDbEntity
  8
0
100
AcDbLine
 10
58.48803499999999
 20
72.2756
 30
0.0
 11
60.897135
 21
75.71609999999999
 31
0.0
  0
LINE
  5
213
330
1E
100
AcDbEntity
  8
0
100
AcDbLine
 10
58.48803499999999
 20
72.2756
 30
0.0
 11
60.897135
 21
75.71609999999999
 31
0.0
  0
LINE
  5
214
330
1E
100
AcDbEntity
  8
0
100
AcDbLine
 10
56.07903499999999
 20
68.8352
 30
0.0
 11
58.48803499999999
 21
72.2756
 31
0.0
  0
LINE
  5
216
330
1E
100
AcDbEntity
  8
0
100
AcDbLine
 10
60.4511740404391
 20
75.95096095929891
 30
0.0
 11
60.6255408216246
 21
76.1999795912494
 31
0.0
  0
LINE
  5
217
330
1E
100
AcDbEntity
  8
0
100
AcDbLine
 10
60.4511740404391
 20
75.95096095929891
 30
0.0
 11
60.6255408216246
 21
76.1999795912494
 31
0.0
  0
LINE
  5
218
330
1E
100
AcDbEntity
  8
0
100
AcDbLine
 10
60.463735
 20
75.96890000000001
 30
0.0
 11
61.13913827593449
 21
76.9334770452471
 31
0.0
  0
LINE
  5
219
330
1E
100
AcDbEntity
  8
0
100
AcDbLine
 10
60.315435
 20
75.75709999999999
 30
0.0
 11
62.380335
 21
78.7061
 31
0.0
  0
LINE
  5
21A
330
1E
100
AcDbEntity
  8
0
100
AcDbLine
 10
60.315435
 20
75.75709999999999
 30
0.0
 11
60.6255408216246
 21
76.1999795912494
 31
0.0
  0
LINE
  5
21B
330
1E
100
AcDbEntity
  8
0
100
AcDbLine
 10
60.897135
 20
75.71609999999999
 30
0.0
 11
63.191435
 21
78.9927
 31
0.0
  0
LINE
  5
21D
330
1E
100
AcDbEntity
  8
0
100
AcDbLine
 10
60.94553499999999
 20
70.5549
 30
0.0
 11
63.35453499999999
 21
73.9953
 31
0.0
  0
LINE
  5
21F
330
1E
100
AcDbEntity
  8
0
100
AcDbLine
 10
63.35453499999999
 20
73.9953
 30
0.0
 11
65.64883499999999
 21
77.27199999999999
 31
0.0
  0
LINE
  5
220
330
1E
100
AcDbEntity
  8
0
100
AcDbLine
 10
65.57793499999999
 20
75.0052
 30
0.0
 11
67.15863500000001
 21
77.2628
 31
0.0
  0
LINE
  5
221
330
1E
100
AcDbEntity
  8
0
100
AcDbLine
 10
63.78833499999999
 20
72.44939999999999
 30
0.0
 11
65.57793499999999
 21
75.0052
 31
0.0
  0
LINE
  5
222
330
1E
100
AcDbEntity
  8
0
100
AcDbLine
 10
61.879435
 20
69.72329999999999
 30
0.0
 11
63.78833499999999
 21
72.44939999999999
 31
0.0
  0
LINE
  5
223
330
1E
100
AcDbEntity
  8
0
100
AcDbLine
 10
62.5352892487991
 20
78.92738976096708
 30
0.0
 11
66.968935
 21
85.2593
 31
0.0
  0
LINE
  5
224
330
1E
100
AcDbEntity
  8
0
100
AcDbLine
 10
62.5352892487991
 20
78.92738976096708
 30
0.0
 11
66.968935
 21
85.2593
 31
0.0
  0
LINE
  5
225
330
1E
100
AcDbEntity
  8
0
100
AcDbLine
 10
62.380335
 20
78.7061
 30
0.0
 11
64.158435
 21
81.24540000000001
 31
0.0
  0
LINE
  5
226
330
1E
100
AcDbEntity
  8
0
100
AcDbLine
 10
63.191435
 20
78.9927
 30
0.0
 11
65.19893499999999
 21
81.85970000000001
 31
0.0
  0
LINE
  5
227
330
1E
100
AcDbEntity
  8
0
100
AcDbLine
 10
65.64883499999999
 20
77.27199999999999
 30
0.0
 11
67.65633499999999
 21
80.13899999999999
 31
0.0
  0
LINE
  5
228
330
1E
100
AcDbEntity
  8
0
100
AcDbLine
 10
67.15863500000001
 20
77.2628
 30
0.0
 11
68.35173499999999
 21
78.9666
 31
0.0
  0
LINE
  5
235
330
1E
100
AcDbEntity
  8
0
100
AcDbLine
 10
112.352835
 20
77.3719
 30
0.0
 11
113.955835
 21
77.78100000000001
 31
0.0
  0
LINE
  5
264
330
1E
100
AcDbEntity
  8
0
100
AcDbLine
 10
110.845835
 20
77.68429999999999
 30
0.0
 11
112.352835
 21
77.3719
 31
0.0
  0
LINE
  5
267
330
1E
100
AcDbEntity
  8
0
100
AcDbLine
 10
76.15413499999999
 20
77.68429999999999
 30
0.0
 11
77.420035
 21
78.54300000000001
 31
0.0
  0
LINE
  5
268
330
1E
100
AcDbEntity
  8
0
100
AcDbLine
 10
74.64683499999999
 20
77.3719
 30
0.0
 11
76.15413499999999
 21
77.68429999999999
 31
0.0
  0
LINE
  5
277
330
1E
100
AcDbEntity
  8
0
100
AcDbLine
 10
109.579835
 20
78.54300000000001
 30
0.0
 11
110.845835
 21
77.68429999999999
 31
0.0
  0
LINE
  5
278
330
1E
100
AcDbEntity
  8
0
100
AcDbLine
 10
108.798835
 20
79.834
 30
0.0
 11
109.579835
 21
78.54300000000001
 31
0.0
  0
LINE
  5
27B
330
1E
100
AcDbEntity
  8
0
100
AcDbLine
 10
78.201235
 20
79.834
 30
0.0
 11
78.499835
 21
80.9170629503024
 31
0.0
  0
LINE
  5
27C
330
1E
100
AcDbEntity
  8
0
100
AcDbLine
 10
77.420035
 20
78.54300000000001
 30
0.0
 11
78.201235
 21
79.834
 31
0.0
  0
LINE
  5
27D
330
1E
100
AcDbEntity
  8
0
100
AcDbLine
 10
73.043635
 20
77.78100000000001
 30
0.0
 11
74.64683499999999
 21
77.3719
 31
0.0
  0
LINE
  5
27E
330
1E
100
AcDbEntity
  8
0
100
AcDbLine
 10
68.35173499999999
 20
78.9666
 30
0.0
 11
69.06753499999999
 21
79.9889
 31
0.0
  0
LINE
  5
27F
330
1E
100
AcDbEntity
  8
0
100
AcDbLine
 10
63.68956833445829
 20
80.5758127305495
 30
0.0
 11
64.583735
 21
81.8528
 31
0.0
  0
LINE
  5
280
330
1E
100
AcDbEntity
  8
0
100
AcDbLine
 10
63.6895683344584
 20
80.5758127305495
 30
0.0
 11
64.583735
 21
81.8528
 31
0.0
  0
LINE
  5
281
330
1E
100
AcDbEntity
  8
0
100
AcDbLine
 10
64.583735
 20
81.8528
 30
0.0
 11
66.26560312238002
 21
84.25481398578209
 31
0.0
  0
LINE
  5
282
330
1E
100
AcDbEntity
  8
0
100
AcDbLine
 10
65.19893499999999
 20
81.85970000000001
 30
0.0
 11
66.690235
 21
83.98950000000001
 31
0.0
  0
LINE
  5
283
330
1E
100
AcDbEntity
  8
0
100
AcDbLine
 10
67.65633499999999
 20
80.13899999999999
 30
0.0
 11
69.14763499999999
 21
82.26879999999999
 31
0.0
  0
LINE
  5
284
330
1E
100
AcDbEntity
  8
0
100
AcDbLine
 10
59.12883499999999
 20
84.5231
 30
0.0
 11
59.817035
 21
85.5061
 31
0.0
  0
LINE
  5
285
330
1E
100
AcDbEntity
  8
0
100
AcDbLine
 10
59.1428537760057
 20
84.54312391283579
 30
0.0
 11
59.66883499999999
 21
85.29430000000001
 31
0.0
  0
LINE
  5
286
330
1E
100
AcDbEntity
  8
0
100
AcDbLine
 10
59.1428537760057
 20
84.54312391283579
 30
0.0
 11
59.66883499999999
 21
85.29430000000001
 31
0.0
  0
LINE
  5
287
330
1E
100
AcDbEntity
  8
0
100
AcDbLine
 10
59.66883499999999
 20
85.29430000000001
 30
0.0
 11
60.03412564885629
 21
85.81598625954381
 31
0.0
  0
LINE
  5
288
330
1E
100
AcDbEntity
  8
0
100
AcDbLine
 10
59.12883499999999
 20
84.5231
 30
0.0
 11
59.817035
 21
85.5061
 31
0.0
  0
LINE
  5
289
330
1E
100
AcDbEntity
  8
0
100
AcDbLine
 10
60.0465309814976
 20
85.833702813757
 30
0.0
 11
62.054035
 21
88.7007
 31
0.0
  0
LINE
  5
28A
330
1E
100
AcDbEntity
  8
0
100
AcDbLine
 10
62.054035
 20
88.7007
 30
0.0
 11
66.968935
 21
85.2593
 31
0.0
  0
LINE
  5
28B
330
1E
100
AcDbEntity
  8
0
100
AcDbLine
 10
59.817035
 20
85.5061
 30
0.0
 11
60.04653499999999
 21
85.8337
 31
0.0
  0
LINE
  5
28C
330
1E
100
AcDbEntity
  8
0
100
AcDbLine
 10
66.6821388350959
 20
84.8497028443125
 30
0.0
 11
67.952135
 21
85.79159999999999
 31
0.0
  0
LINE
  5
28D
330
1E
100
AcDbEntity
  8
0
100
AcDbLine
 10
66.6821388350959
 20
84.8497028443125
 30
0.0
 11
66.968935
 21
85.2593
 31
0.0
  0
LINE
  5
28E
330
1E
100
AcDbEntity
  8
0
100
AcDbLine
 10
66.690235
 20
83.98950000000001
 30
0.0
 11
67.607935
 21
85.3002
 31
0.0
  0
LINE
  5
28F
330
1E
100
AcDbEntity
  8
0
100
AcDbLine
 10
67.952135
 20
85.79159999999999
 30
0.0
 11
69.467635
 21
85.3409
 31
0.0
  0
LINE
  5
290
330
1E
100
AcDbEntity
  8
0
100
AcDbLine
 10
67.607935
 20
85.3002
 30
0.0
 11
67.952135
 21
85.79159999999999
 31
0.0
  0
LINE
  5
293
330
1E
100
AcDbEntity
  8
0
100
AcDbLine
 10
69.14763499999999
 20
82.26879999999999
 30
0.0
 11
70.06543499999999
 21
83.57940000000001
 31
0.0
  0
LINE
  5
299
330
1E
100
AcDbEntity
  8
0
100
AcDbLine
 10
108.499835
 20
80.9165212598425
 30
0.0
 11
108.798835
 21
79.834
 31
0.0
  0
LINE
  5
29A
330
1E
100
AcDbEntity
  8
0
100
AcDbLine
 10
108.499835
 20
80.9165212598425
 30
0.0
 11
108.499835
 21
91.5
 31
0.0
  0
LINE
  5
2B4
330
1E
100
AcDbEntity
  8
0
100
AcDbLine
 10
78.499835
 20
80.9170629503024
 30
0.0
 11
78.499835
 21
91.5
 31
0.0
  0
LINE
  5
2B5
330
1E
100
AcDbEntity
  8
0
100
AcDbLine
 10
70.245535
 20
82.96499999999999
 30
0.0
 11
70.40953499999999
 21
84.0709
 31
0.0
  0
LINE
  5
2B6
330
1E
100
AcDbEntity
  8
0
100
AcDbLine
 10
78.499835
 20
91.5
 30
0.0
 11
78.499835
 21
80.9170629503024
 31
0.0
  0
LINE
  5
2B7
330
1E
100
AcDbEntity
  8
0
100
AcDbLine
 10
82.599835
 20
93.0
 30
0.0
 11
85.799835
 21
93.0
 31
0.0
  0
LINE
  5
2B8
330
1E
100
AcDbEntity
  8
0
100
AcDbLine
 10
104.399835
 20
93.0
 30
0.0
 11
106.899835
 21
93.0
 31
0.0
  0
LINE
  5
2B9
330
1E
100
AcDbEntity
  8
0
100
AcDbLine
 10
106.899835
 20
93.0
 30
0.0
 11
108.399835
 21
93.0
 31
0.0
  0
LINE
  5
2BA
330
1E
100
AcDbEntity
  8
0
100
AcDbLine
 10
108.399835
 20
93.0
 30
0.0
 11
108.999835
 21
93.0
 31
0.0
  0
LINE
  5
2BB
330
1E
100
AcDbEntity
  8
0
100
AcDbLine
 10
101.199835
 20
93.0
 30
0.0
 11
104.399835
 21
93.0
 31
0.0
  0
LINE
  5
2BC
330
1E
100
AcDbEntity
  8
0
100
AcDbLine
 10
97.499835
 20
93.0
 30
0.0
 11
101.199835
 21
93.0
 31
0.0
  0
LINE
  5
2BD
330
1E
100
AcDbEntity
  8
0
100
AcDbLine
 10
93.499835
 20
93.0
 30
0.0
 11
97.499835
 21
93.0
 31
0.0
  0
LINE
  5
2BE
330
1E
100
AcDbEntity
  8
0
100
AcDbLine
 10
85.799835
 20
93.0
 30
0.0
 11
89.499835
 21
93.0
 31
0.0
  0
LINE
  5
2BF
330
1E
100
AcDbEntity
  8
0
100
AcDbLine
 10
89.499835
 20
93.0
 30
0.0
 11
93.499835
 21
93.0
 31
0.0
  0
LINE
  5
2C0
330
1E
100
AcDbEntity
  8
0
100
AcDbLine
 10
80.099835
 20
93.0
 30
0.0
 11
82.599835
 21
93.0
 31
0.0
  0
LINE
  5
2C1
330
1E
100
AcDbEntity
  8
0
100
AcDbLine
 10
78.599835
 20
93.0
 30
0.0
 11
80.099835
 21
93.0
 31
0.0
  0
LINE
  5
325
330
1E
100
AcDbEntity
  8
0
100
AcDbLine
 10
108.999835
 20
93.0
 30
0.0
 11
109.999835
 21
93.49999999999999
 31
0.0
  0
LINE
  5
326
330
1E
100
AcDbEntity
  8
0
100
AcDbLine
 10
108.499835
 20
91.5
 30
0.0
 11
108.999835
 21
93.0
 31
0.0
  0
LINE
  5
327
330
1E
100
AcDbEntity
  8
0
100
AcDbLine
 10
108.499835
 20
91.5
 30
0.0
 11
108.499835
 21
80.9165212598425
 31
0.0
  0
LINE
  5
328
330
1E
100
AcDbEntity
  8
0
100
AcDbLine
 10
76.999835
 20
96.5
 30
0.0
 11
78.499835
 21
97.0
 31
0.0
  0
LINE
  5
329
330
1E
100
AcDbEntity
  8
0
100
AcDbLine
 10
76.999835
 20
96.5
 30
0.0
 11
77.599835
 21
96.5
 31
0.0
  0
LINE
  5
32A
330
1E
100
AcDbEntity
  8
0
100
AcDbLine
 10
76.49983500000001
 20
95.0
 30
0.0
 11
76.999835
 21
93.49999999999999
 31
0.0
  0
LINE
  5
32B
330
1E
100
AcDbEntity
  8
0
100
AcDbLine
 10
76.49983500000001
 20
95.0
 30
0.0
 11
76.999835
 21
96.5
 31
0.0
  0
LINE
  5
32D
330
1E
100
AcDbEntity
  8
0
100
AcDbLine
 10
81.799835
 20
93.49999999999999
 30
0.0
 11
85.299835
 21
93.49999999999999
 31
0.0
  0
LINE
  5
32E
330
1E
100
AcDbEntity
  8
0
100
AcDbLine
 10
85.299835
 20
93.49999999999999
 30
0.0
 11
89.299835
 21
93.49999999999999
 31
0.0
  0
LINE
  5
32F
330
1E
100
AcDbEntity
  8
0
100
AcDbLine
 10
105.199835
 20
93.49999999999999
 30
0.0
 11
107.799835
 21
93.49999999999999
 31
0.0
  0
LINE
  5
330
330
1E
100
AcDbEntity
  8
0
100
AcDbLine
 10
107.799835
 20
93.49999999999999
 30
0.0
 11
109.399835
 21
93.49999999999999
 31
0.0
  0
LINE
  5
337
330
1E
100
AcDbEntity
  8
0
100
AcDbLine
 10
109.399835
 20
93.49999999999999
 30
0.0
 11
109.999835
 21
93.49999999999999
 31
0.0
  0
LINE
  5
338
330
1E
100
AcDbEntity
  8
0
100
AcDbLine
 10
101.6998349999999
 20
93.49999999999999
 30
0.0
 11
105.199835
 21
93.49999999999999
 31
0.0
  0
LINE
  5
339
330
1E
100
AcDbEntity
  8
0
100
AcDbLine
 10
97.699835
 20
93.49999999999999
 30
0.0
 11
101.6998349999999
 21
93.49999999999999
 31
0.0
  0
LINE
  5
33A
330
1E
100
AcDbEntity
  8
0
100
AcDbLine
 10
93.499835
 20
93.49999999999999
 30
0.0
 11
97.699835
 21
93.49999999999999
 31
0.0
  0
LINE
  5
33B
330
1E
100
AcDbEntity
  8
0
100
AcDbLine
 10
89.299835
 20
93.49999999999999
 30
0.0
 11
93.499835
 21
93.49999999999999
 31
0.0
  0
LINE
  5
33C
330
1E
100
AcDbEntity
  8
0
100
AcDbLine
 10
79.19983499999999
 20
93.49999999999999
 30
0.0
 11
81.799835
 21
93.49999999999999
 31
0.0
  0
LINE
  5
33D
330
1E
100
AcDbEntity
  8
0
100
AcDbLine
 10
77.599835
 20
93.49999999999999
 30
0.0
 11
79.19983499999999
 21
93.49999999999999
 31
0.0
  0
LINE
  5
343
330
1E
100
AcDbEntity
  8
0
100
AcDbLine
 10
81.799835
 20
96.5
 30
0.0
 11
85.299835
 21
96.5
 31
0.0
  0
LINE
  5
344
330
1E
100
AcDbEntity
  8
0
100
AcDbLine
 10
85.299835
 20
96.5
 30
0.0
 11
89.299835
 21
96.5
 31
0.0
  0
LINE
  5
345
330
1E
100
AcDbEntity
  8
0
100
AcDbLine
 10
105.199835
 20
96.5
 30
0.0
 11
107.799835
 21
96.5
 31
0.0
  0
LINE
  5
346
330
1E
100
AcDbEntity
  8
0
100
AcDbLine
 10
107.799835
 20
96.5
 30
0.0
 11
109.399835
 21
96.5
 31
0.0
  0
LINE
  5
347
330
1E
100
AcDbEntity
  8
0
100
AcDbLine
 10
109.399835
 20
96.5
 30
0.0
 11
109.999835
 21
96.5
 31
0.0
  0
LINE
  5
348
330
1E
100
AcDbEntity
  8
0
100
AcDbLine
 10
101.6998349999999
 20
96.5
 30
0.0
 11
105.199835
 21
96.5
 31
0.0
  0
LINE
  5
349
330
1E
100
AcDbEntity
  8
0
100
AcDbLine
 10
97.699835
 20
96.5
 30
0.0
 11
101.6998349999999
 21
96.5
 31
0.0
  0
LINE
  5
34A
330
1E
100
AcDbEntity
  8
0
100
AcDbLine
 10
93.499835
 20
96.5
 30
0.0
 11
97.699835
 21
96.5
 31
0.0
  0
LINE
  5
34B
330
1E
100
AcDbEntity
  8
0
100
AcDbLine
 10
89.299835
 20
96.5
 30
0.0
 11
93.499835
 21
96.5
 31
0.0
  0
LINE
  5
34D
330
1E
100
AcDbEntity
  8
0
100
AcDbLine
 10
79.19983499999999
 20
96.5
 30
0.0
 11
81.799835
 21
96.5
 31
0.0
  0
LINE
  5
34E
330
1E
100
AcDbEntity
  8
0
100
AcDbLine
 10
80.999835
 20
97.0
 30
0.0
 11
81.568035
 21
98.50000000000001
 31
0.0
  0
LINE
  5
34F
330
1E
100
AcDbEntity
  8
0
100
AcDbLine
 10
104.0998349999999
 20
97.0
 30
0.0
 11
106.4998349999999
 21
97.0
 31
0.0
  0
LINE
  5
350
330
1E
100
AcDbEntity
  8
0
100
AcDbLine
 10
106.4998349999999
 20
97.0
 30
0.0
 11
107.999835
 21
97.0
 31
0.0
  0
LINE
  5
351
330
1E
100
AcDbEntity
  8
0
100
AcDbLine
 10
107.999835
 20
97.0
 30
0.0
 11
108.499835
 21
97.0
 31
0.0
  0
LINE
  5
352
330
1E
100
AcDbEntity
  8
0
100
AcDbLine
 10
100.999835
 20
97.0
 30
0.0
 11
104.0998349999999
 21
97.0
 31
0.0
  0
LINE
  5
353
330
1E
100
AcDbEntity
  8
0
100
AcDbLine
 10
97.39983500000001
 20
97.0
 30
0.0
 11
100.999835
 21
97.0
 31
0.0
  0
LINE
  5
354
330
1E
100
AcDbEntity
  8
0
100
AcDbLine
 10
89.59983499999999
 20
97.0
 30
0.0
 11
97.39983500000001
 21
97.0
 31
0.0
  0
LINE
  5
355
330
1E
100
AcDbEntity
  8
0
100
AcDbLine
 10
82.89983499999999
 20
97.0
 30
0.0
 11
89.59983499999999
 21
97.0
 31
0.0
  0
LINE
  5
356
330
1E
100
AcDbEntity
  8
0
100
AcDbLine
 10
80.49983500000001
 20
97.0
 30
0.0
 11
82.89983499999999
 21
97.0
 31
0.0
  0
LINE
  5
357
330
1E
100
AcDbEntity
  8
0
100
AcDbLine
 10
78.99983500000001
 20
97.0
 30
0.0
 11
80.49983500000001
 21
97.0
 31
0.0
  0
LINE
  5
358
330
1E
100
AcDbEntity
  8
0
100
AcDbLine
 10
78.499835
 20
97.0
 30
0.0
 11
78.99983500000001
 21
97.0
 31
0.0
  0
LINE
  5
359
330
1E
100
AcDbEntity
  8
0
100
AcDbLine
 10
77.599835
 20
96.5
 30
0.0
 11
79.19983499999999
 21
96.5
 31
0.0
  0
LINE
  5
35B
330
1E
100
AcDbEntity
  8
0
100
AcDbLine
 10
80.49983500000001
 20
168.6699999999999
 30
0.0
 11
80.49983500000001
 21
168.1709999999999
 31
0.0
  0
LINE
  5
35C
330
1E
100
AcDbEntity
  8
0
100
AcDbLine
 10
80.49983500000001
 20
168.6699999999999
 30
0.0
 11
80.999835
 21
170.167
 31
0.0
  0
LINE
  5
35D
330
1E
100
AcDbEntity
  8
0
100
AcDbLine
 10
80.999835
 20
170.167
 30
0.0
 11
82.99983500000001
 21
171.6629999999999
 31
0.0
  0
LINE
  5
35E
330
1E
100
AcDbEntity
  8
0
100
AcDbLine
 10
80.49983500000001
 20
168.1709999999999
 30
0.0
 11
80.999835
 21
167.173
 31
0.0
  0
LINE
  5
35F
330
1E
100
AcDbEntity
  8
0
100
AcDbLine
 10
80.49983500000001
 20
168.1709999999999
 30
0.0
 11
80.49983500000001
 21
168.6699999999999
 31
0.0
  0
LINE
  5
360
330
1E
100
AcDbEntity
  8
0
100
AcDbLine
 10
80.999835
 20
167.173
 30
0.0
 11
81.49983500000001
 21
166.674
 31
0.0
  0
LINE
  5
361
330
1E
100
AcDbEntity
  8
0
100
AcDbLine
 10
81.49983500000001
 20
166.674
 30
0.0
 11
81.49983500000001
 21
160.6579999999999
 31
0.0
  0
LINE
  5
362
330
1E
100
AcDbEntity
  8
0
100
AcDbLine
 10
81.49983500000001
 20
166.674
 30
0.0
 11
81.899835
 21
166.882
 31
0.0
  0
LINE
  5
363
330
1E
100
AcDbEntity
  8
0
100
AcDbLine
 10
81.49983500000001
 20
160.6579999999999
 30
0.0
 11
81.899835
 21
160.866
 31
0.0
  0
LINE
  5
364
330
1E
100
AcDbEntity
  8
0
100
AcDbLine
 10
81.49983500000001
 20
160.6579999999999
 30
0.0
 11
82.499835
 21
159.66
 31
0.0
  0
LINE
  5
365
330
1E
100
AcDbEntity
  8
0
100
AcDbLine
 10
81.49983500000001
 20
160.6579999999999
 30
0.0
 11
81.49983500000001
 21
166.674
 31
0.0
  0
LINE
  5
366
330
1E
100
AcDbEntity
  8
0
100
AcDbLine
 10
85.09073499999999
 20
98.50000000000001
 30
0.0
 11
87.59073499999999
 21
98.50000000000001
 31
0.0
  0
LINE
  5
367
330
1E
100
AcDbEntity
  8
0
100
AcDbLine
 10
101.908835
 20
98.50000000000001
 30
0.0
 11
103.840835
 21
98.50000000000001
 31
0.0
  0
LINE
  5
368
330
1E
100
AcDbEntity
  8
0
100
AcDbLine
 10
103.840835
 20
98.50000000000001
 30
0.0
 11
104.976835
 21
98.50000000000001
 31
0.0
  0
LINE
  5
369
330
1E
100
AcDbEntity
  8
0
100
AcDbLine
 10
104.976835
 20
98.50000000000001
 30
0.0
 11
105.431835
 21
98.50000000000001
 31
0.0
  0
LINE
  5
36A
330
1E
100
AcDbEntity
  8
0
100
AcDbLine
 10
105.431835
 20
98.50000000000001
 30
0.0
 11
105.999835
 21
97.0
 31
0.0
  0
LINE
  5
36B
330
1E
100
AcDbEntity
  8
0
100
AcDbLine
 10
99.40883499999999
 20
98.50000000000001
 30
0.0
 11
101.908835
 21
98.50000000000001
 31
0.0
  0
LINE
  5
36C
330
1E
100
AcDbEntity
  8
0
100
AcDbLine
 10
96.56783500000001
 20
98.50000000000001
 30
0.0
 11
99.40883499999999
 21
98.50000000000001
 31
0.0
  0
LINE
  5
36D
330
1E
100
AcDbEntity
  8
0
100
AcDbLine
 10
93.499835
 20
98.50000000000001
 30
0.0
 11
96.56783500000001
 21
98.50000000000001
 31
0.0
  0
LINE
  5
36E
330
1E
100
AcDbEntity
  8
0
100
AcDbLine
 10
87.59073499999999
 20
98.50000000000001
 30
0.0
 11
90.431635
 21
98.50000000000001
 31
0.0
  0
LINE
  5
36F
330
1E
100
AcDbEntity
  8
0
100
AcDbLine
 10
90.431635
 20
98.50000000000001
 30
0.0
 11
93.499835
 21
98.50000000000001
 31
0.0
  0
LINE
  5
370
330
1E
100
AcDbEntity
  8
0
100
AcDbLine
 10
83.15893499999999
 20
98.50000000000001
 30
0.0
 11
85.09073499999999
 21
98.50000000000001
 31
0.0
  0
LINE
  5
371
330
1E
100
AcDbEntity
  8
0
100
AcDbLine
 10
82.99983500000001
 20
98.92000586682311
 30
0.0
 11
82.99983500000001
 21
159.459272727273
 31
0.0
  0
LINE
  5
372
330
1E
100
AcDbEntity
  8
0
100
AcDbLine
 10
93.499835
 20
158.923
 30
0.0
 11
96.29983500000001
 21
158.9499999999999
 31
0.0
  0
LINE
  5
373
330
1E
100
AcDbEntity
  8
0
100
AcDbLine
 10
96.29983500000001
 20
158.9499999999999
 30
0.0
 11
98.99983500000001
 21
159.024
 31
0.0
  0
LINE
  5
374
330
1E
100
AcDbEntity
  8
0
100
AcDbLine
 10
98.99983500000001
 20
159.024
 30
0.0
 11
101.2998349999999
 21
159.138
 31
0.0
  0
LINE
  5
375
330
1E
100
AcDbEntity
  8
0
100
AcDbLine
 10
90.69983499999999
 20
158.9499999999999
 30
0.0
 11
93.499835
 21
158.923
 31
0.0
  0
LINE
  5
376
330
1E
100
AcDbEntity
  8
0
100
AcDbLine
 10
101.2998349999999
 20
159.138
 30
0.0
 11
102.999835
 21
159.292
 31
0.0
  0
LINE
  5
377
330
1E
100
AcDbEntity
  8
0
100
AcDbLine
 10
102.999835
 20
159.292
 30
0.0
 11
104.0998349999999
 21
159.4759999999999
 31
0.0
  0
LINE
  5
378
330
1E
100
AcDbEntity
  8
0
100
AcDbLine
 10
87.99983500000001
 20
159.024
 30
0.0
 11
90.69983499999999
 21
158.9499999999999
 31
0.0
  0
LINE
  5
379
330
1E
100
AcDbEntity
  8
0
100
AcDbLine
 10
85.69983499999999
 20
159.138
 30
0.0
 11
87.99983500000001
 21
159.024
 31
0.0
  0
LINE
  5
37A
330
1E
100
AcDbEntity
  8
0
100
AcDbLine
 10
103.999835
 20
159.459272727273
 30
0.0
 11
103.999835
 21
98.91994134897359
 31
0.0
  0
LINE
  5
37B
330
1E
100
AcDbEntity
  8
0
100
AcDbLine
 10
82.99983500000001
 20
159.459272727273
 30
0.0
 11
82.99983500000001
 21
98.92000586682311
 31
0.0
  0
LINE
  5
37C
330
1E
100
AcDbEntity
  8
0
100
AcDbLine
 10
83.99983500000001
 20
159.292
 30
0.0
 11
85.69983499999999
 21
159.138
 31
0.0
  0
LINE
  5
37D
330
1E
100
AcDbEntity
  8
0
100
AcDbLine
 10
82.89983499999999
 20
159.4759999999999
 30
0.0
 11
83.99983500000001
 21
159.292
 31
0.0
  0
LINE
  5
37E
330
1E
100
AcDbEntity
  8
0
100
AcDbLine
 10
81.899835
 20
166.882
 30
0.0
 11
83.09983499999999
 21
167.077
 31
0.0
  0
LINE
  5
37F
330
1E
100
AcDbEntity
  8
0
100
AcDbLine
 10
81.899835
 20
160.866
 30
0.0
 11
83.09983499999999
 21
161.0599999999999
 31
0.0
  0
LINE
  5
380
330
1E
100
AcDbEntity
  8
0
100
AcDbLine
 10
102.999835
 20
160.029
 30
0.0
 11
104.0998349999999
 21
159.8449999999999
 31
0.0
  0
LINE
  5
381
330
1E
100
AcDbEntity
  8
0
100
AcDbLine
 10
82.99983500000001
 20
189.141
 30
0.0
 11
82.99983500000001
 21
196.387
 31
0.0
  0
LINE
  5
382
330
1E
100
AcDbEntity
  8
0
100
AcDbLine
 10
82.99983500000001
 20
189.141
 30
0.0
 11
82.99983500000001
 21
181.6359999999999
 31
0.0
  0
LINE
  5
383
330
1E
100
AcDbEntity
  8
0
100
AcDbLine
 10
82.99983500000001
 20
220.4109999999999
 30
0.0
 11
82.99983500000001
 21
215.3659999999999
 31
0.0
  0
LINE
  5
384
330
1E
100
AcDbEntity
  8
0
100
AcDbLine
 10
82.99983500000001
 20
220.4109999999999
 30
0.0
 11
82.99983500000001
 21
224.662
 31
0.0
  0
LINE
  5
385
330
1E
100
AcDbEntity
  8
0
100
AcDbLine
 10
82.99983500000001
 20
209.613
 30
0.0
 11
82.99983500000001
 21
215.3659999999999
 31
0.0
  0
LINE
  5
386
330
1E
100
AcDbEntity
  8
0
100
AcDbLine
 10
82.99983500000001
 20
209.613
 30
0.0
 11
82.99983500000001
 21
203.25
 31
0.0
  0
LINE
  5
387
330
1E
100
AcDbEntity
  8
0
100
AcDbLine
 10
82.99983500000001
 20
209.613
 30
0.0
 11
82.99983500000001
 21
215.3659999999999
 31
0.0
  0
LINE
  5
388
330
1E
100
AcDbEntity
  8
0
100
AcDbLine
 10
82.99983500000001
 20
209.613
 30
0.0
 11
82.99983500000001
 21
203.25
 31
0.0
  0
LINE
  5
389
330
1E
100
AcDbEntity
  8
0
100
AcDbLine
 10
82.99983500000001
 20
203.25
 30
0.0
 11
82.99983500000001
 21
209.613
 31
0.0
  0
LINE
  5
38A
330
1E
100
AcDbEntity
  8
0
100
AcDbLine
 10
82.99983500000001
 20
203.25
 30
0.0
 11
82.99983500000001
 21
196.387
 31
0.0
  0
LINE
  5
38B
330
1E
100
AcDbEntity
  8
0
100
AcDbLine
 10
82.99983500000001
 20
203.25
 30
0.0
 11
82.99983500000001
 21
209.613
 31
0.0
  0
LINE
  5
38C
330
1E
100
AcDbEntity
  8
0
100
AcDbLine
 10
82.99983500000001
 20
196.387
 30
0.0
 11
82.99983500000001
 21
203.25
 31
0.0
  0
LINE
  5
38D
330
1E
100
AcDbEntity
  8
0
100
AcDbLine
 10
82.99983500000001
 20
196.387
 30
0.0
 11
82.99983500000001
 21
189.141
 31
0.0
  0
LINE
  5
38E
330
1E
100
AcDbEntity
  8
0
100
AcDbLine
 10
82.99983500000001
 20
196.387
 30
0.0
 11
82.99983500000001
 21
189.141
 31
0.0
  0
LINE
  5
38F
330
1E
100
AcDbEntity
  8
0
100
AcDbLine
 10
82.99983500000001
 20
189.141
 30
0.0
 11
82.99983500000001
 21
196.387
 31
0.0
  0
LINE
  5
390
330
1E
100
AcDbEntity
  8
0
100
AcDbLine
 10
82.99983500000001
 20
189.141
 30
0.0
 11
82.99983500000001
 21
181.6359999999999
 31
0.0
  0
LINE
  5
391
330
1E
100
AcDbEntity
  8
0
100
AcDbLine
 10
82.99983500000001
 20
181.6359999999999
 30
0.0
 11
82.99983500000001
 21
189.141
 31
0.0
  0
LINE
  5
392
330
1E
100
AcDbEntity
  8
0
100
AcDbLine
 10
82.99983500000001
 20
181.6359999999999
 30
0.0
 11
82.99983500000001
 21
171.6629999999999
 31
0.0
  0
LINE
  5
393
330
1E
100
AcDbEntity
  8
0
100
AcDbLine
 10
82.99983500000001
 20
181.6359999999999
 30
0.0
 11
82.99983500000001
 21
189.141
 31
0.0
  0
LINE
  5
394
330
1E
100
AcDbEntity
  8
0
100
AcDbLine
 10
82.99983500000001
 20
181.6359999999999
 30
0.0
 11
82.99983500000001
 21
174.0
 31
0.0
  0
LINE
  5
395
330
1E
100
AcDbEntity
  8
0
100
AcDbLine
 10
82.99983500000001
 20
224.662
 30
0.0
 11
82.99983500000001
 21
220.4109999999999
 31
0.0
  0
LINE
  5
396
330
1E
100
AcDbEntity
  8
0
100
AcDbLine
 10
82.99983500000001
 20
224.662
 30
0.0
 11
82.99983500000001
 21
228.047
 31
0.0
  0
LINE
  5
397
330
1E
100
AcDbEntity
  8
0
100
AcDbLine
 10
82.99983500000001
 20
232.5
 30
0.0
 11
82.99983500000001
 21
232.0
 31
0.0
  0
LINE
  5
398
330
1E
100
AcDbEntity
  8
0
100
AcDbLine
 10
82.99983500000001
 20
232.5
 30
0.0
 11
83.399835
 21
235.1999999999999
 31
0.0
  0
LINE
  5
399
330
1E
100
AcDbEntity
  8
0
100
AcDbLine
 10
82.99983500000001
 20
230.507
 30
0.0
 11
82.99983500000001
 21
232.0
 31
0.0
  0
LINE
  5
39A
330
1E
100
AcDbEntity
  8
0
100
AcDbLine
 10
82.99983500000001
 20
230.507
 30
0.0
 11
82.99983500000001
 21
228.047
 31
0.0
  0
LINE
  5
39B
330
1E
100
AcDbEntity
  8
0
100
AcDbLine
 10
82.99983500000001
 20
232.0
 30
0.0
 11
82.99983500000001
 21
230.507
 31
0.0
  0
LINE
  5
39C
330
1E
100
AcDbEntity
  8
0
100
AcDbLine
 10
82.99983500000001
 20
232.0
 30
0.0
 11
82.99983500000001
 21
232.5
 31
0.0
  0
LINE
  5
39D
330
1E
100
AcDbEntity
  8
0
100
AcDbLine
 10
82.99983500000001
 20
224.662
 30
0.0
 11
82.99983500000001
 21
228.047
 31
0.0
  0
LINE
  5
39E
330
1E
100
AcDbEntity
  8
0
100
AcDbLine
 10
82.99983500000001
 20
224.662
 30
0.0
 11
82.99983500000001
 21
220.4109999999999
 31
0.0
  0
LINE
  5
39F
330
1E
100
AcDbEntity
  8
0
100
AcDbLine
 10
82.99983500000001
 20
228.047
 30
0.0
 11
82.99983500000001
 21
224.662
 31
0.0
  0
LINE
  5
3A0
330
1E
100
AcDbEntity
  8
0
100
AcDbLine
 10
82.99983500000001
 20
228.047
 30
0.0
 11
82.99983500000001
 21
230.507
 31
0.0
  0
LINE
  5
3A1
330
1E
100
AcDbEntity
  8
0
100
AcDbLine
 10
82.99983500000001
 20
228.047
 30
0.0
 11
82.99983500000001
 21
224.662
 31
0.0
  0
LINE
  5
3A2
330
1E
100
AcDbEntity
  8
0
100
AcDbLine
 10
82.99983500000001
 20
220.4109999999999
 30
0.0
 11
82.99983500000001
 21
215.3659999999999
 31
0.0
  0
LINE
  5
3A3
330
1E
100
AcDbEntity
  8
0
100
AcDbLine
 10
82.99983500000001
 20
220.4109999999999
 30
0.0
 11
82.99983500000001
 21
224.662
 31
0.0
  0
LINE
  5
3A4
330
1E
100
AcDbEntity
  8
0
100
AcDbLine
 10
83.399835
 20
235.1999999999999
 30
0.0
 11
84.399835
 21
237.6999999999999
 31
0.0
  0
LINE
  5
3A5
330
1E
100
AcDbEntity
  8
0
100
AcDbLine
 10
82.99983500000001
 20
215.3659999999999
 30
0.0
 11
82.99983500000001
 21
220.4109999999999
 31
0.0
  0
LINE
  5
3A6
330
1E
100
AcDbEntity
  8
0
100
AcDbLine
 10
82.99983500000001
 20
215.3659999999999
 30
0.0
 11
82.99983500000001
 21
209.613
 31
0.0
  0
LINE
  5
3A7
330
1E
100
AcDbEntity
  8
0
100
AcDbLine
 10
82.99983500000001
 20
215.3659999999999
 30
0.0
 11
82.99983500000001
 21
209.613
 31
0.0
  0
LINE
  5
3A8
330
1E
100
AcDbEntity
  8
0
100
AcDbLine
 10
82.99983500000001
 20
215.3659999999999
 30
0.0
 11
82.99983500000001
 21
220.4109999999999
 31
0.0
  0
LINE
  5
3A9
330
1E
100
AcDbEntity
  8
0
100
AcDbLine
 10
82.99983500000001
 20
174.0
 30
0.0
 11
82.99983500000001
 21
171.6629999999999
 31
0.0
  0
LINE
  5
3AA
330
1E
100
AcDbEntity
  8
0
100
AcDbLine
 10
82.99983500000001
 20
174.0
 30
0.0
 11
82.99983500000001
 21
181.6359999999999
 31
0.0
  0
LINE
  5
3AB
330
1E
100
AcDbEntity
  8
0
100
AcDbLine
 10
84.399835
 20
237.6999999999999
 30
0.0
 11
86.099835
 21
239.9
 31
0.0
  0
LINE
  5
3AC
330
1E
100
AcDbEntity
  8
0
100
AcDbLine
 10
84.399835
 20
172.012
 30
0.0
 11
86.099835
 21
172.159
 31
0.0
  0
LINE
  5
3AD
330
1E
100
AcDbEntity
  8
0
100
AcDbLine
 10
83.399835
 20
171.844
 30
0.0
 11
84.399835
 21
172.012
 31
0.0
  0
LINE
  5
3AE
330
1E
100
AcDbEntity
  8
0
100
AcDbLine
 10
82.99983500000001
 20
171.6629999999999
 30
0.0
 11
83.399835
 21
171.844
 31
0.0
  0
LINE
  5
3AF
330
1E
100
AcDbEntity
  8
0
100
AcDbLine
 10
82.99983500000001
 20
171.6629999999999
 30
0.0
 11
82.99983500000001
 21
174.0
 31
0.0
  0
LINE
  5
3B0
330
1E
100
AcDbEntity
  8
0
100
AcDbLine
 10
82.99983500000001
 20
171.6629999999999
 30
0.0
 11
82.99983500000001
 21
181.6359999999999
 31
0.0
  0
LINE
  5
3B1
330
1E
100
AcDbEntity
  8
0
100
AcDbLine
 10
84.999835
 20
167.244
 30
0.0
 11
87.499835
 21
167.3709999999999
 31
0.0
  0
LINE
  5
3B2
330
1E
100
AcDbEntity
  8
0
100
AcDbLine
 10
83.09983499999999
 20
167.077
 30
0.0
 11
84.999835
 21
167.244
 31
0.0
  0
LINE
  5
3B3
330
1E
100
AcDbEntity
  8
0
100
AcDbLine
 10
84.999835
 20
161.2279999999999
 30
0.0
 11
87.499835
 21
161.355
 31
0.0
  0
LINE
  5
3B4
330
1E
100
AcDbEntity
  8
0
100
AcDbLine
 10
83.09983499999999
 20
161.0599999999999
 30
0.0
 11
84.999835
 21
161.2279999999999
 31
0.0
  0
LINE
  5
3B5
330
1E
100
AcDbEntity
  8
0
100
AcDbLine
 10
98.99983500000001
 20
160.297
 30
0.0
 11
101.2998349999999
 21
160.1829999999999
 31
0.0
  0
LINE
  5
3B6
330
1E
100
AcDbEntity
  8
0
100
AcDbLine
 10
101.2998349999999
 20
160.1829999999999
 30
0.0
 11
102.999835
 21
160.029
 31
0.0
  0
LINE
  5
3B7
330
1E
100
AcDbEntity
  8
0
100
AcDbLine
 10
88.299835
 20
241.5999999999999
 30
0.0
 11
90.799835
 21
242.6
 31
0.0
  0
LINE
  5
3B8
330
1E
100
AcDbEntity
  8
0
100
AcDbLine
 10
86.099835
 20
239.9
 30
0.0
 11
88.299835
 21
241.5999999999999
 31
0.0
  0
LINE
  5
3B9
330
1E
100
AcDbEntity
  8
0
100
AcDbLine
 10
88.299835
 20
172.273
 30
0.0
 11
90.799835
 21
172.3399999999999
 31
0.0
  0
LINE
  5
3BA
330
1E
100
AcDbEntity
  8
0
100
AcDbLine
 10
86.099835
 20
172.159
 30
0.0
 11
88.299835
 21
172.273
 31
0.0
  0
LINE
  5
3BB
330
1E
100
AcDbEntity
  8
0
100
AcDbLine
 10
90.39983499999999
 20
167.452
 30
0.0
 11
93.499835
 21
167.479
 31
0.0
  0
LINE
  5
3BC
330
1E
100
AcDbEntity
  8
0
100
AcDbLine
 10
87.499835
 20
167.3709999999999
 30
0.0
 11
90.39983499999999
 21
167.452
 31
0.0
  0
LINE
  5
3BD
330
1E
100
AcDbEntity
  8
0
100
AcDbLine
 10
90.39983499999999
 20
161.4349999999999
 30
0.0
 11
93.499835
 21
161.462
 31
0.0
  0
LINE
  5
3BE
330
1E
100
AcDbEntity
  8
0
100
AcDbLine
 10
87.499835
 20
161.355
 30
0.0
 11
90.39983499999999
 21
161.4349999999999
 31
0.0
  0
LINE
  5
3BF
330
1E
100
AcDbEntity
  8
0
100
AcDbLine
 10
93.499835
 20
161.462
 30
0.0
 11
96.599835
 21
161.4349999999999
 31
0.0
  0
LINE
  5
3C0
330
1E
100
AcDbEntity
  8
0
100
AcDbLine
 10
93.499835
 20
160.397
 30
0.0
 11
96.29983500000001
 21
160.371
 31
0.0
  0
LINE
  5
3C1
330
1E
100
AcDbEntity
  8
0
100
AcDbLine
 10
96.599835
 20
161.4349999999999
 30
0.0
 11
99.49983500000001
 21
161.355
 31
0.0
  0
LINE
  5
3C2
330
1E
100
AcDbEntity
  8
0
100
AcDbLine
 10
99.49983500000001
 20
161.355
 30
0.0
 11
101.999835
 21
161.2279999999999
 31
0.0
  0
LINE
  5
3C3
330
1E
100
AcDbEntity
  8
0
100
AcDbLine
 10
101.999835
 20
161.2279999999999
 30
0.0
 11
103.8998349999999
 21
161.0599999999999
 31
0.0
  0
LINE
  5
3C4
330
1E
100
AcDbEntity
  8
0
100
AcDbLine
 10
103.8998349999999
 20
161.0599999999999
 30
0.0
 11
105.099835
 21
160.866
 31
0.0
  0
LINE
  5
3C5
330
1E
100
AcDbEntity
  8
0
100
AcDbLine
 10
96.29983500000001
 20
160.371
 30
0.0
 11
98.99983500000001
 21
160.297
 31
0.0
  0
LINE
  5
3C6
330
1E
100
AcDbEntity
  8
0
100
AcDbLine
 10
93.499835
 20
167.479
 30
0.0
 11
96.599835
 21
167.452
 31
0.0
  0
LINE
  5
3C7
330
1E
100
AcDbEntity
  8
0
100
AcDbLine
 10
96.599835
 20
167.452
 30
0.0
 11
99.49983500000001
 21
167.3709999999999
 31
0.0
  0
LINE
  5
3C8
330
1E
100
AcDbEntity
  8
0
100
AcDbLine
 10
99.49983500000001
 20
167.3709999999999
 30
0.0
 11
101.999835
 21
167.244
 31
0.0
  0
LINE
  5
3C9
330
1E
100
AcDbEntity
  8
0
100
AcDbLine
 10
101.999835
 20
167.244
 30
0.0
 11
103.8998349999999
 21
167.077
 31
0.0
  0
LINE
  5
3CA
330
1E
100
AcDbEntity
  8
0
100
AcDbLine
 10
103.8998349999999
 20
167.077
 30
0.0
 11
105.099835
 21
166.882
 31
0.0
  0
LINE
  5
3CB
330
1E
100
AcDbEntity
  8
0
100
AcDbLine
 10
96.199835
 20
172.3399999999999
 30
0.0
 11
98.699835
 21
172.273
 31
0.0
  0
LINE
  5
3CC
330
1E
100
AcDbEntity
  8
0
100
AcDbLine
 10
98.699835
 20
172.273
 30
0.0
 11
100.8998349999999
 21
172.159
 31
0.0
  0
LINE
  5
3CD
330
1E
100
AcDbEntity
  8
0
100
AcDbLine
 10
100.8998349999999
 20
172.159
 30
0.0
 11
102.599835
 21
172.012
 31
0.0
  0
LINE
  5
3CE
330
1E
100
AcDbEntity
  8
0
100
AcDbLine
 10
102.599835
 20
172.012
 30
0.0
 11
103.599835
 21
171.844
 31
0.0
  0
LINE
  5
3CF
330
1E
100
AcDbEntity
  8
0
100
AcDbLine
 10
103.599835
 20
171.844
 30
0.0
 11
103.999835
 21
171.6629999999999
 31
0.0
  0
LINE
  5
3D0
330
1E
100
AcDbEntity
  8
0
100
AcDbLine
 10
103.999835
 20
171.6629999999999
 30
0.0
 11
103.999835
 21
181.6359999999999
 31
0.0
  0
LINE
  5
3D1
330
1E
100
AcDbEntity
  8
0
100
AcDbLine
 10
103.999835
 20
171.6629999999999
 30
0.0
 11
105.999835
 21
170.167
 31
0.0
  0
LINE
  5
3D2
330
1E
100
AcDbEntity
  8
0
100
AcDbLine
 10
103.999835
 20
189.141
 30
0.0
 11
103.999835
 21
196.387
 31
0.0
  0
LINE
  5
3D3
330
1E
100
AcDbEntity
  8
0
100
AcDbLine
 10
103.999835
 20
189.141
 30
0.0
 11
103.999835
 21
181.6359999999999
 31
0.0
  0
LINE
  5
3D4
330
1E
100
AcDbEntity
  8
0
100
AcDbLine
 10
103.999835
 20
220.4109999999999
 30
0.0
 11
103.999835
 21
215.3659999999999
 31
0.0
  0
LINE
  5
3D5
330
1E
100
AcDbEntity
  8
0
100
AcDbLine
 10
103.999835
 20
220.4109999999999
 30
0.0
 11
103.999835
 21
224.662
 31
0.0
  0
LINE
  5
3D6
330
1E
100
AcDbEntity
  8
0
100
AcDbLine
 10
103.999835
 20
224.662
 30
0.0
 11
103.999835
 21
220.4109999999999
 31
0.0
  0
LINE
  5
3D7
330
1E
100
AcDbEntity
  8
0
100
AcDbLine
 10
103.999835
 20
224.662
 30
0.0
 11
103.999835
 21
228.047
 31
0.0
  0
LINE
  5
3D8
330
1E
100
AcDbEntity
  8
0
100
AcDbLine
 10
103.999835
 20
228.047
 30
0.0
 11
103.999835
 21
224.662
 31
0.0
  0
LINE
  5
3D9
330
1E
100
AcDbEntity
  8
0
100
AcDbLine
 10
103.999835
 20
228.047
 30
0.0
 11
103.999835
 21
230.507
 31
0.0
  0
LINE
  5
3DA
330
1E
100
AcDbEntity
  8
0
100
AcDbLine
 10
103.999835
 20
232.5
 30
0.0
 11
103.999835
 21
232.0
 31
0.0
  0
LINE
  5
3DB
330
1E
100
AcDbEntity
  8
0
100
AcDbLine
 10
103.999835
 20
230.507
 30
0.0
 11
103.999835
 21
228.047
 31
0.0
  0
LINE
  5
3DC
330
1E
100
AcDbEntity
  8
0
100
AcDbLine
 10
103.999835
 20
230.507
 30
0.0
 11
103.999835
 21
232.0
 31
0.0
  0
LINE
  5
3DD
330
1E
100
AcDbEntity
  8
0
100
AcDbLine
 10
103.999835
 20
232.0
 30
0.0
 11
103.999835
 21
230.507
 31
0.0
  0
LINE
  5
3DE
330
1E
100
AcDbEntity
  8
0
100
AcDbLine
 10
103.999835
 20
232.0
 30
0.0
 11
103.999835
 21
232.5
 31
0.0
  0
LINE
  5
3DF
330
1E
100
AcDbEntity
  8
0
100
AcDbLine
 10
103.999835
 20
209.613
 30
0.0
 11
103.999835
 21
215.3659999999999
 31
0.0
  0
LINE
  5
3E0
330
1E
100
AcDbEntity
  8
0
100
AcDbLine
 10
103.999835
 20
209.613
 30
0.0
 11
103.999835
 21
203.25
 31
0.0
  0
LINE
  5
3E1
330
1E
100
AcDbEntity
  8
0
100
AcDbLine
 10
103.999835
 20
215.3659999999999
 30
0.0
 11
103.999835
 21
209.613
 31
0.0
  0
LINE
  5
3E2
330
1E
100
AcDbEntity
  8
0
100
AcDbLine
 10
103.999835
 20
215.3659999999999
 30
0.0
 11
103.999835
 21
220.4109999999999
 31
0.0
  0
LINE
  5
3E3
330
1E
100
AcDbEntity
  8
0
100
AcDbLine
 10
103.999835
 20
196.387
 30
0.0
 11
103.999835
 21
203.25
 31
0.0
  0
LINE
  5
3E4
330
1E
100
AcDbEntity
  8
0
100
AcDbLine
 10
103.999835
 20
196.387
 30
0.0
 11
103.999835
 21
189.141
 31
0.0
  0
LINE
  5
3E5
330
1E
100
AcDbEntity
  8
0
100
AcDbLine
 10
103.999835
 20
203.25
 30
0.0
 11
103.999835
 21
209.613
 31
0.0
  0
LINE
  5
3E6
330
1E
100
AcDbEntity
  8
0
100
AcDbLine
 10
103.999835
 20
203.25
 30
0.0
 11
103.999835
 21
196.387
 31
0.0
  0
LINE
  5
3E7
330
1E
100
AcDbEntity
  8
0
100
AcDbLine
 10
93.499835
 20
243.0
 30
0.0
 11
96.199835
 21
242.6
 31
0.0
  0
LINE
  5
3E8
330
1E
100
AcDbEntity
  8
0
100
AcDbLine
 10
96.199835
 20
242.6
 30
0.0
 11
98.699835
 21
241.5999999999999
 31
0.0
  0
LINE
  5
3E9
330
1E
100
AcDbEntity
  8
0
100
AcDbLine
 10
98.699835
 20
241.5999999999999
 30
0.0
 11
100.8998349999999
 21
239.9
 31
0.0
  0
LINE
  5
3EA
330
1E
100
AcDbEntity
  8
0
100
AcDbLine
 10
100.8998349999999
 20
239.9
 30
0.0
 11
102.599835
 21
237.6999999999999
 31
0.0
  0
LINE
  5
3EB
330
1E
100
AcDbEntity
  8
0
100
AcDbLine
 10
102.599835
 20
237.6999999999999
 30
0.0
 11
103.599835
 21
235.1999999999999
 31
0.0
  0
LINE
  5
3EC
330
1E
100
AcDbEntity
  8
0
100
AcDbLine
 10
103.599835
 20
235.1999999999999
 30
0.0
 11
103.999835
 21
232.5
 31
0.0
  0
LINE
  5
3ED
330
1E
100
AcDbEntity
  8
0
100
AcDbLine
 10
103.999835
 20
181.6359999999999
 30
0.0
 11
103.999835
 21
171.6629999999999
 31
0.0
  0
LINE
  5
3EE
330
1E
100
AcDbEntity
  8
0
100
AcDbLine
 10
103.999835
 20
181.6359999999999
 30
0.0
 11
103.999835
 21
189.141
 31
0.0
  0
LINE
  5
3EF
330
1E
100
AcDbEntity
  8
0
100
AcDbLine
 10
93.499835
 20
172.367
 30
0.0
 11
96.199835
 21
172.3399999999999
 31
0.0
  0
LINE
  5
3F0
330
1E
100
AcDbEntity
  8
0
100
AcDbLine
 10
90.799835
 20
242.6
 30
0.0
 11
93.499835
 21
243.0
 31
0.0
  0
LINE
  5
3F1
330
1E
100
AcDbEntity
  8
0
100
AcDbLine
 10
90.799835
 20
172.3399999999999
 30
0.0
 11
93.499835
 21
172.367
 31
0.0
  0
LINE
  5
3F2
330
1E
100
AcDbEntity
  8
0
100
AcDbLine
 10
90.69983499999999
 20
160.371
 30
0.0
 11
93.499835
 21
160.397
 31
0.0
  0
LINE
  5
3F3
330
1E
100
AcDbEntity
  8
0
100
AcDbLine
 10
87.99983500000001
 20
160.297
 30
0.0
 11
90.69983499999999
 21
160.371
 31
0.0
  0
LINE
  5
3F4
330
1E
100
AcDbEntity
  8
0
100
AcDbLine
 10
85.69983499999999
 20
160.1829999999999
 30
0.0
 11
87.99983500000001
 21
160.297
 31
0.0
  0
LINE
  5
3F5
330
1E
100
AcDbEntity
  8
0
100
AcDbLine
 10
83.99983500000001
 20
160.029
 30
0.0
 11
85.69983499999999
 21
160.1829999999999
 31
0.0
  0
LINE
  5
3F6
330
1E
100
AcDbEntity
  8
0
100
AcDbLine
 10
82.89983499999999
 20
159.8449999999999
 30
0.0
 11
83.99983500000001
 21
160.029
 31
0.0
  0
LINE
  5
3F7
330
1E
100
AcDbEntity
  8
0
100
AcDbLine
 10
82.499835
 20
159.66
 30
0.0
 11
82.89983499999999
 21
159.8449999999999
 31
0.0
  0
LINE
  5
3F8
330
1E
100
AcDbEntity
  8
0
100
AcDbLine
 10
82.499835
 20
159.66
 30
0.0
 11
82.89983499999999
 21
159.4759999999999
 31
0.0
  0
LINE
  5
3F9
330
1E
100
AcDbEntity
  8
0
100
AcDbLine
 10
104.0998349999999
 20
159.8449999999999
 30
0.0
 11
104.4998349999999
 21
159.66
 31
0.0
  0
LINE
  5
3FA
330
1E
100
AcDbEntity
  8
0
100
AcDbLine
 10
105.4998349999999
 20
160.6579999999999
 30
0.0
 11
105.4998349999999
 21
166.674
 31
0.0
  0
LINE
  5
3FB
330
1E
100
AcDbEntity
  8
0
100
AcDbLine
 10
105.099835
 20
160.866
 30
0.0
 11
105.4998349999999
 21
160.6579999999999
 31
0.0
  0
LINE
  5
3FC
330
1E
100
AcDbEntity
  8
0
100
AcDbLine
 10
104.4998349999999
 20
159.66
 30
0.0
 11
105.4998349999999
 21
160.6579999999999
 31
0.0
  0
LINE
  5
3FD
330
1E
100
AcDbEntity
  8
0
100
AcDbLine
 10
104.0998349999999
 20
159.4759999999999
 30
0.0
 11
104.4998349999999
 21
159.66
 31
0.0
  0
LINE
  5
3FE
330
1E
100
AcDbEntity
  8
0
100
AcDbLine
 10
105.4998349999999
 20
166.674
 30
0.0
 11
105.999835
 21
167.173
 31
0.0
  0
LINE
  5
3FF
330
1E
100
AcDbEntity
  8
0
100
AcDbLine
 10
105.4998349999999
 20
166.674
 30
0.0
 11
105.4998349999999
 21
160.6579999999999
 31
0.0
  0
LINE
  5
400
330
1E
100
AcDbEntity
  8
0
100
AcDbLine
 10
105.999835
 20
170.167
 30
0.0
 11
106.4998349999999
 21
168.6699999999999
 31
0.0
  0
LINE
  5
401
330
1E
100
AcDbEntity
  8
0
100
AcDbLine
 10
106.4998349999999
 20
168.6699999999999
 30
0.0
 11
106.4998349999999
 21
168.1709999999999
 31
0.0
  0
LINE
  5
402
330
1E
100
AcDbEntity
  8
0
100
AcDbLine
 10
106.4998349999999
 20
168.1709999999999
 30
0.0
 11
106.4998349999999
 21
168.6699999999999
 31
0.0
  0
LINE
  5
403
330
1E
100
AcDbEntity
  8
0
100
AcDbLine
 10
105.999835
 20
167.173
 30
0.0
 11
106.4998349999999
 21
168.1709999999999
 31
0.0
  0
LINE
  5
404
330
1E
100
AcDbEntity
  8
0
100
AcDbLine
 10
105.099835
 20
166.882
 30
0.0
 11
105.4998349999999
 21
166.674
 31
0.0
  0
LINE
  5
405
330
1E
100
AcDbEntity
  8
0
100
AcDbLine
 10
103.999835
 20
98.91994134897359
 30
0.0
 11
105.431835
 21
98.50000000000001
 31
0.0
  0
LINE
  5
406
330
1E
100
AcDbEntity
  8
0
100
AcDbLine
 10
103.999835
 20
98.91994134897359
 30
0.0
 11
103.999835
 21
159.459272727273
 31
0.0
  0
LINE
  5
407
330
1E
100
AcDbEntity
  8
0
100
AcDbLine
 10
82.02253499999999
 20
98.50000000000001
 30
0.0
 11
83.15893499999999
 21
98.50000000000001
 31
0.0
  0
LINE
  5
408
330
1E
100
AcDbEntity
  8
0
100
AcDbLine
 10
81.568035
 20
98.50000000000001
 30
0.0
 11
82.02253499999999
 21
98.50000000000001
 31
0.0
  0
LINE
  5
409
330
1E
100
AcDbEntity
  8
0
100
AcDbLine
 10
81.568035
 20
98.50000000000001
 30
0.0
 11
83.00206366026278
 21
98.92065962460041
 31
0.0
  0
LINE
  5
40A
330
1E
100
AcDbEntity
  8
0
100
AcDbLine
 10
108.499835
 20
97.0
 30
0.0
 11
109.999835
 21
96.5
 31
0.0
  0
LINE
  5
4B4
330
1E
100
AcDbEntity
  8
0
100
AcDbLine
 10
109.999835
 20
96.5
 30
0.0
 11
110.499835
 21
95.0
 31
0.0
  0
LINE
  5
4B5
330
1E
100
AcDbEntity
  8
0
100
AcDbLine
 10
109.999835
 20
93.49999999999999
 30
0.0
 11
110.499835
 21
95.0
 31
0.0
  0
LINE
  5
4B6
330
1E
100
AcDbEntity
  8
0
100
AcDbLine
 10
76.999835
 20
93.49999999999999
 30
0.0
 11
77.999835
 21
93.0
 31
0.0
  0
LINE
  5
4B7
330
1E
100
AcDbEntity
  8
0
100
AcDbLine
 10
76.999835
 20
93.49999999999999
 30
0.0
 11
77.599835
 21
93.49999999999999
 31
0.0
  0
LINE
  5
4B8
330
1E
100
AcDbEntity
  8
0
100
AcDbLine
 10
77.999835
 20
93.0
 30
0.0
 11
78.499835
 21
91.5
 31
0.0
  0
LINE
  5
4B9
330
1E
100
AcDbEntity
  8
0
100
AcDbLine
 10
77.999835
 20
93.0
 30
0.0
 11
78.599835
 21
93.0
 31
0.0
  0
LINE
  5
4BA
330
1E
100
AcDbEntity
  8
0
100
AcDbLine
 10
69.467635
 20
85.3409
 30
0.0
 11
70.40953499999999
 21
84.0709
 31
0.0
  0
LINE
  5
4BB
330
1E
100
AcDbEntity
  8
0
100
AcDbLine
 10
70.06543499999999
 20
83.57940000000001
 30
0.0
 11
70.40953499999999
 21
84.0709
 31
0.0
  0
LINE
  5
4BC
330
1E
100
AcDbEntity
  8
0
100
AcDbLine
 10
69.33593499999999
 20
80.37229999999999
 30
0.0
 11
70.245535
 21
82.96499999999999
 31
0.0
  0
LINE
  5
4BD
330
1E
100
AcDbEntity
  8
0
100
AcDbLine
 10
69.33593499999999
 20
80.37229999999999
 30
0.0
 11
73.043635
 21
77.78100000000001
 31
0.0
  0
LINE
  5
4BE
330
1E
100
AcDbEntity
  8
0
100
AcDbLine
 10
69.06753499999999
 20
79.9889
 30
0.0
 11
69.33593499999999
 21
80.37229999999999
 31
0.0
  0
LINE
  5
4BF
330
1E
100
AcDbEntity
  8
0
100
AcDbLine
 10
58.536535
 20
67.11450000000001
 30
0.0
 11
60.94553499999999
 21
70.5549
 31
0.0
  0
LINE
  5
4C0
330
1E
100
AcDbEntity
  8
0
100
AcDbLine
 10
59.97063499999999
 20
66.99720000000001
 30
0.0
 11
61.879435
 21
69.72329999999999
 31
0.0
  0
LINE
  5
4C1
330
1E
100
AcDbEntity
  8
0
100
AcDbLine
 10
55.407235
 20
60.48
 30
0.0
 11
56.600235
 21
62.18379999999999
 31
0.0
  0
LINE
  5
4C2
330
1E
100
AcDbEntity
  8
0
100
AcDbLine
 10
54.691435
 20
59.4577
 30
0.0
 11
55.407235
 21
60.48
 31
0.0
  0
LINE
  5
4C3
330
1E
100
AcDbEntity
  8
0
100
AcDbLine
 10
54.42293499999999
 20
59.0743
 30
0.0
 11
54.691435
 21
59.4577
 31
0.0
  0
LINE
  5
4C4
330
1E
100
AcDbEntity
  8
0
100
AcDbLine
 10
54.42293499999999
 20
59.0743
 30
0.0
 11
72.44733499999999
 21
46.4549
 31
0.0
  0
LINE
  5
4C9
330
1E
100
AcDbEntity
  8
0
100
AcDbLine
 10
150.7879649999999
 20
123.276
 30
0.0
 11
148.5929649999999
 21
121.304
 31
0.0
  0
LINE
  5
4CA
330
1E
100
AcDbEntity
  8
0
100
AcDbLine
 10
160.8722649999999
 20
118.132
 30
0.0
 11
158.9837649999999
 21
121.662
 31
0.0
  0
LINE
  5
4CB
330
1E
100
AcDbEntity
  8
0
100
AcDbLine
 10
159.2390468031131
 20
121.184825117824
 30
0.0
 11
158.9837649999999
 21
121.662
 31
0.0
  0
LINE
  5
4CC
330
1E
100
AcDbEntity
  8
0
100
AcDbLine
 10
159.2390468031131
 20
121.184825117824
 30
0.0
 11
158.926765
 21
121.777
 31
0.0
  0
LINE
  5
4CD
330
1E
100
AcDbEntity
  8
0
100
AcDbLine
 10
152.5970649999999
 20
74.49089999999999
 30
0.0
 11
151.3682649999999
 21
73.6306
 31
0.0
  0
LINE
  5
4CE
330
1E
100
AcDbEntity
  8
0
100
AcDbLine
 10
152.367565
 20
74.81860000000001
 30
0.0
 11
151.679265
 21
75.80159999999999
 31
0.0
  0
LINE
  5
4CF
330
1E
100
AcDbEntity
  8
0
100
AcDbLine
 10
152.172865
 20
112.04
 30
0.0
 11
149.5012649999999
 21
115.022
 31
0.0
  0
LINE
  5
4D0
330
1E
100
AcDbEntity
  8
0
100
AcDbLine
 10
152.4903649999999
 20
75.5149
 30
0.0
 11
151.859465
 21
76.416
 31
0.0
  0
LINE
  5
4D1
330
1E
100
AcDbEntity
  8
0
100
AcDbLine
 10
157.9593649999999
 20
100.8299999999999
 30
0.0
 11
151.4061649999999
 21
96.2414
 31
0.0
  0
LINE
  5
4D2
330
1E
100
AcDbEntity
  8
0
100
AcDbLine
 10
152.495865
 20
94.685
 30
0.0
 11
151.922365
 21
95.50409999999999
 31
0.0
  0
LINE
  5
4D3
330
1E
100
AcDbEntity
  8
0
100
AcDbLine
 10
158.5757902224987
 20
86.00194763989849
 30
0.0
 11
149.5651717169257
 21
79.6926047032718
 31
0.0
  0
LINE
  5
4D4
330
1E
100
AcDbEntity
  8
0
100
AcDbLine
 10
182.670465
 20
87.0007
 30
0.0
 11
180.2059649999999
 21
89.6016
 31
0.0
  0
LINE
  5
4D5
330
1E
100
AcDbEntity
  8
0
100
AcDbLine
 10
181.414256408351
 20
88.3264346017528
 30
0.0
 11
180.001265
 21
89.84849999999999
 31
0.0
  0
LINE
  5
4D6
330
1E
100
AcDbEntity
  8
0
100
AcDbLine
 10
181.4517649999999
 20
74.3769
 30
0.0
 11
180.2406649999999
 21
74.1626
 31
0.0
  0
LINE
  5
4D7
330
1E
100
AcDbEntity
  8
0
100
AcDbLine
 10
186.528795
 20
82.53299999999999
 30
0.0
 11
185.3420149999999
 21
84.0186
 31
0.0
  0
LINE
  5
4D8
330
1E
100
AcDbEntity
  8
0
100
AcDbLine
 10
185.7691786538824
 20
83.48388057078171
 30
0.0
 11
185.4301249999999
 21
83.9259
 31
0.0
  0
LINE
  5
4D9
330
1E
100
AcDbEntity
  8
0
100
AcDbLine
 10
186.250365
 20
77.73690000000001
 30
0.0
 11
184.055365
 21
75.7651
 31
0.0
  0
LINE
  5
4DA
330
1E
100
AcDbEntity
  8
0
100
AcDbLine
 10
186.250365
 20
77.73690000000001
 30
0.0
 11
184.055365
 21
75.7651
 31
0.0
  0
LINE
  5
4DB
330
1E
100
AcDbEntity
  8
0
100
AcDbLine
 10
186.865925
 20
78.80169999999999
 30
0.0
 11
186.250365
 21
77.73690000000001
 31
0.0
  0
LINE
  5
4DC
330
1E
100
AcDbEntity
  8
0
100
AcDbLine
 10
186.865925
 20
78.80169999999999
 30
0.0
 11
186.250365
 21
77.73690000000001
 31
0.0
  0
LINE
  5
4DD
330
1E
100
AcDbEntity
  8
0
100
AcDbLine
 10
187.074555
 20
81.08400000000001
 30
0.0
 11
186.528795
 21
82.53299999999999
 31
0.0
  0
LINE
  5
4DE
330
1E
100
AcDbEntity
  8
0
100
AcDbLine
 10
187.074555
 20
81.08400000000001
 30
0.0
 11
186.528795
 21
82.53299999999999
 31
0.0
  0
LINE
  5
4DF
330
1E
100
AcDbEntity
  8
0
100
AcDbLine
 10
187.0973449999999
 20
79.64449999999999
 30
0.0
 11
187.0247238817558
 21
79.41014559966621
 31
0.0
  0
LINE
  5
4E0
330
1E
100
AcDbEntity
  8
0
100
AcDbLine
 10
187.120835
 20
79.7784
 30
0.0
 11
187.074555
 21
81.08400000000001
 31
0.0
  0
LINE
  5
4E1
330
1E
100
AcDbEntity
  8
0
100
AcDbLine
 10
187.120835
 20
79.7784
 30
0.0
 11
186.865925
 21
78.80169999999999
 31
0.0
  0
LINE
  5
4E2
330
1E
100
AcDbEntity
  8
0
100
AcDbLine
 10
187.0973449999999
 20
79.64449999999999
 30
0.0
 11
187.0247238817558
 21
79.41014559966621
 31
0.0
  0
LINE
  5
4E3
330
1E
100
AcDbEntity
  8
0
100
AcDbLine
 10
186.6700108462595
 20
82.15807006517499
 30
0.0
 11
186.579405
 21
82.4276
 31
0.0
  0
LINE
  5
4E4
330
1E
100
AcDbEntity
  8
0
100
AcDbLine
 10
186.6700108462595
 20
82.15807006517499
 30
0.0
 11
186.579405
 21
82.4276
 31
0.0
  0
LINE
  5
4E5
330
1E
100
AcDbEntity
  8
0
100
AcDbLine
 10
186.6700108462595
 20
82.15807006517499
 30
0.0
 11
186.5582471545902
 21
82.45480414101209
 31
0.0
  0
LINE
  5
4E6
330
1E
100
AcDbEntity
  8
0
100
AcDbLine
 10
184.055365
 20
75.7651
 30
0.0
 11
181.4517649999999
 21
74.3769
 31
0.0
  0
LINE
  5
4E7
330
1E
100
AcDbEntity
  8
0
100
AcDbLine
 10
185.3420149999999
 20
84.0186
 30
0.0
 11
182.670465
 21
87.0007
 31
0.0
  0
LINE
  5
4E8
330
1E
100
AcDbEntity
  8
0
100
AcDbLine
 10
185.4301249999999
 20
83.9259
 30
0.0
 11
184.9965677955104
 21
84.40420315491321
 31
0.0
  0
LINE
  5
4E9
330
1E
100
AcDbEntity
  8
0
100
AcDbLine
 10
185.4301249999999
 20
83.9259
 30
0.0
 11
184.9965677955104
 21
84.40420315491321
 31
0.0
  0
LINE
  5
4EA
330
1E
100
AcDbEntity
  8
0
100
AcDbLine
 10
173.1569510734626
 20
82.53915496229
 30
0.0
 11
172.207865
 21
84.39149999999999
 31
0.0
  0
LINE
  5
4EB
330
1E
100
AcDbEntity
  8
0
100
AcDbLine
 10
173.971065
 20
80.9093
 30
0.0
 11
172.369965
 21
84.11469999999999
 31
0.0
  0
LINE
  5
4EC
330
1E
100
AcDbEntity
  8
0
100
AcDbLine
 10
173.971065
 20
80.9093
 30
0.0
 11
173.1569510734626
 21
82.53915496229
 31
0.0
  0
LINE
  5
4ED
330
1E
100
AcDbEntity
  8
0
100
AcDbLine
 10
178.0245649999999
 20
74.74720000000001
 30
0.0
 11
176.8496649999999
 21
75.7556
 31
0.0
  0
LINE
  5
4EE
330
1E
100
AcDbEntity
  8
0
100
AcDbLine
 10
180.2406649999999
 20
74.1626
 30
0.0
 11
179.235665
 21
74.25709999999999
 31
0.0
  0
LINE
  5
4EF
330
1E
100
AcDbEntity
  8
0
100
AcDbLine
 10
179.6140214955397
 20
74.2215231951955
 30
0.0
 11
179.33074794313
 21
74.248159365049
 31
0.0
  0
LINE
  5
4F0
330
1E
100
AcDbEntity
  8
0
100
AcDbLine
 10
179.6140214955397
 20
74.2215231951955
 30
0.0
 11
179.3694649999999
 21
74.2334
 31
0.0
  0
LINE
  5
4F1
330
1E
100
AcDbEntity
  8
0
100
AcDbLine
 10
179.235665
 20
74.25709999999999
 30
0.0
 11
178.0245649999999
 21
74.74720000000001
 31
0.0
  0
LINE
  5
4F2
330
1E
100
AcDbEntity
  8
0
100
AcDbLine
 10
175.859465
 20
77.3789
 30
0.0
 11
173.971065
 21
80.9093
 31
0.0
  0
LINE
  5
4F3
330
1E
100
AcDbEntity
  8
0
100
AcDbLine
 10
175.9164649999999
 20
77.2644
 30
0.0
 11
175.6170364208429
 21
77.8321248760092
 31
0.0
  0
LINE
  5
4F4
330
1E
100
AcDbEntity
  8
0
100
AcDbLine
 10
177.1527839891389
 20
75.49543727240809
 30
0.0
 11
176.931465
 21
75.67199999999999
 31
0.0
  0
LINE
  5
4F5
330
1E
100
AcDbEntity
  8
0
100
AcDbLine
 10
176.2151389259969
 20
76.7958203352143
 30
0.0
 11
175.9164649999999
 21
77.2644
 31
0.0
  0
LINE
  5
4F6
330
1E
100
AcDbEntity
  8
0
100
AcDbLine
 10
176.8496649999999
 20
75.7556
 30
0.0
 11
175.859465
 21
77.3789
 31
0.0
  0
LINE
  5
4F7
330
1E
100
AcDbEntity
  8
0
100
AcDbLine
 10
152.5970649999999
 20
74.49089999999999
 30
0.0
 11
152.367565
 21
74.81860000000001
 31
0.0
  0
LINE
  5
4F8
330
1E
100
AcDbEntity
  8
0
100
AcDbLine
 10
152.719865
 20
75.18729999999999
 30
0.0
 11
152.4903649999999
 21
75.5149
 31
0.0
  0
LINE
  5
4F9
330
1E
100
AcDbEntity
  8
0
100
AcDbLine
 10
152.719865
 20
75.18729999999999
 30
0.0
 11
152.5970649999999
 21
74.49089999999999
 31
0.0
  0
LINE
  5
4FA
330
1E
100
AcDbEntity
  8
0
100
AcDbLine
 10
166.707465
 20
110.1289999999999
 30
0.0
 11
166.133865
 21
110.949
 31
0.0
  0
LINE
  5
4FB
330
1E
100
AcDbEntity
  8
0
100
AcDbLine
 10
167.1743649999999
 20
110.3339999999999
 30
0.0
 11
165.904465
 21
111.276
 31
0.0
  0
LINE
  5
4FC
330
1E
100
AcDbEntity
  8
0
100
AcDbLine
 10
167.3739649999999
 20
106.812
 30
0.0
 11
165.822865
 21
108.7779999999999
 31
0.0
  0
LINE
  5
4FD
330
1E
100
AcDbEntity
  8
0
100
AcDbLine
 10
168.8048649999999
 20
102.686
 30
0.0
 11
166.274465
 21
101.1589999999999
 31
0.0
  0
LINE
  5
4FE
330
1E
100
AcDbEntity
  8
0
100
AcDbLine
 10
167.880465
 20
98.8652
 30
0.0
 11
165.481165
 21
97.18519999999999
 31
0.0
  0
LINE
  5
4FF
330
1E
100
AcDbEntity
  8
0
100
AcDbLine
 10
166.9627649999999
 20
100.1759999999999
 30
0.0
 11
164.563465
 21
98.49580000000001
 31
0.0
  0
LINE
  5
500
330
1E
100
AcDbEntity
  8
0
100
AcDbLine
 10
168.568765
 20
97.8822
 30
0.0
 11
166.0383649999999
 21
96.35460000000001
 31
0.0
  0
LINE
  5
501
330
1E
100
AcDbEntity
  8
0
100
AcDbLine
 10
167.469365
 20
92.22929999999999
 30
0.0
 11
166.066765
 21
93.7007
 31
0.0
  0
LINE
  5
502
330
1E
100
AcDbEntity
  8
0
100
AcDbLine
 10
167.283565
 20
91.00050000000001
 30
0.0
 11
166.537865
 21
92.0654
 31
0.0
  0
LINE
  5
503
330
1E
100
AcDbEntity
  8
0
100
AcDbLine
 10
167.914465
 20
90.0994
 30
0.0
 11
165.415865
 21
90.181
 31
0.0
  0
LINE
  5
504
330
1E
100
AcDbEntity
  8
0
100
AcDbLine
 10
170.9053649999999
 20
102.936
 30
0.0
 11
170.2754649999999
 21
102.495
 31
0.0
  0
LINE
  5
505
330
1E
100
AcDbEntity
  8
0
100
AcDbLine
 10
172.720065
 20
102.254
 30
0.0
 11
172.2456649999999
 21
102.898
 31
0.0
  0
LINE
  5
506
330
1E
100
AcDbEntity
  8
0
100
AcDbLine
 10
173.6557649999999
 20
101.078
 30
0.0
 11
172.336565
 21
102.9619999999999
 31
0.0
  0
LINE
  5
507
330
1E
100
AcDbEntity
  8
0
100
AcDbLine
 10
174.917665
 20
99.2758
 30
0.0
 11
173.6557649999999
 21
101.078
 31
0.0
  0
LINE
  5
508
330
1E
100
AcDbEntity
  8
0
100
AcDbLine
 10
174.9095649999999
 20
98.41560000000001
 30
0.0
 11
173.475665
 21
100.4629999999999
 31
0.0
  0
LINE
  5
509
330
1E
100
AcDbEntity
  8
0
100
AcDbLine
 10
174.256865
 20
96.9819
 30
0.0
 11
173.3539649999999
 21
98.80320000000001
 31
0.0
  0
LINE
  5
50A
330
1E
100
AcDbEntity
  8
0
100
AcDbLine
 10
178.351965
 20
91.66529999999999
 30
0.0
 11
176.7933649999999
 21
93.35939999999999
 31
0.0
  0
LINE
  5
50B
330
1E
100
AcDbEntity
  8
0
100
AcDbLine
 10
177.2806772569339
 20
92.82972227994878
 30
0.0
 11
176.4153102209656
 21
93.82204209493059
 31
0.0
  0
LINE
  5
50C
330
1E
100
AcDbEntity
  8
0
100
AcDbLine
 10
177.949565
 20
94.0741
 30
0.0
 11
177.1538257023953
 21
93.00137246918449
 31
0.0
  0
LINE
  5
50D
330
1E
100
AcDbEntity
  8
0
100
AcDbLine
 10
180.2059649999999
 20
89.6016
 30
0.0
 11
178.351965
 21
91.66529999999999
 31
0.0
  0
LINE
  5
50E
330
1E
100
AcDbEntity
  8
0
100
AcDbLine
 10
179.4868022663996
 20
90.4021049262843
 30
0.0
 11
178.351965
 21
91.66529999999999
 31
0.0
  0
LINE
  5
50F
330
1E
100
AcDbEntity
  8
0
100
AcDbLine
 10
180.2059649999999
 20
89.6016
 30
0.0
 11
180.001265
 21
89.84849999999999
 31
0.0
  0
LINE
  5
510
330
1E
100
AcDbEntity
  8
0
100
AcDbLine
 10
180.001265
 20
89.84849999999999
 30
0.0
 11
179.4868022663996
 21
90.4021049262843
 31
0.0
  0
LINE
  5
511
330
1E
100
AcDbEntity
  8
0
100
AcDbLine
 10
177.949565
 20
94.0741
 30
0.0
 11
177.4987649999999
 21
95.5896
 31
0.0
  0
LINE
  5
512
330
1E
100
AcDbEntity
  8
0
100
AcDbLine
 10
177.720065
 20
94.40179999999999
 30
0.0
 11
177.146565
 21
95.2209
 31
0.0
  0
LINE
  5
513
330
1E
100
AcDbEntity
  8
0
100
AcDbLine
 10
177.949565
 20
94.0741
 30
0.0
 11
177.720065
 21
94.40179999999999
 31
0.0
  0
LINE
  5
514
330
1E
100
AcDbEntity
  8
0
100
AcDbLine
 10
177.326665
 20
95.83540000000001
 30
0.0
 11
174.917665
 21
99.2758
 31
0.0
  0
LINE
  5
515
330
1E
100
AcDbEntity
  8
0
100
AcDbLine
 10
176.171465
 20
96.6135
 30
0.0
 11
174.9095649999999
 21
98.41560000000001
 31
0.0
  0
LINE
  5
516
330
1E
100
AcDbEntity
  8
0
100
AcDbLine
 10
176.7933649999999
 20
93.35939999999999
 30
0.0
 11
175.573665
 21
94.852
 31
0.0
  0
LINE
  5
517
330
1E
100
AcDbEntity
  8
0
100
AcDbLine
 10
177.146565
 20
95.2209
 30
0.0
 11
176.171465
 21
96.6135
 31
0.0
  0
LINE
  5
518
330
1E
100
AcDbEntity
  8
0
100
AcDbLine
 10
177.4987649999999
 20
95.5896
 30
0.0
 11
177.326665
 21
95.83540000000001
 31
0.0
  0
LINE
  5
519
330
1E
100
AcDbEntity
  8
0
100
AcDbLine
 10
175.573665
 20
94.852
 30
0.0
 11
174.256865
 21
96.9819
 31
0.0
  0
LINE
  5
51A
330
1E
100
AcDbEntity
  8
0
100
AcDbLine
 10
171.064765
 20
86.56270000000001
 30
0.0
 11
170.005865
 21
88.6067
 31
0.0
  0
LINE
  5
51B
330
1E
100
AcDbEntity
  8
0
100
AcDbLine
 10
172.207865
 20
84.39149999999999
 30
0.0
 11
171.8618621311667
 21
85.06768484745929
 31
0.0
  0
LINE
  5
51C
330
1E
100
AcDbEntity
  8
0
100
AcDbLine
 10
172.369965
 20
84.11469999999999
 30
0.0
 11
171.064765
 21
86.56270000000001
 31
0.0
  0
LINE
  5
51D
330
1E
100
AcDbEntity
  8
0
100
AcDbLine
 10
172.369965
 20
84.11469999999999
 30
0.0
 11
172.207865
 21
84.39149999999999
 31
0.0
  0
LINE
  5
51E
330
1E
100
AcDbEntity
  8
0
100
AcDbLine
 10
169.020465
 20
90.26340000000001
 30
0.0
 11
167.469365
 21
92.22929999999999
 31
0.0
  0
LINE
  5
51F
330
1E
100
AcDbEntity
  8
0
100
AcDbLine
 10
170.0237235120698
 20
88.5349163152532
 30
0.0
 11
167.914465
 21
90.0994
 31
0.0
  0
LINE
  5
520
330
1E
100
AcDbEntity
  8
0
100
AcDbLine
 10
170.005865
 20
88.6067
 30
0.0
 11
169.020465
 21
90.26340000000001
 31
0.0
  0
LINE
  5
521
330
1E
100
AcDbEntity
  8
0
100
AcDbLine
 10
167.742465
 20
90.3452
 30
0.0
 11
167.283565
 21
91.00050000000001
 31
0.0
  0
LINE
  5
522
330
1E
100
AcDbEntity
  8
0
100
AcDbLine
 10
167.914465
 20
90.0994
 30
0.0
 11
167.742465
 21
90.3452
 31
0.0
  0
LINE
  5
523
330
1E
100
AcDbEntity
  8
0
100
AcDbLine
 10
171.1931649999999
 20
101.185
 30
0.0
 11
170.2797649999999
 21
100.5449999999999
 31
0.0
  0
LINE
  5
524
330
1E
100
AcDbEntity
  8
0
100
AcDbLine
 10
170.8697649999999
 20
99.7375
 30
0.0
 11
168.568765
 21
97.8822
 31
0.0
  0
LINE
  5
525
330
1E
100
AcDbEntity
  8
0
100
AcDbLine
 10
172.405465
 20
102.034
 30
0.0
 11
171.8230649999999
 21
101.626
 31
0.0
  0
LINE
  5
526
330
1E
100
AcDbEntity
  8
0
100
AcDbLine
 10
172.5980649999999
 20
101.5579999999999
 30
0.0
 11
170.8697649999999
 21
99.7375
 31
0.0
  0
LINE
  5
527
330
1E
100
AcDbEntity
  8
0
100
AcDbLine
 10
172.720065
 20
102.254
 30
0.0
 11
172.5980649999999
 21
101.5579999999999
 31
0.0
  0
LINE
  5
528
330
1E
100
AcDbEntity
  8
0
100
AcDbLine
 10
172.720065
 20
102.254
 30
0.0
 11
172.405465
 21
102.034
 31
0.0
  0
LINE
  5
529
330
1E
100
AcDbEntity
  8
0
100
AcDbLine
 10
172.5707649999999
 20
100.506
 30
0.0
 11
172.4466089467485
 21
101.35998733364
 31
0.0
  0
LINE
  5
52A
330
1E
100
AcDbEntity
  8
0
100
AcDbLine
 10
173.3539649999999
 20
98.80320000000001
 30
0.0
 11
172.5707649999999
 21
100.506
 31
0.0
  0
LINE
  5
52B
330
1E
100
AcDbEntity
  8
0
100
AcDbLine
 10
173.475665
 20
100.4629999999999
 30
0.0
 11
172.6202809962996
 21
101.684740437906
 31
0.0
  0
LINE
  5
52C
330
1E
100
AcDbEntity
  8
0
100
AcDbLine
 10
171.8230649999999
 20
101.626
 30
0.0
 11
171.1931649999999
 21
101.185
 31
0.0
  0
LINE
  5
52D
330
1E
100
AcDbEntity
  8
0
100
AcDbLine
 10
169.3620649999999
 20
101.856
 30
0.0
 11
166.9627649999999
 21
100.1759999999999
 31
0.0
  0
LINE
  5
52E
330
1E
100
AcDbEntity
  8
0
100
AcDbLine
 10
170.2797649999999
 20
100.5449999999999
 30
0.0
 11
167.880465
 21
98.8652
 31
0.0
  0
LINE
  5
52F
330
1E
100
AcDbEntity
  8
0
100
AcDbLine
 10
170.2754649999999
 20
102.495
 30
0.0
 11
169.3620649999999
 21
101.856
 31
0.0
  0
LINE
  5
530
330
1E
100
AcDbEntity
  8
0
100
AcDbLine
 10
171.017365
 20
104.8459999999999
 30
0.0
 11
168.6656649999999
 21
108.2049999999999
 31
0.0
  0
LINE
  5
531
330
1E
100
AcDbEntity
  8
0
100
AcDbLine
 10
171.1067649999999
 20
103.6879999999999
 30
0.0
 11
168.8048649999999
 21
102.686
 31
0.0
  0
LINE
  5
532
330
1E
100
AcDbEntity
  8
0
100
AcDbLine
 10
170.378365
 20
104.8869999999999
 30
0.0
 11
168.944365
 21
106.935
 31
0.0
  0
LINE
  5
533
330
1E
100
AcDbEntity
  8
0
100
AcDbLine
 10
170.8686362283829
 20
103.613161531544
 30
0.0
 11
170.108565
 21
104.022
 31
0.0
  0
LINE
  5
534
330
1E
100
AcDbEntity
  8
0
100
AcDbLine
 10
172.2456649999999
 20
102.898
 30
0.0
 11
171.802365
 21
103.5649999999999
 31
0.0
  0
LINE
  5
535
330
1E
100
AcDbEntity
  8
0
100
AcDbLine
 10
172.336565
 20
102.9619999999999
 30
0.0
 11
171.017365
 21
104.8459999999999
 31
0.0
  0
LINE
  5
536
330
1E
100
AcDbEntity
  8
0
100
AcDbLine
 10
171.233457137885
 20
103.665597566188
 30
0.0
 11
170.378365
 21
104.8869999999999
 31
0.0
  0
LINE
  5
537
330
1E
100
AcDbEntity
  8
0
100
AcDbLine
 10
171.487765
 20
103.3439999999999
 30
0.0
 11
170.9053649999999
 21
102.936
 31
0.0
  0
LINE
  5
538
330
1E
100
AcDbEntity
  8
0
100
AcDbLine
 10
171.802365
 20
103.5649999999999
 30
0.0
 11
171.1067649999999
 21
103.6879999999999
 31
0.0
  0
LINE
  5
539
330
1E
100
AcDbEntity
  8
0
100
AcDbLine
 10
171.802365
 20
103.5649999999999
 30
0.0
 11
171.487765
 21
103.3439999999999
 31
0.0
  0
LINE
  5
53A
330
1E
100
AcDbEntity
  8
0
100
AcDbLine
 10
168.944365
 20
106.935
 30
0.0
 11
167.682565
 21
108.737
 31
0.0
  0
LINE
  5
53B
330
1E
100
AcDbEntity
  8
0
100
AcDbLine
 10
168.776565
 20
105.34
 30
0.0
 11
167.3739649999999
 21
106.812
 31
0.0
  0
LINE
  5
53C
330
1E
100
AcDbEntity
  8
0
100
AcDbLine
 10
170.108565
 20
104.022
 30
0.0
 11
168.776565
 21
105.34
 31
0.0
  0
LINE
  5
53D
330
1E
100
AcDbEntity
  8
0
100
AcDbLine
 10
168.6656649999999
 20
108.2049999999999
 30
0.0
 11
167.3464649999999
 21
110.0889999999999
 31
0.0
  0
LINE
  5
53E
330
1E
100
AcDbEntity
  8
0
100
AcDbLine
 10
167.682565
 20
108.737
 30
0.0
 11
166.707465
 21
110.1289999999999
 31
0.0
  0
LINE
  5
53F
330
1E
100
AcDbEntity
  8
0
100
AcDbLine
 10
167.3464649999999
 20
110.0889999999999
 30
0.0
 11
167.1743649999999
 21
110.3339999999999
 31
0.0
  0
LINE
  5
540
330
1E
100
AcDbEntity
  8
0
100
AcDbLine
 10
160.586465
 20
102.0589999999999
 30
0.0
 11
159.269665
 21
104.1889999999999
 31
0.0
  0
LINE
  5
541
330
1E
100
AcDbEntity
  8
0
100
AcDbLine
 10
158.737265
 20
103.2059999999999
 30
0.0
 11
157.9593649999999
 21
100.8299999999999
 31
0.0
  0
LINE
  5
542
330
1E
100
AcDbEntity
  8
0
100
AcDbLine
 10
159.368165
 20
102.305
 30
0.0
 11
158.909365
 21
102.9599999999999
 31
0.0
  0
LINE
  5
543
330
1E
100
AcDbEntity
  8
0
100
AcDbLine
 10
159.852165
 20
98.1268
 30
0.0
 11
159.049165
 21
99.2736
 31
0.0
  0
LINE
  5
544
330
1E
100
AcDbEntity
  8
0
100
AcDbLine
 10
165.415865
 20
90.181
 30
0.0
 11
158.862565
 21
85.5924
 31
0.0
  0
LINE
  5
545
330
1E
100
AcDbEntity
  8
0
100
AcDbLine
 10
163.523065
 20
92.8842
 30
0.0
 11
162.662665
 21
94.11289999999999
 31
0.0
  0
LINE
  5
546
330
1E
100
AcDbEntity
  8
0
100
AcDbLine
 10
166.537865
 20
92.0654
 30
0.0
 11
165.6201649999999
 21
93.376
 31
0.0
  0
LINE
  5
547
330
1E
100
AcDbEntity
  8
0
100
AcDbLine
 10
164.8995649999999
 20
90.9182
 30
0.0
 11
164.326065
 21
91.7374
 31
0.0
  0
LINE
  5
548
330
1E
100
AcDbEntity
  8
0
100
AcDbLine
 10
165.415865
 20
90.181
 30
0.0
 11
165.3010649999999
 21
90.3448
 31
0.0
  0
LINE
  5
549
330
1E
100
AcDbEntity
  8
0
100
AcDbLine
 10
165.3010649999999
 20
90.3448
 30
0.0
 11
164.8995649999999
 21
90.9182
 31
0.0
  0
LINE
  5
54A
330
1E
100
AcDbEntity
  8
0
100
AcDbLine
 10
164.326065
 20
91.7374
 30
0.0
 11
163.523065
 21
92.8842
 31
0.0
  0
LINE
  5
54B
330
1E
100
AcDbEntity
  8
0
100
AcDbLine
 10
163.973565
 20
99.3035
 30
0.0
 11
162.2451649999999
 21
97.4829
 31
0.0
  0
LINE
  5
54C
330
1E
100
AcDbEntity
  8
0
100
AcDbLine
 10
163.020165
 20
97.41520000000001
 30
0.0
 11
162.437765
 21
97.00740000000001
 31
0.0
  0
LINE
  5
54D
330
1E
100
AcDbEntity
  8
0
100
AcDbLine
 10
163.0409649999999
 20
95.4765
 30
0.0
 11
162.597665
 21
96.14270000000001
 31
0.0
  0
LINE
  5
54E
330
1E
100
AcDbEntity
  8
0
100
AcDbLine
 10
163.6501649999999
 20
97.85630000000001
 30
0.0
 11
163.020165
 21
97.41520000000001
 31
0.0
  0
LINE
  5
54F
330
1E
100
AcDbEntity
  8
0
100
AcDbLine
 10
165.481165
 20
97.18519999999999
 30
0.0
 11
164.567865
 21
96.54569999999999
 31
0.0
  0
LINE
  5
550
330
1E
100
AcDbEntity
  8
0
100
AcDbLine
 10
166.0383649999999
 20
96.35460000000001
 30
0.0
 11
163.736465
 21
95.3531
 31
0.0
  0
LINE
  5
551
330
1E
100
AcDbEntity
  8
0
100
AcDbLine
 10
166.066765
 20
93.7007
 30
0.0
 11
164.734765
 21
95.01890000000001
 31
0.0
  0
LINE
  5
552
330
1E
100
AcDbEntity
  8
0
100
AcDbLine
 10
165.6201649999999
 20
93.376
 30
0.0
 11
164.5303649999999
 21
94.9324
 31
0.0
  0
LINE
  5
553
330
1E
100
AcDbEntity
  8
0
100
AcDbLine
 10
164.567865
 20
96.54569999999999
 30
0.0
 11
163.9379649999999
 21
96.10460000000001
 31
0.0
  0
LINE
  5
554
330
1E
100
AcDbEntity
  8
0
100
AcDbLine
 10
163.9379649999999
 20
96.10460000000001
 30
0.0
 11
163.355465
 21
95.69679999999999
 31
0.0
  0
LINE
  5
555
330
1E
100
AcDbEntity
  8
0
100
AcDbLine
 10
163.355465
 20
95.69679999999999
 30
0.0
 11
163.0409649999999
 21
95.4765
 31
0.0
  0
LINE
  5
556
330
1E
100
AcDbEntity
  8
0
100
AcDbLine
 10
164.734765
 20
95.01890000000001
 30
0.0
 11
163.9743142986264
 21
95.42782925108271
 31
0.0
  0
LINE
  5
557
330
1E
100
AcDbEntity
  8
0
100
AcDbLine
 10
163.736465
 20
95.3531
 30
0.0
 11
163.0409649999999
 21
95.4765
 31
0.0
  0
LINE
  5
558
330
1E
100
AcDbEntity
  8
0
100
AcDbLine
 10
164.5303649999999
 20
94.9324
 30
0.0
 11
164.3097724771148
 21
95.2474379890968
 31
0.0
  0
LINE
  5
559
330
1E
100
AcDbEntity
  8
0
100
AcDbLine
 10
166.274465
 20
101.1589999999999
 30
0.0
 11
163.973565
 21
99.3035
 31
0.0
  0
LINE
  5
55A
330
1E
100
AcDbEntity
  8
0
100
AcDbLine
 10
164.563465
 20
98.49580000000001
 30
0.0
 11
163.6501649999999
 21
97.85630000000001
 31
0.0
  0
LINE
  5
55B
330
1E
100
AcDbEntity
  8
0
100
AcDbLine
 10
162.3966814284597
 20
97.6807834491915
 30
0.0
 11
162.2725649999999
 21
98.53530000000001
 31
0.0
  0
LINE
  5
55C
330
1E
100
AcDbEntity
  8
0
100
AcDbLine
 10
160.712465
 20
96.89799999999999
 30
0.0
 11
159.852165
 21
98.1268
 31
0.0
  0
LINE
  5
55D
330
1E
100
AcDbEntity
  8
0
100
AcDbLine
 10
161.687565
 20
95.50549999999999
 30
0.0
 11
160.712465
 21
96.89799999999999
 31
0.0
  0
LINE
  5
55E
330
1E
100
AcDbEntity
  8
0
100
AcDbLine
 10
162.2451649999999
 20
97.4829
 30
0.0
 11
162.123265
 21
96.7871
 31
0.0
  0
LINE
  5
55F
330
1E
100
AcDbEntity
  8
0
100
AcDbLine
 10
162.597665
 20
96.14270000000001
 30
0.0
 11
162.123265
 21
96.7871
 31
0.0
  0
LINE
  5
560
330
1E
100
AcDbEntity
  8
0
100
AcDbLine
 10
162.437765
 20
97.00740000000001
 30
0.0
 11
162.123265
 21
96.7871
 31
0.0
  0
LINE
  5
561
330
1E
100
AcDbEntity
  8
0
100
AcDbLine
 10
162.662665
 20
94.11289999999999
 30
0.0
 11
161.687565
 21
95.50549999999999
 31
0.0
  0
LINE
  5
562
330
1E
100
AcDbEntity
  8
0
100
AcDbLine
 10
161.4893649999999
 20
100.238
 30
0.0
 11
160.586465
 21
102.0589999999999
 31
0.0
  0
LINE
  5
563
330
1E
100
AcDbEntity
  8
0
100
AcDbLine
 10
162.121365
 20
98.37290000000001
 30
0.0
 11
161.0315649999999
 21
99.92919999999999
 31
0.0
  0
LINE
  5
564
330
1E
100
AcDbEntity
  8
0
100
AcDbLine
 10
162.2725649999999
 20
98.53530000000001
 30
0.0
 11
161.4893649999999
 21
100.238
 31
0.0
  0
LINE
  5
565
330
1E
100
AcDbEntity
  8
0
100
AcDbLine
 10
162.3419030552371
 20
98.05792148906229
 30
0.0
 11
162.121365
 21
98.37290000000001
 31
0.0
  0
LINE
  5
566
330
1E
100
AcDbEntity
  8
0
100
AcDbLine
 10
160.113865
 20
101.2399999999999
 30
0.0
 11
159.368165
 21
102.305
 31
0.0
  0
LINE
  5
567
330
1E
100
AcDbEntity
  8
0
100
AcDbLine
 10
161.0315649999999
 20
99.92919999999999
 30
0.0
 11
160.113865
 21
101.2399999999999
 31
0.0
  0
LINE
  5
568
330
1E
100
AcDbEntity
  8
0
100
AcDbLine
 10
154.0117650000937
 20
92.5200799952166
 30
0.0
 11
153.298965
 21
93.5382
 31
0.0
  0
LINE
  5
569
330
1E
100
AcDbEntity
  8
0
100
AcDbLine
 10
154.0117650000937
 20
92.5200799952166
 30
0.0
 11
153.413665
 21
93.37430000000001
 31
0.0
  0
LINE
  5
56A
330
1E
100
AcDbEntity
  8
0
100
AcDbLine
 10
154.159265
 20
92.3094
 30
0.0
 11
153.298965
 21
93.5382
 31
0.0
  0
LINE
  5
56B
330
1E
100
AcDbEntity
  8
0
100
AcDbLine
 10
155.9947649999999
 20
89.68810000000001
 30
0.0
 11
155.1343649999999
 21
90.91689999999999
 31
0.0
  0
LINE
  5
56C
330
1E
100
AcDbEntity
  8
0
100
AcDbLine
 10
156.109465
 20
89.52429999999999
 30
0.0
 11
155.1343649999999
 21
90.91689999999999
 31
0.0
  0
LINE
  5
56D
330
1E
100
AcDbEntity
  8
0
100
AcDbLine
 10
157.5433649999999
 20
87.4764
 30
0.0
 11
156.8550649999999
 21
88.4594
 31
0.0
  0
LINE
  5
56E
330
1E
100
AcDbEntity
  8
0
100
AcDbLine
 10
157.772865
 20
87.14879999999999
 30
0.0
 11
156.9697649999999
 21
88.29559999999998
 31
0.0
  0
LINE
  5
56F
330
1E
100
AcDbEntity
  8
0
100
AcDbLine
 10
158.0697244456927
 20
86.72475944566441
 30
0.0
 11
157.5433649999999
 21
87.4764
 31
0.0
  0
LINE
  5
570
330
1E
100
AcDbEntity
  8
0
100
AcDbLine
 10
158.3463649999999
 20
86.3296
 30
0.0
 11
157.772865
 21
87.14879999999999
 31
0.0
  0
LINE
  5
571
330
1E
100
AcDbEntity
  8
0
100
AcDbLine
 10
158.862565
 20
85.5924
 30
0.0
 11
158.7478649999999
 21
85.7562
 31
0.0
  0
LINE
  5
572
330
1E
100
AcDbEntity
  8
0
100
AcDbLine
 10
158.7478649999999
 20
85.7562
 30
0.0
 11
158.3463649999999
 21
86.3296
 31
0.0
  0
LINE
  5
573
330
1E
100
AcDbEntity
  8
0
100
AcDbLine
 10
156.8550649999999
 20
88.4594
 30
0.0
 11
155.9947649999999
 21
89.68810000000001
 31
0.0
  0
LINE
  5
574
330
1E
100
AcDbEntity
  8
0
100
AcDbLine
 10
156.9697649999999
 20
88.29559999999998
 30
0.0
 11
156.109465
 21
89.52429999999999
 31
0.0
  0
LINE
  5
575
330
1E
100
AcDbEntity
  8
0
100
AcDbLine
 10
155.1343649999999
 20
90.91689999999999
 30
0.0
 11
154.2637754272142
 21
92.1601529792885
 31
0.0
  0
LINE
  5
576
330
1E
100
AcDbEntity
  8
0
100
AcDbLine
 10
155.1343649999999
 20
90.91689999999999
 30
0.0
 11
154.159265
 21
92.3094
 31
0.0
  0
LINE
  5
577
330
1E
100
AcDbEntity
  8
0
100
AcDbLine
 10
155.1343649999999
 20
90.91689999999999
 30
0.0
 11
154.273965
 21
92.1456
 31
0.0
  0
LINE
  5
578
330
1E
100
AcDbEntity
  8
0
100
AcDbLine
 10
158.0740649999999
 20
100.6659999999999
 30
0.0
 11
157.9593649999999
 21
100.8299999999999
 31
0.0
  0
LINE
  5
579
330
1E
100
AcDbEntity
  8
0
100
AcDbLine
 10
158.475565
 20
100.0929999999999
 30
0.0
 11
158.0740649999999
 21
100.6659999999999
 31
0.0
  0
LINE
  5
57A
330
1E
100
AcDbEntity
  8
0
100
AcDbLine
 10
159.049165
 20
99.2736
 30
0.0
 11
158.475565
 21
100.0929999999999
 31
0.0
  0
LINE
  5
57B
330
1E
100
AcDbEntity
  8
0
100
AcDbLine
 10
153.413665
 20
93.37430000000001
 30
0.0
 11
152.8220525738954
 21
94.21921502958129
 31
0.0
  0
LINE
  5
57C
330
1E
100
AcDbEntity
  8
0
100
AcDbLine
 10
153.298965
 20
93.5382
 30
0.0
 11
152.8220525738954
 21
94.21921502958129
 31
0.0
  0
LINE
  5
57D
330
1E
100
AcDbEntity
  8
0
100
AcDbLine
 10
153.298965
 20
93.5382
 30
0.0
 11
152.495865
 21
94.685
 31
0.0
  0
LINE
  5
57E
330
1E
100
AcDbEntity
  8
0
100
AcDbLine
 10
164.837365
 20
110.434
 30
0.0
 11
163.778565
 21
112.4779999999999
 31
0.0
  0
LINE
  5
57F
330
1E
100
AcDbEntity
  8
0
100
AcDbLine
 10
164.5035568242423
 20
111.0784124586779
 30
0.0
 11
163.778565
 21
112.4779999999999
 31
0.0
  0
LINE
  5
580
330
1E
100
AcDbEntity
  8
0
100
AcDbLine
 10
165.1438573104246
 20
109.9189809578249
 30
0.0
 11
164.5035568242423
 21
111.0784124586779
 31
0.0
  0
LINE
  5
581
330
1E
100
AcDbEntity
  8
0
100
AcDbLine
 10
165.904465
 20
111.276
 30
0.0
 11
164.6075647507528
 21
110.8900789044529
 31
0.0
  0
LINE
  5
582
330
1E
100
AcDbEntity
  8
0
100
AcDbLine
 10
166.133865
 20
110.949
 30
0.0
 11
165.904465
 21
111.276
 31
0.0
  0
LINE
  5
583
330
1E
100
AcDbEntity
  8
0
100
AcDbLine
 10
165.822865
 20
108.7779999999999
 30
0.0
 11
164.837365
 21
110.434
 31
0.0
  0
LINE
  5
584
330
1E
100
AcDbEntity
  8
0
100
AcDbLine
 10
164.6075647507528
 20
110.8900789044529
 30
0.0
 11
164.5035568242423
 21
111.0784124586779
 31
0.0
  0
LINE
  5
585
330
1E
100
AcDbEntity
  8
0
100
AcDbLine
 10
163.778565
 20
112.4779999999999
 30
0.0
 11
162.473365
 21
114.9259999999999
 31
0.0
  0
LINE
  5
586
330
1E
100
AcDbEntity
  8
0
100
AcDbLine
 10
162.473365
 20
114.9259999999999
 30
0.0
 11
160.8722649999999
 21
118.132
 31
0.0
  0
LINE
  5
587
330
1E
100
AcDbEntity
  8
0
100
AcDbLine
 10
161.6851601788223
 20
116.5042803426989
 30
0.0
 11
160.8722649999999
 21
118.132
 31
0.0
  0
LINE
  5
588
330
1E
100
AcDbEntity
  8
0
100
AcDbLine
 10
162.635465
 20
114.65
 30
0.0
 11
162.473365
 21
114.9259999999999
 31
0.0
  0
LINE
  5
589
330
1E
100
AcDbEntity
  8
0
100
AcDbLine
 10
154.6373649999999
 20
109.4389999999999
 30
0.0
 11
152.172865
 21
112.04
 31
0.0
  0
LINE
  5
58A
330
1E
100
AcDbEntity
  8
0
100
AcDbLine
 10
156.491365
 20
107.376
 30
0.0
 11
155.3457394198655
 21
108.650771074335
 31
0.0
  0
LINE
  5
58B
330
1E
100
AcDbEntity
  8
0
100
AcDbLine
 10
156.491365
 20
107.376
 30
0.0
 11
154.6373649999999
 21
109.4389999999999
 31
0.0
  0
LINE
  5
58C
330
1E
100
AcDbEntity
  8
0
100
AcDbLine
 10
158.049865
 20
105.682
 30
0.0
 11
156.491365
 21
107.376
 31
0.0
  0
LINE
  5
58D
330
1E
100
AcDbEntity
  8
0
100
AcDbLine
 10
158.4295510688614
 20
105.2172752083859
 30
0.0
 11
157.5545665109025
 21
106.220361014136
 31
0.0
  0
LINE
  5
58E
330
1E
100
AcDbEntity
  8
0
100
AcDbLine
 10
159.269665
 20
104.1889999999999
 30
0.0
 11
158.049865
 21
105.682
 31
0.0
  0
LINE
  5
58F
330
1E
100
AcDbEntity
  8
0
100
AcDbLine
 10
158.909365
 20
102.9599999999999
 30
0.0
 11
158.737265
 21
103.2059999999999
 31
0.0
  0
LINE
  5
590
330
1E
100
AcDbEntity
  8
0
100
AcDbLine
 10
158.737265
 20
103.2059999999999
 30
0.0
 11
157.9959941458549
 21
105.698005278298
 31
0.0
  0
LINE
  5
591
330
1E
100
AcDbEntity
  8
0
100
AcDbLine
 10
154.8420649999999
 20
109.193
 30
0.0
 11
153.4680961588429
 21
110.6730305359499
 31
0.0
  0
LINE
  5
592
330
1E
100
AcDbEntity
  8
0
100
AcDbLine
 10
154.8420649999999
 20
109.193
 30
0.0
 11
154.6373649999999
 21
109.4389999999999
 31
0.0
  0
LINE
  5
593
330
1E
100
AcDbEntity
  8
0
100
AcDbLine
 10
155.3457394198657
 20
108.650771074335
 30
0.0
 11
154.8420649999999
 21
109.193
 31
0.0
  0
LINE
  5
594
330
1E
100
AcDbEntity
  8
0
100
AcDbLine
 10
132.577065
 20
59.0743
 30
0.0
 11
114.552665
 21
46.4549
 31
0.0
  0
LINE
  5
595
330
1E
100
AcDbEntity
  8
0
100
AcDbLine
 10
124.945965
 20
88.7007
 30
0.0
 11
120.031065
 21
85.2593
 31
0.0
  0
LINE
  5
596
330
1E
100
AcDbEntity
  8
0
100
AcDbLine
 10
123.3104316655416
 20
80.5758127305495
 30
0.0
 11
122.416265
 21
81.8528
 31
0.0
  0
LINE
  5
597
330
1E
100
AcDbEntity
  8
0
100
AcDbLine
 10
123.3104316655416
 20
80.5758127305495
 30
0.0
 11
122.416265
 21
81.8528
 31
0.0
  0
LINE
  5
598
330
1E
100
AcDbEntity
  8
0
100
AcDbLine
 10
123.808565
 20
78.9927
 30
0.0
 11
121.801065
 21
81.85970000000001
 31
0.0
  0
LINE
  5
599
330
1E
100
AcDbEntity
  8
0
100
AcDbLine
 10
124.4647107512008
 20
78.92738976096708
 30
0.0
 11
120.031065
 21
85.2593
 31
0.0
  0
LINE
  5
59A
330
1E
100
AcDbEntity
  8
0
100
AcDbLine
 10
124.4647107512008
 20
78.92738976096708
 30
0.0
 11
120.031065
 21
85.2593
 31
0.0
  0
LINE
  5
59B
330
1E
100
AcDbEntity
  8
0
100
AcDbLine
 10
123.211665
 20
72.44939999999999
 30
0.0
 11
121.422065
 21
75.0052
 31
0.0
  0
LINE
  5
59C
330
1E
100
AcDbEntity
  8
0
100
AcDbLine
 10
123.6454649999999
 20
73.9953
 30
0.0
 11
121.351165
 21
77.27199999999999
 31
0.0
  0
LINE
  5
59D
330
1E
100
AcDbEntity
  8
0
100
AcDbLine
 10
128.9609649999999
 20
82.9667
 30
0.0
 11
127.8711649999999
 21
84.5231
 31
0.0
  0
LINE
  5
59E
330
1E
100
AcDbEntity
  8
0
100
AcDbLine
 10
131.451165
 20
79.41030000000001
 30
0.0
 11
124.945965
 21
88.7007
 31
0.0
  0
LINE
  5
59F
330
1E
100
AcDbEntity
  8
0
100
AcDbLine
 10
143.666265
 20
82.88679999999999
 30
0.0
 11
141.888165
 21
85.42619999999999
 31
0.0
  0
LINE
  5
5A0
330
1E
100
AcDbEntity
  8
0
100
AcDbLine
 10
144.0757649999999
 20
83.17359999999998
 30
0.0
 11
142.3550649999999
 21
85.631
 31
0.0
  0
LINE
  5
5A1
330
1E
100
AcDbEntity
  8
0
100
AcDbLine
 10
144.4853649999999
 20
83.4604
 30
0.0
 11
142.707265
 21
85.9997
 31
0.0
  0
LINE
  5
5A2
330
1E
100
AcDbEntity
  8
0
100
AcDbLine
 10
147.4921649999999
 20
81.7814
 30
0.0
 11
145.714165
 21
84.32070000000001
 31
0.0
  0
LINE
  5
5A3
330
1E
100
AcDbEntity
  8
0
100
AcDbLine
 10
147.844465
 20
82.15009999999999
 30
0.0
 11
146.123665
 21
84.6075
 31
0.0
  0
LINE
  5
5A4
330
1E
100
AcDbEntity
  8
0
100
AcDbLine
 10
137.975965
 20
58.7596
 30
0.0
 11
137.033965
 21
57.48969999999999
 31
0.0
  0
LINE
  5
5A5
330
1E
100
AcDbEntity
  8
0
100
AcDbLine
 10
137.631765
 20
59.2511
 30
0.0
 11
136.714065
 21
60.5618
 31
0.0
  0
LINE
  5
5A6
330
1E
100
AcDbEntity
  8
0
100
AcDbLine
 10
137.525165
 20
60.2751
 30
0.0
 11
137.2383649999999
 21
60.6847
 31
0.0
  0
LINE
  5
5A7
330
1E
100
AcDbEntity
  8
0
100
AcDbLine
 10
137.525165
 20
60.2751
 30
0.0
 11
137.2383649999999
 21
60.6847
 31
0.0
  0
LINE
  5
5A8
330
1E
100
AcDbEntity
  8
0
100
AcDbLine
 10
137.5005526968312
 20
70.7709568070712
 30
0.0
 11
137.0450690239555
 21
71.42145571786321
 31
0.0
  0
LINE
  5
5A9
330
1E
100
AcDbEntity
  8
0
100
AcDbLine
 10
137.5005526968312
 20
70.7709568070712
 30
0.0
 11
137.0450690239555
 21
71.42145571786321
 31
0.0
  0
LINE
  5
5AA
330
1E
100
AcDbEntity
  8
0
100
AcDbLine
 10
137.8119649999999
 20
59.8656
 30
0.0
 11
135.426665
 21
63.272
 31
0.0
  0
LINE
  5
5AB
330
1E
100
AcDbEntity
  8
0
100
AcDbLine
 10
138.711765
 20
69.0411
 30
0.0
 11
137.277865
 21
71.089
 31
0.0
  0
LINE
  5
5AC
330
1E
100
AcDbEntity
  8
0
100
AcDbLine
 10
140.341565
 20
66.7135
 30
0.0
 11
131.451165
 21
79.41030000000001
 31
0.0
  0
LINE
  5
5AD
330
1E
100
AcDbEntity
  8
0
100
AcDbLine
 10
142.726865
 20
63.307
 30
0.0
 11
140.341565
 21
66.7135
 31
0.0
  0
LINE
  5
5AE
330
1E
100
AcDbEntity
  8
0
100
AcDbLine
 10
142.726865
 20
63.307
 30
0.0
 11
140.591574627312
 21
66.3565144927782
 31
0.0
  0
LINE
  5
5AF
330
1E
100
AcDbEntity
  8
0
100
AcDbLine
 10
142.726865
 20
63.307
 30
0.0
 11
137.8119649999999
 21
59.8656
 31
0.0
  0
LINE
  5
5B0
330
1E
100
AcDbEntity
  8
0
100
AcDbLine
 10
137.975965
 20
58.7596
 30
0.0
 11
137.525165
 21
60.2751
 31
0.0
  0
LINE
  5
5B1
330
1E
100
AcDbEntity
  8
0
100
AcDbLine
 10
137.975965
 20
58.7596
 30
0.0
 11
137.631765
 21
59.2511
 31
0.0
  0
LINE
  5
5B2
330
1E
100
AcDbEntity
  8
0
100
AcDbLine
 10
150.549165
 20
73.057
 30
0.0
 11
140.719365
 21
66.17409999999999
 31
0.0
  0
LINE
  5
5B3
330
1E
100
AcDbEntity
  8
0
100
AcDbLine
 10
145.4443649999999
 20
80.34739999999999
 30
0.0
 11
143.666265
 21
82.88679999999999
 31
0.0
  0
LINE
  5
5B4
330
1E
100
AcDbEntity
  8
0
100
AcDbLine
 10
145.796565
 20
80.71609999999999
 30
0.0
 11
144.0757649999999
 21
83.17359999999998
 31
0.0
  0
LINE
  5
5B5
330
1E
100
AcDbEntity
  8
0
100
AcDbLine
 10
146.263465
 20
80.921
 30
0.0
 11
144.4853649999999
 21
83.4604
 31
0.0
  0
LINE
  5
5B6
330
1E
100
AcDbEntity
  8
0
100
AcDbLine
 10
150.319765
 20
73.38460000000001
 30
0.0
 11
149.6314649999999
 21
74.36759999999999
 31
0.0
  0
LINE
  5
5B7
330
1E
100
AcDbEntity
  8
0
100
AcDbLine
 10
150.6719649999999
 20
73.75329999999999
 30
0.0
 11
150.4424649999999
 21
74.08100000000001
 31
0.0
  0
LINE
  5
5B8
330
1E
100
AcDbEntity
  8
0
100
AcDbLine
 10
151.138865
 20
73.9582
 30
0.0
 11
150.450565
 21
74.94119999999999
 31
0.0
  0
LINE
  5
5B9
330
1E
100
AcDbEntity
  8
0
100
AcDbLine
 10
150.549165
 20
73.057
 30
0.0
 11
150.319765
 21
73.38460000000001
 31
0.0
  0
LINE
  5
5BA
330
1E
100
AcDbEntity
  8
0
100
AcDbLine
 10
150.6719649999999
 20
73.75329999999999
 30
0.0
 11
150.549165
 21
73.057
 31
0.0
  0
LINE
  5
5BB
330
1E
100
AcDbEntity
  8
0
100
AcDbLine
 10
151.3682649999999
 20
73.6306
 30
0.0
 11
150.6719649999999
 21
73.75329999999999
 31
0.0
  0
LINE
  5
5BC
330
1E
100
AcDbEntity
  8
0
100
AcDbLine
 10
151.3682649999999
 20
73.6306
 30
0.0
 11
151.138865
 21
73.9582
 31
0.0
  0
LINE
  5
5BD
330
1E
100
AcDbEntity
  8
0
100
AcDbLine
 10
148.5416649999999
 20
75.92399999999999
 30
0.0
 11
147.107665
 21
77.9719
 31
0.0
  0
LINE
  5
5BE
330
1E
100
AcDbEntity
  8
0
100
AcDbLine
 10
148.721765
 20
76.5385
 30
0.0
 11
147.345165
 21
78.5044
 31
0.0
  0
LINE
  5
5BF
330
1E
100
AcDbEntity
  8
0
100
AcDbLine
 10
149.155565
 20
79.4058
 30
0.0
 11
147.4921649999999
 21
81.7814
 31
0.0
  0
LINE
  5
5C0
330
1E
100
AcDbEntity
  8
0
100
AcDbLine
 10
149.393065
 20
79.9384
 30
0.0
 11
147.844465
 21
82.15009999999999
 31
0.0
  0
LINE
  5
5C1
330
1E
100
AcDbEntity
  8
0
100
AcDbLine
 10
149.360765
 20
76.4976
 30
0.0
 11
147.9268649999999
 21
78.5455
 31
0.0
  0
LINE
  5
5C2
330
1E
100
AcDbEntity
  8
0
100
AcDbLine
 10
150.589565
 20
77.3579
 30
0.0
 11
149.155565
 21
79.4058
 31
0.0
  0
LINE
  5
5C3
330
1E
100
AcDbEntity
  8
0
100
AcDbLine
 10
150.7696649999999
 20
77.97239999999999
 30
0.0
 11
149.5651717169257
 21
79.6926047032718
 31
0.0
  0
LINE
  5
5C4
330
1E
100
AcDbEntity
  8
0
100
AcDbLine
 10
150.7696649999999
 20
77.97239999999999
 30
0.0
 11
149.393065
 21
79.9384
 31
0.0
  0
LINE
  5
5C5
330
1E
100
AcDbEntity
  8
0
100
AcDbLine
 10
150.4424649999999
 20
74.08100000000001
 30
0.0
 11
149.811565
 21
74.9821
 31
0.0
  0
LINE
  5
5C6
330
1E
100
AcDbEntity
  8
0
100
AcDbLine
 10
150.450565
 20
74.94119999999999
 30
0.0
 11
149.360765
 21
76.4976
 31
0.0
  0
LINE
  5
5C7
330
1E
100
AcDbEntity
  8
0
100
AcDbLine
 10
151.679265
 20
75.80159999999999
 30
0.0
 11
150.589565
 21
77.3579
 31
0.0
  0
LINE
  5
5C8
330
1E
100
AcDbEntity
  8
0
100
AcDbLine
 10
151.859465
 20
76.416
 30
0.0
 11
150.7696649999999
 21
77.97239999999999
 31
0.0
  0
LINE
  5
5C9
330
1E
100
AcDbEntity
  8
0
100
AcDbLine
 10
149.6314649999999
 20
74.36759999999999
 30
0.0
 11
148.5416649999999
 21
75.92399999999999
 31
0.0
  0
LINE
  5
5CA
330
1E
100
AcDbEntity
  8
0
100
AcDbLine
 10
149.811565
 20
74.9821
 30
0.0
 11
148.721765
 21
76.5385
 31
0.0
  0
LINE
  5
5CB
330
1E
100
AcDbEntity
  8
0
100
AcDbLine
 10
147.107665
 20
77.9719
 30
0.0
 11
145.4443649999999
 21
80.34739999999999
 31
0.0
  0
LINE
  5
5CC
330
1E
100
AcDbEntity
  8
0
100
AcDbLine
 10
147.345165
 20
78.5044
 30
0.0
 11
145.796565
 21
80.71609999999999
 31
0.0
  0
LINE
  5
5CD
330
1E
100
AcDbEntity
  8
0
100
AcDbLine
 10
147.9268649999999
 20
78.5455
 30
0.0
 11
146.263465
 21
80.921
 31
0.0
  0
LINE
  5
5CE
330
1E
100
AcDbEntity
  8
0
100
AcDbLine
 10
139.801565
 20
67.48470000000001
 30
0.0
 11
138.711765
 21
69.0411
 31
0.0
  0
LINE
  5
5CF
330
1E
100
AcDbEntity
  8
0
100
AcDbLine
 10
139.801565
 20
67.48470000000001
 30
0.0
 11
138.711765
 21
69.0411
 31
0.0
  0
LINE
  5
5D0
330
1E
100
AcDbEntity
  8
0
100
AcDbLine
 10
140.719365
 20
66.17409999999999
 30
0.0
 11
140.5039733762088
 21
66.48156098454879
 31
0.0
  0
LINE
  5
5D1
330
1E
100
AcDbEntity
  8
0
100
AcDbLine
 10
139.8568660033495
 20
67.4057215221668
 30
0.0
 11
139.801565
 21
67.48470000000001
 31
0.0
  0
LINE
  5
5D2
330
1E
100
AcDbEntity
  8
0
100
AcDbLine
 10
135.426665
 20
63.272
 30
0.0
 11
131.158465
 21
69.3677
 31
0.0
  0
LINE
  5
5D3
330
1E
100
AcDbEntity
  8
0
100
AcDbLine
 10
128.8189649999999
 20
64.4414
 30
0.0
 11
127.029365
 21
66.99720000000001
 31
0.0
  0
LINE
  5
5D4
330
1E
100
AcDbEntity
  8
0
100
AcDbLine
 10
130.757765
 20
63.8379
 30
0.0
 11
128.4634649999999
 21
67.11450000000001
 31
0.0
  0
LINE
  5
5D5
330
1E
100
AcDbEntity
  8
0
100
AcDbLine
 10
135.222765
 20
62.6916
 30
0.0
 11
133.2152649999999
 21
65.5586
 31
0.0
  0
LINE
  5
5D6
330
1E
100
AcDbEntity
  8
0
100
AcDbLine
 10
130.399765
 20
62.18379999999999
 30
0.0
 11
128.8189649999999
 21
64.4414
 31
0.0
  0
LINE
  5
5D7
330
1E
100
AcDbEntity
  8
0
100
AcDbLine
 10
134.535365
 20
57.5713
 30
0.0
 11
132.577065
 21
59.0743
 31
0.0
  0
LINE
  5
5D8
330
1E
100
AcDbEntity
  8
0
100
AcDbLine
 10
134.256565
 20
58.841
 30
0.0
 11
132.765265
 21
60.9708
 31
0.0
  0
LINE
  5
5D9
330
1E
100
AcDbEntity
  8
0
100
AcDbLine
 10
137.033965
 20
57.48969999999999
 30
0.0
 11
135.5184649999999
 21
57.0389
 31
0.0
  0
LINE
  5
5DA
330
1E
100
AcDbEntity
  8
0
100
AcDbLine
 10
135.5184649999999
 20
57.0389
 30
0.0
 11
134.535365
 21
57.5713
 31
0.0
  0
LINE
  5
5DB
330
1E
100
AcDbEntity
  8
0
100
AcDbLine
 10
135.5184649999999
 20
57.0389
 30
0.0
 11
135.1743649999999
 21
57.5304
 31
0.0
  0
LINE
  5
5DC
330
1E
100
AcDbEntity
  8
0
100
AcDbLine
 10
135.1743649999999
 20
57.5304
 30
0.0
 11
134.256565
 21
58.841
 31
0.0
  0
LINE
  5
5DD
330
1E
100
AcDbEntity
  8
0
100
AcDbLine
 10
136.714065
 20
60.5618
 30
0.0
 11
135.222765
 21
62.6916
 31
0.0
  0
LINE
  5
5DE
330
1E
100
AcDbEntity
  8
0
100
AcDbLine
 10
136.377965
 20
61.9134
 30
0.0
 11
135.4939534756802
 21
63.1759066517598
 31
0.0
  0
LINE
  5
5DF
330
1E
100
AcDbEntity
  8
0
100
AcDbLine
 10
136.377965
 20
61.9134
 30
0.0
 11
135.4939534756802
 21
63.1759066517598
 31
0.0
  0
LINE
  5
5E0
330
1E
100
AcDbEntity
  8
0
100
AcDbLine
 10
132.3085649999999
 20
59.4577
 30
0.0
 11
131.5927649999999
 21
60.48
 31
0.0
  0
LINE
  5
5E1
330
1E
100
AcDbEntity
  8
0
100
AcDbLine
 10
132.577065
 20
59.0743
 30
0.0
 11
132.3085649999999
 21
59.4577
 31
0.0
  0
LINE
  5
5E2
330
1E
100
AcDbEntity
  8
0
100
AcDbLine
 10
132.765265
 20
60.9708
 30
0.0
 11
130.757765
 21
63.8379
 31
0.0
  0
LINE
  5
5E3
330
1E
100
AcDbEntity
  8
0
100
AcDbLine
 10
131.5927649999999
 20
60.48
 30
0.0
 11
130.399765
 21
62.18379999999999
 31
0.0
  0
LINE
  5
5E4
330
1E
100
AcDbEntity
  8
0
100
AcDbLine
 10
130.9209649999999
 20
68.8352
 30
0.0
 11
128.511965
 21
72.2756
 31
0.0
  0
LINE
  5
5E5
330
1E
100
AcDbEntity
  8
0
100
AcDbLine
 10
130.394965
 20
80.91880000000001
 30
0.0
 11
128.9609649999999
 21
82.9667
 31
0.0
  0
LINE
  5
5E6
330
1E
100
AcDbEntity
  8
0
100
AcDbLine
 10
130.3166909261354
 20
70.56985271961329
 30
0.0
 11
126.5362649999999
 21
75.96890000000001
 31
0.0
  0
LINE
  5
5E7
330
1E
100
AcDbEntity
  8
0
100
AcDbLine
 10
130.3166909261353
 20
70.56985271961341
 30
0.0
 11
126.5362649999999
 21
75.96890000000001
 31
0.0
  0
LINE
  5
5E8
330
1E
100
AcDbEntity
  8
0
100
AcDbLine
 10
131.158465
 20
69.3677
 30
0.0
 11
128.921465
 21
72.5624
 31
0.0
  0
LINE
  5
5E9
330
1E
100
AcDbEntity
  8
0
100
AcDbLine
 10
133.3114772902017
 20
76.7535624579649
 30
0.0
 11
129.305882682532
 21
82.47412195114549
 31
0.0
  0
LINE
  5
5EA
330
1E
100
AcDbEntity
  8
0
100
AcDbLine
 10
133.3114772902017
 20
76.75356245796479
 30
0.0
 11
129.305882682532
 21
82.47412195114549
 31
0.0
  0
LINE
  5
5EB
330
1E
100
AcDbEntity
  8
0
100
AcDbLine
 10
135.614465
 20
73.4645
 30
0.0
 11
133.836365
 21
76.0039
 31
0.0
  0
LINE
  5
5EC
330
1E
100
AcDbEntity
  8
0
100
AcDbLine
 10
137.277865
 20
71.089
 30
0.0
 11
135.614465
 21
73.4645
 31
0.0
  0
LINE
  5
5ED
330
1E
100
AcDbEntity
  8
0
100
AcDbLine
 10
133.2152649999999
 20
65.5586
 30
0.0
 11
130.9209649999999
 21
68.8352
 31
0.0
  0
LINE
  5
5EE
330
1E
100
AcDbEntity
  8
0
100
AcDbLine
 10
133.2152649999999
 20
65.5586
 30
0.0
 11
130.9209649999999
 21
68.8352
 31
0.0
  0
LINE
  5
5EF
330
1E
100
AcDbEntity
  8
0
100
AcDbLine
 10
133.836365
 20
76.0039
 30
0.0
 11
132.058365
 21
78.5433
 31
0.0
  0
LINE
  5
5F0
330
1E
100
AcDbEntity
  8
0
100
AcDbLine
 10
132.058365
 20
78.5433
 30
0.0
 11
130.394965
 21
80.91880000000001
 31
0.0
  0
LINE
  5
5F1
330
1E
100
AcDbEntity
  8
0
100
AcDbLine
 10
128.511965
 20
72.2756
 30
0.0
 11
126.102865
 21
75.71609999999999
 31
0.0
  0
LINE
  5
5F2
330
1E
100
AcDbEntity
  8
0
100
AcDbLine
 10
128.511965
 20
72.2756
 30
0.0
 11
126.102865
 21
75.71609999999999
 31
0.0
  0
LINE
  5
5F3
330
1E
100
AcDbEntity
  8
0
100
AcDbLine
 10
127.029365
 20
66.99720000000001
 30
0.0
 11
125.1205649999999
 21
69.72329999999999
 31
0.0
  0
LINE
  5
5F4
330
1E
100
AcDbEntity
  8
0
100
AcDbLine
 10
128.4634649999999
 20
67.11450000000001
 30
0.0
 11
126.0544649999999
 21
70.5549
 31
0.0
  0
LINE
  5
5F5
330
1E
100
AcDbEntity
  8
0
100
AcDbLine
 10
125.1205649999999
 20
69.72329999999999
 30
0.0
 11
123.211665
 21
72.44939999999999
 31
0.0
  0
LINE
  5
5F6
330
1E
100
AcDbEntity
  8
0
100
AcDbLine
 10
126.0544649999999
 20
70.5549
 30
0.0
 11
123.6454649999999
 21
73.9953
 31
0.0
  0
LINE
  5
5F7
330
1E
100
AcDbEntity
  8
0
100
AcDbLine
 10
126.684565
 20
75.75709999999999
 30
0.0
 11
126.3744591783753
 21
76.1999795912494
 31
0.0
  0
LINE
  5
5F8
330
1E
100
AcDbEntity
  8
0
100
AcDbLine
 10
126.684565
 20
75.75709999999999
 30
0.0
 11
124.6196649999999
 21
78.7061
 31
0.0
  0
LINE
  5
5F9
330
1E
100
AcDbEntity
  8
0
100
AcDbLine
 10
126.5362649999999
 20
75.96890000000001
 30
0.0
 11
125.8608617240654
 21
76.9334770452471
 31
0.0
  0
LINE
  5
5FA
330
1E
100
AcDbEntity
  8
0
100
AcDbLine
 10
126.5488259595608
 20
75.95096095929891
 30
0.0
 11
126.3744591783753
 21
76.1999795912494
 31
0.0
  0
LINE
  5
5FB
330
1E
100
AcDbEntity
  8
0
100
AcDbLine
 10
126.5488259595608
 20
75.95096095929891
 30
0.0
 11
126.3744591783753
 21
76.1999795912494
 31
0.0
  0
LINE
  5
5FC
330
1E
100
AcDbEntity
  8
0
100
AcDbLine
 10
124.6196649999999
 20
78.7061
 30
0.0
 11
122.841565
 21
81.24540000000001
 31
0.0
  0
LINE
  5
5FD
330
1E
100
AcDbEntity
  8
0
100
AcDbLine
 10
126.102865
 20
75.71609999999999
 30
0.0
 11
123.808565
 21
78.9927
 31
0.0
  0
LINE
  5
5FE
330
1E
100
AcDbEntity
  8
0
100
AcDbLine
 10
137.701065
 20
91.406
 30
0.0
 11
137.012765
 21
92.38899999999999
 31
0.0
  0
LINE
  5
5FF
330
1E
100
AcDbEntity
  8
0
100
AcDbLine
 10
137.479665
 20
92.5938
 30
0.0
 11
136.783365
 21
92.7166
 31
0.0
  0
LINE
  5
600
330
1E
100
AcDbEntity
  8
0
100
AcDbLine
 10
145.714165
 20
84.32070000000001
 30
0.0
 11
143.9360649999999
 21
86.86010000000001
 31
0.0
  0
LINE
  5
601
330
1E
100
AcDbEntity
  8
0
100
AcDbLine
 10
145.2633649999999
 20
85.83629999999999
 30
0.0
 11
144.402965
 21
87.065
 31
0.0
  0
LINE
  5
602
330
1E
100
AcDbEntity
  8
0
100
AcDbLine
 10
146.123665
 20
84.6075
 30
0.0
 11
144.402965
 21
87.065
 31
0.0
  0
LINE
  5
603
330
1E
100
AcDbEntity
  8
0
100
AcDbLine
 10
151.692865
 20
95.8318
 30
0.0
 11
142.682265
 21
89.52240000000001
 31
0.0
  0
LINE
  5
604
330
1E
100
AcDbEntity
  8
0
100
AcDbLine
 10
146.123665
 20
84.6075
 30
0.0
 11
145.2633649999999
 21
85.83629999999999
 31
0.0
  0
LINE
  5
605
330
1E
100
AcDbEntity
  8
0
100
AcDbLine
 10
151.737841905323
 20
95.76762563508792
 30
0.0
 11
151.692865
 21
95.8318
 31
0.0
  0
LINE
  5
606
330
1E
100
AcDbEntity
  8
0
100
AcDbLine
 10
151.520865
 20
96.07750000000001
 30
0.0
 11
151.4061649999999
 21
96.2414
 31
0.0
  0
LINE
  5
607
330
1E
100
AcDbEntity
  8
0
100
AcDbLine
 10
151.922365
 20
95.50409999999999
 30
0.0
 11
151.520865
 21
96.07750000000001
 31
0.0
  0
LINE
  5
608
330
1E
100
AcDbEntity
  8
0
100
AcDbLine
 10
137.6024649999999
 20
93.29019999999999
 30
0.0
 11
137.479665
 21
92.5938
 31
0.0
  0
LINE
  5
609
330
1E
100
AcDbEntity
  8
0
100
AcDbLine
 10
137.8318649999999
 20
92.9625
 30
0.0
 11
137.6024649999999
 21
93.29019999999999
 31
0.0
  0
LINE
  5
60A
330
1E
100
AcDbEntity
  8
0
100
AcDbLine
 10
139.748965
 20
92.83990000000001
 30
0.0
 11
139.060665
 21
93.82290000000001
 31
0.0
  0
LINE
  5
60B
330
1E
100
AcDbEntity
  8
0
100
AcDbLine
 10
140.387965
 20
92.79899999999999
 30
0.0
 11
139.756965
 21
93.7001
 31
0.0
  0
LINE
  5
60C
330
1E
100
AcDbEntity
  8
0
100
AcDbLine
 10
141.888165
 20
85.42619999999999
 30
0.0
 11
140.2247649999999
 21
87.8017
 31
0.0
  0
LINE
  5
60D
330
1E
100
AcDbEntity
  8
0
100
AcDbLine
 10
141.043965
 20
88.37529999999999
 30
0.0
 11
139.6099649999999
 21
90.4232
 31
0.0
  0
LINE
  5
60E
330
1E
100
AcDbEntity
  8
0
100
AcDbLine
 10
141.4777649999999
 20
91.2427
 30
0.0
 11
140.387965
 21
92.79899999999999
 31
0.0
  0
LINE
  5
60F
330
1E
100
AcDbEntity
  8
0
100
AcDbLine
 10
142.3550649999999
 20
85.631
 30
0.0
 11
140.806465
 21
87.8428
 31
0.0
  0
LINE
  5
610
330
1E
100
AcDbEntity
  8
0
100
AcDbLine
 10
142.272665
 20
89.23569999999999
 30
0.0
 11
140.8387649999999
 21
91.28350000000001
 31
0.0
  0
LINE
  5
611
330
1E
100
AcDbEntity
  8
0
100
AcDbLine
 10
142.707265
 20
85.9997
 30
0.0
 11
141.043965
 21
88.37529999999999
 31
0.0
  0
LINE
  5
612
330
1E
100
AcDbEntity
  8
0
100
AcDbLine
 10
143.9360649999999
 20
86.86010000000001
 30
0.0
 11
142.272665
 21
89.23569999999999
 31
0.0
  0
LINE
  5
613
330
1E
100
AcDbEntity
  8
0
100
AcDbLine
 10
143.714665
 20
88.04799999999998
 30
0.0
 11
143.3426291119916
 21
88.5792667291975
 31
0.0
  0
LINE
  5
614
330
1E
100
AcDbEntity
  8
0
100
AcDbLine
 10
144.402965
 20
87.065
 30
0.0
 11
143.3426291119916
 21
88.5792667291975
 31
0.0
  0
LINE
  5
615
330
1E
100
AcDbEntity
  8
0
100
AcDbLine
 10
144.402965
 20
87.065
 30
0.0
 11
143.3426291119916
 21
88.5792667291975
 31
0.0
  0
LINE
  5
616
330
1E
100
AcDbEntity
  8
0
100
AcDbLine
 10
144.402965
 20
87.065
 30
0.0
 11
142.8542649999999
 21
89.2767
 31
0.0
  0
LINE
  5
617
330
1E
100
AcDbEntity
  8
0
100
AcDbLine
 10
144.402965
 20
87.065
 30
0.0
 11
143.714665
 21
88.04799999999998
 31
0.0
  0
LINE
  5
618
330
1E
100
AcDbEntity
  8
0
100
AcDbLine
 10
143.0625567476429
 20
88.97923834941421
 30
0.0
 11
142.796965
 21
89.35859999999999
 31
0.0
  0
LINE
  5
619
330
1E
100
AcDbEntity
  8
0
100
AcDbLine
 10
143.0625567476429
 20
88.97923834941421
 30
0.0
 11
142.8542649999999
 21
89.2767
 31
0.0
  0
LINE
  5
61A
330
1E
100
AcDbEntity
  8
0
100
AcDbLine
 10
142.8542649999999
 20
89.2767
 30
0.0
 11
141.4777649999999
 21
91.2427
 31
0.0
  0
LINE
  5
61B
330
1E
100
AcDbEntity
  8
0
100
AcDbLine
 10
142.796965
 20
89.35859999999999
 30
0.0
 11
142.682265
 21
89.52240000000001
 31
0.0
  0
LINE
  5
61C
330
1E
100
AcDbEntity
  8
0
100
AcDbLine
 10
140.2247649999999
 20
87.8017
 30
0.0
 11
138.7908649999999
 21
89.84959999999999
 31
0.0
  0
LINE
  5
61D
330
1E
100
AcDbEntity
  8
0
100
AcDbLine
 10
140.806465
 20
87.8428
 30
0.0
 11
139.429865
 21
89.80870000000001
 31
0.0
  0
LINE
  5
61E
330
1E
100
AcDbEntity
  8
0
100
AcDbLine
 10
139.6099649999999
 20
90.4232
 30
0.0
 11
138.520165
 21
91.9796
 31
0.0
  0
LINE
  5
61F
330
1E
100
AcDbEntity
  8
0
100
AcDbLine
 10
139.429865
 20
89.80870000000001
 30
0.0
 11
138.340065
 21
91.36509999999999
 31
0.0
  0
LINE
  5
620
330
1E
100
AcDbEntity
  8
0
100
AcDbLine
 10
140.8387649999999
 20
91.28350000000001
 30
0.0
 11
139.748965
 21
92.83990000000001
 31
0.0
  0
LINE
  5
621
330
1E
100
AcDbEntity
  8
0
100
AcDbLine
 10
137.709065
 20
92.2662
 30
0.0
 11
137.479665
 21
92.5938
 31
0.0
  0
LINE
  5
622
330
1E
100
AcDbEntity
  8
0
100
AcDbLine
 10
138.7908649999999
 20
89.84959999999999
 30
0.0
 11
137.701065
 21
91.406
 31
0.0
  0
LINE
  5
623
330
1E
100
AcDbEntity
  8
0
100
AcDbLine
 10
138.340065
 20
91.36509999999999
 30
0.0
 11
137.709065
 21
92.2662
 31
0.0
  0
LINE
  5
624
330
1E
100
AcDbEntity
  8
0
100
AcDbLine
 10
138.520165
 20
91.9796
 30
0.0
 11
137.8318649999999
 21
92.9625
 31
0.0
  0
LINE
  5
625
330
1E
100
AcDbEntity
  8
0
100
AcDbLine
 10
139.527565
 20
94.02779999999999
 30
0.0
 11
138.831165
 21
94.1506
 31
0.0
  0
LINE
  5
626
330
1E
100
AcDbEntity
  8
0
100
AcDbLine
 10
139.756965
 20
93.7001
 30
0.0
 11
139.527565
 21
94.02779999999999
 31
0.0
  0
LINE
  5
627
330
1E
100
AcDbEntity
  8
0
100
AcDbLine
 10
139.060665
 20
93.82290000000001
 30
0.0
 11
138.831165
 21
94.1506
 31
0.0
  0
LINE
  5
628
330
1E
100
AcDbEntity
  8
0
100
AcDbLine
 10
138.831165
 20
94.1506
 30
0.0
 11
137.6024649999999
 21
93.29019999999999
 31
0.0
  0
LINE
  5
629
330
1E
100
AcDbEntity
  8
0
100
AcDbLine
 10
148.5929649999999
 20
121.304
 30
0.0
 11
147.977365
 21
120.2389999999999
 31
0.0
  0
LINE
  5
62A
330
1E
100
AcDbEntity
  8
0
100
AcDbLine
 10
149.5012649999999
 20
115.022
 30
0.0
 11
148.314465
 21
116.5079999999999
 31
0.0
  0
LINE
  5
62B
330
1E
100
AcDbEntity
  8
0
100
AcDbLine
 10
149.4131649999999
 20
115.1149999999999
 30
0.0
 11
149.0813263378982
 21
115.5478079304709
 31
0.0
  0
LINE
  5
62C
330
1E
100
AcDbEntity
  8
0
100
AcDbLine
 10
149.8173114866178
 20
114.669233634116
 30
0.0
 11
149.4131649999999
 21
115.1149999999999
 31
0.0
  0
LINE
  5
62D
330
1E
100
AcDbEntity
  8
0
100
AcDbLine
 10
148.314465
 20
116.5079999999999
 30
0.0
 11
147.768765
 21
117.957
 31
0.0
  0
LINE
  5
62E
330
1E
100
AcDbEntity
  8
0
100
AcDbLine
 10
148.263865
 20
116.6139999999999
 30
0.0
 11
148.175079471484
 21
116.8781111065049
 31
0.0
  0
LINE
  5
62F
330
1E
100
AcDbEntity
  8
0
100
AcDbLine
 10
147.977365
 20
120.2389999999999
 30
0.0
 11
147.7224649999999
 21
119.2629999999999
 31
0.0
  0
LINE
  5
630
330
1E
100
AcDbEntity
  8
0
100
AcDbLine
 10
147.8189347894814
 20
119.632378244543
 30
0.0
 11
147.745965
 21
119.3969999999999
 31
0.0
  0
LINE
  5
631
330
1E
100
AcDbEntity
  8
0
100
AcDbLine
 10
147.768765
 20
117.957
 30
0.0
 11
147.7224649999999
 21
119.2629999999999
 31
0.0
  0
LINE
  5
632
330
1E
100
AcDbEntity
  8
0
100
AcDbLine
 10
136.783365
 20
92.7166
 30
0.0
 11
126.9534649999999
 21
85.8337
 31
0.0
  0
LINE
  5
633
330
1E
100
AcDbEntity
  8
0
100
AcDbLine
 10
137.012765
 20
92.38899999999999
 30
0.0
 11
136.783365
 21
92.7166
 31
0.0
  0
LINE
  5
634
330
1E
100
AcDbEntity
  8
0
100
AcDbLine
 10
126.9534690185023
 20
85.833702813757
 30
0.0
 11
124.945965
 21
88.7007
 31
0.0
  0
LINE
  5
635
330
1E
100
AcDbEntity
  8
0
100
AcDbLine
 10
127.1829649999999
 20
85.5061
 30
0.0
 11
126.9534649999999
 21
85.8337
 31
0.0
  0
LINE
  5
636
330
1E
100
AcDbEntity
  8
0
100
AcDbLine
 10
127.8711649999999
 20
84.5231
 30
0.0
 11
127.1829649999999
 21
85.5061
 31
0.0
  0
LINE
  5
637
330
1E
100
AcDbEntity
  8
0
100
AcDbLine
 10
127.3311649999999
 20
85.29430000000001
 30
0.0
 11
126.9658743511437
 21
85.81598625954381
 31
0.0
  0
LINE
  5
638
330
1E
100
AcDbEntity
  8
0
100
AcDbLine
 10
127.8571462239942
 20
84.54312391283579
 30
0.0
 11
127.3311649999999
 21
85.29430000000001
 31
0.0
  0
LINE
  5
639
330
1E
100
AcDbEntity
  8
0
100
AcDbLine
 10
127.8571462239942
 20
84.54312391283579
 30
0.0
 11
127.3311649999999
 21
85.29430000000001
 31
0.0
  0
LINE
  5
63A
330
1E
100
AcDbEntity
  8
0
100
AcDbLine
 10
127.8711649999999
 20
84.5231
 30
0.0
 11
127.1829649999999
 21
85.5061
 31
0.0
  0
LINE
  5
63B
330
1E
100
AcDbEntity
  8
0
100
AcDbLine
 10
116.7544649999999
 20
82.96499999999999
 30
0.0
 11
116.590465
 21
84.0709
 31
0.0
  0
LINE
  5
63C
330
1E
100
AcDbEntity
  8
0
100
AcDbLine
 10
117.852365
 20
82.26879999999999
 30
0.0
 11
116.934565
 21
83.57940000000001
 31
0.0
  0
LINE
  5
63D
330
1E
100
AcDbEntity
  8
0
100
AcDbLine
 10
121.801065
 20
81.85970000000001
 30
0.0
 11
120.3097649999999
 21
83.98950000000001
 31
0.0
  0
LINE
  5
63E
330
1E
100
AcDbEntity
  8
0
100
AcDbLine
 10
122.416265
 20
81.8528
 30
0.0
 11
120.7343968776199
 21
84.25481398578209
 31
0.0
  0
LINE
  5
63F
330
1E
100
AcDbEntity
  8
0
100
AcDbLine
 10
117.664065
 20
80.37229999999999
 30
0.0
 11
113.956365
 21
77.78100000000001
 31
0.0
  0
LINE
  5
640
330
1E
100
AcDbEntity
  8
0
100
AcDbLine
 10
119.3436649999999
 20
80.13899999999999
 30
0.0
 11
117.852365
 21
82.26879999999999
 31
0.0
  0
LINE
  5
641
330
1E
100
AcDbEntity
  8
0
100
AcDbLine
 10
119.8413649999999
 20
77.2628
 30
0.0
 11
118.648265
 21
78.9666
 31
0.0
  0
LINE
  5
642
330
1E
100
AcDbEntity
  8
0
100
AcDbLine
 10
121.351165
 20
77.27199999999999
 30
0.0
 11
119.3436649999999
 21
80.13899999999999
 31
0.0
  0
LINE
  5
643
330
1E
100
AcDbEntity
  8
0
100
AcDbLine
 10
121.422065
 20
75.0052
 30
0.0
 11
119.8413649999999
 21
77.2628
 31
0.0
  0
LINE
  5
644
330
1E
100
AcDbEntity
  8
0
100
AcDbLine
 10
117.664065
 20
80.37229999999999
 30
0.0
 11
116.7544649999999
 21
82.96499999999999
 31
0.0
  0
LINE
  5
645
330
1E
100
AcDbEntity
  8
0
100
AcDbLine
 10
117.932465
 20
79.9889
 30
0.0
 11
117.664065
 21
80.37229999999999
 31
0.0
  0
LINE
  5
646
330
1E
100
AcDbEntity
  8
0
100
AcDbLine
 10
118.648265
 20
78.9666
 30
0.0
 11
117.932465
 21
79.9889
 31
0.0
  0
LINE
  5
647
330
1E
100
AcDbEntity
  8
0
100
AcDbLine
 10
119.392065
 20
85.3002
 30
0.0
 11
119.0478649999999
 21
85.79159999999999
 31
0.0
  0
LINE
  5
648
330
1E
100
AcDbEntity
  8
0
100
AcDbLine
 10
120.3178611649041
 20
84.8497028443125
 30
0.0
 11
119.0478649999999
 21
85.79159999999999
 31
0.0
  0
LINE
  5
649
330
1E
100
AcDbEntity
  8
0
100
AcDbLine
 10
120.3097649999999
 20
83.98950000000001
 30
0.0
 11
119.392065
 21
85.3002
 31
0.0
  0
LINE
  5
64A
330
1E
100
AcDbEntity
  8
0
100
AcDbLine
 10
120.3178611649041
 20
84.8497028443125
 30
0.0
 11
120.031065
 21
85.2593
 31
0.0
  0
LINE
  5
64B
330
1E
100
AcDbEntity
  8
0
100
AcDbLine
 10
117.5323649999999
 20
85.3409
 30
0.0
 11
116.590465
 21
84.0709
 31
0.0
  0
LINE
  5
64C
330
1E
100
AcDbEntity
  8
0
100
AcDbLine
 10
119.0478649999999
 20
85.79159999999999
 30
0.0
 11
117.5323649999999
 21
85.3409
 31
0.0
  0
LINE
  5
64D
330
1E
100
AcDbEntity
  8
0
100
AcDbLine
 10
116.934565
 20
83.57940000000001
 30
0.0
 11
116.590465
 21
84.0709
 31
0.0
  0
LINE
  5
64E
330
1E
100
AcDbEntity
  8
0
100
AcDbLine
 10
153.391565
 20
124.6639999999999
 30
0.0
 11
150.7879649999999
 21
123.276
 31
0.0
  0
LINE
  5
64F
330
1E
100
AcDbEntity
  8
0
100
AcDbLine
 10
156.818765
 20
124.2939999999999
 30
0.0
 11
155.607665
 21
124.7839999999999
 31
0.0
  0
LINE
  5
650
330
1E
100
AcDbEntity
  8
0
100
AcDbLine
 10
157.9935649999999
 20
123.285
 30
0.0
 11
156.818765
 21
124.2939999999999
 31
0.0
  0
LINE
  5
651
330
1E
100
AcDbEntity
  8
0
100
AcDbLine
 10
157.911865
 20
123.3689999999999
 30
0.0
 11
157.6860940357343
 21
123.549077462499
 31
0.0
  0
LINE
  5
652
330
1E
100
AcDbEntity
  8
0
100
AcDbLine
 10
157.9313510176367
 20
123.338433697825
 30
0.0
 11
157.6860940357343
 21
123.549077462499
 31
0.0
  0
LINE
  5
653
330
1E
100
AcDbEntity
  8
0
100
AcDbLine
 10
158.9837649999999
 20
121.662
 30
0.0
 11
157.9935649999999
 21
123.285
 31
0.0
  0
LINE
  5
654
330
1E
100
AcDbEntity
  8
0
100
AcDbLine
 10
158.926765
 20
121.777
 30
0.0
 11
158.6204782414953
 21
122.257449817262
 31
0.0
  0
LINE
  5
655
330
1E
100
AcDbEntity
  8
0
100
AcDbLine
 10
154.6026649999999
 20
124.8779999999999
 30
0.0
 11
153.391565
 21
124.6639999999999
 31
0.0
  0
LINE
  5
656
330
1E
100
AcDbEntity
  8
0
100
AcDbLine
 10
155.607665
 20
124.7839999999999
 30
0.0
 11
154.6026649999999
 21
124.8779999999999
 31
0.0
  0
LINE
  5
657
330
1E
100
AcDbEntity
  8
0
100
AcDbLine
 10
155.473765
 20
124.8079999999999
 30
0.0
 11
155.2196935644988
 21
124.820287875559
 31
0.0
  0
LINE
  5
658
330
1E
100
AcDbEntity
  8
0
100
AcDbLine
 10
155.5135928238357
 20
124.792798790606
 30
0.0
 11
155.2196935644988
 21
124.820287875559
 31
0.0
  0
ENDSEC
  0
SECTION
  2
OBJECTS
  0
DICTIONARY
  5
C
330
0
100
AcDbDictionary
281
     1
  3
ACAD_GROUP
350
D
  3
ACAD_LAYOUT
350
19
  3
ACAD_MLINESTYLE
350
16
  3
ACAD_PLOTSETTINGS
350
18
  3
ACAD_PLOTSTYLENAME
350
E
  3
AcDbVariableDictionary
350
659
  0
DICTIONARY
  5
D
102
{ACAD_REACTORS
330
C
102
}
330
C
100
AcDbDictionary
281
     1
  0
DICTIONARY
  5
19
102
{ACAD_REACTORS
330
C
102
}
330
C
100
AcDbDictionary
281
     1
  3
Layout1
350
1D
  3
Model
350
21
  0
DICTIONARY
  5
16
102
{ACAD_REACTORS
330
C
102
}
330
C
100
AcDbDictionary
281
     1
  3
Standard
350
17
  0
DICTIONARY
  5
18
102
{ACAD_REACTORS
330
C
102
}
330
C
100
AcDbDictionary
281
     1
  0
ACDBDICTIONARYWDFLT
  5
E
102
{ACAD_REACTORS
330
C
102
}
330
C
100
AcDbDictionary
281
     1
  3
Normal
350
F
100
AcDbDictionaryWithDefault
340
F
  0
DICTIONARY
  5
659
102
{ACAD_REACTORS
330
C
102
}
330
C
100
AcDbDictionary
281
     1
  3
DIMASSOC
350
65A
  0
LAYOUT
  5
1D
102
{ACAD_REACTORS
330
19
102
}
330
19
100
AcDbPlotSettings
  1

  2
hp deskjet 980c series
  4

  6

 40
0.0
 41
0.0
 42
0.0
 43
0.0
 44
0.0
 45
0.0
 46
0.0
 47
0.0
 48
0.0
 49
0.0
140
0.0
141
0.0
142
1.0
143
1.0
 70
   688
 72
     0
 73
     0
 74
     5
  7

 75
    16
147
1.0
148
0.0
149
0.0
100
AcDbLayout
  1
Layout1
 70
     1
 71
     1
 10
0.0
 20
0.0
 11
12.0
 21
9.0
 12
0.0
 22
0.0
 32
0.0
 14
1.000000000000000E+20
 24
1.000000000000000E+20
 34
1.000000000000000E+20
 15
-1.000000000000000E+20
 25
-1.000000000000000E+20
 35
-1.000000000000000E+20
146
0.0
 13
0.0
 23
0.0
 33
0.0
 16
1.0
 26
0.0
 36
0.0
 17
0.0
 27
1.0
 37
0.0
 76
     0
330
1A
  0
LAYOUT
  5
21
102
{ACAD_REACTORS
330
19
102
}
330
19
100
AcDbPlotSettings
  1

  2
hp deskjet 980c series
  4

  6

 40
0.0
 41
0.0
 42
0.0
 43
0.0
 44
0.0
 45
0.0
 46
0.0
 47
0.0
 48
0.0
 49
0.0
140
0.0
141
0.0
142
1.0
143
1.0
 70
  1712
 72
     0
 73
     0
 74
     0
  7

 75
     0
147
1.0
148
0.0
149
0.0
100
AcDbLayout
  1
Model
 70
     1
 71
     0
 10
0.0
 20
0.0
 11
12.0
 21
9.0
 12
0.0
 22
0.0
 32
0.0
 14
0.0
 24
0.0
 34
0.0
 15
0.0
 25
0.0
 35
0.0
146
0.0
 13
0.0
 23
0.0
 33
0.0
 16
1.0
 26
0.0
 36
0.0
 17
0.0
 27
1.0
 37
0.0
 76
     0
330
1E
  0
MLINESTYLE
  5
17
102
{ACAD_REACTORS
330
16
102
}
330
16
100
AcDbMlineStyle
  2
STANDARD
 70
     0
  3

 62
   256
 51
90.0
 52
90.0
 71
     2
 49
0.5
 62
   256
  6
BYLAYER
 49
-0.5
 62
   256
  6
BYLAYER
  0
ACDBPLACEHOLDER
  5
F
102
{ACAD_REACTORS
330
E
102
}
330
E
  0
DICTIONARYVAR
  5
65A
102
{ACAD_REACTORS
330
659
102
}
330
659
100
DictionaryVariables
280
     0
  1
1
  0
ENDSEC
  0
EOF
