  0
SECTION
  2
HEADER
  9
$ACADVER
  1
AC1015
  9
$ACADMAINTVER
 70
    13
  9
$DWGCODEPAGE
  3
ANSI_1252
  9
$INSBASE
 10
0.0
 20
0.0
 30
0.0
  9
$EXTMIN
 10
0.0000000000000018
 20
-0.18826899999999
 30
0.0
  9
$EXTMAX
 10
106.0
 20
175.1882689999999
 30
0.0
  9
$LIMMIN
 10
0.0
 20
0.0
  9
$LIMMAX
 10
12.0
 20
9.0
  9
$ORTHOMODE
 70
     0
  9
$REGENMODE
 70
     1
  9
$FILLMODE
 70
     1
  9
$QTEXTMODE
 70
     0
  9
$MIRRTEXT
 70
     1
  9
$LTSCALE
 40
1.0
  9
$ATTMODE
 70
     1
  9
$TEXTSIZE
 40
0.2
  9
$TRACEWID
 40
0.05
  9
$TEXTSTYLE
  7
Standard
  9
$CLAYER
  8
0
  9
$CELTYPE
  6
Continuous
  9
$CECOLOR
 62
   256
  9
$CELTSCALE
 40
1.0
  9
$DISPSILH
 70
     0
  9
$DIMSCALE
 40
1.0
  9
$DIMASZ
 40
0.18
  9
$DIMEXO
 40
0.0625
  9
$DIMDLI
 40
0.38
  9
$DIMRND
 40
0.0
  9
$DIMDLE
 40
0.0
  9
$DIMEXE
 40
0.18
  9
$DIMTP
 40
0.0
  9
$DIMTM
 40
0.0
  9
$DIMTXT
 40
0.18
  9
$DIMCEN
 40
0.09
  9
$DIMTSZ
 40
0.0
  9
$DIMTOL
 70
     0
  9
$DIMLIM
 70
     0
  9
$DIMTIH
 70
     1
  9
$DIMTOH
 70
     1
  9
$DIMSE1
 70
     0
  9
$DIMSE2
 70
     0
  9
$DIMTAD
 70
     0
  9
$DIMZIN
 70
     0
  9
$DIMBLK
  1

  9
$DIMASO
 70
     1
  9
$DIMSHO
 70
     1
  9
$DIMPOST
  1

  9
$DIMAPOST
  1

  9
$DIMALT
 70
     0
  9
$DIMALTD
 70
     2
  9
$DIMALTF
 40
25.4
  9
$DIMLFAC
 40
1.0
  9
$DIMTOFL
 70
     0
  9
$DIMTVP
 40
0.0
  9
$DIMTIX
 70
     0
  9
$DIMSOXD
 70
     0
  9
$DIMSAH
 70
     0
  9
$DIMBLK1
  1

  9
$DIMBLK2
  1

  9
$DIMSTYLE
  2
Standard
  9
$DIMCLRD
 70
     0
  9
$DIMCLRE
 70
     0
  9
$DIMCLRT
 70
     0
  9
$DIMTFAC
 40
1.0
  9
$DIMGAP
 40
0.09
  9
$DIMJUST
 70
     0
  9
$DIMSD1
 70
     0
  9
$DIMSD2
 70
     0
  9
$DIMTOLJ
 70
     1
  9
$DIMTZIN
 70
     0
  9
$DIMALTZ
 70
     0
  9
$DIMALTTZ
 70
     0
  9
$DIMUPT
 70
     0
  9
$DIMDEC
 70
     4
  9
$DIMTDEC
 70
     4
  9
$DIMALTU
 70
     2
  9
$DIMALTTD
 70
     2
  9
$DIMTXSTY
  7
Standard
  9
$DIMAUNIT
 70
     0
  9
$DIMADEC
 70
     0
  9
$DIMALTRND
 40
0.0
  9
$DIMAZIN
 70
     0
  9
$DIMDSEP
 70
    46
  9
$DIMATFIT
 70
     3
  9
$DIMFRAC
 70
     0
  9
$DIMLDRBLK
  1

  9
$DIMLUNIT
 70
     2
  9
$DIMLWD
 70
    -2
  9
$DIMLWE
 70
    -2
  9
$DIMTMOVE
 70
     0
  9
$LUNITS
 70
     2
  9
$LUPREC
 70
     4
  9
$SKETCHINC
 40
0.1
  9
$FILLETRAD
 40
0.0
  9
$AUNITS
 70
     0
  9
$AUPREC
 70
     0
  9
$MENU
  1
.
  9
$ELEVATION
 40
0.0
  9
$PELEVATION
 40
0.0
  9
$THICKNESS
 40
0.0
  9
$LIMCHECK
 70
     0
  9
$CHAMFERA
 40
0.0
  9
$CHAMFERB
 40
0.0
  9
$CHAMFERC
 40
0.0
  9
$CHAMFERD
 40
0.0
  9
$SKPOLY
 70
     0
  9
$TDCREATE
 40
2454750.854005705
  9
$TDUCREATE
 40
2454750.770672372
  9
$TDUPDATE
 40
2454750.854959120
  9
$TDUUPDATE
 40
2454750.771625787
  9
$TDINDWG
 40
0.0009534144
  9
$TDUSRTIMER
 40
0.0009534144
  9
$USRTIMER
 70
     1
  9
$ANGBASE
 50
0.0
  9
$ANGDIR
 70
     0
  9
$PDMODE
 70
     0
  9
$PDSIZE
 40
0.0
  9
$PLINEWID
 40
0.0
  9
$SPLFRAME
 70
     0
  9
$SPLINETYPE
 70
     6
  9
$SPLINESEGS
 70
     8
  9
$HANDSEED
  5
19D
  9
$SURFTAB1
 70
     6
  9
$SURFTAB2
 70
     6
  9
$SURFTYPE
 70
     6
  9
$SURFU
 70
     6
  9
$SURFV
 70
     6
  9
$UCSBASE
  2

  9
$UCSNAME
  2

  9
$UCSORG
 10
0.0
 20
0.0
 30
0.0
  9
$UCSXDIR
 10
1.0
 20
0.0
 30
0.0
  9
$UCSYDIR
 10
0.0
 20
1.0
 30
0.0
  9
$UCSORTHOREF
  2

  9
$UCSORTHOVIEW
 70
     1
  9
$UCSORGTOP
 10
0.0
 20
0.0
 30
0.0
  9
$UCSORGBOTTOM
 10
0.0
 20
0.0
 30
0.0
  9
$UCSORGLEFT
 10
0.0
 20
0.0
 30
0.0
  9
$UCSORGRIGHT
 10
0.0
 20
0.0
 30
0.0
  9
$UCSORGFRONT
 10
0.0
 20
0.0
 30
0.0
  9
$UCSORGBACK
 10
0.0
 20
0.0
 30
0.0
  9
$PUCSBASE
  2

  9
$PUCSNAME
  2

  9
$PUCSORG
 10
0.0
 20
0.0
 30
0.0
  9
$PUCSXDIR
 10
1.0
 20
0.0
 30
0.0
  9
$PUCSYDIR
 10
0.0
 20
1.0
 30
0.0
  9
$PUCSORTHOREF
  2

  9
$PUCSORTHOVIEW
 70
     0
  9
$PUCSORGTOP
 10
0.0
 20
0.0
 30
0.0
  9
$PUCSORGBOTTOM
 10
0.0
 20
0.0
 30
0.0
  9
$PUCSORGLEFT
 10
0.0
 20
0.0
 30
0.0
  9
$PUCSORGRIGHT
 10
0.0
 20
0.0
 30
0.0
  9
$PUCSORGFRONT
 10
0.0
 20
0.0
 30
0.0
  9
$PUCSORGBACK
 10
0.0
 20
0.0
 30
0.0
  9
$USERI1
 70
     0
  9
$USERI2
 70
     0
  9
$USERI3
 70
     0
  9
$USERI4
 70
     0
  9
$USERI5
 70
     0
  9
$USERR1
 40
0.0
  9
$USERR2
 40
0.0
  9
$USERR3
 40
0.0
  9
$USERR4
 40
0.0
  9
$USERR5
 40
0.0
  9
$WORLDVIEW
 70
     1
  9
$SHADEDGE
 70
     3
  9
$SHADEDIF
 70
    70
  9
$TILEMODE
 70
     1
  9
$MAXACTVP
 70
    64
  9
$PINSBASE
 10
0.0
 20
0.0
 30
0.0
  9
$PLIMCHECK
 70
     0
  9
$PEXTMIN
 10
1.000000000000000E+20
 20
1.000000000000000E+20
 30
1.000000000000000E+20
  9
$PEXTMAX
 10
-1.000000000000000E+20
 20
-1.000000000000000E+20
 30
-1.000000000000000E+20
  9
$PLIMMIN
 10
0.0
 20
0.0
  9
$PLIMMAX
 10
12.0
 20
9.0
  9
$UNITMODE
 70
     0
  9
$VISRETAIN
 70
     1
  9
$PLINEGEN
 70
     0
  9
$PSLTSCALE
 70
     1
  9
$TREEDEPTH
 70
  3020
  9
$CMLSTYLE
  2
Standard
  9
$CMLJUST
 70
     0
  9
$CMLSCALE
 40
1.0
  9
$PROXYGRAPHICS
 70
     1
  9
$MEASUREMENT
 70
     0
  9
$CELWEIGHT
370
    -1
  9
$ENDCAPS
280
     0
  9
$JOINSTYLE
280
     0
  9
$LWDISPLAY
290
     0
  9
$INSUNITS
 70
     0
  9
$HYPERLINKBASE
  1

  9
$STYLESHEET
  1

  9
$XEDIT
290
     1
  9
$CEPSNTYPE
380
     0
  9
$PSTYLEMODE
290
     1
  9
$FINGERPRINTGUID
  2
{A5024992-9948-4F28-ACD3-7789C87E1FD6}
  9
$VERSIONGUID
  2
{20DF9E4B-823B-448F-A28F-C6CCF431B743}
  9
$EXTNAMES
290
     1
  9
$PSVPSCALE
 40
0.0
  9
$OLESTARTUP
290
     0
  0
ENDSEC
  0
SECTION
  2
CLASSES
  0
CLASS
  1
ACDBDICTIONARYWDFLT
  2
AcDbDictionaryWithDefault
  3
AutoCAD 2000
 90
        0
280
     0
281
     0
  0
CLASS
  1
ACDBPLACEHOLDER
  2
AcDbPlaceHolder
  3
AutoCAD 2000
 90
        0
280
     0
281
     0
  0
CLASS
  1
LAYOUT
  2
AcDbLayout
  3
AutoCAD 2000
 90
        0
280
     0
281
     0
  0
CLASS
  1
DICTIONARYVAR
  2
AcDbDictionaryVar
  3
AutoCAD 2000
 90
        0
280
     0
281
     0
  0
ENDSEC
  0
SECTION
  2
TABLES
  0
TABLE
  2
VPORT
  5
8
330
0
100
AcDbSymbolTable
 70
     2
  0
VPORT
  5
19C
330
8
100
AcDbSymbolTableRecord
100
AcDbViewportTableRecord
  2
*Active
 70
     0
 10
0.0
 20
0.0
 11
1.0
 21
1.0
 12
53.0
 22
87.5
 13
0.0
 23
0.0
 14
1.0
 24
1.0
 15
0.0
 25
0.0
 16
0.0
 26
0.0
 36
1.0
 17
0.0
 27
0.0
 37
0.0
 40
176.7221380358056
 41
2.078104993597951
 42
50.0
 43
0.0
 44
0.0
 50
0.0
 51
0.0
 71
     0
 72
   100
 73
     1
 74
     3
 75
     0
 76
     0
 77
     0
 78
     0
281
     0
 65
     1
110
0.0
120
0.0
130
0.0
111
1.0
121
0.0
131
0.0
112
0.0
122
1.0
132
0.0
 79
     1
146
0.0
  0
ENDTAB
  0
TABLE
  2
LTYPE
  5
5
330
0
100
AcDbSymbolTable
 70
     1
  0
LTYPE
  5
13
330
5
100
AcDbSymbolTableRecord
100
AcDbLinetypeTableRecord
  2
ByBlock
 70
     0
  3

 72
    65
 73
     0
 40
0.0
  0
LTYPE
  5
14
330
5
100
AcDbSymbolTableRecord
100
AcDbLinetypeTableRecord
  2
ByLayer
 70
     0
  3

 72
    65
 73
     0
 40
0.0
  0
LTYPE
  5
15
330
5
100
AcDbSymbolTableRecord
100
AcDbLinetypeTableRecord
  2
Continuous
 70
     0
  3
Solid line
 72
    65
 73
     0
 40
0.0
  0
ENDTAB
  0
TABLE
  2
LAYER
  5
2
330
0
100
AcDbSymbolTable
 70
     1
  0
LAYER
  5
10
330
2
100
AcDbSymbolTableRecord
100
AcDbLayerTableRecord
  2
0
 70
     0
 62
     7
  6
Continuous
370
    -3
390
F
  0
ENDTAB
  0
TABLE
  2
STYLE
  5
3
330
0
100
AcDbSymbolTable
 70
     1
  0
STYLE
  5
11
330
3
100
AcDbSymbolTableRecord
100
AcDbTextStyleTableRecord
  2
Standard
 70
     0
 40
0.0
 41
1.0
 50
0.0
 71
     0
 42
0.2
  3
txt
  4

  0
ENDTAB
  0
TABLE
  2
VIEW
  5
6
330
0
100
AcDbSymbolTable
 70
     0
  0
ENDTAB
  0
TABLE
  2
UCS
  5
7
330
0
100
AcDbSymbolTable
 70
     0
  0
ENDTAB
  0
TABLE
  2
APPID
  5
9
330
0
100
AcDbSymbolTable
 70
     1
  0
APPID
  5
12
330
9
100
AcDbSymbolTableRecord
100
AcDbRegAppTableRecord
  2
ACAD
 70
     0
  0
ENDTAB
  0
TABLE
  2
DIMSTYLE
  5
A
330
0
100
AcDbSymbolTable
 70
     1
100
AcDbDimStyleTable
 71
     0
  0
DIMSTYLE
105
196
330
A
100
AcDbSymbolTableRecord
100
AcDbDimStyleTableRecord
  2
Standard
 70
     0
340
11
  0
ENDTAB
  0
TABLE
  2
BLOCK_RECORD
  5
1
330
0
100
AcDbSymbolTable
 70
     0
  0
BLOCK_RECORD
  5
1E
330
1
100
AcDbSymbolTableRecord
100
AcDbBlockTableRecord
  2
*Model_Space
340
21
  0
BLOCK_RECORD
  5
1A
330
1
100
AcDbSymbolTableRecord
100
AcDbBlockTableRecord
  2
*Paper_Space
340
1D
  0
ENDTAB
  0
ENDSEC
  0
SECTION
  2
BLOCKS
  0
BLOCK
  5
1F
330
1E
100
AcDbEntity
  8
0
100
AcDbBlockBegin
  2
*Model_Space
 70
     0
 10
0.0
 20
0.0
 30
0.0
  3
*Model_Space
  1

  0
ENDBLK
  5
20
330
1E
100
AcDbEntity
  8
0
100
AcDbBlockEnd
  0
BLOCK
  5
1B
330
1A
100
AcDbEntity
 67
     1
  8
0
100
AcDbBlockBegin
  2
*Paper_Space
 70
     0
 10
0.0
 20
0.0
 30
0.0
  3
*Paper_Space
  1

  0
ENDBLK
  5
1C
330
1A
100
AcDbEntity
 67
     1
  8
0
100
AcDbBlockEnd
  0
ENDSEC
  0
SECTION
  2
ENTITIES
  0
LINE
  5
22
330
1E
100
AcDbEntity
  8
0
100
AcDbLine
 10
0.0000000000000018
 20
27.360769
 30
0.0
 11
1.9
 21
20.560769
 31
0.0
  0
LINE
  5
23
330
1E
100
AcDbEntity
  8
0
100
AcDbLine
 10
0.0000000000000018
 20
27.793769
 30
0.0
 11
1.9
 21
34.593769
 31
0.0
  0
LINE
  5
24
330
1E
100
AcDbEntity
  8
0
100
AcDbLine
 10
0.000000000000002
 20
27.793769
 30
0.0
 11
1.9
 21
34.593769
 31
0.0
  0
LINE
  5
25
330
1E
100
AcDbEntity
  8
0
100
AcDbLine
 10
0.000000000000002
 20
27.793769
 30
0.0
 11
0.000000000000002
 21
27.360769
 31
0.0
  0
LINE
  5
26
330
1E
100
AcDbEntity
  8
0
100
AcDbLine
 10
2.399999999999999
 20
22.342869
 30
0.0
 11
7.5
 21
16.04286899999999
 31
0.0
  0
LINE
  5
27
330
1E
100
AcDbEntity
  8
0
100
AcDbLine
 10
1.9
 20
20.560769
 30
0.0
 11
2.399999999999999
 21
19.311769
 31
0.0
  0
LINE
  5
28
330
1E
100
AcDbEntity
  8
0
100
AcDbLine
 10
16.0
 20
10.592869
 30
0.0
 11
26.89999999999999
 21
6.342819000000009
 31
0.0
  0
LINE
  5
29
330
1E
100
AcDbEntity
  8
0
100
AcDbLine
 10
17.0
 20
11.52586899999999
 30
0.0
 11
27.6
 21
7.425829000000009
 31
0.0
  0
LINE
  5
2A
330
1E
100
AcDbEntity
  8
0
100
AcDbLine
 10
16.0
 20
7.561729000000009
 30
0.0
 11
26.89999999999999
 21
3.311729000000009
 31
0.0
  0
LINE
  5
2B
330
1E
100
AcDbEntity
  8
0
100
AcDbLine
 10
3.799999999999999
 20
22.975869
 30
0.0
 11
8.8
 21
16.825869
 31
0.0
  0
LINE
  5
2C
330
1E
100
AcDbEntity
  8
0
100
AcDbLine
 10
18.8
 20
18.92106899999999
 30
0.0
 11
28.9
 21
15.021069
 31
0.0
  0
LINE
  5
2D
330
1E
100
AcDbEntity
  8
0
100
AcDbLine
 10
17.7
 20
17.937969
 30
0.0
 11
28.1
 21
13.937969
 31
0.0
  0
LINE
  5
2E
330
1E
100
AcDbEntity
  8
0
100
AcDbLine
 10
18.39999999999999
 20
23.484169
 30
0.0
 11
28.6
 21
19.58416899999999
 31
0.0
  0
LINE
  5
2F
330
1E
100
AcDbEntity
  8
0
100
AcDbLine
 10
19.1
 20
21.669069
 30
0.0
 11
29.1
 21
17.819069
 31
0.0
  0
LINE
  5
30
330
1E
100
AcDbEntity
  8
0
100
AcDbLine
 10
10.6
 20
28.58416899999999
 30
0.0
 11
18.39999999999999
 21
23.484169
 31
0.0
  0
LINE
  5
31
330
1E
100
AcDbEntity
  8
0
100
AcDbLine
 10
11.4
 20
26.669069
 30
0.0
 11
19.1
 21
21.669069
 31
0.0
  0
LINE
  5
32
330
1E
100
AcDbEntity
  8
0
100
AcDbLine
 10
11.0
 20
23.971069
 30
0.0
 11
18.8
 21
18.92106899999999
 31
0.0
  0
LINE
  5
33
330
1E
100
AcDbEntity
  8
0
100
AcDbLine
 10
9.699999999999999
 20
23.137969
 30
0.0
 11
17.7
 21
17.937969
 31
0.0
  0
LINE
  5
34
330
1E
100
AcDbEntity
  8
0
100
AcDbLine
 10
8.8
 20
16.825869
 30
0.0
 11
17.0
 21
11.52586899999999
 31
0.0
  0
LINE
  5
35
330
1E
100
AcDbEntity
  8
0
100
AcDbLine
 10
7.5
 20
16.04286899999999
 30
0.0
 11
16.0
 21
10.592869
 31
0.0
  0
LINE
  5
36
330
1E
100
AcDbEntity
  8
0
100
AcDbLine
 10
7.5
 20
13.011769
 30
0.0
 11
16.0
 21
7.561729000000009
 31
0.0
  0
LINE
  5
37
330
1E
100
AcDbEntity
  8
0
100
AcDbLine
 10
2.399999999999999
 20
19.311769
 30
0.0
 11
7.5
 21
13.011769
 31
0.0
  0
LINE
  5
38
330
1E
100
AcDbEntity
  8
0
100
AcDbLine
 10
6.299999999999999
 20
33.23516899999999
 30
0.0
 11
6.7
 21
32.46906899999999
 31
0.0
  0
LINE
  5
39
330
1E
100
AcDbEntity
  8
0
100
AcDbLine
 10
6.7
 20
32.46906899999999
 30
0.0
 11
11.4
 21
26.669069
 31
0.0
  0
LINE
  5
3A
330
1E
100
AcDbEntity
  8
0
100
AcDbLine
 10
6.299999999999999
 20
29.771069
 30
0.0
 11
11.0
 21
23.971069
 31
0.0
  0
LINE
  5
3B
330
1E
100
AcDbEntity
  8
0
100
AcDbLine
 10
4.799999999999999
 20
29.187969
 30
0.0
 11
9.699999999999999
 21
23.137969
 31
0.0
  0
LINE
  5
3C
330
1E
100
AcDbEntity
  8
0
100
AcDbLine
 10
5.799999999999999
 20
34.484169
 30
0.0
 11
6.299999999999999
 21
33.23516899999999
 31
0.0
  0
LINE
  5
3D
330
1E
100
AcDbEntity
  8
0
100
AcDbLine
 10
5.799999999999999
 20
34.484169
 30
0.0
 11
10.6
 21
28.58416899999999
 31
0.0
  0
LINE
  5
3E
330
1E
100
AcDbEntity
  8
0
100
AcDbLine
 10
2.5
 20
34.288969
 30
0.0
 11
4.151668749999999
 21
40.253328375
 31
0.0
  0
LINE
  5
3F
330
1E
100
AcDbEntity
  8
0
100
AcDbLine
 10
2.0
 20
29.525869
 30
0.0
 11
2.5
 21
34.288969
 31
0.0
  0
LINE
  5
40
330
1E
100
AcDbEntity
  8
0
100
AcDbLine
 10
2.0
 20
29.525869
 30
0.0
 11
3.799999999999999
 21
22.975869
 31
0.0
  0
LINE
  5
41
330
1E
100
AcDbEntity
  8
0
100
AcDbLine
 10
0.500000000000002
 20
29.092869
 30
0.0
 11
2.399999999999999
 21
35.842869
 31
0.0
  0
LINE
  5
42
330
1E
100
AcDbEntity
  8
0
100
AcDbLine
 10
0.500000000000002
 20
29.092869
 30
0.0
 11
2.399999999999999
 21
22.342869
 31
0.0
  0
LINE
  5
43
330
1E
100
AcDbEntity
  8
0
100
AcDbLine
 10
0.500000000000002
 20
29.092869
 30
0.0
 11
2.399999999999999
 21
35.842869
 31
0.0
  0
LINE
  5
44
330
1E
100
AcDbEntity
  8
0
100
AcDbLine
 10
0.500000000000002
 20
29.092869
 30
0.0
 11
2.399999999999999
 21
22.342869
 31
0.0
  0
LINE
  5
45
330
1E
100
AcDbEntity
  8
0
100
AcDbLine
 10
4.5
 20
36.02106899999999
 30
0.0
 11
4.5
 21
37.753069
 31
0.0
  0
LINE
  5
46
330
1E
100
AcDbEntity
  8
0
100
AcDbLine
 10
4.5
 20
36.02106899999999
 30
0.0
 11
6.299999999999999
 21
29.771069
 31
0.0
  0
LINE
  5
47
330
1E
100
AcDbEntity
  8
0
100
AcDbLine
 10
3.0
 20
35.587969
 30
0.0
 11
4.232532283464569
 21
39.970306007874
 31
0.0
  0
LINE
  5
48
330
1E
100
AcDbEntity
  8
0
100
AcDbLine
 10
3.0
 20
35.587969
 30
0.0
 11
4.799999999999999
 21
29.187969
 31
0.0
  0
LINE
  5
49
330
1E
100
AcDbEntity
  8
0
100
AcDbLine
 10
2.399999999999999
 20
35.842869
 30
0.0
 11
3.2060431911967
 21
36.8385694126547
 31
0.0
  0
LINE
  5
4A
330
1E
100
AcDbEntity
  8
0
100
AcDbLine
 10
1.9
 20
34.593769
 30
0.0
 11
2.399999999999999
 21
35.842869
 31
0.0
  0
LINE
  5
4B
330
1E
100
AcDbEntity
  8
0
100
AcDbLine
 10
0.000000000000002
 20
27.360769
 30
0.0
 11
0.000000000000002
 21
27.793769
 31
0.0
  0
LINE
  5
4C
330
1E
100
AcDbEntity
  8
0
100
AcDbLine
 10
0.000000000000002
 20
27.360769
 30
0.0
 11
1.9
 21
20.560769
 31
0.0
  0
LINE
  5
4D
330
1E
100
AcDbEntity
  8
0
100
AcDbLine
 10
6.299999999999999
 20
48.33316899999999
 30
0.0
 11
7.7
 21
51.59726899999999
 31
0.0
  0
LINE
  5
4F
330
1E
100
AcDbEntity
  8
0
100
AcDbLine
 10
13.6
 20
59.01236899999999
 30
0.0
 11
20.89999999999999
 21
63.76236899999999
 31
0.0
  0
LINE
  5
50
330
1E
100
AcDbEntity
  8
0
100
AcDbLine
 10
12.7
 20
58.39636899999999
 30
0.0
 11
13.6
 21
59.01236899999999
 31
0.0
  0
LINE
  5
51
330
1E
100
AcDbEntity
  8
0
100
AcDbLine
 10
8.199999999999999
 20
52.79636899999999
 30
0.0
 11
12.7
 21
58.39636899999999
 31
0.0
  0
LINE
  5
52
330
1E
100
AcDbEntity
  8
0
100
AcDbLine
 10
7.7
 20
51.59726899999999
 30
0.0
 11
8.199999999999999
 21
52.79636899999999
 31
0.0
  0
LINE
  5
53
330
1E
100
AcDbEntity
  8
0
100
AcDbLine
 10
5.799999999999999
 20
47.084169
 30
0.0
 11
6.299999999999999
 21
48.33316899999999
 31
0.0
  0
LINE
  5
54
330
1E
100
AcDbEntity
  8
0
100
AcDbLine
 10
4.0
 20
40.78416899999999
 30
0.0
 11
5.799999999999999
 21
47.084169
 31
0.0
  0
LINE
  5
55
330
1E
100
AcDbEntity
  8
0
100
AcDbLine
 10
4.0
 20
40.78416899999999
 30
0.0
 11
5.799999999999999
 21
34.484169
 31
0.0
  0
LINE
  5
56
330
1E
100
AcDbEntity
  8
0
100
AcDbLine
 10
4.5
 20
37.753069
 30
0.0
 11
4.68374342629482
 21
38.3910670079681
 31
0.0
  0
LINE
  5
57
330
1E
100
AcDbEntity
  8
0
100
AcDbLine
 10
4.5
 20
37.753069
 30
0.0
 11
4.5
 21
36.02106899999999
 31
0.0
  0
LINE
  5
58
330
1E
100
AcDbEntity
  8
0
100
AcDbLine
 10
28.9
 20
15.021069
 30
0.0
 11
40.49999999999999
 21
12.671069
 31
0.0
  0
LINE
  5
59
330
1E
100
AcDbEntity
  8
0
100
AcDbLine
 10
28.1
 20
13.937969
 30
0.0
 11
40.2
 21
11.487969
 31
0.0
  0
LINE
  5
5A
330
1E
100
AcDbEntity
  8
0
100
AcDbLine
 10
27.6
 20
7.425829000000009
 30
0.0
 11
39.9
 21
4.925829000000009
 31
0.0
  0
LINE
  5
5B
330
1E
100
AcDbEntity
  8
0
100
AcDbLine
 10
26.89999999999999
 20
6.342819000000009
 30
0.0
 11
39.5
 21
3.792819000000009
 31
0.0
  0
LINE
  5
5C
330
1E
100
AcDbEntity
  8
0
100
AcDbLine
 10
39.5
 20
3.792819000000009
 30
0.0
 11
53.0
 21
2.842819000000009
 31
0.0
  0
LINE
  5
5D
330
1E
100
AcDbEntity
  8
0
100
AcDbLine
 10
26.89999999999999
 20
3.311729000000009
 30
0.0
 11
39.5
 21
0.7617290000000092
 31
0.0
  0
LINE
  5
5E
330
1E
100
AcDbEntity
  8
0
100
AcDbLine
 10
26.89999999999999
 20
3.311729000000009
 30
0.0
 11
39.5
 21
0.76172900000001
 31
0.0
  0
LINE
  5
5F
330
1E
100
AcDbEntity
  8
0
100
AcDbLine
 10
40.49999999999999
 20
12.671069
 30
0.0
 11
53.0
 21
11.771069
 31
0.0
  0
LINE
  5
60
330
1E
100
AcDbEntity
  8
0
100
AcDbLine
 10
40.2
 20
11.487969
 30
0.0
 11
53.0
 21
10.587969
 31
0.0
  0
LINE
  5
61
330
1E
100
AcDbEntity
  8
0
100
AcDbLine
 10
39.9
 20
4.925829000000009
 30
0.0
 11
53.0
 21
4.025829000000009
 31
0.0
  0
LINE
  5
62
330
1E
100
AcDbEntity
  8
0
100
AcDbLine
 10
39.5
 20
0.7617290000000092
 30
0.0
 11
53.0
 21
-0.18826899999999
 31
0.0
  0
LINE
  5
63
330
1E
100
AcDbEntity
  8
0
100
AcDbLine
 10
28.6
 20
19.58416899999999
 30
0.0
 11
40.4
 21
17.184169
 31
0.0
  0
LINE
  5
64
330
1E
100
AcDbEntity
  8
0
100
AcDbLine
 10
40.4
 20
17.184169
 30
0.0
 11
53.0
 21
16.28416899999999
 31
0.0
  0
LINE
  5
65
330
1E
100
AcDbEntity
  8
0
100
AcDbLine
 10
29.1
 20
17.819069
 30
0.0
 11
40.7
 21
15.469069
 31
0.0
  0
LINE
  5
66
330
1E
100
AcDbEntity
  8
0
100
AcDbLine
 10
40.7
 20
15.469069
 30
0.0
 11
53.0
 21
14.61906899999999
 31
0.0
  0
LINE
  5
67
330
1E
100
AcDbEntity
  8
0
100
AcDbLine
 10
20.89999999999999
 20
63.76236899999999
 30
0.0
 11
30.4
 21
67.412369
 31
0.0
  0
LINE
  5
68
330
1E
100
AcDbEntity
  8
0
100
AcDbLine
 10
40.0
 20
111.510269
 30
0.0
 11
40.49999999999999
 21
108.652269
 31
0.0
  0
LINE
  5
69
330
1E
100
AcDbEntity
  8
0
100
AcDbLine
 10
40.0
 20
111.510269
 30
0.0
 11
40.49999999999999
 21
114.368269
 31
0.0
  0
LINE
  5
6A
330
1E
100
AcDbEntity
  8
0
100
AcDbLine
 10
38.5
 20
129.0102689999999
 30
0.0
 11
40.0
 21
118.2602689999999
 31
0.0
  0
LINE
  5
6B
330
1E
100
AcDbEntity
  8
0
100
AcDbLine
 10
40.0
 20
118.2602689999999
 30
0.0
 11
40.49999999999999
 21
115.4022689999999
 31
0.0
  0
LINE
  5
6C
330
1E
100
AcDbEntity
  8
0
100
AcDbLine
 10
38.0
 20
135.2602689999999
 30
0.0
 11
38.5
 21
141.5102689999999
 31
0.0
  0
LINE
  5
6D
330
1E
100
AcDbEntity
  8
0
100
AcDbLine
 10
38.0
 20
135.2602689999999
 30
0.0
 11
38.5
 21
129.0102689999999
 31
0.0
  0
LINE
  5
6E
330
1E
100
AcDbEntity
  8
0
100
AcDbLine
 10
40.0
 20
159.0102689999999
 30
0.0
 11
40.49999999999999
 21
161.8682689999999
 31
0.0
  0
LINE
  5
6F
330
1E
100
AcDbEntity
  8
0
100
AcDbLine
 10
40.0
 20
159.0102689999999
 30
0.0
 11
40.49999999999999
 21
156.1522689999999
 31
0.0
  0
LINE
  5
70
330
1E
100
AcDbEntity
  8
0
100
AcDbLine
 10
38.5
 20
141.5102689999999
 30
0.0
 11
40.0
 21
152.260269
 31
0.0
  0
LINE
  5
71
330
1E
100
AcDbEntity
  8
0
100
AcDbLine
 10
40.49999999999999
 20
108.652269
 30
0.0
 11
41.7
 21
105.8812689999999
 31
0.0
  0
LINE
  5
72
330
1E
100
AcDbEntity
  8
0
100
AcDbLine
 10
40.49999999999999
 20
114.368269
 30
0.0
 11
41.7
 21
117.139269
 31
0.0
  0
LINE
  5
75
330
1E
100
AcDbEntity
  8
0
100
AcDbLine
 10
40.49999999999999
 20
115.4022689999999
 30
0.0
 11
40.66133142634249
 21
114.7408101519959
 31
0.0
  0
LINE
  5
76
330
1E
100
AcDbEntity
  8
0
100
AcDbLine
 10
40.49999999999999
 20
156.1522689999999
 30
0.0
 11
40.66133142634249
 21
155.7797278480039
 31
0.0
  0
LINE
  5
79
330
1E
100
AcDbEntity
  8
0
100
AcDbLine
 10
40.49999999999999
 20
161.8682689999999
 30
0.0
 11
41.7
 21
164.6392689999999
 31
0.0
  0
LINE
  5
7A
330
1E
100
AcDbEntity
  8
0
100
AcDbLine
 10
40.49999999999999
 20
155.118269
 30
0.0
 11
41.9
 21
160.858269
 31
0.0
  0
LINE
  5
7B
330
1E
100
AcDbEntity
  8
0
100
AcDbLine
 10
40.0
 20
152.260269
 30
0.0
 11
40.49999999999999
 21
155.118269
 31
0.0
  0
LINE
  5
7C
330
1E
100
AcDbEntity
  8
0
100
AcDbLine
 10
30.4
 20
67.412369
 30
0.0
 11
41.29999999999999
 21
69.662369
 31
0.0
  0
LINE
  5
7D
330
1E
100
AcDbEntity
  8
0
100
AcDbLine
 10
53.0
 20
16.28416899999999
 30
0.0
 11
65.59999999999999
 21
17.184169
 31
0.0
  0
LINE
  5
7E
330
1E
100
AcDbEntity
  8
0
100
AcDbLine
 10
53.0
 20
14.61906899999999
 30
0.0
 11
65.3
 21
15.469069
 31
0.0
  0
LINE
  5
7F
330
1E
100
AcDbEntity
  8
0
100
AcDbLine
 10
53.0
 20
11.771069
 30
0.0
 11
65.5
 21
12.671069
 31
0.0
  0
LINE
  5
80
330
1E
100
AcDbEntity
  8
0
100
AcDbLine
 10
53.0
 20
10.587969
 30
0.0
 11
65.8
 21
11.487969
 31
0.0
  0
LINE
  5
81
330
1E
100
AcDbEntity
  8
0
100
AcDbLine
 10
53.0
 20
4.025829000000009
 30
0.0
 11
66.09999999999999
 21
4.925829000000009
 31
0.0
  0
LINE
  5
82
330
1E
100
AcDbEntity
  8
0
100
AcDbLine
 10
65.3
 20
15.469069
 30
0.0
 11
76.90000000000001
 21
17.819069
 31
0.0
  0
LINE
  5
83
330
1E
100
AcDbEntity
  8
0
100
AcDbLine
 10
65.59999999999999
 20
17.184169
 30
0.0
 11
77.40000000000001
 21
19.58416899999999
 31
0.0
  0
LINE
  5
84
330
1E
100
AcDbEntity
  8
0
100
AcDbLine
 10
65.5
 20
12.671069
 30
0.0
 11
77.09999999999999
 21
15.021069
 31
0.0
  0
LINE
  5
85
330
1E
100
AcDbEntity
  8
0
100
AcDbLine
 10
65.8
 20
11.487969
 30
0.0
 11
77.9
 21
13.937969
 31
0.0
  0
LINE
  5
86
330
1E
100
AcDbEntity
  8
0
100
AcDbLine
 10
66.09999999999999
 20
4.925829000000009
 30
0.0
 11
78.4
 21
7.425829000000009
 31
0.0
  0
LINE
  5
87
330
1E
100
AcDbEntity
  8
0
100
AcDbLine
 10
66.5
 20
3.792819000000009
 30
0.0
 11
79.1
 21
6.342819000000009
 31
0.0
  0
LINE
  5
88
330
1E
100
AcDbEntity
  8
0
100
AcDbLine
 10
53.0
 20
2.842819000000009
 30
0.0
 11
66.5
 21
3.792819000000009
 31
0.0
  0
LINE
  5
89
330
1E
100
AcDbEntity
  8
0
100
AcDbLine
 10
66.5
 20
0.7617290000000092
 30
0.0
 11
79.1
 21
3.311729000000009
 31
0.0
  0
LINE
  5
8A
330
1E
100
AcDbEntity
  8
0
100
AcDbLine
 10
77.40000000000001
 20
19.58416899999999
 30
0.0
 11
87.59999999999999
 21
23.484169
 31
0.0
  0
LINE
  5
8B
330
1E
100
AcDbEntity
  8
0
100
AcDbLine
 10
76.90000000000001
 20
17.819069
 30
0.0
 11
86.90000000000001
 21
21.669069
 31
0.0
  0
LINE
  5
8C
330
1E
100
AcDbEntity
  8
0
100
AcDbLine
 10
77.09999999999999
 20
15.021069
 30
0.0
 11
87.2
 21
18.92106899999999
 31
0.0
  0
LINE
  5
8D
330
1E
100
AcDbEntity
  8
0
100
AcDbLine
 10
77.9
 20
13.937969
 30
0.0
 11
88.3
 21
17.937969
 31
0.0
  0
LINE
  5
8E
330
1E
100
AcDbEntity
  8
0
100
AcDbLine
 10
78.4
 20
7.425829000000009
 30
0.0
 11
89.0
 21
11.52586899999999
 31
0.0
  0
LINE
  5
8F
330
1E
100
AcDbEntity
  8
0
100
AcDbLine
 10
87.2
 20
18.92106899999999
 30
0.0
 11
95.0
 21
23.971069
 31
0.0
  0
LINE
  5
90
330
1E
100
AcDbEntity
  8
0
100
AcDbLine
 10
88.3
 20
17.937969
 30
0.0
 11
96.3
 21
23.137969
 31
0.0
  0
LINE
  5
91
330
1E
100
AcDbEntity
  8
0
100
AcDbLine
 10
96.3
 20
23.137969
 30
0.0
 11
101.2
 21
29.187969
 31
0.0
  0
LINE
  5
92
330
1E
100
AcDbEntity
  8
0
100
AcDbLine
 10
89.0
 20
11.52586899999999
 30
0.0
 11
97.2
 21
16.825869
 31
0.0
  0
LINE
  5
93
330
1E
100
AcDbEntity
  8
0
100
AcDbLine
 10
97.2
 20
16.825869
 30
0.0
 11
102.2
 21
22.975869
 31
0.0
  0
LINE
  5
94
330
1E
100
AcDbEntity
  8
0
100
AcDbLine
 10
90.0
 20
10.592869
 30
0.0
 11
98.50000000000001
 21
16.04286899999999
 31
0.0
  0
LINE
  5
95
330
1E
100
AcDbEntity
  8
0
100
AcDbLine
 10
98.50000000000001
 20
16.04286899999999
 30
0.0
 11
103.6
 21
22.342869
 31
0.0
  0
LINE
  5
96
330
1E
100
AcDbEntity
  8
0
100
AcDbLine
 10
90.0
 20
7.561729000000009
 30
0.0
 11
98.50000000000001
 21
13.011769
 31
0.0
  0
LINE
  5
97
330
1E
100
AcDbEntity
  8
0
100
AcDbLine
 10
102.2
 20
22.975869
 30
0.0
 11
104.0
 21
29.525869
 31
0.0
  0
LINE
  5
98
330
1E
100
AcDbEntity
  8
0
100
AcDbLine
 10
98.50000000000001
 20
13.011769
 30
0.0
 11
103.6
 21
19.311769
 31
0.0
  0
LINE
  5
99
330
1E
100
AcDbEntity
  8
0
100
AcDbLine
 10
95.0
 20
23.971069
 30
0.0
 11
99.7
 21
29.771069
 31
0.0
  0
LINE
  5
9A
330
1E
100
AcDbEntity
  8
0
100
AcDbLine
 10
87.59999999999999
 20
23.484169
 30
0.0
 11
95.4
 21
28.58416899999999
 31
0.0
  0
LINE
  5
9B
330
1E
100
AcDbEntity
  8
0
100
AcDbLine
 10
86.90000000000001
 20
21.669069
 30
0.0
 11
94.59999999999999
 21
26.669069
 31
0.0
  0
LINE
  5
9C
330
1E
100
AcDbEntity
  8
0
100
AcDbLine
 10
95.4
 20
28.58416899999999
 30
0.0
 11
100.2
 21
34.484169
 31
0.0
  0
LINE
  5
9D
330
1E
100
AcDbEntity
  8
0
100
AcDbLine
 10
99.7
 20
29.771069
 30
0.0
 11
101.5
 21
36.02106899999999
 31
0.0
  0
LINE
  5
9E
330
1E
100
AcDbEntity
  8
0
100
AcDbLine
 10
101.2
 20
29.187969
 30
0.0
 11
103.0
 21
35.587969
 31
0.0
  0
LINE
  5
9F
330
1E
100
AcDbEntity
  8
0
100
AcDbLine
 10
100.2
 20
34.484169
 30
0.0
 11
102.0
 21
40.78416899999999
 31
0.0
  0
LINE
  5
A0
330
1E
100
AcDbEntity
  8
0
100
AcDbLine
 10
99.7
 20
33.23516899999999
 30
0.0
 11
100.2
 21
34.484169
 31
0.0
  0
LINE
  5
A1
330
1E
100
AcDbEntity
  8
0
100
AcDbLine
 10
99.29999999999999
 20
32.46906899999999
 30
0.0
 11
99.7
 21
33.23516899999999
 31
0.0
  0
LINE
  5
A2
330
1E
100
AcDbEntity
  8
0
100
AcDbLine
 10
94.59999999999999
 20
26.669069
 30
0.0
 11
99.29999999999999
 21
32.46906899999999
 31
0.0
  0
LINE
  5
A3
330
1E
100
AcDbEntity
  8
0
100
AcDbLine
 10
79.1
 20
6.342819000000009
 30
0.0
 11
90.0
 21
10.592869
 31
0.0
  0
LINE
  5
A4
330
1E
100
AcDbEntity
  8
0
100
AcDbLine
 10
79.1
 20
3.311729000000009
 30
0.0
 11
90.0
 21
7.561729000000009
 31
0.0
  0
LINE
  5
A5
330
1E
100
AcDbEntity
  8
0
100
AcDbLine
 10
66.5
 20
0.76172900000001
 30
0.0
 11
79.1
 21
3.311729000000009
 31
0.0
  0
LINE
  5
A6
330
1E
100
AcDbEntity
  8
0
100
AcDbLine
 10
53.0
 20
-0.18826899999999
 30
0.0
 11
66.5
 21
0.7617290000000092
 31
0.0
  0
LINE
  5
A7
330
1E
100
AcDbEntity
  8
0
100
AcDbLine
 10
103.6
 20
22.342869
 30
0.0
 11
105.4999999999999
 21
29.092869
 31
0.0
  0
LINE
  5
A8
330
1E
100
AcDbEntity
  8
0
100
AcDbLine
 10
106.0
 20
27.360769
 30
0.0
 11
106.0
 21
27.793769
 31
0.0
  0
LINE
  5
A9
330
1E
100
AcDbEntity
  8
0
100
AcDbLine
 10
104.0999999999999
 20
20.560769
 30
0.0
 11
106.0
 21
27.360769
 31
0.0
  0
LINE
  5
AA
330
1E
100
AcDbEntity
  8
0
100
AcDbLine
 10
103.6
 20
19.311769
 30
0.0
 11
104.0999999999999
 21
20.560769
 31
0.0
  0
LINE
  5
AB
330
1E
100
AcDbEntity
  8
0
100
AcDbLine
 10
103.4999999999999
 20
34.288969
 30
0.0
 11
104.0
 21
29.525869
 31
0.0
  0
LINE
  5
AC
330
1E
100
AcDbEntity
  8
0
100
AcDbLine
 10
101.5
 20
36.02106899999999
 30
0.0
 11
101.5
 21
37.753069
 31
0.0
  0
LINE
  5
AD
330
1E
100
AcDbEntity
  8
0
100
AcDbLine
 10
101.3162565737049
 20
38.3910670079681
 30
0.0
 11
101.5
 21
37.753069
 31
0.0
  0
LINE
  5
AE
330
1E
100
AcDbEntity
  8
0
100
AcDbLine
 10
101.5
 20
37.753069
 30
0.0
 11
101.5
 21
36.02106899999999
 31
0.0
  0
LINE
  5
B0
330
1E
100
AcDbEntity
  8
0
100
AcDbLine
 10
55.4
 20
53.93766899999999
 30
0.0
 11
57.7
 21
54.43766899999999
 31
0.0
  0
LINE
  5
B1
330
1E
100
AcDbEntity
  8
0
100
AcDbLine
 10
53.0
 20
53.78766899999999
 30
0.0
 11
55.4
 21
53.93766899999999
 31
0.0
  0
LINE
  5
B2
330
1E
100
AcDbEntity
  8
0
100
AcDbLine
 10
97.80000000000001
 20
52.79636899999999
 30
0.0
 11
98.3
 21
51.59726899999999
 31
0.0
  0
LINE
  5
B3
330
1E
100
AcDbEntity
  8
0
100
AcDbLine
 10
98.3
 20
51.59726899999999
 30
0.0
 11
99.7
 21
48.33316899999999
 31
0.0
  0
LINE
  5
B4
330
1E
100
AcDbEntity
  8
0
100
AcDbLine
 10
99.7
 20
48.33316899999999
 30
0.0
 11
100.2
 21
47.084169
 31
0.0
  0
LINE
  5
B5
330
1E
100
AcDbEntity
  8
0
100
AcDbLine
 10
100.2
 20
47.084169
 30
0.0
 11
102.0
 21
40.78416899999999
 31
0.0
  0
LINE
  5
B6
330
1E
100
AcDbEntity
  8
0
100
AcDbLine
 10
101.7674677165349
 20
39.970306007874
 30
0.0
 11
103.0
 21
35.587969
 31
0.0
  0
LINE
  5
B7
330
1E
100
AcDbEntity
  8
0
100
AcDbLine
 10
101.84833125
 20
40.253328375
 30
0.0
 11
103.4999999999999
 21
34.288969
 31
0.0
  0
LINE
  5
B8
330
1E
100
AcDbEntity
  8
0
100
AcDbLine
 10
102.793956808803
 20
36.8385694126547
 30
0.0
 11
103.6
 21
35.842869
 31
0.0
  0
LINE
  5
B9
330
1E
100
AcDbEntity
  8
0
100
AcDbLine
 10
103.6
 20
35.842869
 30
0.0
 11
105.4999999999999
 21
29.092869
 31
0.0
  0
LINE
  5
BA
330
1E
100
AcDbEntity
  8
0
100
AcDbLine
 10
103.6
 20
35.842869
 30
0.0
 11
104.0999999999999
 21
34.593769
 31
0.0
  0
LINE
  5
BB
330
1E
100
AcDbEntity
  8
0
100
AcDbLine
 10
104.0999999999999
 20
34.593769
 30
0.0
 11
106.0
 21
27.793769
 31
0.0
  0
LINE
  5
BC
330
1E
100
AcDbEntity
  8
0
100
AcDbLine
 10
106.0
 20
27.793769
 30
0.0
 11
106.0
 21
27.360769
 31
0.0
  0
LINE
  5
BD
330
1E
100
AcDbEntity
  8
0
100
AcDbLine
 10
46.29999999999999
 20
55.18766899999999
 30
0.0
 11
48.3
 21
54.43766899999999
 31
0.0
  0
LINE
  5
BE
330
1E
100
AcDbEntity
  8
0
100
AcDbLine
 10
55.1
 20
54.68766899999999
 30
0.0
 11
57.0
 21
55.08766899999999
 31
0.0
  0
LINE
  5
BF
330
1E
100
AcDbEntity
  8
0
100
AcDbLine
 10
53.0
 20
54.53766899999999
 30
0.0
 11
55.1
 21
54.68766899999999
 31
0.0
  0
LINE
  5
C0
330
1E
100
AcDbEntity
  8
0
100
AcDbLine
 10
57.0
 20
55.08766899999999
 30
0.0
 11
58.6
 21
55.73766899999999
 31
0.0
  0
LINE
  5
C1
330
1E
100
AcDbEntity
  8
0
100
AcDbLine
 10
49.0
 20
55.08766899999999
 30
0.0
 11
50.89999999999999
 21
54.68766899999999
 31
0.0
  0
LINE
  5
C2
330
1E
100
AcDbEntity
  8
0
100
AcDbLine
 10
50.89999999999999
 20
54.68766899999999
 30
0.0
 11
53.0
 21
54.53766899999999
 31
0.0
  0
LINE
  5
C3
330
1E
100
AcDbEntity
  8
0
100
AcDbLine
 10
59.7
 20
55.18766899999999
 30
0.0
 11
61.2
 21
56.18766899999999
 31
0.0
  0
LINE
  5
C4
330
1E
100
AcDbEntity
  8
0
100
AcDbLine
 10
57.7
 20
54.43766899999999
 30
0.0
 11
59.7
 21
55.18766899999999
 31
0.0
  0
LINE
  5
C5
330
1E
100
AcDbEntity
  8
0
100
AcDbLine
 10
48.3
 20
54.43766899999999
 30
0.0
 11
50.6
 21
53.93766899999999
 31
0.0
  0
LINE
  5
C6
330
1E
100
AcDbEntity
  8
0
100
AcDbLine
 10
50.6
 20
53.93766899999999
 30
0.0
 11
53.0
 21
53.78766899999999
 31
0.0
  0
LINE
  5
C8
330
1E
100
AcDbEntity
  8
0
100
AcDbLine
 10
41.5
 20
110.760269
 30
0.0
 11
41.5
 21
109.7602689999999
 31
0.0
  0
LINE
  5
C9
330
1E
100
AcDbEntity
  8
0
100
AcDbLine
 10
41.5
 20
110.760269
 30
0.0
 11
41.9
 21
113.3582689999999
 31
0.0
  0
LINE
  5
CA
330
1E
100
AcDbEntity
  8
0
100
AcDbLine
 10
41.7
 20
105.8812689999999
 30
0.0
 11
43.79999999999999
 21
103.5422689999999
 31
0.0
  0
LINE
  5
CB
330
1E
100
AcDbEntity
  8
0
100
AcDbLine
 10
41.7
 20
117.139269
 30
0.0
 11
43.79999999999999
 21
119.4772689999999
 31
0.0
  0
LINE
  5
CC
330
1E
100
AcDbEntity
  8
0
100
AcDbLine
 10
41.9
 20
113.3582689999999
 30
0.0
 11
43.0
 21
115.696269
 31
0.0
  0
LINE
  5
CD
330
1E
100
AcDbEntity
  8
0
100
AcDbLine
 10
41.9
 20
107.1622689999999
 30
0.0
 11
43.0
 21
104.823269
 31
0.0
  0
LINE
  5
CE
330
1E
100
AcDbEntity
  8
0
100
AcDbLine
 10
41.5
 20
109.7602689999999
 30
0.0
 11
41.9
 21
107.1622689999999
 31
0.0
  0
LINE
  5
CF
330
1E
100
AcDbEntity
  8
0
100
AcDbLine
 10
41.5
 20
109.7602689999999
 30
0.0
 11
41.5
 21
110.760269
 31
0.0
  0
LINE
  5
D0
330
1E
100
AcDbEntity
  8
0
100
AcDbLine
 10
41.7
 20
164.6392689999999
 30
0.0
 11
43.79999999999999
 21
166.977269
 31
0.0
  0
LINE
  5
D1
330
1E
100
AcDbEntity
  8
0
100
AcDbLine
 10
41.9
 20
160.858269
 30
0.0
 11
43.0
 21
163.1962689999999
 31
0.0
  0
LINE
  5
D2
330
1E
100
AcDbEntity
  8
0
100
AcDbLine
 10
58.6
 20
55.73766899999999
 30
0.0
 11
59.9
 21
56.53766899999999
 31
0.0
  0
LINE
  5
D3
330
1E
100
AcDbEntity
  8
0
100
AcDbLine
 10
59.9
 20
56.53766899999999
 30
0.0
 11
60.7
 21
57.48766899999999
 31
0.0
  0
LINE
  5
D4
330
1E
100
AcDbEntity
  8
0
100
AcDbLine
 10
47.4
 20
55.73766899999999
 30
0.0
 11
49.0
 21
55.08766899999999
 31
0.0
  0
LINE
  5
D5
330
1E
100
AcDbEntity
  8
0
100
AcDbLine
 10
46.1
 20
56.53766899999999
 30
0.0
 11
47.4
 21
55.73766899999999
 31
0.0
  0
LINE
  5
D7
330
1E
100
AcDbEntity
  8
0
100
AcDbLine
 10
61.2
 20
56.18766899999999
 30
0.0
 11
62.2
 21
57.33766899999999
 31
0.0
  0
LINE
  5
D8
330
1E
100
AcDbEntity
  8
0
100
AcDbLine
 10
62.2
 20
57.33766899999999
 30
0.0
 11
62.5
 21
58.537669
 31
0.0
  0
LINE
  5
D9
330
1E
100
AcDbEntity
  8
0
100
AcDbLine
 10
44.79999999999999
 20
56.18766899999999
 30
0.0
 11
46.29999999999999
 21
55.18766899999999
 31
0.0
  0
LINE
  5
DA
330
1E
100
AcDbEntity
  8
0
100
AcDbLine
 10
61.0
 20
58.537669
 30
0.0
 11
61.0
 21
62.63776899999999
 31
0.0
  0
LINE
  5
DB
330
1E
100
AcDbEntity
  8
0
100
AcDbLine
 10
60.7
 20
57.48766899999999
 30
0.0
 11
61.0
 21
58.537669
 31
0.0
  0
LINE
  5
DC
330
1E
100
AcDbEntity
  8
0
100
AcDbLine
 10
45.3
 20
57.48766899999999
 30
0.0
 11
46.1
 21
56.53766899999999
 31
0.0
  0
LINE
  5
DD
330
1E
100
AcDbEntity
  8
0
100
AcDbLine
 10
45.0
 20
58.537669
 30
0.0
 11
45.3
 21
57.48766899999999
 31
0.0
  0
LINE
  5
DE
330
1E
100
AcDbEntity
  8
0
100
AcDbLine
 10
45.0
 20
58.537669
 30
0.0
 11
45.0
 21
62.63776899999999
 31
0.0
  0
LINE
  5
E0
330
1E
100
AcDbEntity
  8
0
100
AcDbLine
 10
63.1
 20
59.021669
 30
0.0
 11
63.5
 21
57.67166899999999
 31
0.0
  0
LINE
  5
E1
330
1E
100
AcDbEntity
  8
0
100
AcDbLine
 10
92.4
 20
59.01236899999999
 30
0.0
 11
93.3
 21
58.39636899999999
 31
0.0
  0
LINE
  5
E2
330
1E
100
AcDbEntity
  8
0
100
AcDbLine
 10
93.3
 20
58.39636899999999
 30
0.0
 11
97.80000000000001
 21
52.79636899999999
 31
0.0
  0
LINE
  5
E3
330
1E
100
AcDbEntity
  8
0
100
AcDbLine
 10
43.79999999999999
 20
57.33766899999999
 30
0.0
 11
44.79999999999999
 21
56.18766899999999
 31
0.0
  0
LINE
  5
E4
330
1E
100
AcDbEntity
  8
0
100
AcDbLine
 10
43.5
 20
58.537669
 30
0.0
 11
43.79999999999999
 21
59.737669
 31
0.0
  0
LINE
  5
E5
330
1E
100
AcDbEntity
  8
0
100
AcDbLine
 10
43.5
 20
58.537669
 30
0.0
 11
43.79999999999999
 21
57.33766899999999
 31
0.0
  0
LINE
  5
E6
330
1E
100
AcDbEntity
  8
0
100
AcDbLine
 10
43.0
 20
115.696269
 30
0.0
 11
44.9
 21
117.7752689999999
 31
0.0
  0
LINE
  5
E7
330
1E
100
AcDbEntity
  8
0
100
AcDbLine
 10
43.0
 20
104.823269
 30
0.0
 11
43.5
 21
103.9972689999999
 31
0.0
  0
LINE
  5
E8
330
1E
100
AcDbEntity
  8
0
100
AcDbLine
 10
43.79999999999999
 20
103.5422689999999
 30
0.0
 11
44.0075924468922
 21
103.4024900857589
 31
0.0
  0
LINE
  5
E9
330
1E
100
AcDbEntity
  8
0
100
AcDbLine
 10
43.79999999999999
 20
119.4772689999999
 30
0.0
 11
46.5
 21
121.2962689999999
 31
0.0
  0
LINE
  5
EA
330
1E
100
AcDbEntity
  8
0
100
AcDbLine
 10
43.5
 20
103.9972689999999
 30
0.0
 11
45.0
 21
102.2396219411759
 31
0.0
  0
LINE
  5
EB
330
1E
100
AcDbEntity
  8
0
100
AcDbLine
 10
43.0
 20
163.1962689999999
 30
0.0
 11
44.9
 21
165.2752689999999
 31
0.0
  0
LINE
  5
EC
330
1E
100
AcDbEntity
  8
0
100
AcDbLine
 10
43.79999999999999
 20
166.977269
 30
0.0
 11
46.5
 21
168.7962689999999
 31
0.0
  0
LINE
  5
ED
330
1E
100
AcDbEntity
  8
0
100
AcDbLine
 10
62.2
 20
59.737669
 30
0.0
 11
62.5
 21
58.537669
 31
0.0
  0
LINE
  5
EE
330
1E
100
AcDbEntity
  8
0
100
AcDbLine
 10
62.1
 20
60.271669
 30
0.0
 11
63.1
 21
59.021669
 31
0.0
  0
LINE
  5
EF
330
1E
100
AcDbEntity
  8
0
100
AcDbLine
 10
44.0057390315384
 20
167.115876147544
 30
0.0
 11
45.2
 21
168.5152689999999
 31
0.0
  0
LINE
  5
F0
330
1E
100
AcDbEntity
  8
0
100
AcDbLine
 10
61.0
 20
62.63776899999999
 30
0.0
 11
61.0
 21
58.537669
 31
0.0
  0
LINE
  5
F1
330
1E
100
AcDbEntity
  8
0
100
AcDbLine
 10
61.0
 20
62.63776899999999
 30
0.0
 11
61.0
 21
67.03766899999999
 31
0.0
  0
LINE
  5
F2
330
1E
100
AcDbEntity
  8
0
100
AcDbLine
 10
45.0
 20
62.63776899999999
 30
0.0
 11
45.0
 21
67.03766899999999
 31
0.0
  0
LINE
  5
F3
330
1E
100
AcDbEntity
  8
0
100
AcDbLine
 10
45.0
 20
62.63776899999999
 30
0.0
 11
45.0
 21
58.537669
 31
0.0
  0
LINE
  5
F4
330
1E
100
AcDbEntity
  8
0
100
AcDbLine
 10
61.0
 20
61.0210023333333
 30
0.0
 11
61.2
 21
60.88766899999999
 31
0.0
  0
LINE
  5
F5
330
1E
100
AcDbEntity
  8
0
100
AcDbLine
 10
61.2
 20
60.88766899999999
 30
0.0
 11
62.2
 21
59.737669
 31
0.0
  0
LINE
  5
F6
330
1E
100
AcDbEntity
  8
0
100
AcDbLine
 10
61.2
 20
60.88766899999999
 30
0.0
 11
62.1
 21
60.271669
 31
0.0
  0
LINE
  5
F7
330
1E
100
AcDbEntity
  8
0
100
AcDbLine
 10
45.0
 20
67.03766899999999
 30
0.0
 11
45.0
 21
71.43756899999999
 31
0.0
  0
LINE
  5
F8
330
1E
100
AcDbEntity
  8
0
100
AcDbLine
 10
45.0
 20
67.03766899999999
 30
0.0
 11
45.0
 21
62.63776899999999
 31
0.0
  0
LINE
  5
F9
330
1E
100
AcDbEntity
  8
0
100
AcDbLine
 10
45.0
 20
82.13866899999999
 30
0.0
 11
45.02087415426251
 21
82.01011899999999
 31
0.0
  0
LINE
  5
FA
330
1E
100
AcDbEntity
  8
0
100
AcDbLine
 10
45.0
 20
82.13866899999999
 30
0.0
 11
45.288
 21
83.91226899999999
 31
0.0
  0
LINE
  5
FB
330
1E
100
AcDbEntity
  8
0
100
AcDbLine
 10
45.0
 20
82.13866899999999
 30
0.0
 11
45.0
 21
107.7602689999999
 31
0.0
  0
LINE
  5
FC
330
1E
100
AcDbEntity
  8
0
100
AcDbLine
 10
45.0
 20
81.881569
 30
0.0
 11
45.0
 21
79.05846899999999
 31
0.0
  0
LINE
  5
FD
330
1E
100
AcDbEntity
  8
0
100
AcDbLine
 10
45.0
 20
81.881569
 30
0.0
 11
45.288
 21
83.65516900000001
 31
0.0
  0
LINE
  5
FE
330
1E
100
AcDbEntity
  8
0
100
AcDbLine
 10
45.0
 20
79.05846899999999
 30
0.0
 11
45.0
 21
75.53766899999999
 31
0.0
  0
LINE
  5
FF
330
1E
100
AcDbEntity
  8
0
100
AcDbLine
 10
45.0
 20
79.05846899999999
 30
0.0
 11
45.0
 21
81.881569
 31
0.0
  0
LINE
  5
100
330
1E
100
AcDbEntity
  8
0
100
AcDbLine
 10
45.0
 20
75.53766899999999
 30
0.0
 11
45.0
 21
79.05846899999999
 31
0.0
  0
LINE
  5
101
330
1E
100
AcDbEntity
  8
0
100
AcDbLine
 10
45.0
 20
75.53766899999999
 30
0.0
 11
45.0
 21
71.43756899999999
 31
0.0
  0
LINE
  5
102
330
1E
100
AcDbEntity
  8
0
100
AcDbLine
 10
45.0
 20
71.43756899999999
 30
0.0
 11
45.0
 21
67.03766899999999
 31
0.0
  0
LINE
  5
103
330
1E
100
AcDbEntity
  8
0
100
AcDbLine
 10
45.0
 20
71.43756899999999
 30
0.0
 11
45.0
 21
75.53766899999999
 31
0.0
  0
LINE
  5
104
330
1E
100
AcDbEntity
  8
0
100
AcDbLine
 10
45.288
 20
83.91226899999999
 30
0.0
 11
46.056
 21
85.57506899999999
 31
0.0
  0
LINE
  5
105
330
1E
100
AcDbEntity
  8
0
100
AcDbLine
 10
46.056
 20
85.57506899999999
 30
0.0
 11
47.336
 21
87.04386900000001
 31
0.0
  0
LINE
  5
106
330
1E
100
AcDbEntity
  8
0
100
AcDbLine
 10
46.056
 20
85.31796899999999
 30
0.0
 11
47.336
 21
86.78666899999999
 31
0.0
  0
LINE
  5
107
330
1E
100
AcDbEntity
  8
0
100
AcDbLine
 10
45.288
 20
83.65516900000001
 30
0.0
 11
46.056
 21
85.31796899999999
 31
0.0
  0
LINE
  5
108
330
1E
100
AcDbEntity
  8
0
100
AcDbLine
 10
46.1
 20
111.2242689999999
 30
0.0
 11
47.4
 21
112.6102689999999
 31
0.0
  0
LINE
  5
109
330
1E
100
AcDbEntity
  8
0
100
AcDbLine
 10
45.3
 20
109.5792689999999
 30
0.0
 11
46.1
 21
111.2242689999999
 31
0.0
  0
LINE
  5
10A
330
1E
100
AcDbEntity
  8
0
100
AcDbLine
 10
45.0
 20
107.7602689999999
 30
0.0
 11
45.3
 21
109.5792689999999
 31
0.0
  0
LINE
  5
10B
330
1E
100
AcDbEntity
  8
0
100
AcDbLine
 10
45.0
 20
107.7602689999999
 30
0.0
 11
45.0
 21
82.13866899999999
 31
0.0
  0
LINE
  5
10C
330
1E
100
AcDbEntity
  8
0
100
AcDbLine
 10
46.5
 20
121.2962689999999
 30
0.0
 11
49.7
 21
122.335269
 31
0.0
  0
LINE
  5
10D
330
1E
100
AcDbEntity
  8
0
100
AcDbLine
 10
44.9
 20
117.7752689999999
 30
0.0
 11
47.29999999999999
 21
119.420269
 31
0.0
  0
LINE
  5
10E
330
1E
100
AcDbEntity
  8
0
100
AcDbLine
 10
47.29999999999999
 20
119.420269
 30
0.0
 11
50.0
 21
120.373269
 31
0.0
  0
LINE
  5
10F
330
1E
100
AcDbEntity
  8
0
100
AcDbLine
 10
45.00422382671479
 20
168.285865389892
 30
0.0
 11
45.3
 21
170.078269
 31
0.0
  0
LINE
  5
110
330
1E
100
AcDbEntity
  8
0
100
AcDbLine
 10
44.9
 20
165.2752689999999
 30
0.0
 11
47.29999999999999
 21
166.9202689999999
 31
0.0
  0
LINE
  5
111
330
1E
100
AcDbEntity
  8
0
100
AcDbLine
 10
47.336
 20
87.04386900000001
 30
0.0
 11
49.032
 21
88.152369
 31
0.0
  0
LINE
  5
112
330
1E
100
AcDbEntity
  8
0
100
AcDbLine
 10
47.336
 20
86.78666899999999
 30
0.0
 11
49.032
 21
87.895269
 31
0.0
  0
LINE
  5
113
330
1E
100
AcDbEntity
  8
0
100
AcDbLine
 10
47.4
 20
112.6102689999999
 30
0.0
 11
49.0
 21
113.7352689999999
 31
0.0
  0
LINE
  5
114
330
1E
100
AcDbEntity
  8
0
100
AcDbLine
 10
47.29999999999999
 20
166.9202689999999
 30
0.0
 11
50.0
 21
167.8732689999999
 31
0.0
  0
LINE
  5
115
330
1E
100
AcDbEntity
  8
0
100
AcDbLine
 10
46.1
 20
171.7242689999999
 30
0.0
 11
47.4
 21
173.1102689999999
 31
0.0
  0
LINE
  5
116
330
1E
100
AcDbEntity
  8
0
100
AcDbLine
 10
45.3
 20
170.078269
 30
0.0
 11
46.1
 21
171.7242689999999
 31
0.0
  0
LINE
  5
117
330
1E
100
AcDbEntity
  8
0
100
AcDbLine
 10
46.5
 20
168.7962689999999
 30
0.0
 11
49.7
 21
169.8352689999999
 31
0.0
  0
LINE
  5
118
330
1E
100
AcDbEntity
  8
0
100
AcDbLine
 10
45.2
 20
168.5152689999999
 30
0.0
 11
47.5
 21
169.987269
 31
0.0
  0
LINE
  5
119
330
1E
100
AcDbEntity
  8
0
100
AcDbLine
 10
49.0
 20
113.7352689999999
 30
0.0
 11
50.89999999999999
 21
114.428269
 31
0.0
  0
LINE
  5
11A
330
1E
100
AcDbEntity
  8
0
100
AcDbLine
 10
47.5
 20
169.987269
 30
0.0
 11
50.2
 21
170.940269
 31
0.0
  0
LINE
  5
11B
330
1E
100
AcDbEntity
  8
0
100
AcDbLine
 10
47.4
 20
173.1102689999999
 30
0.0
 11
49.0
 21
174.2352689999999
 31
0.0
  0
LINE
  5
11C
330
1E
100
AcDbEntity
  8
0
100
AcDbLine
 10
49.032
 20
88.152369
 30
0.0
 11
50.952
 21
88.81746899999999
 31
0.0
  0
LINE
  5
11D
330
1E
100
AcDbEntity
  8
0
100
AcDbLine
 10
49.032
 20
87.895269
 30
0.0
 11
50.952
 21
88.56036899999999
 31
0.0
  0
LINE
  5
11F
330
1E
100
AcDbEntity
  8
0
100
AcDbLine
 10
49.7
 20
122.335269
 30
0.0
 11
53.0
 21
122.7682689999999
 31
0.0
  0
LINE
  5
123
330
1E
100
AcDbEntity
  8
0
100
AcDbLine
 10
49.7
 20
169.8352689999999
 30
0.0
 11
53.0
 21
170.268269
 31
0.0
  0
LINE
  5
125
330
1E
100
AcDbEntity
  8
0
100
AcDbLine
 10
50.0
 20
120.373269
 30
0.0
 11
53.0
 21
120.719269
 31
0.0
  0
LINE
  5
126
330
1E
100
AcDbEntity
  8
0
100
AcDbLine
 10
61.0
 20
71.43756899999999
 30
0.0
 11
61.0
 21
75.53766899999999
 31
0.0
  0
LINE
  5
127
330
1E
100
AcDbEntity
  8
0
100
AcDbLine
 10
61.0
 20
71.43756899999999
 30
0.0
 11
61.0
 21
67.03766899999999
 31
0.0
  0
LINE
  5
128
330
1E
100
AcDbEntity
  8
0
100
AcDbLine
 10
60.712
 20
83.65516900000001
 30
0.0
 11
61.0
 21
81.881569
 31
0.0
  0
LINE
  5
129
330
1E
100
AcDbEntity
  8
0
100
AcDbLine
 10
58.66399999999999
 20
86.78666899999999
 30
0.0
 11
59.94399999999999
 21
85.31796899999999
 31
0.0
  0
LINE
  5
12A
330
1E
100
AcDbEntity
  8
0
100
AcDbLine
 10
59.94399999999999
 20
85.31796899999999
 30
0.0
 11
60.712
 21
83.65516900000001
 31
0.0
  0
LINE
  5
12B
330
1E
100
AcDbEntity
  8
0
100
AcDbLine
 10
55.048
 20
88.56036899999999
 30
0.0
 11
56.968
 21
87.895269
 31
0.0
  0
LINE
  5
12C
330
1E
100
AcDbEntity
  8
0
100
AcDbLine
 10
56.968
 20
87.895269
 30
0.0
 11
58.66399999999999
 21
86.78666899999999
 31
0.0
  0
LINE
  5
12D
330
1E
100
AcDbEntity
  8
0
100
AcDbLine
 10
56.968
 20
88.152369
 30
0.0
 11
58.66399999999999
 21
87.04386900000001
 31
0.0
  0
LINE
  5
12E
330
1E
100
AcDbEntity
  8
0
100
AcDbLine
 10
58.66399999999999
 20
87.04386900000001
 30
0.0
 11
59.94399999999999
 21
85.57506899999999
 31
0.0
  0
LINE
  5
12F
330
1E
100
AcDbEntity
  8
0
100
AcDbLine
 10
59.94399999999999
 20
85.57506899999999
 30
0.0
 11
60.712
 21
83.91226899999999
 31
0.0
  0
LINE
  5
130
330
1E
100
AcDbEntity
  8
0
100
AcDbLine
 10
60.712
 20
83.91226899999999
 30
0.0
 11
61.0
 21
82.13866899999999
 31
0.0
  0
LINE
  5
131
330
1E
100
AcDbEntity
  8
0
100
AcDbLine
 10
61.0
 20
82.13866899999999
 30
0.0
 11
61.0
 21
107.7602689999999
 31
0.0
  0
LINE
  5
132
330
1E
100
AcDbEntity
  8
0
100
AcDbLine
 10
60.97912584573749
 20
82.01011899999999
 30
0.0
 11
61.0
 21
82.13866899999999
 31
0.0
  0
LINE
  5
133
330
1E
100
AcDbEntity
  8
0
100
AcDbLine
 10
61.0
 20
79.05846899999999
 30
0.0
 11
61.0
 21
75.53766899999999
 31
0.0
  0
LINE
  5
134
330
1E
100
AcDbEntity
  8
0
100
AcDbLine
 10
61.0
 20
79.05846899999999
 30
0.0
 11
61.0
 21
81.881569
 31
0.0
  0
LINE
  5
135
330
1E
100
AcDbEntity
  8
0
100
AcDbLine
 10
61.0
 20
81.881569
 30
0.0
 11
61.0
 21
79.05846899999999
 31
0.0
  0
LINE
  5
136
330
1E
100
AcDbEntity
  8
0
100
AcDbLine
 10
61.0
 20
67.03766899999999
 30
0.0
 11
61.0
 21
71.43756899999999
 31
0.0
  0
LINE
  5
137
330
1E
100
AcDbEntity
  8
0
100
AcDbLine
 10
61.0
 20
67.03766899999999
 30
0.0
 11
61.0
 21
62.63776899999999
 31
0.0
  0
LINE
  5
138
330
1E
100
AcDbEntity
  8
0
100
AcDbLine
 10
61.0
 20
75.53766899999999
 30
0.0
 11
61.0
 21
71.43756899999999
 31
0.0
  0
LINE
  5
139
330
1E
100
AcDbEntity
  8
0
100
AcDbLine
 10
61.0
 20
75.53766899999999
 30
0.0
 11
61.0
 21
79.05846899999999
 31
0.0
  0
LINE
  5
13A
330
1E
100
AcDbEntity
  8
0
100
AcDbLine
 10
53.0
 20
88.80976899999998
 30
0.0
 11
55.048
 21
88.56036899999999
 31
0.0
  0
LINE
  5
13C
330
1E
100
AcDbEntity
  8
0
100
AcDbLine
 10
53.0
 20
122.7682689999999
 30
0.0
 11
56.29999999999999
 21
122.335269
 31
0.0
  0
LINE
  5
13E
330
1E
100
AcDbEntity
  8
0
100
AcDbLine
 10
53.0
 20
120.719269
 30
0.0
 11
56.0
 21
120.373269
 31
0.0
  0
LINE
  5
13F
330
1E
100
AcDbEntity
  8
0
100
AcDbLine
 10
53.0
 20
114.6882689999999
 30
0.0
 11
55.1
 21
114.428269
 31
0.0
  0
LINE
  5
140
330
1E
100
AcDbEntity
  8
0
100
AcDbLine
 10
58.6
 20
112.6102689999999
 30
0.0
 11
59.9
 21
111.2242689999999
 31
0.0
  0
LINE
  5
141
330
1E
100
AcDbEntity
  8
0
100
AcDbLine
 10
57.0
 20
113.7352689999999
 30
0.0
 11
58.6
 21
112.6102689999999
 31
0.0
  0
LINE
  5
143
330
1E
100
AcDbEntity
  8
0
100
AcDbLine
 10
56.29999999999999
 20
122.335269
 30
0.0
 11
59.5
 21
121.2962689999999
 31
0.0
  0
LINE
  5
144
330
1E
100
AcDbEntity
  8
0
100
AcDbLine
 10
58.7
 20
119.420269
 30
0.0
 11
61.1
 21
117.7752689999999
 31
0.0
  0
LINE
  5
145
330
1E
100
AcDbEntity
  8
0
100
AcDbLine
 10
56.0
 20
120.373269
 30
0.0
 11
58.7
 21
119.420269
 31
0.0
  0
LINE
  5
146
330
1E
100
AcDbEntity
  8
0
100
AcDbLine
 10
55.1
 20
114.428269
 30
0.0
 11
57.0
 21
113.7352689999999
 31
0.0
  0
LINE
  5
147
330
1E
100
AcDbEntity
  8
0
100
AcDbLine
 10
53.0
 20
89.066869
 30
0.0
 11
55.048
 21
88.81746899999999
 31
0.0
  0
LINE
  5
148
330
1E
100
AcDbEntity
  8
0
100
AcDbLine
 10
55.048
 20
88.81746899999999
 30
0.0
 11
56.968
 21
88.152369
 31
0.0
  0
LINE
  5
149
330
1E
100
AcDbEntity
  8
0
100
AcDbLine
 10
59.9
 20
111.2242689999999
 30
0.0
 11
60.7
 21
109.5792689999999
 31
0.0
  0
LINE
  5
14A
330
1E
100
AcDbEntity
  8
0
100
AcDbLine
 10
60.7
 20
109.5792689999999
 30
0.0
 11
61.0
 21
107.7602689999999
 31
0.0
  0
LINE
  5
14B
330
1E
100
AcDbEntity
  8
0
100
AcDbLine
 10
59.5
 20
121.2962689999999
 30
0.0
 11
62.2
 21
119.4772689999999
 31
0.0
  0
LINE
  5
14C
330
1E
100
AcDbEntity
  8
0
100
AcDbLine
 10
61.0
 20
107.7602689999999
 30
0.0
 11
61.0
 21
82.13866899999999
 31
0.0
  0
LINE
  5
14D
330
1E
100
AcDbEntity
  8
0
100
AcDbLine
 10
61.0
 20
102.2396219411759
 30
0.0
 11
62.5
 21
103.9972689999999
 31
0.0
  0
LINE
  5
14E
330
1E
100
AcDbEntity
  8
0
100
AcDbLine
 10
58.7
 20
166.9202689999999
 30
0.0
 11
61.1
 21
165.2752689999999
 31
0.0
  0
LINE
  5
14F
330
1E
100
AcDbEntity
  8
0
100
AcDbLine
 10
56.0
 20
167.8732689999999
 30
0.0
 11
58.7
 21
166.9202689999999
 31
0.0
  0
LINE
  5
150
330
1E
100
AcDbEntity
  8
0
100
AcDbLine
 10
50.952
 20
88.81746899999999
 30
0.0
 11
53.0
 21
89.066869
 31
0.0
  0
LINE
  5
151
330
1E
100
AcDbEntity
  8
0
100
AcDbLine
 10
50.952
 20
88.56036899999999
 30
0.0
 11
53.0
 21
88.80976899999998
 31
0.0
  0
LINE
  5
152
330
1E
100
AcDbEntity
  8
0
100
AcDbLine
 10
50.89999999999999
 20
114.428269
 30
0.0
 11
53.0
 21
114.6882689999999
 31
0.0
  0
LINE
  5
154
330
1E
100
AcDbEntity
  8
0
100
AcDbLine
 10
53.0
 20
170.268269
 30
0.0
 11
56.29999999999999
 21
169.8352689999999
 31
0.0
  0
LINE
  5
156
330
1E
100
AcDbEntity
  8
0
100
AcDbLine
 10
59.5
 20
168.7962689999999
 30
0.0
 11
62.2
 21
166.977269
 31
0.0
  0
LINE
  5
157
330
1E
100
AcDbEntity
  8
0
100
AcDbLine
 10
56.29999999999999
 20
169.8352689999999
 30
0.0
 11
59.5
 21
168.7962689999999
 31
0.0
  0
LINE
  5
159
330
1E
100
AcDbEntity
  8
0
100
AcDbLine
 10
58.5
 20
169.987269
 30
0.0
 11
60.8
 21
168.5152689999999
 31
0.0
  0
LINE
  5
15A
330
1E
100
AcDbEntity
  8
0
100
AcDbLine
 10
55.8
 20
170.940269
 30
0.0
 11
58.5
 21
169.987269
 31
0.0
  0
LINE
  5
15B
330
1E
100
AcDbEntity
  8
0
100
AcDbLine
 10
53.0
 20
168.2192689999999
 30
0.0
 11
56.0
 21
167.8732689999999
 31
0.0
  0
LINE
  5
15C
330
1E
100
AcDbEntity
  8
0
100
AcDbLine
 10
60.8
 20
168.5152689999999
 30
0.0
 11
61.9942609684616
 21
167.115876147544
 31
0.0
  0
LINE
  5
15D
330
1E
100
AcDbEntity
  8
0
100
AcDbLine
 10
60.7
 20
170.078269
 30
0.0
 11
60.9957761732852
 21
168.285865389892
 31
0.0
  0
LINE
  5
15E
330
1E
100
AcDbEntity
  8
0
100
AcDbLine
 10
50.0
 20
167.8732689999999
 30
0.0
 11
53.0
 21
168.2192689999999
 31
0.0
  0
LINE
  5
160
330
1E
100
AcDbEntity
  8
0
100
AcDbLine
 10
53.0
 20
171.286269
 30
0.0
 11
55.8
 21
170.940269
 31
0.0
  0
LINE
  5
161
330
1E
100
AcDbEntity
  8
0
100
AcDbLine
 10
59.9
 20
171.7242689999999
 30
0.0
 11
60.7
 21
170.078269
 31
0.0
  0
LINE
  5
162
330
1E
100
AcDbEntity
  8
0
100
AcDbLine
 10
58.6
 20
173.1102689999999
 30
0.0
 11
59.9
 21
171.7242689999999
 31
0.0
  0
LINE
  5
163
330
1E
100
AcDbEntity
  8
0
100
AcDbLine
 10
57.0
 20
174.2352689999999
 30
0.0
 11
58.6
 21
173.1102689999999
 31
0.0
  0
LINE
  5
164
330
1E
100
AcDbEntity
  8
0
100
AcDbLine
 10
55.1
 20
174.928269
 30
0.0
 11
57.0
 21
174.2352689999999
 31
0.0
  0
LINE
  5
165
330
1E
100
AcDbEntity
  8
0
100
AcDbLine
 10
50.2
 20
170.940269
 30
0.0
 11
53.0
 21
171.286269
 31
0.0
  0
LINE
  5
166
330
1E
100
AcDbEntity
  8
0
100
AcDbLine
 10
49.0
 20
174.2352689999999
 30
0.0
 11
50.89999999999999
 21
174.928269
 31
0.0
  0
LINE
  5
167
330
1E
100
AcDbEntity
  8
0
100
AcDbLine
 10
53.0
 20
175.1882689999999
 30
0.0
 11
55.1
 21
174.928269
 31
0.0
  0
LINE
  5
168
330
1E
100
AcDbEntity
  8
0
100
AcDbLine
 10
50.89999999999999
 20
174.928269
 30
0.0
 11
53.0
 21
175.1882689999999
 31
0.0
  0
LINE
  5
169
330
1E
100
AcDbEntity
  8
0
100
AcDbLine
 10
75.59999999999999
 20
67.412369
 30
0.0
 11
85.09999999999999
 21
63.76236899999999
 31
0.0
  0
LINE
  5
16A
330
1E
100
AcDbEntity
  8
0
100
AcDbLine
 10
61.99240755310779
 20
103.4024900857589
 30
0.0
 11
62.2
 21
103.5422689999999
 31
0.0
  0
LINE
  5
16B
330
1E
100
AcDbEntity
  8
0
100
AcDbLine
 10
62.2
 20
103.5422689999999
 30
0.0
 11
64.29999999999999
 21
105.8812689999999
 31
0.0
  0
LINE
  5
16C
330
1E
100
AcDbEntity
  8
0
100
AcDbLine
 10
62.2
 20
119.4772689999999
 30
0.0
 11
64.29999999999999
 21
117.139269
 31
0.0
  0
LINE
  5
16D
330
1E
100
AcDbEntity
  8
0
100
AcDbLine
 10
61.1
 20
117.7752689999999
 30
0.0
 11
63.0
 21
115.696269
 31
0.0
  0
LINE
  5
16E
330
1E
100
AcDbEntity
  8
0
100
AcDbLine
 10
63.0
 20
115.696269
 30
0.0
 11
64.1
 21
113.3582689999999
 31
0.0
  0
LINE
  5
16F
330
1E
100
AcDbEntity
  8
0
100
AcDbLine
 10
64.1
 20
113.3582689999999
 30
0.0
 11
64.5
 21
110.760269
 31
0.0
  0
LINE
  5
170
330
1E
100
AcDbEntity
  8
0
100
AcDbLine
 10
63.0
 20
104.823269
 30
0.0
 11
64.1
 21
107.1622689999999
 31
0.0
  0
LINE
  5
171
330
1E
100
AcDbEntity
  8
0
100
AcDbLine
 10
62.5
 20
103.9972689999999
 30
0.0
 11
63.0
 21
104.823269
 31
0.0
  0
LINE
  5
172
330
1E
100
AcDbEntity
  8
0
100
AcDbLine
 10
64.5
 20
109.7602689999999
 30
0.0
 11
64.5
 21
110.760269
 31
0.0
  0
LINE
  5
173
330
1E
100
AcDbEntity
  8
0
100
AcDbLine
 10
64.29999999999999
 20
105.8812689999999
 30
0.0
 11
65.5
 21
108.652269
 31
0.0
  0
LINE
  5
175
330
1E
100
AcDbEntity
  8
0
100
AcDbLine
 10
64.29999999999999
 20
117.139269
 30
0.0
 11
65.5
 21
114.368269
 31
0.0
  0
LINE
  5
177
330
1E
100
AcDbEntity
  8
0
100
AcDbLine
 10
64.5
 20
110.760269
 30
0.0
 11
64.5
 21
109.7602689999999
 31
0.0
  0
LINE
  5
178
330
1E
100
AcDbEntity
  8
0
100
AcDbLine
 10
64.1
 20
107.1622689999999
 30
0.0
 11
64.5
 21
109.7602689999999
 31
0.0
  0
LINE
  5
179
330
1E
100
AcDbEntity
  8
0
100
AcDbLine
 10
62.2
 20
166.977269
 30
0.0
 11
64.29999999999999
 21
164.6392689999999
 31
0.0
  0
LINE
  5
17A
330
1E
100
AcDbEntity
  8
0
100
AcDbLine
 10
61.1
 20
165.2752689999999
 30
0.0
 11
63.0
 21
163.1962689999999
 31
0.0
  0
LINE
  5
17C
330
1E
100
AcDbEntity
  8
0
100
AcDbLine
 10
64.29999999999999
 20
164.6392689999999
 30
0.0
 11
65.5
 21
161.8682689999999
 31
0.0
  0
LINE
  5
17D
330
1E
100
AcDbEntity
  8
0
100
AcDbLine
 10
63.0
 20
163.1962689999999
 30
0.0
 11
64.1
 21
160.858269
 31
0.0
  0
LINE
  5
17E
330
1E
100
AcDbEntity
  8
0
100
AcDbLine
 10
64.1
 20
160.858269
 30
0.0
 11
65.5
 21
155.118269
 31
0.0
  0
LINE
  5
180
330
1E
100
AcDbEntity
  8
0
100
AcDbLine
 10
65.3386685736575
 20
155.7797278480039
 30
0.0
 11
65.5
 21
156.1522689999999
 31
0.0
  0
LINE
  5
181
330
1E
100
AcDbEntity
  8
0
100
AcDbLine
 10
65.5
 20
114.368269
 30
0.0
 11
66.0
 21
111.510269
 31
0.0
  0
LINE
  5
182
330
1E
100
AcDbEntity
  8
0
100
AcDbLine
 10
65.5
 20
108.652269
 30
0.0
 11
66.0
 21
111.510269
 31
0.0
  0
LINE
  5
183
330
1E
100
AcDbEntity
  8
0
100
AcDbLine
 10
65.5
 20
155.118269
 30
0.0
 11
66.0
 21
152.260269
 31
0.0
  0
LINE
  5
184
330
1E
100
AcDbEntity
  8
0
100
AcDbLine
 10
66.0
 20
152.260269
 30
0.0
 11
67.5
 21
141.5102689999999
 31
0.0
  0
LINE
  5
185
330
1E
100
AcDbEntity
  8
0
100
AcDbLine
 10
65.5
 20
161.8682689999999
 30
0.0
 11
66.0
 21
159.0102689999999
 31
0.0
  0
LINE
  5
186
330
1E
100
AcDbEntity
  8
0
100
AcDbLine
 10
65.5
 20
156.1522689999999
 30
0.0
 11
66.0
 21
159.0102689999999
 31
0.0
  0
LINE
  5
187
330
1E
100
AcDbEntity
  8
0
100
AcDbLine
 10
67.5
 20
141.5102689999999
 30
0.0
 11
68.0
 21
135.2602689999999
 31
0.0
  0
LINE
  5
188
330
1E
100
AcDbEntity
  8
0
100
AcDbLine
 10
67.5
 20
129.0102689999999
 30
0.0
 11
68.0
 21
135.2602689999999
 31
0.0
  0
LINE
  5
189
330
1E
100
AcDbEntity
  8
0
100
AcDbLine
 10
66.0
 20
118.2602689999999
 30
0.0
 11
67.5
 21
129.0102689999999
 31
0.0
  0
LINE
  5
18A
330
1E
100
AcDbEntity
  8
0
100
AcDbLine
 10
65.5
 20
115.4022689999999
 30
0.0
 11
66.0
 21
118.2602689999999
 31
0.0
  0
LINE
  5
18B
330
1E
100
AcDbEntity
  8
0
100
AcDbLine
 10
65.3386685736575
 20
114.7408101519959
 30
0.0
 11
65.5
 21
115.4022689999999
 31
0.0
  0
LINE
  5
18C
330
1E
100
AcDbEntity
  8
0
100
AcDbLine
 10
64.7
 20
69.662369
 30
0.0
 11
75.59999999999999
 21
67.412369
 31
0.0
  0
LINE
  5
18D
330
1E
100
AcDbEntity
  8
0
100
AcDbLine
 10
61.0
 20
69.91536045299151
 30
0.0
 11
64.7
 21
69.662369
 31
0.0
  0
LINE
  5
18E
330
1E
100
AcDbEntity
  8
0
100
AcDbLine
 10
85.09999999999999
 20
63.76236899999999
 30
0.0
 11
92.4
 21
59.01236899999999
 31
0.0
  0
LINE
  5
18F
330
1E
100
AcDbEntity
  8
0
100
AcDbLine
 10
44.79999999999999
 20
60.88766899999999
 30
0.0
 11
45.0
 21
61.0210023333334
 31
0.0
  0
LINE
  5
190
330
1E
100
AcDbEntity
  8
0
100
AcDbLine
 10
43.89999999999999
 20
60.271669
 30
0.0
 11
44.79999999999999
 21
60.88766899999999
 31
0.0
  0
LINE
  5
191
330
1E
100
AcDbEntity
  8
0
100
AcDbLine
 10
43.79999999999999
 20
59.737669
 30
0.0
 11
44.79999999999999
 21
60.88766899999999
 31
0.0
  0
LINE
  5
192
330
1E
100
AcDbEntity
  8
0
100
AcDbLine
 10
42.9
 20
59.021669
 30
0.0
 11
43.89999999999999
 21
60.271669
 31
0.0
  0
LINE
  5
193
330
1E
100
AcDbEntity
  8
0
100
AcDbLine
 10
42.5
 20
57.67166899999999
 30
0.0
 11
42.9
 21
59.021669
 31
0.0
  0
LINE
  5
195
330
1E
100
AcDbEntity
  8
0
100
AcDbLine
 10
41.29999999999999
 20
69.662369
 30
0.0
 11
45.0
 21
69.91536045299151
 31
0.0
  0
ENDSEC
  0
SECTION
  2
OBJECTS
  0
DICTIONARY
  5
C
330
0
100
AcDbDictionary
281
     1
  3
ACAD_GROUP
350
D
  3
ACAD_LAYOUT
350
19
  3
ACAD_MLINESTYLE
350
16
  3
ACAD_PLOTSETTINGS
350
18
  3
ACAD_PLOTSTYLENAME
350
E
  3
AcDbVariableDictionary
350
19A
  0
DICTIONARY
  5
D
102
{ACAD_REACTORS
330
C
102
}
330
C
100
AcDbDictionary
281
     1
  0
DICTIONARY
  5
19
102
{ACAD_REACTORS
330
C
102
}
330
C
100
AcDbDictionary
281
     1
  3
Layout1
350
1D
  3
Model
350
21
  0
DICTIONARY
  5
16
102
{ACAD_REACTORS
330
C
102
}
330
C
100
AcDbDictionary
281
     1
  3
Standard
350
17
  0
DICTIONARY
  5
18
102
{ACAD_REACTORS
330
C
102
}
330
C
100
AcDbDictionary
281
     1
  0
ACDBDICTIONARYWDFLT
  5
E
102
{ACAD_REACTORS
330
C
102
}
330
C
100
AcDbDictionary
281
     1
  3
Normal
350
F
100
AcDbDictionaryWithDefault
340
F
  0
DICTIONARY
  5
19A
102
{ACAD_REACTORS
330
C
102
}
330
C
100
AcDbDictionary
281
     1
  3
DIMASSOC
350
19B
  0
LAYOUT
  5
1D
102
{ACAD_REACTORS
330
19
102
}
330
19
100
AcDbPlotSettings
  1

  2
hp deskjet 980c series
  4

  6

 40
0.0
 41
0.0
 42
0.0
 43
0.0
 44
0.0
 45
0.0
 46
0.0
 47
0.0
 48
0.0
 49
0.0
140
0.0
141
0.0
142
1.0
143
1.0
 70
   688
 72
     0
 73
     0
 74
     5
  7

 75
    16
147
1.0
148
0.0
149
0.0
100
AcDbLayout
  1
Layout1
 70
     1
 71
     1
 10
0.0
 20
0.0
 11
12.0
 21
9.0
 12
0.0
 22
0.0
 32
0.0
 14
1.000000000000000E+20
 24
1.000000000000000E+20
 34
1.000000000000000E+20
 15
-1.000000000000000E+20
 25
-1.000000000000000E+20
 35
-1.000000000000000E+20
146
0.0
 13
0.0
 23
0.0
 33
0.0
 16
1.0
 26
0.0
 36
0.0
 17
0.0
 27
1.0
 37
0.0
 76
     0
330
1A
  0
LAYOUT
  5
21
102
{ACAD_REACTORS
330
19
102
}
330
19
100
AcDbPlotSettings
  1

  2
hp deskjet 980c series
  4

  6

 40
0.0
 41
0.0
 42
0.0
 43
0.0
 44
0.0
 45
0.0
 46
0.0
 47
0.0
 48
0.0
 49
0.0
140
0.0
141
0.0
142
1.0
143
1.0
 70
  1712
 72
     0
 73
     0
 74
     0
  7

 75
     0
147
1.0
148
0.0
149
0.0
100
AcDbLayout
  1
Model
 70
     1
 71
     0
 10
0.0
 20
0.0
 11
12.0
 21
9.0
 12
0.0
 22
0.0
 32
0.0
 14
0.0
 24
0.0
 34
0.0
 15
0.0
 25
0.0
 35
0.0
146
0.0
 13
0.0
 23
0.0
 33
0.0
 16
1.0
 26
0.0
 36
0.0
 17
0.0
 27
1.0
 37
0.0
 76
     0
330
1E
  0
MLINESTYLE
  5
17
102
{ACAD_REACTORS
330
16
102
}
330
16
100
AcDbMlineStyle
  2
STANDARD
 70
     0
  3

 62
   256
 51
90.0
 52
90.0
 71
     2
 49
0.5
 62
   256
  6
BYLAYER
 49
-0.5
 62
   256
  6
BYLAYER
  0
ACDBPLACEHOLDER
  5
F
102
{ACAD_REACTORS
330
E
102
}
330
E
  0
DICTIONARYVAR
  5
19B
102
{ACAD_REACTORS
330
19A
102
}
330
19A
100
DictionaryVariables
280
     0
  1
1
  0
ENDSEC
  0
EOF
