  0
SECTION
  2
HEADER
  9
$ACADVER
  1
AC1015
  9
$ACADMAINTVER
 70
    13
  9
$DWGCODEPAGE
  3
ANSI_1252
  9
$INSBASE
 10
0.0
 20
0.0
 30
0.0
  9
$EXTMIN
 10
0.0000000000000018
 20
0.2175719999999889
 30
0.0
  9
$EXTMAX
 10
106.0
 20
193.782428
 30
0.0
  9
$LIMMIN
 10
0.0
 20
0.0
  9
$LIMMAX
 10
12.0
 20
9.0
  9
$ORTHOMODE
 70
     0
  9
$REGENMODE
 70
     1
  9
$FILLMODE
 70
     1
  9
$QTEXTMODE
 70
     0
  9
$MIRRTEXT
 70
     1
  9
$LTSCALE
 40
1.0
  9
$ATTMODE
 70
     1
  9
$TEXTSIZE
 40
0.2
  9
$TRACEWID
 40
0.05
  9
$TEXTSTYLE
  7
Standard
  9
$CLAYER
  8
0
  9
$CELTYPE
  6
Continuous
  9
$CECOLOR
 62
   256
  9
$CELTSCALE
 40
1.0
  9
$DISPSILH
 70
     0
  9
$DIMSCALE
 40
1.0
  9
$DIMASZ
 40
0.18
  9
$DIMEXO
 40
0.0625
  9
$DIMDLI
 40
0.38
  9
$DIMRND
 40
0.0
  9
$DIMDLE
 40
0.0
  9
$DIMEXE
 40
0.18
  9
$DIMTP
 40
0.0
  9
$DIMTM
 40
0.0
  9
$DIMTXT
 40
0.18
  9
$DIMCEN
 40
0.09
  9
$DIMTSZ
 40
0.0
  9
$DIMTOL
 70
     0
  9
$DIMLIM
 70
     0
  9
$DIMTIH
 70
     1
  9
$DIMTOH
 70
     1
  9
$DIMSE1
 70
     0
  9
$DIMSE2
 70
     0
  9
$DIMTAD
 70
     0
  9
$DIMZIN
 70
     0
  9
$DIMBLK
  1

  9
$DIMASO
 70
     1
  9
$DIMSHO
 70
     1
  9
$DIMPOST
  1

  9
$DIMAPOST
  1

  9
$DIMALT
 70
     0
  9
$DIMALTD
 70
     2
  9
$DIMALTF
 40
25.4
  9
$DIMLFAC
 40
1.0
  9
$DIMTOFL
 70
     0
  9
$DIMTVP
 40
0.0
  9
$DIMTIX
 70
     0
  9
$DIMSOXD
 70
     0
  9
$DIMSAH
 70
     0
  9
$DIMBLK1
  1

  9
$DIMBLK2
  1

  9
$DIMSTYLE
  2
Standard
  9
$DIMCLRD
 70
     0
  9
$DIMCLRE
 70
     0
  9
$DIMCLRT
 70
     0
  9
$DIMTFAC
 40
1.0
  9
$DIMGAP
 40
0.09
  9
$DIMJUST
 70
     0
  9
$DIMSD1
 70
     0
  9
$DIMSD2
 70
     0
  9
$DIMTOLJ
 70
     1
  9
$DIMTZIN
 70
     0
  9
$DIMALTZ
 70
     0
  9
$DIMALTTZ
 70
     0
  9
$DIMUPT
 70
     0
  9
$DIMDEC
 70
     4
  9
$DIMTDEC
 70
     4
  9
$DIMALTU
 70
     2
  9
$DIMALTTD
 70
     2
  9
$DIMTXSTY
  7
Standard
  9
$DIMAUNIT
 70
     0
  9
$DIMADEC
 70
     0
  9
$DIMALTRND
 40
0.0
  9
$DIMAZIN
 70
     0
  9
$DIMDSEP
 70
    46
  9
$DIMATFIT
 70
     3
  9
$DIMFRAC
 70
     0
  9
$DIMLDRBLK
  1

  9
$DIMLUNIT
 70
     2
  9
$DIMLWD
 70
    -2
  9
$DIMLWE
 70
    -2
  9
$DIMTMOVE
 70
     0
  9
$LUNITS
 70
     2
  9
$LUPREC
 70
     4
  9
$SKETCHINC
 40
0.1
  9
$FILLETRAD
 40
0.0
  9
$AUNITS
 70
     0
  9
$AUPREC
 70
     0
  9
$MENU
  1
.
  9
$ELEVATION
 40
0.0
  9
$PELEVATION
 40
0.0
  9
$THICKNESS
 40
0.0
  9
$LIMCHECK
 70
     0
  9
$CHAMFERA
 40
0.0
  9
$CHAMFERB
 40
0.0
  9
$CHAMFERC
 40
0.0
  9
$CHAMFERD
 40
0.0
  9
$SKPOLY
 70
     0
  9
$TDCREATE
 40
2454750.854000821
  9
$TDUCREATE
 40
2454750.770667488
  9
$TDUPDATE
 40
2454750.863426099
  9
$TDUUPDATE
 40
2454750.780092766
  9
$TDINDWG
 40
0.0094254630
  9
$TDUSRTIMER
 40
0.0094254630
  9
$USRTIMER
 70
     1
  9
$ANGBASE
 50
0.0
  9
$ANGDIR
 70
     0
  9
$PDMODE
 70
     0
  9
$PDSIZE
 40
0.0
  9
$PLINEWID
 40
0.0
  9
$SPLFRAME
 70
     0
  9
$SPLINETYPE
 70
     6
  9
$SPLINESEGS
 70
     8
  9
$HANDSEED
  5
701
  9
$SURFTAB1
 70
     6
  9
$SURFTAB2
 70
     6
  9
$SURFTYPE
 70
     6
  9
$SURFU
 70
     6
  9
$SURFV
 70
     6
  9
$UCSBASE
  2

  9
$UCSNAME
  2

  9
$UCSORG
 10
0.0
 20
0.0
 30
0.0
  9
$UCSXDIR
 10
1.0
 20
0.0
 30
0.0
  9
$UCSYDIR
 10
0.0
 20
1.0
 30
0.0
  9
$UCSORTHOREF
  2

  9
$UCSORTHOVIEW
 70
     1
  9
$UCSORGTOP
 10
0.0
 20
0.0
 30
0.0
  9
$UCSORGBOTTOM
 10
0.0
 20
0.0
 30
0.0
  9
$UCSORGLEFT
 10
0.0
 20
0.0
 30
0.0
  9
$UCSORGRIGHT
 10
0.0
 20
0.0
 30
0.0
  9
$UCSORGFRONT
 10
0.0
 20
0.0
 30
0.0
  9
$UCSORGBACK
 10
0.0
 20
0.0
 30
0.0
  9
$PUCSBASE
  2

  9
$PUCSNAME
  2

  9
$PUCSORG
 10
0.0
 20
0.0
 30
0.0
  9
$PUCSXDIR
 10
1.0
 20
0.0
 30
0.0
  9
$PUCSYDIR
 10
0.0
 20
1.0
 30
0.0
  9
$PUCSORTHOREF
  2

  9
$PUCSORTHOVIEW
 70
     0
  9
$PUCSORGTOP
 10
0.0
 20
0.0
 30
0.0
  9
$PUCSORGBOTTOM
 10
0.0
 20
0.0
 30
0.0
  9
$PUCSORGLEFT
 10
0.0
 20
0.0
 30
0.0
  9
$PUCSORGRIGHT
 10
0.0
 20
0.0
 30
0.0
  9
$PUCSORGFRONT
 10
0.0
 20
0.0
 30
0.0
  9
$PUCSORGBACK
 10
0.0
 20
0.0
 30
0.0
  9
$USERI1
 70
     0
  9
$USERI2
 70
     0
  9
$USERI3
 70
     0
  9
$USERI4
 70
     0
  9
$USERI5
 70
     0
  9
$USERR1
 40
0.0
  9
$USERR2
 40
0.0
  9
$USERR3
 40
0.0
  9
$USERR4
 40
0.0
  9
$USERR5
 40
0.0
  9
$WORLDVIEW
 70
     1
  9
$SHADEDGE
 70
     3
  9
$SHADEDIF
 70
    70
  9
$TILEMODE
 70
     1
  9
$MAXACTVP
 70
    64
  9
$PINSBASE
 10
0.0
 20
0.0
 30
0.0
  9
$PLIMCHECK
 70
     0
  9
$PEXTMIN
 10
1.000000000000000E+20
 20
1.000000000000000E+20
 30
1.000000000000000E+20
  9
$PEXTMAX
 10
-1.000000000000000E+20
 20
-1.000000000000000E+20
 30
-1.000000000000000E+20
  9
$PLIMMIN
 10
0.0
 20
0.0
  9
$PLIMMAX
 10
12.0
 20
9.0
  9
$UNITMODE
 70
     0
  9
$VISRETAIN
 70
     1
  9
$PLINEGEN
 70
     0
  9
$PSLTSCALE
 70
     1
  9
$TREEDEPTH
 70
  3020
  9
$CMLSTYLE
  2
Standard
  9
$CMLJUST
 70
     0
  9
$CMLSCALE
 40
1.0
  9
$PROXYGRAPHICS
 70
     1
  9
$MEASUREMENT
 70
     0
  9
$CELWEIGHT
370
    -1
  9
$ENDCAPS
280
     0
  9
$JOINSTYLE
280
     0
  9
$LWDISPLAY
290
     0
  9
$INSUNITS
 70
     0
  9
$HYPERLINKBASE
  1

  9
$STYLESHEET
  1

  9
$XEDIT
290
     1
  9
$CEPSNTYPE
380
     0
  9
$PSTYLEMODE
290
     1
  9
$FINGERPRINTGUID
  2
{7C145DFF-48F3-4542-A19D-1DFA7FF0C615}
  9
$VERSIONGUID
  2
{9A847925-38B8-459C-A2FA-B74F908B8DF6}
  9
$EXTNAMES
290
     1
  9
$PSVPSCALE
 40
0.0
  9
$OLESTARTUP
290
     0
  0
ENDSEC
  0
SECTION
  2
CLASSES
  0
CLASS
  1
ACDBDICTIONARYWDFLT
  2
AcDbDictionaryWithDefault
  3
AutoCAD 2000
 90
        0
280
     0
281
     0
  0
CLASS
  1
ACDBPLACEHOLDER
  2
AcDbPlaceHolder
  3
AutoCAD 2000
 90
        0
280
     0
281
     0
  0
CLASS
  1
LAYOUT
  2
AcDbLayout
  3
AutoCAD 2000
 90
        0
280
     0
281
     0
  0
CLASS
  1
DICTIONARYVAR
  2
AcDbDictionaryVar
  3
AutoCAD 2000
 90
        0
280
     0
281
     0
  0
ENDSEC
  0
SECTION
  2
TABLES
  0
TABLE
  2
VPORT
  5
8
330
0
100
AcDbSymbolTable
 70
     2
  0
VPORT
  5
700
330
8
100
AcDbSymbolTableRecord
100
AcDbViewportTableRecord
  2
*Active
 70
     0
 10
0.0
 20
0.0
 11
1.0
 21
1.0
 12
53.0
 22
97.0
 13
0.0
 23
0.0
 14
1.0
 24
1.0
 15
0.0
 25
0.0
 16
0.0
 26
0.0
 36
1.0
 17
0.0
 27
0.0
 37
0.0
 40
195.0500083478261
 41
2.078104993597951
 42
50.0
 43
0.0
 44
0.0
 50
0.0
 51
0.0
 71
     0
 72
   100
 73
     1
 74
     3
 75
     0
 76
     0
 77
     0
 78
     0
281
     0
 65
     1
110
0.0
120
0.0
130
0.0
111
1.0
121
0.0
131
0.0
112
0.0
122
1.0
132
0.0
 79
     1
146
0.0
  0
ENDTAB
  0
TABLE
  2
LTYPE
  5
5
330
0
100
AcDbSymbolTable
 70
     1
  0
LTYPE
  5
13
330
5
100
AcDbSymbolTableRecord
100
AcDbLinetypeTableRecord
  2
ByBlock
 70
     0
  3

 72
    65
 73
     0
 40
0.0
  0
LTYPE
  5
14
330
5
100
AcDbSymbolTableRecord
100
AcDbLinetypeTableRecord
  2
ByLayer
 70
     0
  3

 72
    65
 73
     0
 40
0.0
  0
LTYPE
  5
15
330
5
100
AcDbSymbolTableRecord
100
AcDbLinetypeTableRecord
  2
Continuous
 70
     0
  3
Solid line
 72
    65
 73
     0
 40
0.0
  0
ENDTAB
  0
TABLE
  2
LAYER
  5
2
330
0
100
AcDbSymbolTable
 70
     1
  0
LAYER
  5
10
330
2
100
AcDbSymbolTableRecord
100
AcDbLayerTableRecord
  2
0
 70
     0
 62
     7
  6
Continuous
370
    -3
390
F
  0
ENDTAB
  0
TABLE
  2
STYLE
  5
3
330
0
100
AcDbSymbolTable
 70
     1
  0
STYLE
  5
11
330
3
100
AcDbSymbolTableRecord
100
AcDbTextStyleTableRecord
  2
Standard
 70
     0
 40
0.0
 41
1.0
 50
0.0
 71
     0
 42
0.2
  3
txt
  4

  0
ENDTAB
  0
TABLE
  2
VIEW
  5
6
330
0
100
AcDbSymbolTable
 70
     0
  0
ENDTAB
  0
TABLE
  2
UCS
  5
7
330
0
100
AcDbSymbolTable
 70
     0
  0
ENDTAB
  0
TABLE
  2
APPID
  5
9
330
0
100
AcDbSymbolTable
 70
     1
  0
APPID
  5
12
330
9
100
AcDbSymbolTableRecord
100
AcDbRegAppTableRecord
  2
ACAD
 70
     0
  0
ENDTAB
  0
TABLE
  2
DIMSTYLE
  5
A
330
0
100
AcDbSymbolTable
 70
     1
100
AcDbDimStyleTable
 71
     0
  0
DIMSTYLE
105
6FA
330
A
100
AcDbSymbolTableRecord
100
AcDbDimStyleTableRecord
  2
Standard
 70
     0
340
11
  0
ENDTAB
  0
TABLE
  2
BLOCK_RECORD
  5
1
330
0
100
AcDbSymbolTable
 70
     0
  0
BLOCK_RECORD
  5
1E
330
1
100
AcDbSymbolTableRecord
100
AcDbBlockTableRecord
  2
*Model_Space
340
21
  0
BLOCK_RECORD
  5
1A
330
1
100
AcDbSymbolTableRecord
100
AcDbBlockTableRecord
  2
*Paper_Space
340
1D
  0
ENDTAB
  0
ENDSEC
  0
SECTION
  2
BLOCKS
  0
BLOCK
  5
1F
330
1E
100
AcDbEntity
  8
0
100
AcDbBlockBegin
  2
*Model_Space
 70
     0
 10
0.0
 20
0.0
 30
0.0
  3
*Model_Space
  1

  0
ENDBLK
  5
20
330
1E
100
AcDbEntity
  8
0
100
AcDbBlockEnd
  0
BLOCK
  5
1B
330
1A
100
AcDbEntity
 67
     1
  8
0
100
AcDbBlockBegin
  2
*Paper_Space
 70
     0
 10
0.0
 20
0.0
 30
0.0
  3
*Paper_Space
  1

  0
ENDBLK
  5
1C
330
1A
100
AcDbEntity
 67
     1
  8
0
100
AcDbBlockEnd
  0
ENDSEC
  0
SECTION
  2
ENTITIES
  0
LINE
  5
22
330
1E
100
AcDbEntity
  8
0
100
AcDbLine
 10
38.5
 20
72.20052800000001
 30
0.0
 11
40.0
 21
90.82012799999999
 31
0.0
  0
LINE
  5
23
330
1E
100
AcDbEntity
  8
0
100
AcDbLine
 10
38.0
 20
61.375228
 30
0.0
 11
38.5
 21
50.549928
 31
0.0
  0
LINE
  5
24
330
1E
100
AcDbEntity
  8
0
100
AcDbLine
 10
38.0
 20
61.375228
 30
0.0
 11
38.5
 21
72.20052800000001
 31
0.0
  0
LINE
  5
25
330
1E
100
AcDbEntity
  8
0
100
AcDbLine
 10
38.5
 20
50.549928
 30
0.0
 11
40.0
 21
31.930428
 31
0.0
  0
LINE
  5
26
330
1E
100
AcDbEntity
  8
0
100
AcDbLine
 10
26.89999999999999
 20
102.1084279999999
 30
0.0
 11
39.5
 21
97.691528
 31
0.0
  0
LINE
  5
27
330
1E
100
AcDbEntity
  8
0
100
AcDbLine
 10
40.0
 20
20.239028
 30
0.0
 11
40.49999999999999
 21
21.889028
 31
0.0
  0
LINE
  5
28
330
1E
100
AcDbEntity
  8
0
100
AcDbLine
 10
40.0
 20
20.239028
 30
0.0
 11
40.49999999999999
 21
18.589028
 31
0.0
  0
LINE
  5
29
330
1E
100
AcDbEntity
  8
0
100
AcDbLine
 10
40.0
 20
90.82012799999999
 30
0.0
 11
40.9660098848242
 21
97.51283768403871
 31
0.0
  0
LINE
  5
2A
330
1E
100
AcDbEntity
  8
0
100
AcDbLine
 10
40.0
 20
31.930428
 30
0.0
 11
41.5
 21
21.538128
 31
0.0
  0
LINE
  5
2B
330
1E
100
AcDbEntity
  8
0
100
AcDbLine
 10
39.5
 20
97.691528
 30
0.0
 11
53.0
 21
96.04602800000002
 31
0.0
  0
LINE
  5
2C
330
1E
100
AcDbEntity
  8
0
100
AcDbLine
 10
28.1
 20
103.763428
 30
0.0
 11
40.2
 21
99.520428
 31
0.0
  0
LINE
  5
2D
330
1E
100
AcDbEntity
  8
0
100
AcDbLine
 10
40.2
 20
99.520428
 30
0.0
 11
53.0
 21
97.96112800000001
 31
0.0
  0
LINE
  5
2E
330
1E
100
AcDbEntity
  8
0
100
AcDbLine
 10
16.0
 20
109.469428
 30
0.0
 11
26.89999999999999
 21
102.1084279999999
 31
0.0
  0
LINE
  5
2F
330
1E
100
AcDbEntity
  8
0
100
AcDbLine
 10
1.9
 20
130.484428
 30
0.0
 11
7.099999999999999
 21
119.486428
 31
0.0
  0
LINE
  5
30
330
1E
100
AcDbEntity
  8
0
100
AcDbLine
 10
1.9
 20
130.484428
 30
0.0
 11
7.099999999999999
 21
119.486428
 31
0.0
  0
LINE
  5
31
330
1E
100
AcDbEntity
  8
0
100
AcDbLine
 10
2.399999999999999
 20
129.821428
 30
0.0
 11
7.5
 21
118.909428
 31
0.0
  0
LINE
  5
32
330
1E
100
AcDbEntity
  8
0
100
AcDbLine
 10
0.0000000000000018
 20
142.2624279999999
 30
0.0
 11
1.9
 21
130.484428
 31
0.0
  0
LINE
  5
33
330
1E
100
AcDbEntity
  8
0
100
AcDbLine
 10
0.0000000000000018
 20
142.512428
 30
0.0
 11
1.9
 21
154.2904279999999
 31
0.0
  0
LINE
  5
34
330
1E
100
AcDbEntity
  8
0
100
AcDbLine
 10
0.000000000000002
 20
142.512428
 30
0.0
 11
0.000000000000002
 21
142.2624279999999
 31
0.0
  0
LINE
  5
35
330
1E
100
AcDbEntity
  8
0
100
AcDbLine
 10
0.000000000000002
 20
142.512428
 30
0.0
 11
1.9
 21
154.2904279999999
 31
0.0
  0
LINE
  5
36
330
1E
100
AcDbEntity
  8
0
100
AcDbLine
 10
0.000000000000002
 20
142.2624279999999
 30
0.0
 11
1.9
 21
130.484428
 31
0.0
  0
LINE
  5
37
330
1E
100
AcDbEntity
  8
0
100
AcDbLine
 10
0.000000000000002
 20
142.2624279999999
 30
0.0
 11
0.000000000000002
 21
142.512428
 31
0.0
  0
LINE
  5
38
330
1E
100
AcDbEntity
  8
0
100
AcDbLine
 10
1.9
 20
154.2904279999999
 30
0.0
 11
7.099999999999999
 21
165.288428
 31
0.0
  0
LINE
  5
39
330
1E
100
AcDbEntity
  8
0
100
AcDbLine
 10
1.9
 20
154.2904279999999
 30
0.0
 11
7.099999999999999
 21
165.288428
 31
0.0
  0
LINE
  5
3A
330
1E
100
AcDbEntity
  8
0
100
AcDbLine
 10
2.399999999999999
 20
153.2034279999999
 30
0.0
 11
7.5
 21
164.115428
 31
0.0
  0
LINE
  5
3B
330
1E
100
AcDbEntity
  8
0
100
AcDbLine
 10
0.500000000000002
 20
141.512428
 30
0.0
 11
2.399999999999999
 21
129.821428
 31
0.0
  0
LINE
  5
3C
330
1E
100
AcDbEntity
  8
0
100
AcDbLine
 10
0.500000000000002
 20
141.512428
 30
0.0
 11
2.399999999999999
 21
153.2034279999999
 31
0.0
  0
LINE
  5
3D
330
1E
100
AcDbEntity
  8
0
100
AcDbLine
 10
0.500000000000002
 20
141.512428
 30
0.0
 11
2.399999999999999
 21
129.821428
 31
0.0
  0
LINE
  5
3E
330
1E
100
AcDbEntity
  8
0
100
AcDbLine
 10
0.500000000000002
 20
141.512428
 30
0.0
 11
2.399999999999999
 21
153.2034279999999
 31
0.0
  0
LINE
  5
3F
330
1E
100
AcDbEntity
  8
0
100
AcDbLine
 10
3.0
 20
141.2624279999999
 30
0.0
 11
4.799999999999999
 21
130.1774279999999
 31
0.0
  0
LINE
  5
40
330
1E
100
AcDbEntity
  8
0
100
AcDbLine
 10
3.0
 20
141.2624279999999
 30
0.0
 11
4.799999999999999
 21
152.347428
 31
0.0
  0
LINE
  5
41
330
1E
100
AcDbEntity
  8
0
100
AcDbLine
 10
7.099999999999999
 20
119.486428
 30
0.0
 11
7.5
 21
118.909428
 31
0.0
  0
LINE
  5
42
330
1E
100
AcDbEntity
  8
0
100
AcDbLine
 10
7.5
 20
118.909428
 30
0.0
 11
16.0
 21
109.469428
 31
0.0
  0
LINE
  5
43
330
1E
100
AcDbEntity
  8
0
100
AcDbLine
 10
9.699999999999999
 20
119.698428
 30
0.0
 11
17.7
 21
110.691428
 31
0.0
  0
LINE
  5
44
330
1E
100
AcDbEntity
  8
0
100
AcDbLine
 10
7.7309
 20
130.8094279999999
 30
0.0
 11
8.696819999999998
 21
131.033428
 31
0.0
  0
LINE
  5
45
330
1E
100
AcDbEntity
  8
0
100
AcDbLine
 10
8.696819999999998
 20
131.033428
 30
0.0
 11
8.696819999999998
 21
131.533428
 31
0.0
  0
LINE
  5
46
330
1E
100
AcDbEntity
  8
0
100
AcDbLine
 10
4.799999999999999
 20
130.1774279999999
 30
0.0
 11
9.699999999999999
 21
119.698428
 31
0.0
  0
LINE
  5
47
330
1E
100
AcDbEntity
  8
0
100
AcDbLine
 10
12.5468
 20
121.035428
 30
0.0
 11
13.4128
 21
121.4684279999999
 31
0.0
  0
LINE
  5
48
330
1E
100
AcDbEntity
  8
0
100
AcDbLine
 10
13.4128
 20
121.4684279999999
 30
0.0
 11
13.4128
 21
121.968428
 31
0.0
  0
LINE
  5
49
330
1E
100
AcDbEntity
  8
0
100
AcDbLine
 10
12.9128
 20
122.718428
 30
0.0
 11
12.9128
 21
122.218428
 31
0.0
  0
LINE
  5
4A
330
1E
100
AcDbEntity
  8
0
100
AcDbLine
 10
12.9128
 20
122.718428
 30
0.0
 11
13.4128
 21
121.968428
 31
0.0
  0
LINE
  5
4B
330
1E
100
AcDbEntity
  8
0
100
AcDbLine
 10
12.04679999999999
 20
122.2854279999999
 30
0.0
 11
12.04679999999999
 21
121.785428
 31
0.0
  0
LINE
  5
4C
330
1E
100
AcDbEntity
  8
0
100
AcDbLine
 10
12.04679999999999
 20
122.2854279999999
 30
0.0
 11
12.9128
 21
122.718428
 31
0.0
  0
LINE
  5
4D
330
1E
100
AcDbEntity
  8
0
100
AcDbLine
 10
13.4128
 20
121.968428
 30
0.0
 11
13.4128
 21
121.4684279999999
 31
0.0
  0
LINE
  5
4E
330
1E
100
AcDbEntity
  8
0
100
AcDbLine
 10
12.9128
 20
122.218428
 30
0.0
 11
12.9128
 21
122.718428
 31
0.0
  0
LINE
  5
4F
330
1E
100
AcDbEntity
  8
0
100
AcDbLine
 10
12.9128
 20
122.218428
 30
0.0
 11
13.4128
 21
121.4684279999999
 31
0.0
  0
LINE
  5
50
330
1E
100
AcDbEntity
  8
0
100
AcDbLine
 10
12.04679999999999
 20
121.785428
 30
0.0
 11
12.5468
 21
121.035428
 31
0.0
  0
LINE
  5
51
330
1E
100
AcDbEntity
  8
0
100
AcDbLine
 10
12.04679999999999
 20
121.785428
 30
0.0
 11
12.04679999999999
 21
122.2854279999999
 31
0.0
  0
LINE
  5
52
330
1E
100
AcDbEntity
  8
0
100
AcDbLine
 10
12.04679999999999
 20
121.785428
 30
0.0
 11
12.9128
 21
122.218428
 31
0.0
  0
LINE
  5
53
330
1E
100
AcDbEntity
  8
0
100
AcDbLine
 10
17.16
 20
128.437428
 30
0.0
 11
18.0839
 21
128.768428
 31
0.0
  0
LINE
  5
54
330
1E
100
AcDbEntity
  8
0
100
AcDbLine
 10
16.7774
 20
129.7374279999999
 30
0.0
 11
16.7774
 21
129.2374279999999
 31
0.0
  0
LINE
  5
55
330
1E
100
AcDbEntity
  8
0
100
AcDbLine
 10
16.7774
 20
129.7374279999999
 30
0.0
 11
17.7012
 21
130.068428
 31
0.0
  0
LINE
  5
56
330
1E
100
AcDbEntity
  8
0
100
AcDbLine
 10
16.7774
 20
129.2374279999999
 30
0.0
 11
17.16
 21
128.437428
 31
0.0
  0
LINE
  5
57
330
1E
100
AcDbEntity
  8
0
100
AcDbLine
 10
16.7774
 20
129.2374279999999
 30
0.0
 11
16.7774
 21
129.7374279999999
 31
0.0
  0
LINE
  5
58
330
1E
100
AcDbEntity
  8
0
100
AcDbLine
 10
16.7774
 20
129.2374279999999
 30
0.0
 11
17.7012
 21
129.568428
 31
0.0
  0
LINE
  5
59
330
1E
100
AcDbEntity
  8
0
100
AcDbLine
 10
9.699999999999999
 20
120.698428
 30
0.0
 11
17.7
 21
111.691428
 31
0.0
  0
LINE
  5
5A
330
1E
100
AcDbEntity
  8
0
100
AcDbLine
 10
6.0
 20
141.829428
 30
0.0
 11
6.0
 21
142.6954279999999
 31
0.0
  0
LINE
  5
5B
330
1E
100
AcDbEntity
  8
0
100
AcDbLine
 10
6.0
 20
141.829428
 30
0.0
 11
6.0
 21
141.329428
 31
0.0
  0
LINE
  5
5C
330
1E
100
AcDbEntity
  8
0
100
AcDbLine
 10
6.0
 20
142.6954279999999
 30
0.0
 11
6.0
 21
142.195428
 31
0.0
  0
LINE
  5
5D
330
1E
100
AcDbEntity
  8
0
100
AcDbLine
 10
6.0
 20
142.6954279999999
 30
0.0
 11
7.0
 21
142.6954279999999
 31
0.0
  0
LINE
  5
5E
330
1E
100
AcDbEntity
  8
0
100
AcDbLine
 10
6.0
 20
142.6954279999999
 30
0.0
 11
6.0
 21
141.829428
 31
0.0
  0
LINE
  5
5F
330
1E
100
AcDbEntity
  8
0
100
AcDbLine
 10
6.0
 20
142.195428
 30
0.0
 11
6.0
 21
141.329428
 31
0.0
  0
LINE
  5
60
330
1E
100
AcDbEntity
  8
0
100
AcDbLine
 10
6.0
 20
142.195428
 30
0.0
 11
7.0
 21
142.195428
 31
0.0
  0
LINE
  5
61
330
1E
100
AcDbEntity
  8
0
100
AcDbLine
 10
6.0
 20
142.195428
 30
0.0
 11
6.0
 21
142.6954279999999
 31
0.0
  0
LINE
  5
62
330
1E
100
AcDbEntity
  8
0
100
AcDbLine
 10
7.47208
 20
132.145428
 30
0.0
 11
7.47208
 21
131.645428
 31
0.0
  0
LINE
  5
63
330
1E
100
AcDbEntity
  8
0
100
AcDbLine
 10
7.47208
 20
132.145428
 30
0.0
 11
8.437999999999998
 21
132.370428
 31
0.0
  0
LINE
  5
64
330
1E
100
AcDbEntity
  8
0
100
AcDbLine
 10
8.696819999999998
 20
131.533428
 30
0.0
 11
8.696819999999998
 21
131.033428
 31
0.0
  0
LINE
  5
65
330
1E
100
AcDbEntity
  8
0
100
AcDbLine
 10
8.437999999999998
 20
132.370428
 30
0.0
 11
8.437999999999998
 21
131.870428
 31
0.0
  0
LINE
  5
66
330
1E
100
AcDbEntity
  8
0
100
AcDbLine
 10
8.437999999999998
 20
132.370428
 30
0.0
 11
8.696819999999998
 21
131.533428
 31
0.0
  0
LINE
  5
67
330
1E
100
AcDbEntity
  8
0
100
AcDbLine
 10
8.437999999999998
 20
131.870428
 30
0.0
 11
8.437999999999998
 21
132.370428
 31
0.0
  0
LINE
  5
68
330
1E
100
AcDbEntity
  8
0
100
AcDbLine
 10
8.437999999999998
 20
131.870428
 30
0.0
 11
8.696819999999998
 21
131.033428
 31
0.0
  0
LINE
  5
69
330
1E
100
AcDbEntity
  8
0
100
AcDbLine
 10
7.47208
 20
131.645428
 30
0.0
 11
7.7309
 21
130.8094279999999
 31
0.0
  0
LINE
  5
6A
330
1E
100
AcDbEntity
  8
0
100
AcDbLine
 10
7.47208
 20
131.645428
 30
0.0
 11
7.47208
 21
132.145428
 31
0.0
  0
LINE
  5
6B
330
1E
100
AcDbEntity
  8
0
100
AcDbLine
 10
7.47208
 20
131.645428
 30
0.0
 11
8.437999999999998
 21
131.870428
 31
0.0
  0
LINE
  5
6C
330
1E
100
AcDbEntity
  8
0
100
AcDbLine
 10
14.2684
 20
138.283428
 30
0.0
 11
14.2684
 21
137.783428
 31
0.0
  0
LINE
  5
6D
330
1E
100
AcDbEntity
  8
0
100
AcDbLine
 10
14.2684
 20
138.283428
 30
0.0
 11
15.2598
 21
138.396428
 31
0.0
  0
LINE
  5
6E
330
1E
100
AcDbEntity
  8
0
100
AcDbLine
 10
15.39039999999999
 20
137.537428
 30
0.0
 11
15.39039999999999
 21
137.037428
 31
0.0
  0
LINE
  5
6F
330
1E
100
AcDbEntity
  8
0
100
AcDbLine
 10
14.3989
 20
136.9244279999999
 30
0.0
 11
15.39039999999999
 21
137.037428
 31
0.0
  0
LINE
  5
70
330
1E
100
AcDbEntity
  8
0
100
AcDbLine
 10
15.39039999999999
 20
137.037428
 30
0.0
 11
15.39039999999999
 21
137.537428
 31
0.0
  0
LINE
  5
71
330
1E
100
AcDbEntity
  8
0
100
AcDbLine
 10
15.2598
 20
138.396428
 30
0.0
 11
15.2598
 21
137.896428
 31
0.0
  0
LINE
  5
72
330
1E
100
AcDbEntity
  8
0
100
AcDbLine
 10
15.2598
 20
138.396428
 30
0.0
 11
15.39039999999999
 21
137.537428
 31
0.0
  0
LINE
  5
73
330
1E
100
AcDbEntity
  8
0
100
AcDbLine
 10
15.2598
 20
137.896428
 30
0.0
 11
15.2598
 21
138.396428
 31
0.0
  0
LINE
  5
74
330
1E
100
AcDbEntity
  8
0
100
AcDbLine
 10
15.2598
 20
137.896428
 30
0.0
 11
15.39039999999999
 21
137.037428
 31
0.0
  0
LINE
  5
75
330
1E
100
AcDbEntity
  8
0
100
AcDbLine
 10
14.2684
 20
137.783428
 30
0.0
 11
14.3989
 21
136.9244279999999
 31
0.0
  0
LINE
  5
76
330
1E
100
AcDbEntity
  8
0
100
AcDbLine
 10
14.2684
 20
137.783428
 30
0.0
 11
14.2684
 21
138.283428
 31
0.0
  0
LINE
  5
77
330
1E
100
AcDbEntity
  8
0
100
AcDbLine
 10
14.2684
 20
137.783428
 30
0.0
 11
15.2598
 21
137.896428
 31
0.0
  0
LINE
  5
78
330
1E
100
AcDbEntity
  8
0
100
AcDbLine
 10
7.0
 20
142.6954279999999
 30
0.0
 11
7.0
 21
142.195428
 31
0.0
  0
LINE
  5
79
330
1E
100
AcDbEntity
  8
0
100
AcDbLine
 10
15.2598
 20
145.628428
 30
0.0
 11
15.39039999999999
 21
146.4874279999999
 31
0.0
  0
LINE
  5
7A
330
1E
100
AcDbEntity
  8
0
100
AcDbLine
 10
8.437999999999998
 20
151.6544279999999
 30
0.0
 11
8.696819999999998
 21
152.491428
 31
0.0
  0
LINE
  5
7B
330
1E
100
AcDbEntity
  8
0
100
AcDbLine
 10
7.7309
 20
152.7154279999999
 30
0.0
 11
8.696819999999998
 21
152.491428
 31
0.0
  0
LINE
  5
7C
330
1E
100
AcDbEntity
  8
0
100
AcDbLine
 10
7.7309
 20
152.7154279999999
 30
0.0
 11
7.7309
 21
153.215428
 31
0.0
  0
LINE
  5
7D
330
1E
100
AcDbEntity
  8
0
100
AcDbLine
 10
7.47208
 20
152.378428
 30
0.0
 11
7.7309
 21
153.215428
 31
0.0
  0
LINE
  5
7E
330
1E
100
AcDbEntity
  8
0
100
AcDbLine
 10
7.47208
 20
152.378428
 30
0.0
 11
7.47208
 21
151.878428
 31
0.0
  0
LINE
  5
7F
330
1E
100
AcDbEntity
  8
0
100
AcDbLine
 10
12.9128
 20
161.306428
 30
0.0
 11
13.4128
 21
162.056428
 31
0.0
  0
LINE
  5
80
330
1E
100
AcDbEntity
  8
0
100
AcDbLine
 10
13.4128
 20
162.556428
 30
0.0
 11
13.4128
 21
162.056428
 31
0.0
  0
LINE
  5
81
330
1E
100
AcDbEntity
  8
0
100
AcDbLine
 10
12.5468
 20
162.489428
 30
0.0
 11
13.4128
 21
162.056428
 31
0.0
  0
LINE
  5
82
330
1E
100
AcDbEntity
  8
0
100
AcDbLine
 10
12.5468
 20
162.489428
 30
0.0
 11
12.5468
 21
162.989428
 31
0.0
  0
LINE
  5
83
330
1E
100
AcDbEntity
  8
0
100
AcDbLine
 10
13.4128
 20
162.056428
 30
0.0
 11
13.4128
 21
162.556428
 31
0.0
  0
LINE
  5
84
330
1E
100
AcDbEntity
  8
0
100
AcDbLine
 10
12.04679999999999
 20
162.2394279999999
 30
0.0
 11
12.5468
 21
162.989428
 31
0.0
  0
LINE
  5
85
330
1E
100
AcDbEntity
  8
0
100
AcDbLine
 10
12.04679999999999
 20
162.2394279999999
 30
0.0
 11
12.04679999999999
 21
161.739428
 31
0.0
  0
LINE
  5
86
330
1E
100
AcDbEntity
  8
0
100
AcDbLine
 10
12.04679999999999
 20
161.739428
 30
0.0
 11
12.04679999999999
 21
162.2394279999999
 31
0.0
  0
LINE
  5
87
330
1E
100
AcDbEntity
  8
0
100
AcDbLine
 10
12.04679999999999
 20
161.739428
 30
0.0
 11
12.5468
 21
162.489428
 31
0.0
  0
LINE
  5
88
330
1E
100
AcDbEntity
  8
0
100
AcDbLine
 10
12.04679999999999
 20
161.739428
 30
0.0
 11
12.9128
 21
161.306428
 31
0.0
  0
LINE
  5
89
330
1E
100
AcDbEntity
  8
0
100
AcDbLine
 10
8.696819999999998
 20
152.991428
 30
0.0
 11
8.696819999999998
 21
152.491428
 31
0.0
  0
LINE
  5
8A
330
1E
100
AcDbEntity
  8
0
100
AcDbLine
 10
8.696819999999998
 20
152.491428
 30
0.0
 11
8.696819999999998
 21
152.991428
 31
0.0
  0
LINE
  5
8B
330
1E
100
AcDbEntity
  8
0
100
AcDbLine
 10
7.7309
 20
153.215428
 30
0.0
 11
7.7309
 21
152.7154279999999
 31
0.0
  0
LINE
  5
8C
330
1E
100
AcDbEntity
  8
0
100
AcDbLine
 10
7.7309
 20
153.215428
 30
0.0
 11
8.696819999999998
 21
152.991428
 31
0.0
  0
LINE
  5
8D
330
1E
100
AcDbEntity
  8
0
100
AcDbLine
 10
7.47208
 20
151.878428
 30
0.0
 11
7.47208
 21
152.378428
 31
0.0
  0
LINE
  5
8E
330
1E
100
AcDbEntity
  8
0
100
AcDbLine
 10
7.47208
 20
151.878428
 30
0.0
 11
7.7309
 21
152.7154279999999
 31
0.0
  0
LINE
  5
8F
330
1E
100
AcDbEntity
  8
0
100
AcDbLine
 10
7.47208
 20
151.878428
 30
0.0
 11
8.437999999999998
 21
151.6544279999999
 31
0.0
  0
LINE
  5
90
330
1E
100
AcDbEntity
  8
0
100
AcDbLine
 10
14.3989
 20
146.6004279999999
 30
0.0
 11
15.39039999999999
 21
146.4874279999999
 31
0.0
  0
LINE
  5
91
330
1E
100
AcDbEntity
  8
0
100
AcDbLine
 10
14.3989
 20
146.6004279999999
 30
0.0
 11
14.3989
 21
147.100428
 31
0.0
  0
LINE
  5
92
330
1E
100
AcDbEntity
  8
0
100
AcDbLine
 10
14.2684
 20
146.241428
 30
0.0
 11
14.3989
 21
147.100428
 31
0.0
  0
LINE
  5
93
330
1E
100
AcDbEntity
  8
0
100
AcDbLine
 10
14.2684
 20
146.241428
 30
0.0
 11
14.2684
 21
145.741428
 31
0.0
  0
LINE
  5
94
330
1E
100
AcDbEntity
  8
0
100
AcDbLine
 10
17.16
 20
155.087428
 30
0.0
 11
18.0839
 21
154.756428
 31
0.0
  0
LINE
  5
95
330
1E
100
AcDbEntity
  8
0
100
AcDbLine
 10
17.16
 20
155.087428
 30
0.0
 11
17.16
 21
155.587428
 31
0.0
  0
LINE
  5
96
330
1E
100
AcDbEntity
  8
0
100
AcDbLine
 10
16.7774
 20
154.787428
 30
0.0
 11
17.16
 21
155.587428
 31
0.0
  0
LINE
  5
97
330
1E
100
AcDbEntity
  8
0
100
AcDbLine
 10
16.7774
 20
154.787428
 30
0.0
 11
16.7774
 21
154.287428
 31
0.0
  0
LINE
  5
98
330
1E
100
AcDbEntity
  8
0
100
AcDbLine
 10
17.16
 20
155.587428
 30
0.0
 11
17.16
 21
155.087428
 31
0.0
  0
LINE
  5
99
330
1E
100
AcDbEntity
  8
0
100
AcDbLine
 10
17.16
 20
155.587428
 30
0.0
 11
18.0839
 21
155.256428
 31
0.0
  0
LINE
  5
9A
330
1E
100
AcDbEntity
  8
0
100
AcDbLine
 10
16.7774
 20
154.287428
 30
0.0
 11
16.7774
 21
154.787428
 31
0.0
  0
LINE
  5
9B
330
1E
100
AcDbEntity
  8
0
100
AcDbLine
 10
16.7774
 20
154.287428
 30
0.0
 11
17.16
 21
155.087428
 31
0.0
  0
LINE
  5
9C
330
1E
100
AcDbEntity
  8
0
100
AcDbLine
 10
16.7774
 20
154.287428
 30
0.0
 11
17.7012
 21
153.956428
 31
0.0
  0
LINE
  5
9D
330
1E
100
AcDbEntity
  8
0
100
AcDbLine
 10
15.39039999999999
 20
146.9874279999999
 30
0.0
 11
15.39039999999999
 21
146.4874279999999
 31
0.0
  0
LINE
  5
9E
330
1E
100
AcDbEntity
  8
0
100
AcDbLine
 10
15.39039999999999
 20
146.4874279999999
 30
0.0
 11
15.39039999999999
 21
146.9874279999999
 31
0.0
  0
LINE
  5
9F
330
1E
100
AcDbEntity
  8
0
100
AcDbLine
 10
14.3989
 20
147.100428
 30
0.0
 11
14.3989
 21
146.6004279999999
 31
0.0
  0
LINE
  5
A0
330
1E
100
AcDbEntity
  8
0
100
AcDbLine
 10
14.3989
 20
147.100428
 30
0.0
 11
15.39039999999999
 21
146.9874279999999
 31
0.0
  0
LINE
  5
A1
330
1E
100
AcDbEntity
  8
0
100
AcDbLine
 10
14.2684
 20
145.741428
 30
0.0
 11
14.2684
 21
146.241428
 31
0.0
  0
LINE
  5
A2
330
1E
100
AcDbEntity
  8
0
100
AcDbLine
 10
14.2684
 20
145.741428
 30
0.0
 11
14.3989
 21
146.6004279999999
 31
0.0
  0
LINE
  5
A3
330
1E
100
AcDbEntity
  8
0
100
AcDbLine
 10
14.2684
 20
145.741428
 30
0.0
 11
15.2598
 21
145.628428
 31
0.0
  0
LINE
  5
A4
330
1E
100
AcDbEntity
  8
0
100
AcDbLine
 10
7.0
 20
142.195428
 30
0.0
 11
7.0
 21
142.6954279999999
 31
0.0
  0
LINE
  5
A5
330
1E
100
AcDbEntity
  8
0
100
AcDbLine
 10
7.0
 20
142.195428
 30
0.0
 11
7.0
 21
141.329428
 31
0.0
  0
LINE
  5
A6
330
1E
100
AcDbEntity
  8
0
100
AcDbLine
 10
7.0
 20
141.329428
 30
0.0
 11
7.0
 21
142.195428
 31
0.0
  0
LINE
  5
A7
330
1E
100
AcDbEntity
  8
0
100
AcDbLine
 10
6.0
 20
141.329428
 30
0.0
 11
6.0
 21
141.829428
 31
0.0
  0
LINE
  5
A8
330
1E
100
AcDbEntity
  8
0
100
AcDbLine
 10
6.0
 20
141.329428
 30
0.0
 11
7.0
 21
141.329428
 31
0.0
  0
LINE
  5
A9
330
1E
100
AcDbEntity
  8
0
100
AcDbLine
 10
6.0
 20
141.329428
 30
0.0
 11
6.0
 21
142.195428
 31
0.0
  0
LINE
  5
AB
330
1E
100
AcDbEntity
  8
0
100
AcDbLine
 10
7.099999999999999
 20
165.288428
 30
0.0
 11
7.5
 21
165.865428
 31
0.0
  0
LINE
  5
AC
330
1E
100
AcDbEntity
  8
0
100
AcDbLine
 10
12.5468
 20
162.989428
 30
0.0
 11
12.5468
 21
162.489428
 31
0.0
  0
LINE
  5
AD
330
1E
100
AcDbEntity
  8
0
100
AcDbLine
 10
12.5468
 20
162.989428
 30
0.0
 11
13.4128
 21
162.556428
 31
0.0
  0
LINE
  5
AE
330
1E
100
AcDbEntity
  8
0
100
AcDbLine
 10
7.5
 20
165.865428
 30
0.0
 11
10.6
 21
171.1434279999999
 31
0.0
  0
LINE
  5
AF
330
1E
100
AcDbEntity
  8
0
100
AcDbLine
 10
16.0
 20
175.305428
 30
0.0
 11
26.89999999999999
 21
182.6664279999999
 31
0.0
  0
LINE
  5
B1
330
1E
100
AcDbEntity
  8
0
100
AcDbLine
 10
16.0
 20
173.555428
 30
0.0
 11
26.89999999999999
 21
180.916428
 31
0.0
  0
LINE
  5
B2
330
1E
100
AcDbEntity
  8
0
100
AcDbLine
 10
17.7
 20
171.833428
 30
0.0
 11
28.1
 21
178.7614279999999
 31
0.0
  0
LINE
  5
B3
330
1E
100
AcDbEntity
  8
0
100
AcDbLine
 10
10.6
 20
171.1434279999999
 30
0.0
 11
18.39999999999999
 21
179.9764279999999
 31
0.0
  0
LINE
  5
B4
330
1E
100
AcDbEntity
  8
0
100
AcDbLine
 10
9.699999999999999
 20
168.5764279999999
 30
0.0
 11
16.0
 21
175.305428
 31
0.0
  0
LINE
  5
B7
330
1E
100
AcDbEntity
  8
0
100
AcDbLine
 10
7.5
 20
164.115428
 30
0.0
 11
16.0
 21
173.555428
 31
0.0
  0
LINE
  5
B8
330
1E
100
AcDbEntity
  8
0
100
AcDbLine
 10
9.699999999999999
 20
162.8264279999999
 30
0.0
 11
17.7
 21
171.833428
 31
0.0
  0
LINE
  5
B9
330
1E
100
AcDbEntity
  8
0
100
AcDbLine
 10
4.799999999999999
 20
152.347428
 30
0.0
 11
9.699999999999999
 21
162.8264279999999
 31
0.0
  0
LINE
  5
BA
330
1E
100
AcDbEntity
  8
0
100
AcDbLine
 10
4.799999999999999
 20
131.1774279999999
 30
0.0
 11
9.699999999999999
 21
120.698428
 31
0.0
  0
LINE
  5
BB
330
1E
100
AcDbEntity
  8
0
100
AcDbLine
 10
3.081190798376189
 20
141.762428
 30
0.0
 11
4.799999999999999
 21
131.1774279999999
 31
0.0
  0
LINE
  5
BC
330
1E
100
AcDbEntity
  8
0
100
AcDbLine
 10
17.7
 20
110.691428
 30
0.0
 11
28.1
 21
103.763428
 31
0.0
  0
LINE
  5
BD
330
1E
100
AcDbEntity
  8
0
100
AcDbLine
 10
20.1195
 20
112.674428
 30
0.0
 11
20.8266
 21
113.287428
 31
0.0
  0
LINE
  5
BE
330
1E
100
AcDbEntity
  8
0
100
AcDbLine
 10
20.8266
 20
113.287428
 30
0.0
 11
20.8266
 21
113.787428
 31
0.0
  0
LINE
  5
BF
330
1E
100
AcDbEntity
  8
0
100
AcDbLine
 10
18.0839
 20
129.268428
 30
0.0
 11
18.0839
 21
128.768428
 31
0.0
  0
LINE
  5
C0
330
1E
100
AcDbEntity
  8
0
100
AcDbLine
 10
18.0839
 20
128.768428
 30
0.0
 11
18.0839
 21
129.268428
 31
0.0
  0
LINE
  5
C1
330
1E
100
AcDbEntity
  8
0
100
AcDbLine
 10
17.7012
 20
130.068428
 30
0.0
 11
17.7012
 21
129.568428
 31
0.0
  0
LINE
  5
C2
330
1E
100
AcDbEntity
  8
0
100
AcDbLine
 10
17.7012
 20
130.068428
 30
0.0
 11
18.0839
 21
129.268428
 31
0.0
  0
LINE
  5
C3
330
1E
100
AcDbEntity
  8
0
100
AcDbLine
 10
17.7012
 20
129.568428
 30
0.0
 11
17.7012
 21
130.068428
 31
0.0
  0
LINE
  5
C4
330
1E
100
AcDbEntity
  8
0
100
AcDbLine
 10
17.7012
 20
129.568428
 30
0.0
 11
18.0839
 21
128.768428
 31
0.0
  0
LINE
  5
C5
330
1E
100
AcDbEntity
  8
0
100
AcDbLine
 10
20.1195
 20
114.399428
 30
0.0
 11
20.1195
 21
113.899428
 31
0.0
  0
LINE
  5
C6
330
1E
100
AcDbEntity
  8
0
100
AcDbLine
 10
20.1195
 20
114.399428
 30
0.0
 11
20.8266
 21
113.787428
 31
0.0
  0
LINE
  5
C7
330
1E
100
AcDbEntity
  8
0
100
AcDbLine
 10
19.4124
 20
113.787428
 30
0.0
 11
19.4124
 21
113.287428
 31
0.0
  0
LINE
  5
C8
330
1E
100
AcDbEntity
  8
0
100
AcDbLine
 10
19.4124
 20
113.787428
 30
0.0
 11
20.1195
 21
114.399428
 31
0.0
  0
LINE
  5
C9
330
1E
100
AcDbEntity
  8
0
100
AcDbLine
 10
21.75479999999999
 20
122.045428
 30
0.0
 11
21.75479999999999
 21
121.545428
 31
0.0
  0
LINE
  5
CA
330
1E
100
AcDbEntity
  8
0
100
AcDbLine
 10
21.75479999999999
 20
122.045428
 30
0.0
 11
22.5482
 21
122.572428
 31
0.0
  0
LINE
  5
CB
330
1E
100
AcDbEntity
  8
0
100
AcDbLine
 10
22.3636
 20
120.8584279999999
 30
0.0
 11
23.15699999999999
 21
121.385428
 31
0.0
  0
LINE
  5
CC
330
1E
100
AcDbEntity
  8
0
100
AcDbLine
 10
22.5482
 20
122.572428
 30
0.0
 11
22.5482
 21
122.0724279999999
 31
0.0
  0
LINE
  5
CD
330
1E
100
AcDbEntity
  8
0
100
AcDbLine
 10
22.5482
 20
122.572428
 30
0.0
 11
23.15699999999999
 21
121.885428
 31
0.0
  0
LINE
  5
CE
330
1E
100
AcDbEntity
  8
0
100
AcDbLine
 10
22.5482
 20
122.0724279999999
 30
0.0
 11
22.5482
 21
122.572428
 31
0.0
  0
LINE
  5
CF
330
1E
100
AcDbEntity
  8
0
100
AcDbLine
 10
22.5482
 20
122.0724279999999
 30
0.0
 11
23.15699999999999
 21
121.385428
 31
0.0
  0
LINE
  5
D0
330
1E
100
AcDbEntity
  8
0
100
AcDbLine
 10
21.75479999999999
 20
121.545428
 30
0.0
 11
21.75479999999999
 21
122.045428
 31
0.0
  0
LINE
  5
D1
330
1E
100
AcDbEntity
  8
0
100
AcDbLine
 10
21.75479999999999
 20
121.545428
 30
0.0
 11
22.3636
 21
120.8584279999999
 31
0.0
  0
LINE
  5
D2
330
1E
100
AcDbEntity
  8
0
100
AcDbLine
 10
21.75479999999999
 20
121.545428
 30
0.0
 11
22.5482
 21
122.0724279999999
 31
0.0
  0
LINE
  5
D3
330
1E
100
AcDbEntity
  8
0
100
AcDbLine
 10
22.92689999999999
 20
135.732428
 30
0.0
 11
22.92689999999999
 21
135.2324279999999
 31
0.0
  0
LINE
  5
D4
330
1E
100
AcDbEntity
  8
0
100
AcDbLine
 10
22.92689999999999
 20
135.732428
 30
0.0
 11
23.8928
 21
135.956428
 31
0.0
  0
LINE
  5
D5
330
1E
100
AcDbEntity
  8
0
100
AcDbLine
 10
22.92689999999999
 20
135.2324279999999
 30
0.0
 11
23.1857
 21
134.395428
 31
0.0
  0
LINE
  5
D6
330
1E
100
AcDbEntity
  8
0
100
AcDbLine
 10
22.92689999999999
 20
135.2324279999999
 30
0.0
 11
22.92689999999999
 21
135.732428
 31
0.0
  0
LINE
  5
D7
330
1E
100
AcDbEntity
  8
0
100
AcDbLine
 10
22.92689999999999
 20
135.2324279999999
 30
0.0
 11
23.8928
 21
135.456428
 31
0.0
  0
LINE
  5
D8
330
1E
100
AcDbEntity
  8
0
100
AcDbLine
 10
20.8266
 20
113.787428
 30
0.0
 11
20.8266
 21
113.287428
 31
0.0
  0
LINE
  5
D9
330
1E
100
AcDbEntity
  8
0
100
AcDbLine
 10
20.1195
 20
113.899428
 30
0.0
 11
20.1195
 21
114.399428
 31
0.0
  0
LINE
  5
DA
330
1E
100
AcDbEntity
  8
0
100
AcDbLine
 10
20.1195
 20
113.899428
 30
0.0
 11
20.8266
 21
113.287428
 31
0.0
  0
LINE
  5
DB
330
1E
100
AcDbEntity
  8
0
100
AcDbLine
 10
19.4124
 20
113.287428
 30
0.0
 11
19.4124
 21
113.787428
 31
0.0
  0
LINE
  5
DC
330
1E
100
AcDbEntity
  8
0
100
AcDbLine
 10
19.4124
 20
113.287428
 30
0.0
 11
20.1195
 21
112.674428
 31
0.0
  0
LINE
  5
DD
330
1E
100
AcDbEntity
  8
0
100
AcDbLine
 10
19.4124
 20
113.287428
 30
0.0
 11
20.1195
 21
113.899428
 31
0.0
  0
LINE
  5
DE
330
1E
100
AcDbEntity
  8
0
100
AcDbLine
 10
23.15699999999999
 20
121.885428
 30
0.0
 11
23.15699999999999
 21
121.385428
 31
0.0
  0
LINE
  5
DF
330
1E
100
AcDbEntity
  8
0
100
AcDbLine
 10
23.15699999999999
 20
121.385428
 30
0.0
 11
23.15699999999999
 21
121.885428
 31
0.0
  0
LINE
  5
E0
330
1E
100
AcDbEntity
  8
0
100
AcDbLine
 10
24.1516
 20
135.119428
 30
0.0
 11
24.1516
 21
134.6194279999999
 31
0.0
  0
LINE
  5
E1
330
1E
100
AcDbEntity
  8
0
100
AcDbLine
 10
23.1857
 20
134.395428
 30
0.0
 11
24.1516
 21
134.6194279999999
 31
0.0
  0
LINE
  5
E2
330
1E
100
AcDbEntity
  8
0
100
AcDbLine
 10
26.4032
 20
127.964428
 30
0.0
 11
27.2692
 21
128.397428
 31
0.0
  0
LINE
  5
E3
330
1E
100
AcDbEntity
  8
0
100
AcDbLine
 10
27.2692
 20
128.397428
 30
0.0
 11
27.2692
 21
128.8974279999999
 31
0.0
  0
LINE
  5
E4
330
1E
100
AcDbEntity
  8
0
100
AcDbLine
 10
26.7692
 20
129.6474279999999
 30
0.0
 11
26.7692
 21
129.1474279999999
 31
0.0
  0
LINE
  5
E5
330
1E
100
AcDbEntity
  8
0
100
AcDbLine
 10
26.7692
 20
129.6474279999999
 30
0.0
 11
27.2692
 21
128.8974279999999
 31
0.0
  0
LINE
  5
E6
330
1E
100
AcDbEntity
  8
0
100
AcDbLine
 10
25.9032
 20
129.214428
 30
0.0
 11
25.9032
 21
128.7144279999999
 31
0.0
  0
LINE
  5
E7
330
1E
100
AcDbEntity
  8
0
100
AcDbLine
 10
25.9032
 20
129.214428
 30
0.0
 11
26.7692
 21
129.6474279999999
 31
0.0
  0
LINE
  5
E8
330
1E
100
AcDbEntity
  8
0
100
AcDbLine
 10
27.2692
 20
128.8974279999999
 30
0.0
 11
27.2692
 21
128.397428
 31
0.0
  0
LINE
  5
E9
330
1E
100
AcDbEntity
  8
0
100
AcDbLine
 10
26.7692
 20
129.1474279999999
 30
0.0
 11
26.7692
 21
129.6474279999999
 31
0.0
  0
LINE
  5
EA
330
1E
100
AcDbEntity
  8
0
100
AcDbLine
 10
26.7692
 20
129.1474279999999
 30
0.0
 11
27.2692
 21
128.397428
 31
0.0
  0
LINE
  5
EB
330
1E
100
AcDbEntity
  8
0
100
AcDbLine
 10
25.9032
 20
128.7144279999999
 30
0.0
 11
26.4032
 21
127.964428
 31
0.0
  0
LINE
  5
EC
330
1E
100
AcDbEntity
  8
0
100
AcDbLine
 10
25.9032
 20
128.7144279999999
 30
0.0
 11
25.9032
 21
129.214428
 31
0.0
  0
LINE
  5
ED
330
1E
100
AcDbEntity
  8
0
100
AcDbLine
 10
25.9032
 20
128.7144279999999
 30
0.0
 11
26.7692
 21
129.1474279999999
 31
0.0
  0
LINE
  5
EE
330
1E
100
AcDbEntity
  8
0
100
AcDbLine
 10
24.1516
 20
134.6194279999999
 30
0.0
 11
24.1516
 21
135.119428
 31
0.0
  0
LINE
  5
EF
330
1E
100
AcDbEntity
  8
0
100
AcDbLine
 10
23.8928
 20
135.956428
 30
0.0
 11
23.8928
 21
135.456428
 31
0.0
  0
LINE
  5
F0
330
1E
100
AcDbEntity
  8
0
100
AcDbLine
 10
23.8928
 20
135.956428
 30
0.0
 11
24.1516
 21
135.119428
 31
0.0
  0
LINE
  5
F1
330
1E
100
AcDbEntity
  8
0
100
AcDbLine
 10
23.8928
 20
135.456428
 30
0.0
 11
23.8928
 21
135.956428
 31
0.0
  0
LINE
  5
F2
330
1E
100
AcDbEntity
  8
0
100
AcDbLine
 10
23.8928
 20
135.456428
 30
0.0
 11
24.1516
 21
134.6194279999999
 31
0.0
  0
LINE
  5
F3
330
1E
100
AcDbEntity
  8
0
100
AcDbLine
 10
23.0
 20
141.329428
 30
0.0
 11
23.0
 21
142.195428
 31
0.0
  0
LINE
  5
F4
330
1E
100
AcDbEntity
  8
0
100
AcDbLine
 10
22.0
 20
141.829428
 30
0.0
 11
22.0
 21
142.6954279999999
 31
0.0
  0
LINE
  5
F5
330
1E
100
AcDbEntity
  8
0
100
AcDbLine
 10
22.0
 20
141.829428
 30
0.0
 11
22.0
 21
141.329428
 31
0.0
  0
LINE
  5
F6
330
1E
100
AcDbEntity
  8
0
100
AcDbLine
 10
18.0839
 20
155.256428
 30
0.0
 11
18.0839
 21
154.756428
 31
0.0
  0
LINE
  5
F7
330
1E
100
AcDbEntity
  8
0
100
AcDbLine
 10
18.0839
 20
154.756428
 30
0.0
 11
18.0839
 21
155.256428
 31
0.0
  0
LINE
  5
F8
330
1E
100
AcDbEntity
  8
0
100
AcDbLine
 10
17.7012
 20
153.956428
 30
0.0
 11
18.0839
 21
154.756428
 31
0.0
  0
LINE
  5
F9
330
1E
100
AcDbEntity
  8
0
100
AcDbLine
 10
19.4124
 20
170.7374279999999
 30
0.0
 11
20.1195
 21
171.3504279999999
 31
0.0
  0
LINE
  5
FA
330
1E
100
AcDbEntity
  8
0
100
AcDbLine
 10
19.4124
 20
170.7374279999999
 30
0.0
 11
19.4124
 21
170.2374279999999
 31
0.0
  0
LINE
  5
FB
330
1E
100
AcDbEntity
  8
0
100
AcDbLine
 10
20.8266
 20
170.7374279999999
 30
0.0
 11
20.8266
 21
170.2374279999999
 31
0.0
  0
LINE
  5
FC
330
1E
100
AcDbEntity
  8
0
100
AcDbLine
 10
20.1195
 20
170.8504279999999
 30
0.0
 11
20.8266
 21
170.2374279999999
 31
0.0
  0
LINE
  5
FD
330
1E
100
AcDbEntity
  8
0
100
AcDbLine
 10
20.1195
 20
170.8504279999999
 30
0.0
 11
20.1195
 21
171.3504279999999
 31
0.0
  0
LINE
  5
FE
330
1E
100
AcDbEntity
  8
0
100
AcDbLine
 10
20.1195
 20
169.6254279999999
 30
0.0
 11
20.8266
 21
170.2374279999999
 31
0.0
  0
LINE
  5
FF
330
1E
100
AcDbEntity
  8
0
100
AcDbLine
 10
21.75479999999999
 20
162.479428
 30
0.0
 11
22.3636
 21
163.166428
 31
0.0
  0
LINE
  5
100
330
1E
100
AcDbEntity
  8
0
100
AcDbLine
 10
21.75479999999999
 20
162.479428
 30
0.0
 11
21.75479999999999
 21
161.979428
 31
0.0
  0
LINE
  5
101
330
1E
100
AcDbEntity
  8
0
100
AcDbLine
 10
21.75479999999999
 20
161.979428
 30
0.0
 11
22.3636
 21
162.6664279999999
 31
0.0
  0
LINE
  5
102
330
1E
100
AcDbEntity
  8
0
100
AcDbLine
 10
21.75479999999999
 20
161.979428
 30
0.0
 11
21.75479999999999
 21
162.479428
 31
0.0
  0
LINE
  5
103
330
1E
100
AcDbEntity
  8
0
100
AcDbLine
 10
21.75479999999999
 20
161.979428
 30
0.0
 11
22.5482
 21
161.4524279999999
 31
0.0
  0
LINE
  5
104
330
1E
100
AcDbEntity
  8
0
100
AcDbLine
 10
20.8266
 20
170.2374279999999
 30
0.0
 11
20.8266
 21
170.7374279999999
 31
0.0
  0
LINE
  5
105
330
1E
100
AcDbEntity
  8
0
100
AcDbLine
 10
20.1195
 20
171.3504279999999
 30
0.0
 11
20.1195
 21
170.8504279999999
 31
0.0
  0
LINE
  5
106
330
1E
100
AcDbEntity
  8
0
100
AcDbLine
 10
20.1195
 20
171.3504279999999
 30
0.0
 11
20.8266
 21
170.7374279999999
 31
0.0
  0
LINE
  5
107
330
1E
100
AcDbEntity
  8
0
100
AcDbLine
 10
19.4124
 20
170.2374279999999
 30
0.0
 11
20.1195
 21
170.8504279999999
 31
0.0
  0
LINE
  5
108
330
1E
100
AcDbEntity
  8
0
100
AcDbLine
 10
19.4124
 20
170.2374279999999
 30
0.0
 11
19.4124
 21
170.7374279999999
 31
0.0
  0
LINE
  5
109
330
1E
100
AcDbEntity
  8
0
100
AcDbLine
 10
19.4124
 20
170.2374279999999
 30
0.0
 11
20.1195
 21
169.6254279999999
 31
0.0
  0
LINE
  5
10A
330
1E
100
AcDbEntity
  8
0
100
AcDbLine
 10
22.0
 20
142.6954279999999
 30
0.0
 11
22.0
 21
142.195428
 31
0.0
  0
LINE
  5
10B
330
1E
100
AcDbEntity
  8
0
100
AcDbLine
 10
22.0
 20
142.6954279999999
 30
0.0
 11
23.0
 21
142.6954279999999
 31
0.0
  0
LINE
  5
10C
330
1E
100
AcDbEntity
  8
0
100
AcDbLine
 10
22.0
 20
142.6954279999999
 30
0.0
 11
22.0
 21
141.829428
 31
0.0
  0
LINE
  5
10D
330
1E
100
AcDbEntity
  8
0
100
AcDbLine
 10
22.3636
 20
162.6664279999999
 30
0.0
 11
23.15699999999999
 21
162.139428
 31
0.0
  0
LINE
  5
10E
330
1E
100
AcDbEntity
  8
0
100
AcDbLine
 10
22.3636
 20
162.6664279999999
 30
0.0
 11
22.3636
 21
163.166428
 31
0.0
  0
LINE
  5
10F
330
1E
100
AcDbEntity
  8
0
100
AcDbLine
 10
22.5482
 20
161.4524279999999
 30
0.0
 11
23.15699999999999
 21
162.139428
 31
0.0
  0
LINE
  5
110
330
1E
100
AcDbEntity
  8
0
100
AcDbLine
 10
22.3636
 20
163.166428
 30
0.0
 11
22.3636
 21
162.6664279999999
 31
0.0
  0
LINE
  5
111
330
1E
100
AcDbEntity
  8
0
100
AcDbLine
 10
22.3636
 20
163.166428
 30
0.0
 11
23.15699999999999
 21
162.639428
 31
0.0
  0
LINE
  5
112
330
1E
100
AcDbEntity
  8
0
100
AcDbLine
 10
22.92689999999999
 20
148.792428
 30
0.0
 11
23.1857
 21
149.6294279999999
 31
0.0
  0
LINE
  5
113
330
1E
100
AcDbEntity
  8
0
100
AcDbLine
 10
22.92689999999999
 20
148.792428
 30
0.0
 11
22.92689999999999
 21
148.2924279999999
 31
0.0
  0
LINE
  5
114
330
1E
100
AcDbEntity
  8
0
100
AcDbLine
 10
22.92689999999999
 20
148.2924279999999
 30
0.0
 11
22.92689999999999
 21
148.792428
 31
0.0
  0
LINE
  5
115
330
1E
100
AcDbEntity
  8
0
100
AcDbLine
 10
22.92689999999999
 20
148.2924279999999
 30
0.0
 11
23.1857
 21
149.1294279999999
 31
0.0
  0
LINE
  5
116
330
1E
100
AcDbEntity
  8
0
100
AcDbLine
 10
22.92689999999999
 20
148.2924279999999
 30
0.0
 11
23.8928
 21
148.068428
 31
0.0
  0
LINE
  5
117
330
1E
100
AcDbEntity
  8
0
100
AcDbLine
 10
23.1857
 20
149.1294279999999
 30
0.0
 11
24.1516
 21
148.9054279999999
 31
0.0
  0
LINE
  5
118
330
1E
100
AcDbEntity
  8
0
100
AcDbLine
 10
23.1857
 20
149.1294279999999
 30
0.0
 11
23.1857
 21
149.6294279999999
 31
0.0
  0
LINE
  5
119
330
1E
100
AcDbEntity
  8
0
100
AcDbLine
 10
24.1516
 20
149.405428
 30
0.0
 11
24.1516
 21
148.9054279999999
 31
0.0
  0
LINE
  5
11A
330
1E
100
AcDbEntity
  8
0
100
AcDbLine
 10
24.1516
 20
148.9054279999999
 30
0.0
 11
24.1516
 21
149.405428
 31
0.0
  0
LINE
  5
11B
330
1E
100
AcDbEntity
  8
0
100
AcDbLine
 10
23.8928
 20
148.068428
 30
0.0
 11
24.1516
 21
148.9054279999999
 31
0.0
  0
LINE
  5
11C
330
1E
100
AcDbEntity
  8
0
100
AcDbLine
 10
23.15699999999999
 20
162.639428
 30
0.0
 11
23.15699999999999
 21
162.139428
 31
0.0
  0
LINE
  5
11D
330
1E
100
AcDbEntity
  8
0
100
AcDbLine
 10
26.7692
 20
154.377428
 30
0.0
 11
27.2692
 21
155.127428
 31
0.0
  0
LINE
  5
11E
330
1E
100
AcDbEntity
  8
0
100
AcDbLine
 10
26.4032
 20
155.560428
 30
0.0
 11
27.2692
 21
155.127428
 31
0.0
  0
LINE
  5
11F
330
1E
100
AcDbEntity
  8
0
100
AcDbLine
 10
26.4032
 20
155.560428
 30
0.0
 11
26.4032
 21
156.0604279999999
 31
0.0
  0
LINE
  5
120
330
1E
100
AcDbEntity
  8
0
100
AcDbLine
 10
25.9032
 20
155.310428
 30
0.0
 11
26.4032
 21
156.0604279999999
 31
0.0
  0
LINE
  5
121
330
1E
100
AcDbEntity
  8
0
100
AcDbLine
 10
25.9032
 20
155.310428
 30
0.0
 11
25.9032
 21
154.8104279999999
 31
0.0
  0
LINE
  5
122
330
1E
100
AcDbEntity
  8
0
100
AcDbLine
 10
27.2692
 20
155.627428
 30
0.0
 11
27.2692
 21
155.127428
 31
0.0
  0
LINE
  5
123
330
1E
100
AcDbEntity
  8
0
100
AcDbLine
 10
27.2692
 20
155.127428
 30
0.0
 11
27.2692
 21
155.627428
 31
0.0
  0
LINE
  5
124
330
1E
100
AcDbEntity
  8
0
100
AcDbLine
 10
26.4032
 20
156.0604279999999
 30
0.0
 11
26.4032
 21
155.560428
 31
0.0
  0
LINE
  5
125
330
1E
100
AcDbEntity
  8
0
100
AcDbLine
 10
26.4032
 20
156.0604279999999
 30
0.0
 11
27.2692
 21
155.627428
 31
0.0
  0
LINE
  5
126
330
1E
100
AcDbEntity
  8
0
100
AcDbLine
 10
25.9032
 20
154.8104279999999
 30
0.0
 11
25.9032
 21
155.310428
 31
0.0
  0
LINE
  5
127
330
1E
100
AcDbEntity
  8
0
100
AcDbLine
 10
25.9032
 20
154.8104279999999
 30
0.0
 11
26.4032
 21
155.560428
 31
0.0
  0
LINE
  5
128
330
1E
100
AcDbEntity
  8
0
100
AcDbLine
 10
25.9032
 20
154.8104279999999
 30
0.0
 11
26.7692
 21
154.377428
 31
0.0
  0
LINE
  5
129
330
1E
100
AcDbEntity
  8
0
100
AcDbLine
 10
23.15699999999999
 20
162.139428
 30
0.0
 11
23.15699999999999
 21
162.639428
 31
0.0
  0
LINE
  5
12A
330
1E
100
AcDbEntity
  8
0
100
AcDbLine
 10
23.1857
 20
149.6294279999999
 30
0.0
 11
23.1857
 21
149.1294279999999
 31
0.0
  0
LINE
  5
12B
330
1E
100
AcDbEntity
  8
0
100
AcDbLine
 10
23.1857
 20
149.6294279999999
 30
0.0
 11
24.1516
 21
149.405428
 31
0.0
  0
LINE
  5
12C
330
1E
100
AcDbEntity
  8
0
100
AcDbLine
 10
23.0
 20
142.6954279999999
 30
0.0
 11
23.0
 21
142.195428
 31
0.0
  0
LINE
  5
12D
330
1E
100
AcDbEntity
  8
0
100
AcDbLine
 10
23.0
 20
142.195428
 30
0.0
 11
23.0
 21
142.6954279999999
 31
0.0
  0
LINE
  5
12E
330
1E
100
AcDbEntity
  8
0
100
AcDbLine
 10
23.0
 20
142.195428
 30
0.0
 11
23.0
 21
141.329428
 31
0.0
  0
LINE
  5
12F
330
1E
100
AcDbEntity
  8
0
100
AcDbLine
 10
22.0
 20
142.195428
 30
0.0
 11
22.0
 21
141.329428
 31
0.0
  0
LINE
  5
130
330
1E
100
AcDbEntity
  8
0
100
AcDbLine
 10
22.0
 20
142.195428
 30
0.0
 11
23.0
 21
142.195428
 31
0.0
  0
LINE
  5
131
330
1E
100
AcDbEntity
  8
0
100
AcDbLine
 10
22.0
 20
142.195428
 30
0.0
 11
22.0
 21
142.6954279999999
 31
0.0
  0
LINE
  5
132
330
1E
100
AcDbEntity
  8
0
100
AcDbLine
 10
22.0
 20
141.329428
 30
0.0
 11
22.0
 21
141.829428
 31
0.0
  0
LINE
  5
133
330
1E
100
AcDbEntity
  8
0
100
AcDbLine
 10
22.0
 20
141.329428
 30
0.0
 11
23.0
 21
141.329428
 31
0.0
  0
LINE
  5
134
330
1E
100
AcDbEntity
  8
0
100
AcDbLine
 10
22.0
 20
141.329428
 30
0.0
 11
22.0
 21
142.195428
 31
0.0
  0
LINE
  5
135
330
1E
100
AcDbEntity
  8
0
100
AcDbLine
 10
28.8616
 20
115.7304279999999
 30
0.0
 11
28.8616
 21
115.230428
 31
0.0
  0
LINE
  5
136
330
1E
100
AcDbEntity
  8
0
100
AcDbLine
 10
28.8616
 20
115.7304279999999
 30
0.0
 11
29.4704
 21
116.417428
 31
0.0
  0
LINE
  5
137
330
1E
100
AcDbEntity
  8
0
100
AcDbLine
 10
29.56699999999999
 20
107.978428
 30
0.0
 11
29.56699999999999
 21
107.478428
 31
0.0
  0
LINE
  5
138
330
1E
100
AcDbEntity
  8
0
100
AcDbLine
 10
29.56699999999999
 20
107.978428
 30
0.0
 11
30.433
 21
107.5454279999999
 31
0.0
  0
LINE
  5
139
330
1E
100
AcDbEntity
  8
0
100
AcDbLine
 10
29.56699999999999
 20
107.478428
 30
0.0
 11
29.56699999999999
 21
107.978428
 31
0.0
  0
LINE
  5
13A
330
1E
100
AcDbEntity
  8
0
100
AcDbLine
 10
29.56699999999999
 20
107.478428
 30
0.0
 11
30.433
 21
107.045428
 31
0.0
  0
LINE
  5
13B
330
1E
100
AcDbEntity
  8
0
100
AcDbLine
 10
29.06699999999999
 20
107.228428
 30
0.0
 11
29.06699999999999
 21
106.728428
 31
0.0
  0
LINE
  5
13C
330
1E
100
AcDbEntity
  8
0
100
AcDbLine
 10
29.06699999999999
 20
107.228428
 30
0.0
 11
29.56699999999999
 21
107.978428
 31
0.0
  0
LINE
  5
13D
330
1E
100
AcDbEntity
  8
0
100
AcDbLine
 10
29.06699999999999
 20
106.728428
 30
0.0
 11
29.06699999999999
 21
107.228428
 31
0.0
  0
LINE
  5
13E
330
1E
100
AcDbEntity
  8
0
100
AcDbLine
 10
29.06699999999999
 20
106.728428
 30
0.0
 11
29.933
 21
106.295428
 31
0.0
  0
LINE
  5
13F
330
1E
100
AcDbEntity
  8
0
100
AcDbLine
 10
29.06699999999999
 20
106.728428
 30
0.0
 11
29.56699999999999
 21
107.478428
 31
0.0
  0
LINE
  5
140
330
1E
100
AcDbEntity
  8
0
100
AcDbLine
 10
29.933
 20
106.295428
 30
0.0
 11
30.433
 21
107.045428
 31
0.0
  0
LINE
  5
141
330
1E
100
AcDbEntity
  8
0
100
AcDbLine
 10
29.655
 20
114.7034279999999
 30
0.0
 11
30.2637
 21
115.390428
 31
0.0
  0
LINE
  5
142
330
1E
100
AcDbEntity
  8
0
100
AcDbLine
 10
29.4704
 20
116.417428
 30
0.0
 11
29.4704
 21
115.917428
 31
0.0
  0
LINE
  5
143
330
1E
100
AcDbEntity
  8
0
100
AcDbLine
 10
29.4704
 20
116.417428
 30
0.0
 11
30.2637
 21
115.890428
 31
0.0
  0
LINE
  5
144
330
1E
100
AcDbEntity
  8
0
100
AcDbLine
 10
29.4704
 20
115.917428
 30
0.0
 11
29.4704
 21
116.417428
 31
0.0
  0
LINE
  5
145
330
1E
100
AcDbEntity
  8
0
100
AcDbLine
 10
29.4704
 20
115.917428
 30
0.0
 11
30.2637
 21
115.390428
 31
0.0
  0
LINE
  5
146
330
1E
100
AcDbEntity
  8
0
100
AcDbLine
 10
28.8616
 20
115.230428
 30
0.0
 11
28.8616
 21
115.7304279999999
 31
0.0
  0
LINE
  5
147
330
1E
100
AcDbEntity
  8
0
100
AcDbLine
 10
28.8616
 20
115.230428
 30
0.0
 11
29.655
 21
114.7034279999999
 31
0.0
  0
LINE
  5
148
330
1E
100
AcDbEntity
  8
0
100
AcDbLine
 10
28.8616
 20
115.230428
 30
0.0
 11
29.4704
 21
115.917428
 31
0.0
  0
LINE
  5
149
330
1E
100
AcDbEntity
  8
0
100
AcDbLine
 10
30.13149999999999
 20
140.091428
 30
0.0
 11
30.13149999999999
 21
139.591428
 31
0.0
  0
LINE
  5
14A
330
1E
100
AcDbEntity
  8
0
100
AcDbLine
 10
30.13149999999999
 20
140.091428
 30
0.0
 11
31.1229
 21
140.204428
 31
0.0
  0
LINE
  5
14B
330
1E
100
AcDbEntity
  8
0
100
AcDbLine
 10
30.13149999999999
 20
139.591428
 30
0.0
 11
30.26199999999999
 21
138.733428
 31
0.0
  0
LINE
  5
14C
330
1E
100
AcDbEntity
  8
0
100
AcDbLine
 10
30.13149999999999
 20
139.591428
 30
0.0
 11
30.13149999999999
 21
140.091428
 31
0.0
  0
LINE
  5
14D
330
1E
100
AcDbEntity
  8
0
100
AcDbLine
 10
30.13149999999999
 20
139.591428
 30
0.0
 11
31.1229
 21
139.704428
 31
0.0
  0
LINE
  5
14E
330
1E
100
AcDbEntity
  8
0
100
AcDbLine
 10
28.8616
 20
168.794428
 30
0.0
 11
29.655
 21
169.321428
 31
0.0
  0
LINE
  5
14F
330
1E
100
AcDbEntity
  8
0
100
AcDbLine
 10
28.8616
 20
168.794428
 30
0.0
 11
28.8616
 21
168.294428
 31
0.0
  0
LINE
  5
150
330
1E
100
AcDbEntity
  8
0
100
AcDbLine
 10
29.655
 20
168.8214279999999
 30
0.0
 11
30.2637
 21
168.134428
 31
0.0
  0
LINE
  5
151
330
1E
100
AcDbEntity
  8
0
100
AcDbLine
 10
29.655
 20
168.8214279999999
 30
0.0
 11
29.655
 21
169.321428
 31
0.0
  0
LINE
  5
152
330
1E
100
AcDbEntity
  8
0
100
AcDbLine
 10
29.4704
 20
167.6074279999999
 30
0.0
 11
30.2637
 21
168.134428
 31
0.0
  0
LINE
  5
153
330
1E
100
AcDbEntity
  8
0
100
AcDbLine
 10
29.655
 20
169.321428
 30
0.0
 11
29.655
 21
168.8214279999999
 31
0.0
  0
LINE
  5
154
330
1E
100
AcDbEntity
  8
0
100
AcDbLine
 10
29.655
 20
169.321428
 30
0.0
 11
30.2637
 21
168.634428
 31
0.0
  0
LINE
  5
155
330
1E
100
AcDbEntity
  8
0
100
AcDbLine
 10
28.8616
 20
168.294428
 30
0.0
 11
29.655
 21
168.8214279999999
 31
0.0
  0
LINE
  5
156
330
1E
100
AcDbEntity
  8
0
100
AcDbLine
 10
28.8616
 20
168.294428
 30
0.0
 11
28.8616
 21
168.794428
 31
0.0
  0
LINE
  5
157
330
1E
100
AcDbEntity
  8
0
100
AcDbLine
 10
28.8616
 20
168.294428
 30
0.0
 11
29.4704
 21
167.6074279999999
 31
0.0
  0
LINE
  5
158
330
1E
100
AcDbEntity
  8
0
100
AcDbLine
 10
30.13149999999999
 20
144.4334279999999
 30
0.0
 11
30.26199999999999
 21
145.2914279999999
 31
0.0
  0
LINE
  5
159
330
1E
100
AcDbEntity
  8
0
100
AcDbLine
 10
30.13149999999999
 20
144.4334279999999
 30
0.0
 11
30.13149999999999
 21
143.9334279999999
 31
0.0
  0
LINE
  5
15A
330
1E
100
AcDbEntity
  8
0
100
AcDbLine
 10
30.26199999999999
 20
138.733428
 30
0.0
 11
31.2535
 21
138.8464279999999
 31
0.0
  0
LINE
  5
15B
330
1E
100
AcDbEntity
  8
0
100
AcDbLine
 10
30.433
 20
107.5454279999999
 30
0.0
 11
30.433
 21
107.045428
 31
0.0
  0
LINE
  5
15C
330
1E
100
AcDbEntity
  8
0
100
AcDbLine
 10
30.433
 20
107.045428
 30
0.0
 11
30.433
 21
107.5454279999999
 31
0.0
  0
LINE
  5
15D
330
1E
100
AcDbEntity
  8
0
100
AcDbLine
 10
30.2637
 20
115.890428
 30
0.0
 11
30.2637
 21
115.390428
 31
0.0
  0
LINE
  5
15E
330
1E
100
AcDbEntity
  8
0
100
AcDbLine
 10
30.2637
 20
115.390428
 30
0.0
 11
30.2637
 21
115.890428
 31
0.0
  0
LINE
  5
15F
330
1E
100
AcDbEntity
  8
0
100
AcDbLine
 10
30.26199999999999
 20
144.7914279999999
 30
0.0
 11
31.2535
 21
144.6784279999999
 31
0.0
  0
LINE
  5
160
330
1E
100
AcDbEntity
  8
0
100
AcDbLine
 10
30.26199999999999
 20
144.7914279999999
 30
0.0
 11
30.26199999999999
 21
145.2914279999999
 31
0.0
  0
LINE
  5
161
330
1E
100
AcDbEntity
  8
0
100
AcDbLine
 10
30.2637
 20
168.634428
 30
0.0
 11
30.2637
 21
168.134428
 31
0.0
  0
LINE
  5
162
330
1E
100
AcDbEntity
  8
0
100
AcDbLine
 10
30.2637
 20
168.134428
 30
0.0
 11
30.2637
 21
168.634428
 31
0.0
  0
LINE
  5
163
330
1E
100
AcDbEntity
  8
0
100
AcDbLine
 10
30.26199999999999
 20
145.2914279999999
 30
0.0
 11
30.26199999999999
 21
144.7914279999999
 31
0.0
  0
LINE
  5
164
330
1E
100
AcDbEntity
  8
0
100
AcDbLine
 10
30.26199999999999
 20
145.2914279999999
 30
0.0
 11
31.2535
 21
145.178428
 31
0.0
  0
LINE
  5
165
330
1E
100
AcDbEntity
  8
0
100
AcDbLine
 10
30.13149999999999
 20
143.9334279999999
 30
0.0
 11
30.13149999999999
 21
144.4334279999999
 31
0.0
  0
LINE
  5
166
330
1E
100
AcDbEntity
  8
0
100
AcDbLine
 10
30.13149999999999
 20
143.9334279999999
 30
0.0
 11
30.26199999999999
 21
144.7914279999999
 31
0.0
  0
LINE
  5
167
330
1E
100
AcDbEntity
  8
0
100
AcDbLine
 10
30.13149999999999
 20
143.9334279999999
 30
0.0
 11
31.1229
 21
143.8204279999999
 31
0.0
  0
LINE
  5
168
330
1E
100
AcDbEntity
  8
0
100
AcDbLine
 10
29.56699999999999
 20
176.045428
 30
0.0
 11
30.433
 21
176.478428
 31
0.0
  0
LINE
  5
169
330
1E
100
AcDbEntity
  8
0
100
AcDbLine
 10
30.7261
 20
123.585428
 30
0.0
 11
30.7261
 21
123.085428
 31
0.0
  0
LINE
  5
16A
330
1E
100
AcDbEntity
  8
0
100
AcDbLine
 10
30.7261
 20
123.585428
 30
0.0
 11
31.4332
 21
124.1974279999999
 31
0.0
  0
LINE
  5
16B
330
1E
100
AcDbEntity
  8
0
100
AcDbLine
 10
30.7261
 20
123.085428
 30
0.0
 11
30.7261
 21
123.585428
 31
0.0
  0
LINE
  5
16C
330
1E
100
AcDbEntity
  8
0
100
AcDbLine
 10
30.7261
 20
123.085428
 30
0.0
 11
31.4332
 21
122.4724279999999
 31
0.0
  0
LINE
  5
16D
330
1E
100
AcDbEntity
  8
0
100
AcDbLine
 10
30.7261
 20
123.085428
 30
0.0
 11
31.4332
 21
123.697428
 31
0.0
  0
LINE
  5
16E
330
1E
100
AcDbEntity
  8
0
100
AcDbLine
 10
31.1229
 20
140.204428
 30
0.0
 11
31.1229
 21
139.704428
 31
0.0
  0
LINE
  5
16F
330
1E
100
AcDbEntity
  8
0
100
AcDbLine
 10
31.1229
 20
140.204428
 30
0.0
 11
31.2535
 21
139.346428
 31
0.0
  0
LINE
  5
170
330
1E
100
AcDbEntity
  8
0
100
AcDbLine
 10
31.1229
 20
139.704428
 30
0.0
 11
31.1229
 21
140.204428
 31
0.0
  0
LINE
  5
171
330
1E
100
AcDbEntity
  8
0
100
AcDbLine
 10
31.1229
 20
139.704428
 30
0.0
 11
31.2535
 21
138.8464279999999
 31
0.0
  0
LINE
  5
172
330
1E
100
AcDbEntity
  8
0
100
AcDbLine
 10
31.4332
 20
122.4724279999999
 30
0.0
 11
32.1404
 21
123.085428
 31
0.0
  0
LINE
  5
173
330
1E
100
AcDbEntity
  8
0
100
AcDbLine
 10
31.4332
 20
124.1974279999999
 30
0.0
 11
31.4332
 21
123.697428
 31
0.0
  0
LINE
  5
174
330
1E
100
AcDbEntity
  8
0
100
AcDbLine
 10
31.4332
 20
124.1974279999999
 30
0.0
 11
32.1404
 21
123.585428
 31
0.0
  0
LINE
  5
175
330
1E
100
AcDbEntity
  8
0
100
AcDbLine
 10
31.4332
 20
123.697428
 30
0.0
 11
31.4332
 21
124.1974279999999
 31
0.0
  0
LINE
  5
176
330
1E
100
AcDbEntity
  8
0
100
AcDbLine
 10
31.4332
 20
123.697428
 30
0.0
 11
32.1404
 21
123.085428
 31
0.0
  0
LINE
  5
177
330
1E
100
AcDbEntity
  8
0
100
AcDbLine
 10
31.5594
 20
135.040428
 30
0.0
 11
31.5594
 21
134.5404279999999
 31
0.0
  0
LINE
  5
178
330
1E
100
AcDbEntity
  8
0
100
AcDbLine
 10
31.5594
 20
135.040428
 30
0.0
 11
32.4833
 21
135.371428
 31
0.0
  0
LINE
  5
179
330
1E
100
AcDbEntity
  8
0
100
AcDbLine
 10
32.1404
 20
123.585428
 30
0.0
 11
32.1404
 21
123.085428
 31
0.0
  0
LINE
  5
17A
330
1E
100
AcDbEntity
  8
0
100
AcDbLine
 10
32.1404
 20
123.085428
 30
0.0
 11
32.1404
 21
123.585428
 31
0.0
  0
LINE
  5
17B
330
1E
100
AcDbEntity
  8
0
100
AcDbLine
 10
32.86599999999999
 20
134.5714279999999
 30
0.0
 11
32.86599999999999
 21
134.071428
 31
0.0
  0
LINE
  5
17C
330
1E
100
AcDbEntity
  8
0
100
AcDbLine
 10
31.94209999999999
 20
133.739428
 30
0.0
 11
32.86599999999999
 21
134.071428
 31
0.0
  0
LINE
  5
17D
330
1E
100
AcDbEntity
  8
0
100
AcDbLine
 10
35.05729999999999
 20
129.293428
 30
0.0
 11
35.8506
 21
129.8204279999999
 31
0.0
  0
LINE
  5
17E
330
1E
100
AcDbEntity
  8
0
100
AcDbLine
 10
37.567
 20
119.978428
 30
0.0
 11
37.567
 21
119.478428
 31
0.0
  0
LINE
  5
17F
330
1E
100
AcDbEntity
  8
0
100
AcDbLine
 10
37.567
 20
119.978428
 30
0.0
 11
38.433
 21
119.545428
 31
0.0
  0
LINE
  5
180
330
1E
100
AcDbEntity
  8
0
100
AcDbLine
 10
37.567
 20
119.478428
 30
0.0
 11
37.567
 21
119.978428
 31
0.0
  0
LINE
  5
181
330
1E
100
AcDbEntity
  8
0
100
AcDbLine
 10
37.567
 20
119.478428
 30
0.0
 11
38.433
 21
119.0454279999999
 31
0.0
  0
LINE
  5
182
330
1E
100
AcDbEntity
  8
0
100
AcDbLine
 10
37.067
 20
119.228428
 30
0.0
 11
37.067
 21
118.728428
 31
0.0
  0
LINE
  5
183
330
1E
100
AcDbEntity
  8
0
100
AcDbLine
 10
37.067
 20
119.228428
 30
0.0
 11
37.567
 21
119.978428
 31
0.0
  0
LINE
  5
184
330
1E
100
AcDbEntity
  8
0
100
AcDbLine
 10
37.067
 20
118.728428
 30
0.0
 11
37.067
 21
119.228428
 31
0.0
  0
LINE
  5
185
330
1E
100
AcDbEntity
  8
0
100
AcDbLine
 10
37.067
 20
118.728428
 30
0.0
 11
37.933
 21
118.295428
 31
0.0
  0
LINE
  5
186
330
1E
100
AcDbEntity
  8
0
100
AcDbLine
 10
37.067
 20
118.728428
 30
0.0
 11
37.567
 21
119.478428
 31
0.0
  0
LINE
  5
187
330
1E
100
AcDbEntity
  8
0
100
AcDbLine
 10
37.933
 20
118.295428
 30
0.0
 11
38.433
 21
119.0454279999999
 31
0.0
  0
LINE
  5
188
330
1E
100
AcDbEntity
  8
0
100
AcDbLine
 10
37.99609999999999
 20
112.024428
 30
0.0
 11
37.99609999999999
 21
111.5244279999999
 31
0.0
  0
LINE
  5
189
330
1E
100
AcDbEntity
  8
0
100
AcDbLine
 10
37.99609999999999
 20
112.024428
 30
0.0
 11
38.92
 21
111.692428
 31
0.0
  0
LINE
  5
18A
330
1E
100
AcDbEntity
  8
0
100
AcDbLine
 10
37.99609999999999
 20
111.5244279999999
 30
0.0
 11
37.99609999999999
 21
112.024428
 31
0.0
  0
LINE
  5
18B
330
1E
100
AcDbEntity
  8
0
100
AcDbLine
 10
37.99609999999999
 20
111.5244279999999
 30
0.0
 11
38.92
 21
111.1924279999999
 31
0.0
  0
LINE
  5
18C
330
1E
100
AcDbEntity
  8
0
100
AcDbLine
 10
37.6134
 20
111.224428
 30
0.0
 11
37.6134
 21
110.7244279999999
 31
0.0
  0
LINE
  5
18D
330
1E
100
AcDbEntity
  8
0
100
AcDbLine
 10
37.6134
 20
111.224428
 30
0.0
 11
37.99609999999999
 21
112.024428
 31
0.0
  0
LINE
  5
18E
330
1E
100
AcDbEntity
  8
0
100
AcDbLine
 10
37.6134
 20
110.7244279999999
 30
0.0
 11
37.6134
 21
111.224428
 31
0.0
  0
LINE
  5
18F
330
1E
100
AcDbEntity
  8
0
100
AcDbLine
 10
37.6134
 20
110.7244279999999
 30
0.0
 11
38.5373
 21
110.392428
 31
0.0
  0
LINE
  5
190
330
1E
100
AcDbEntity
  8
0
100
AcDbLine
 10
37.6134
 20
110.7244279999999
 30
0.0
 11
37.99609999999999
 21
111.5244279999999
 31
0.0
  0
LINE
  5
191
330
1E
100
AcDbEntity
  8
0
100
AcDbLine
 10
35.8506
 20
129.8204279999999
 30
0.0
 11
35.8506
 21
130.3204279999999
 31
0.0
  0
LINE
  5
192
330
1E
100
AcDbEntity
  8
0
100
AcDbLine
 10
35.24179999999999
 20
131.007428
 30
0.0
 11
35.24179999999999
 21
130.507428
 31
0.0
  0
LINE
  5
193
330
1E
100
AcDbEntity
  8
0
100
AcDbLine
 10
35.24179999999999
 20
131.007428
 30
0.0
 11
35.8506
 21
130.3204279999999
 31
0.0
  0
LINE
  5
194
330
1E
100
AcDbEntity
  8
0
100
AcDbLine
 10
34.4485
 20
130.4804279999999
 30
0.0
 11
34.4485
 21
129.9804279999999
 31
0.0
  0
LINE
  5
195
330
1E
100
AcDbEntity
  8
0
100
AcDbLine
 10
34.4485
 20
130.4804279999999
 30
0.0
 11
35.24179999999999
 21
131.007428
 31
0.0
  0
LINE
  5
196
330
1E
100
AcDbEntity
  8
0
100
AcDbLine
 10
35.8506
 20
130.3204279999999
 30
0.0
 11
35.8506
 21
129.8204279999999
 31
0.0
  0
LINE
  5
197
330
1E
100
AcDbEntity
  8
0
100
AcDbLine
 10
35.24179999999999
 20
130.507428
 30
0.0
 11
35.24179999999999
 21
131.007428
 31
0.0
  0
LINE
  5
198
330
1E
100
AcDbEntity
  8
0
100
AcDbLine
 10
35.24179999999999
 20
130.507428
 30
0.0
 11
35.8506
 21
129.8204279999999
 31
0.0
  0
LINE
  5
199
330
1E
100
AcDbEntity
  8
0
100
AcDbLine
 10
34.4485
 20
129.9804279999999
 30
0.0
 11
34.4485
 21
130.4804279999999
 31
0.0
  0
LINE
  5
19A
330
1E
100
AcDbEntity
  8
0
100
AcDbLine
 10
34.4485
 20
129.9804279999999
 30
0.0
 11
35.05729999999999
 21
129.293428
 31
0.0
  0
LINE
  5
19B
330
1E
100
AcDbEntity
  8
0
100
AcDbLine
 10
34.4485
 20
129.9804279999999
 30
0.0
 11
35.24179999999999
 21
130.507428
 31
0.0
  0
LINE
  5
19C
330
1E
100
AcDbEntity
  8
0
100
AcDbLine
 10
32.86599999999999
 20
134.071428
 30
0.0
 11
32.86599999999999
 21
134.5714279999999
 31
0.0
  0
LINE
  5
19D
330
1E
100
AcDbEntity
  8
0
100
AcDbLine
 10
32.4833
 20
135.371428
 30
0.0
 11
32.4833
 21
134.871428
 31
0.0
  0
LINE
  5
19E
330
1E
100
AcDbEntity
  8
0
100
AcDbLine
 10
32.4833
 20
135.371428
 30
0.0
 11
32.86599999999999
 21
134.5714279999999
 31
0.0
  0
LINE
  5
19F
330
1E
100
AcDbEntity
  8
0
100
AcDbLine
 10
32.4833
 20
134.871428
 30
0.0
 11
32.4833
 21
135.371428
 31
0.0
  0
LINE
  5
1A0
330
1E
100
AcDbEntity
  8
0
100
AcDbLine
 10
32.4833
 20
134.871428
 30
0.0
 11
32.86599999999999
 21
134.071428
 31
0.0
  0
LINE
  5
1A1
330
1E
100
AcDbEntity
  8
0
100
AcDbLine
 10
31.5594
 20
134.5404279999999
 30
0.0
 11
31.94209999999999
 21
133.739428
 31
0.0
  0
LINE
  5
1A2
330
1E
100
AcDbEntity
  8
0
100
AcDbLine
 10
31.5594
 20
134.5404279999999
 30
0.0
 11
31.5594
 21
135.040428
 31
0.0
  0
LINE
  5
1A3
330
1E
100
AcDbEntity
  8
0
100
AcDbLine
 10
31.5594
 20
134.5404279999999
 30
0.0
 11
32.4833
 21
134.871428
 31
0.0
  0
LINE
  5
1A4
330
1E
100
AcDbEntity
  8
0
100
AcDbLine
 10
31.2535
 20
139.346428
 30
0.0
 11
31.2535
 21
138.8464279999999
 31
0.0
  0
LINE
  5
1A5
330
1E
100
AcDbEntity
  8
0
100
AcDbLine
 10
31.2535
 20
138.8464279999999
 30
0.0
 11
31.2535
 21
139.346428
 31
0.0
  0
LINE
  5
1A6
330
1E
100
AcDbEntity
  8
0
100
AcDbLine
 10
38.0
 20
141.829428
 30
0.0
 11
38.0
 21
142.6954279999999
 31
0.0
  0
LINE
  5
1A7
330
1E
100
AcDbEntity
  8
0
100
AcDbLine
 10
38.0
 20
141.829428
 30
0.0
 11
38.0
 21
141.329428
 31
0.0
  0
LINE
  5
1A8
330
1E
100
AcDbEntity
  8
0
100
AcDbLine
 10
38.0
 20
142.6954279999999
 30
0.0
 11
38.0
 21
142.195428
 31
0.0
  0
LINE
  5
1A9
330
1E
100
AcDbEntity
  8
0
100
AcDbLine
 10
38.0
 20
142.6954279999999
 30
0.0
 11
39.0
 21
142.6954279999999
 31
0.0
  0
LINE
  5
1AA
330
1E
100
AcDbEntity
  8
0
100
AcDbLine
 10
38.0
 20
142.6954279999999
 30
0.0
 11
38.0
 21
141.829428
 31
0.0
  0
LINE
  5
1AB
330
1E
100
AcDbEntity
  8
0
100
AcDbLine
 10
38.0
 20
142.195428
 30
0.0
 11
38.0
 21
141.329428
 31
0.0
  0
LINE
  5
1AC
330
1E
100
AcDbEntity
  8
0
100
AcDbLine
 10
38.0
 20
142.195428
 30
0.0
 11
39.0
 21
142.195428
 31
0.0
  0
LINE
  5
1AD
330
1E
100
AcDbEntity
  8
0
100
AcDbLine
 10
38.0
 20
142.195428
 30
0.0
 11
38.0
 21
142.6954279999999
 31
0.0
  0
LINE
  5
1AE
330
1E
100
AcDbEntity
  8
0
100
AcDbLine
 10
38.3817
 20
139.318428
 30
0.0
 11
38.3817
 21
138.818428
 31
0.0
  0
LINE
  5
1AF
330
1E
100
AcDbEntity
  8
0
100
AcDbLine
 10
38.3817
 20
139.318428
 30
0.0
 11
39.3476
 21
139.542428
 31
0.0
  0
LINE
  5
1B0
330
1E
100
AcDbEntity
  8
0
100
AcDbLine
 10
38.3817
 20
138.818428
 30
0.0
 11
38.6405
 21
137.982428
 31
0.0
  0
LINE
  5
1B1
330
1E
100
AcDbEntity
  8
0
100
AcDbLine
 10
38.3817
 20
138.818428
 30
0.0
 11
38.3817
 21
139.318428
 31
0.0
  0
LINE
  5
1B2
330
1E
100
AcDbEntity
  8
0
100
AcDbLine
 10
38.3817
 20
138.818428
 30
0.0
 11
39.3476
 21
139.0424279999999
 31
0.0
  0
LINE
  5
1B3
330
1E
100
AcDbEntity
  8
0
100
AcDbLine
 10
38.0
 20
141.329428
 30
0.0
 11
38.0
 21
141.829428
 31
0.0
  0
LINE
  5
1B4
330
1E
100
AcDbEntity
  8
0
100
AcDbLine
 10
38.0
 20
141.329428
 30
0.0
 11
39.0
 21
141.329428
 31
0.0
  0
LINE
  5
1B5
330
1E
100
AcDbEntity
  8
0
100
AcDbLine
 10
38.0
 20
141.329428
 30
0.0
 11
38.0
 21
142.195428
 31
0.0
  0
LINE
  5
1B6
330
1E
100
AcDbEntity
  8
0
100
AcDbLine
 10
31.2535
 20
145.178428
 30
0.0
 11
31.2535
 21
144.6784279999999
 31
0.0
  0
LINE
  5
1B7
330
1E
100
AcDbEntity
  8
0
100
AcDbLine
 10
31.2535
 20
144.6784279999999
 30
0.0
 11
31.2535
 21
145.178428
 31
0.0
  0
LINE
  5
1B8
330
1E
100
AcDbEntity
  8
0
100
AcDbLine
 10
31.1229
 20
143.8204279999999
 30
0.0
 11
31.2535
 21
144.6784279999999
 31
0.0
  0
LINE
  5
1B9
330
1E
100
AcDbEntity
  8
0
100
AcDbLine
 10
30.7261
 20
160.939428
 30
0.0
 11
31.4332
 21
161.5524279999999
 31
0.0
  0
LINE
  5
1BA
330
1E
100
AcDbEntity
  8
0
100
AcDbLine
 10
30.7261
 20
160.939428
 30
0.0
 11
30.7261
 21
160.4394279999999
 31
0.0
  0
LINE
  5
1BB
330
1E
100
AcDbEntity
  8
0
100
AcDbLine
 10
31.4332
 20
161.0524279999999
 30
0.0
 11
32.1404
 21
160.4394279999999
 31
0.0
  0
LINE
  5
1BC
330
1E
100
AcDbEntity
  8
0
100
AcDbLine
 10
31.4332
 20
161.0524279999999
 30
0.0
 11
31.4332
 21
161.5524279999999
 31
0.0
  0
LINE
  5
1BD
330
1E
100
AcDbEntity
  8
0
100
AcDbLine
 10
31.4332
 20
159.827428
 30
0.0
 11
32.1404
 21
160.4394279999999
 31
0.0
  0
LINE
  5
1BE
330
1E
100
AcDbEntity
  8
0
100
AcDbLine
 10
31.4332
 20
161.5524279999999
 30
0.0
 11
31.4332
 21
161.0524279999999
 31
0.0
  0
LINE
  5
1BF
330
1E
100
AcDbEntity
  8
0
100
AcDbLine
 10
31.4332
 20
161.5524279999999
 30
0.0
 11
32.1404
 21
160.939428
 31
0.0
  0
LINE
  5
1C0
330
1E
100
AcDbEntity
  8
0
100
AcDbLine
 10
30.7261
 20
160.4394279999999
 30
0.0
 11
31.4332
 21
161.0524279999999
 31
0.0
  0
LINE
  5
1C1
330
1E
100
AcDbEntity
  8
0
100
AcDbLine
 10
30.7261
 20
160.4394279999999
 30
0.0
 11
30.7261
 21
160.939428
 31
0.0
  0
LINE
  5
1C2
330
1E
100
AcDbEntity
  8
0
100
AcDbLine
 10
30.7261
 20
160.4394279999999
 30
0.0
 11
31.4332
 21
159.827428
 31
0.0
  0
LINE
  5
1C3
330
1E
100
AcDbEntity
  8
0
100
AcDbLine
 10
31.5594
 20
149.484428
 30
0.0
 11
31.94209999999999
 21
150.285428
 31
0.0
  0
LINE
  5
1C4
330
1E
100
AcDbEntity
  8
0
100
AcDbLine
 10
31.5594
 20
149.484428
 30
0.0
 11
31.5594
 21
148.9844279999999
 31
0.0
  0
LINE
  5
1C5
330
1E
100
AcDbEntity
  8
0
100
AcDbLine
 10
31.94209999999999
 20
149.785428
 30
0.0
 11
32.86599999999999
 21
149.453428
 31
0.0
  0
LINE
  5
1C6
330
1E
100
AcDbEntity
  8
0
100
AcDbLine
 10
31.94209999999999
 20
149.785428
 30
0.0
 11
31.94209999999999
 21
150.285428
 31
0.0
  0
LINE
  5
1C7
330
1E
100
AcDbEntity
  8
0
100
AcDbLine
 10
32.86599999999999
 20
149.9534279999999
 30
0.0
 11
32.86599999999999
 21
149.453428
 31
0.0
  0
LINE
  5
1C8
330
1E
100
AcDbEntity
  8
0
100
AcDbLine
 10
32.86599999999999
 20
149.453428
 30
0.0
 11
32.86599999999999
 21
149.9534279999999
 31
0.0
  0
LINE
  5
1C9
330
1E
100
AcDbEntity
  8
0
100
AcDbLine
 10
32.4833
 20
148.6534279999999
 30
0.0
 11
32.86599999999999
 21
149.453428
 31
0.0
  0
LINE
  5
1CA
330
1E
100
AcDbEntity
  8
0
100
AcDbLine
 10
32.1404
 20
160.939428
 30
0.0
 11
32.1404
 21
160.4394279999999
 31
0.0
  0
LINE
  5
1CB
330
1E
100
AcDbEntity
  8
0
100
AcDbLine
 10
35.24179999999999
 20
153.0174279999999
 30
0.0
 11
35.8506
 21
153.704428
 31
0.0
  0
LINE
  5
1CC
330
1E
100
AcDbEntity
  8
0
100
AcDbLine
 10
35.05729999999999
 20
154.231428
 30
0.0
 11
35.8506
 21
153.704428
 31
0.0
  0
LINE
  5
1CD
330
1E
100
AcDbEntity
  8
0
100
AcDbLine
 10
35.05729999999999
 20
154.231428
 30
0.0
 11
35.05729999999999
 21
154.7314279999999
 31
0.0
  0
LINE
  5
1CE
330
1E
100
AcDbEntity
  8
0
100
AcDbLine
 10
34.4485
 20
154.044428
 30
0.0
 11
35.05729999999999
 21
154.7314279999999
 31
0.0
  0
LINE
  5
1CF
330
1E
100
AcDbEntity
  8
0
100
AcDbLine
 10
34.4485
 20
154.044428
 30
0.0
 11
34.4485
 21
153.544428
 31
0.0
  0
LINE
  5
1D0
330
1E
100
AcDbEntity
  8
0
100
AcDbLine
 10
35.8506
 20
154.204428
 30
0.0
 11
35.8506
 21
153.704428
 31
0.0
  0
LINE
  5
1D1
330
1E
100
AcDbEntity
  8
0
100
AcDbLine
 10
35.8506
 20
153.704428
 30
0.0
 11
35.8506
 21
154.204428
 31
0.0
  0
LINE
  5
1D2
330
1E
100
AcDbEntity
  8
0
100
AcDbLine
 10
35.05729999999999
 20
154.7314279999999
 30
0.0
 11
35.05729999999999
 21
154.231428
 31
0.0
  0
LINE
  5
1D3
330
1E
100
AcDbEntity
  8
0
100
AcDbLine
 10
35.05729999999999
 20
154.7314279999999
 30
0.0
 11
35.8506
 21
154.204428
 31
0.0
  0
LINE
  5
1D4
330
1E
100
AcDbEntity
  8
0
100
AcDbLine
 10
34.4485
 20
153.544428
 30
0.0
 11
35.05729999999999
 21
154.231428
 31
0.0
  0
LINE
  5
1D5
330
1E
100
AcDbEntity
  8
0
100
AcDbLine
 10
34.4485
 20
153.544428
 30
0.0
 11
34.4485
 21
154.044428
 31
0.0
  0
LINE
  5
1D6
330
1E
100
AcDbEntity
  8
0
100
AcDbLine
 10
34.4485
 20
153.544428
 30
0.0
 11
35.24179999999999
 21
153.0174279999999
 31
0.0
  0
LINE
  5
1D7
330
1E
100
AcDbEntity
  8
0
100
AcDbLine
 10
32.1404
 20
160.4394279999999
 30
0.0
 11
32.1404
 21
160.939428
 31
0.0
  0
LINE
  5
1D8
330
1E
100
AcDbEntity
  8
0
100
AcDbLine
 10
31.94209999999999
 20
150.285428
 30
0.0
 11
31.94209999999999
 21
149.785428
 31
0.0
  0
LINE
  5
1D9
330
1E
100
AcDbEntity
  8
0
100
AcDbLine
 10
31.94209999999999
 20
150.285428
 30
0.0
 11
32.86599999999999
 21
149.9534279999999
 31
0.0
  0
LINE
  5
1DA
330
1E
100
AcDbEntity
  8
0
100
AcDbLine
 10
31.5594
 20
148.9844279999999
 30
0.0
 11
31.5594
 21
149.484428
 31
0.0
  0
LINE
  5
1DB
330
1E
100
AcDbEntity
  8
0
100
AcDbLine
 10
31.5594
 20
148.9844279999999
 30
0.0
 11
31.94209999999999
 21
149.785428
 31
0.0
  0
LINE
  5
1DC
330
1E
100
AcDbEntity
  8
0
100
AcDbLine
 10
31.5594
 20
148.9844279999999
 30
0.0
 11
32.4833
 21
148.6534279999999
 31
0.0
  0
LINE
  5
1DD
330
1E
100
AcDbEntity
  8
0
100
AcDbLine
 10
38.3817
 20
145.206428
 30
0.0
 11
38.6405
 21
146.0424279999999
 31
0.0
  0
LINE
  5
1DE
330
1E
100
AcDbEntity
  8
0
100
AcDbLine
 10
38.3817
 20
145.206428
 30
0.0
 11
38.3817
 21
144.706428
 31
0.0
  0
LINE
  5
1DF
330
1E
100
AcDbEntity
  8
0
100
AcDbLine
 10
38.433
 20
119.545428
 30
0.0
 11
38.433
 21
119.0454279999999
 31
0.0
  0
LINE
  5
1E0
330
1E
100
AcDbEntity
  8
0
100
AcDbLine
 10
38.433
 20
119.0454279999999
 30
0.0
 11
38.433
 21
119.545428
 31
0.0
  0
LINE
  5
1E1
330
1E
100
AcDbEntity
  8
0
100
AcDbLine
 10
38.3817
 20
144.706428
 30
0.0
 11
38.3817
 21
145.206428
 31
0.0
  0
LINE
  5
1E2
330
1E
100
AcDbEntity
  8
0
100
AcDbLine
 10
38.3817
 20
144.706428
 30
0.0
 11
38.6405
 21
145.542428
 31
0.0
  0
LINE
  5
1E3
330
1E
100
AcDbEntity
  8
0
100
AcDbLine
 10
38.3817
 20
144.706428
 30
0.0
 11
39.3476
 21
144.4824279999999
 31
0.0
  0
LINE
  5
1E4
330
1E
100
AcDbEntity
  8
0
100
AcDbLine
 10
37.567
 20
164.045428
 30
0.0
 11
38.433
 21
164.478428
 31
0.0
  0
LINE
  5
1E5
330
1E
100
AcDbEntity
  8
0
100
AcDbLine
 10
38.5373
 20
110.392428
 30
0.0
 11
38.92
 21
111.1924279999999
 31
0.0
  0
LINE
  5
1E6
330
1E
100
AcDbEntity
  8
0
100
AcDbLine
 10
38.60179999999999
 20
126.723428
 30
0.0
 11
38.60179999999999
 21
126.2234279999999
 31
0.0
  0
LINE
  5
1E7
330
1E
100
AcDbEntity
  8
0
100
AcDbLine
 10
38.60179999999999
 20
126.723428
 30
0.0
 11
39.2106
 21
127.4104279999999
 31
0.0
  0
LINE
  5
1E8
330
1E
100
AcDbEntity
  8
0
100
AcDbLine
 10
38.60179999999999
 20
126.2234279999999
 30
0.0
 11
38.60179999999999
 21
126.723428
 31
0.0
  0
LINE
  5
1E9
330
1E
100
AcDbEntity
  8
0
100
AcDbLine
 10
38.60179999999999
 20
126.2234279999999
 30
0.0
 11
39.3952
 21
125.696428
 31
0.0
  0
LINE
  5
1EA
330
1E
100
AcDbEntity
  8
0
100
AcDbLine
 10
38.60179999999999
 20
126.2234279999999
 30
0.0
 11
39.2106
 21
126.910428
 31
0.0
  0
LINE
  5
1EB
330
1E
100
AcDbEntity
  8
0
100
AcDbLine
 10
38.92
 20
111.692428
 30
0.0
 11
38.92
 21
111.1924279999999
 31
0.0
  0
LINE
  5
1EC
330
1E
100
AcDbEntity
  8
0
100
AcDbLine
 10
38.92
 20
111.1924279999999
 30
0.0
 11
38.92
 21
111.692428
 31
0.0
  0
LINE
  5
1ED
330
1E
100
AcDbEntity
  8
0
100
AcDbLine
 10
38.6405
 20
137.982428
 30
0.0
 11
39.6064
 21
138.206428
 31
0.0
  0
LINE
  5
1EE
330
1E
100
AcDbEntity
  8
0
100
AcDbLine
 10
39.0
 20
142.6954279999999
 30
0.0
 11
39.0
 21
142.195428
 31
0.0
  0
LINE
  5
1EF
330
1E
100
AcDbEntity
  8
0
100
AcDbLine
 10
39.0
 20
142.195428
 30
0.0
 11
39.0
 21
142.6954279999999
 31
0.0
  0
LINE
  5
1F0
330
1E
100
AcDbEntity
  8
0
100
AcDbLine
 10
39.0
 20
142.195428
 30
0.0
 11
39.0
 21
141.329428
 31
0.0
  0
LINE
  5
1F1
330
1E
100
AcDbEntity
  8
0
100
AcDbLine
 10
39.2106
 20
127.4104279999999
 30
0.0
 11
39.2106
 21
126.910428
 31
0.0
  0
LINE
  5
1F2
330
1E
100
AcDbEntity
  8
0
100
AcDbLine
 10
39.2106
 20
127.4104279999999
 30
0.0
 11
40.0039
 21
126.883428
 31
0.0
  0
LINE
  5
1F3
330
1E
100
AcDbEntity
  8
0
100
AcDbLine
 10
39.2106
 20
126.910428
 30
0.0
 11
39.2106
 21
127.4104279999999
 31
0.0
  0
LINE
  5
1F4
330
1E
100
AcDbEntity
  8
0
100
AcDbLine
 10
39.2106
 20
126.910428
 30
0.0
 11
40.0039
 21
126.383428
 31
0.0
  0
LINE
  5
1F5
330
1E
100
AcDbEntity
  8
0
100
AcDbLine
 10
39.3476
 20
139.542428
 30
0.0
 11
39.3476
 21
139.0424279999999
 31
0.0
  0
LINE
  5
1F6
330
1E
100
AcDbEntity
  8
0
100
AcDbLine
 10
39.3476
 20
139.542428
 30
0.0
 11
39.6064
 21
138.706428
 31
0.0
  0
LINE
  5
1F7
330
1E
100
AcDbEntity
  8
0
100
AcDbLine
 10
39.3476
 20
139.0424279999999
 30
0.0
 11
39.3476
 21
139.542428
 31
0.0
  0
LINE
  5
1F8
330
1E
100
AcDbEntity
  8
0
100
AcDbLine
 10
39.3476
 20
139.0424279999999
 30
0.0
 11
39.6064
 21
138.206428
 31
0.0
  0
LINE
  5
1F9
330
1E
100
AcDbEntity
  8
0
100
AcDbLine
 10
39.0
 20
141.329428
 30
0.0
 11
39.0
 21
142.195428
 31
0.0
  0
LINE
  5
1FA
330
1E
100
AcDbEntity
  8
0
100
AcDbLine
 10
38.6405
 20
145.542428
 30
0.0
 11
39.6064
 21
145.318428
 31
0.0
  0
LINE
  5
1FB
330
1E
100
AcDbEntity
  8
0
100
AcDbLine
 10
38.6405
 20
145.542428
 30
0.0
 11
38.6405
 21
146.0424279999999
 31
0.0
  0
LINE
  5
1FC
330
1E
100
AcDbEntity
  8
0
100
AcDbLine
 10
39.3952
 20
125.696428
 30
0.0
 11
40.0039
 21
126.383428
 31
0.0
  0
LINE
  5
1FD
330
1E
100
AcDbEntity
  8
0
100
AcDbLine
 10
39.6064
 20
138.706428
 30
0.0
 11
39.6064
 21
138.206428
 31
0.0
  0
LINE
  5
1FE
330
1E
100
AcDbEntity
  8
0
100
AcDbLine
 10
39.7596
 20
136.142428
 30
0.0
 11
39.7596
 21
135.6424279999999
 31
0.0
  0
LINE
  5
1FF
330
1E
100
AcDbEntity
  8
0
100
AcDbLine
 10
39.7596
 20
136.142428
 30
0.0
 11
40.6256
 21
136.575428
 31
0.0
  0
LINE
  5
200
330
1E
100
AcDbEntity
  8
0
100
AcDbLine
 10
39.7596
 20
135.6424279999999
 30
0.0
 11
40.2596
 21
134.892428
 31
0.0
  0
LINE
  5
201
330
1E
100
AcDbEntity
  8
0
100
AcDbLine
 10
39.7596
 20
135.6424279999999
 30
0.0
 11
39.7596
 21
136.142428
 31
0.0
  0
LINE
  5
202
330
1E
100
AcDbEntity
  8
0
100
AcDbLine
 10
39.7596
 20
135.6424279999999
 30
0.0
 11
40.6256
 21
136.075428
 31
0.0
  0
LINE
  5
203
330
1E
100
AcDbEntity
  8
0
100
AcDbLine
 10
40.0039
 20
126.883428
 30
0.0
 11
40.0039
 21
126.383428
 31
0.0
  0
LINE
  5
204
330
1E
100
AcDbEntity
  8
0
100
AcDbLine
 10
40.0039
 20
126.383428
 30
0.0
 11
40.0039
 21
126.883428
 31
0.0
  0
LINE
  5
205
330
1E
100
AcDbEntity
  8
0
100
AcDbLine
 10
39.6064
 20
138.206428
 30
0.0
 11
39.6064
 21
138.706428
 31
0.0
  0
LINE
  5
206
330
1E
100
AcDbEntity
  8
0
100
AcDbLine
 10
39.6064
 20
145.818428
 30
0.0
 11
39.6064
 21
145.318428
 31
0.0
  0
LINE
  5
207
330
1E
100
AcDbEntity
  8
0
100
AcDbLine
 10
39.6064
 20
145.318428
 30
0.0
 11
39.6064
 21
145.818428
 31
0.0
  0
LINE
  5
208
330
1E
100
AcDbEntity
  8
0
100
AcDbLine
 10
39.3476
 20
144.4824279999999
 30
0.0
 11
39.6064
 21
145.318428
 31
0.0
  0
LINE
  5
209
330
1E
100
AcDbEntity
  8
0
100
AcDbLine
 10
38.60179999999999
 20
157.801428
 30
0.0
 11
39.3952
 21
158.3284279999999
 31
0.0
  0
LINE
  5
20A
330
1E
100
AcDbEntity
  8
0
100
AcDbLine
 10
38.60179999999999
 20
157.801428
 30
0.0
 11
38.60179999999999
 21
157.301428
 31
0.0
  0
LINE
  5
20B
330
1E
100
AcDbEntity
  8
0
100
AcDbLine
 10
39.7596
 20
148.382428
 30
0.0
 11
40.2596
 21
149.132428
 31
0.0
  0
LINE
  5
20C
330
1E
100
AcDbEntity
  8
0
100
AcDbLine
 10
39.7596
 20
148.382428
 30
0.0
 11
39.7596
 21
147.8824279999999
 31
0.0
  0
LINE
  5
20D
330
1E
100
AcDbEntity
  8
0
100
AcDbLine
 10
39.7596
 20
147.8824279999999
 30
0.0
 11
39.7596
 21
148.382428
 31
0.0
  0
LINE
  5
20E
330
1E
100
AcDbEntity
  8
0
100
AcDbLine
 10
39.7596
 20
147.8824279999999
 30
0.0
 11
40.2596
 21
148.632428
 31
0.0
  0
LINE
  5
20F
330
1E
100
AcDbEntity
  8
0
100
AcDbLine
 10
39.7596
 20
147.8824279999999
 30
0.0
 11
40.6256
 21
147.449428
 31
0.0
  0
LINE
  5
210
330
1E
100
AcDbEntity
  8
0
100
AcDbLine
 10
40.0039
 20
157.6414279999999
 30
0.0
 11
40.0039
 21
157.1414279999999
 31
0.0
  0
LINE
  5
211
330
1E
100
AcDbEntity
  8
0
100
AcDbLine
 10
39.3952
 20
157.828428
 30
0.0
 11
40.0039
 21
157.1414279999999
 31
0.0
  0
LINE
  5
212
330
1E
100
AcDbEntity
  8
0
100
AcDbLine
 10
39.3952
 20
157.828428
 30
0.0
 11
39.3952
 21
158.3284279999999
 31
0.0
  0
LINE
  5
213
330
1E
100
AcDbEntity
  8
0
100
AcDbLine
 10
39.2106
 20
156.614428
 30
0.0
 11
40.0039
 21
157.1414279999999
 31
0.0
  0
LINE
  5
214
330
1E
100
AcDbEntity
  8
0
100
AcDbLine
 10
40.0039
 20
157.1414279999999
 30
0.0
 11
40.0039
 21
157.6414279999999
 31
0.0
  0
LINE
  5
215
330
1E
100
AcDbEntity
  8
0
100
AcDbLine
 10
39.3952
 20
158.3284279999999
 30
0.0
 11
39.3952
 21
157.828428
 31
0.0
  0
LINE
  5
216
330
1E
100
AcDbEntity
  8
0
100
AcDbLine
 10
39.3952
 20
158.3284279999999
 30
0.0
 11
40.0039
 21
157.6414279999999
 31
0.0
  0
LINE
  5
217
330
1E
100
AcDbEntity
  8
0
100
AcDbLine
 10
38.60179999999999
 20
157.301428
 30
0.0
 11
39.3952
 21
157.828428
 31
0.0
  0
LINE
  5
218
330
1E
100
AcDbEntity
  8
0
100
AcDbLine
 10
38.60179999999999
 20
157.301428
 30
0.0
 11
38.60179999999999
 21
157.801428
 31
0.0
  0
LINE
  5
219
330
1E
100
AcDbEntity
  8
0
100
AcDbLine
 10
38.60179999999999
 20
157.301428
 30
0.0
 11
39.2106
 21
156.614428
 31
0.0
  0
LINE
  5
21A
330
1E
100
AcDbEntity
  8
0
100
AcDbLine
 10
38.6405
 20
146.0424279999999
 30
0.0
 11
38.6405
 21
145.542428
 31
0.0
  0
LINE
  5
21B
330
1E
100
AcDbEntity
  8
0
100
AcDbLine
 10
38.6405
 20
146.0424279999999
 30
0.0
 11
39.6064
 21
145.818428
 31
0.0
  0
LINE
  5
21C
330
1E
100
AcDbEntity
  8
0
100
AcDbLine
 10
38.433
 20
164.478428
 30
0.0
 11
38.433
 21
164.978428
 31
0.0
  0
LINE
  5
21D
330
1E
100
AcDbEntity
  8
0
100
AcDbLine
 10
37.933
 20
165.228428
 30
0.0
 11
38.433
 21
164.478428
 31
0.0
  0
LINE
  5
21E
330
1E
100
AcDbEntity
  8
0
100
AcDbLine
 10
37.933
 20
165.228428
 30
0.0
 11
37.933
 21
165.728428
 31
0.0
  0
LINE
  5
21F
330
1E
100
AcDbEntity
  8
0
100
AcDbLine
 10
37.6134
 20
173.300428
 30
0.0
 11
38.5373
 21
173.632428
 31
0.0
  0
LINE
  5
220
330
1E
100
AcDbEntity
  8
0
100
AcDbLine
 10
37.6134
 20
173.300428
 30
0.0
 11
37.6134
 21
172.800428
 31
0.0
  0
LINE
  5
221
330
1E
100
AcDbEntity
  8
0
100
AcDbLine
 10
37.6134
 20
172.800428
 30
0.0
 11
38.5373
 21
173.132428
 31
0.0
  0
LINE
  5
222
330
1E
100
AcDbEntity
  8
0
100
AcDbLine
 10
37.6134
 20
172.800428
 30
0.0
 11
37.6134
 21
173.300428
 31
0.0
  0
LINE
  5
223
330
1E
100
AcDbEntity
  8
0
100
AcDbLine
 10
37.6134
 20
172.800428
 30
0.0
 11
37.99609999999999
 21
172.0004279999999
 31
0.0
  0
LINE
  5
224
330
1E
100
AcDbEntity
  8
0
100
AcDbLine
 10
37.067
 20
165.295428
 30
0.0
 11
37.933
 21
165.728428
 31
0.0
  0
LINE
  5
225
330
1E
100
AcDbEntity
  8
0
100
AcDbLine
 10
37.067
 20
165.295428
 30
0.0
 11
37.067
 21
164.795428
 31
0.0
  0
LINE
  5
226
330
1E
100
AcDbEntity
  8
0
100
AcDbLine
 10
38.5373
 20
173.132428
 30
0.0
 11
38.92
 21
172.3324279999999
 31
0.0
  0
LINE
  5
227
330
1E
100
AcDbEntity
  8
0
100
AcDbLine
 10
38.5373
 20
173.132428
 30
0.0
 11
38.5373
 21
173.632428
 31
0.0
  0
LINE
  5
228
330
1E
100
AcDbEntity
  8
0
100
AcDbLine
 10
37.99609999999999
 20
172.0004279999999
 30
0.0
 11
38.92
 21
172.3324279999999
 31
0.0
  0
LINE
  5
229
330
1E
100
AcDbEntity
  8
0
100
AcDbLine
 10
38.92
 20
172.832428
 30
0.0
 11
38.92
 21
172.3324279999999
 31
0.0
  0
LINE
  5
22A
330
1E
100
AcDbEntity
  8
0
100
AcDbLine
 10
38.92
 20
172.3324279999999
 30
0.0
 11
38.92
 21
172.832428
 31
0.0
  0
LINE
  5
22B
330
1E
100
AcDbEntity
  8
0
100
AcDbLine
 10
38.5373
 20
173.632428
 30
0.0
 11
38.5373
 21
173.132428
 31
0.0
  0
LINE
  5
22C
330
1E
100
AcDbEntity
  8
0
100
AcDbLine
 10
38.5373
 20
173.632428
 30
0.0
 11
38.92
 21
172.832428
 31
0.0
  0
LINE
  5
22D
330
1E
100
AcDbEntity
  8
0
100
AcDbLine
 10
38.433
 20
164.978428
 30
0.0
 11
38.433
 21
164.478428
 31
0.0
  0
LINE
  5
22E
330
1E
100
AcDbEntity
  8
0
100
AcDbLine
 10
37.933
 20
165.728428
 30
0.0
 11
37.933
 21
165.228428
 31
0.0
  0
LINE
  5
22F
330
1E
100
AcDbEntity
  8
0
100
AcDbLine
 10
37.933
 20
165.728428
 30
0.0
 11
38.433
 21
164.978428
 31
0.0
  0
LINE
  5
230
330
1E
100
AcDbEntity
  8
0
100
AcDbLine
 10
37.067
 20
164.795428
 30
0.0
 11
37.933
 21
165.228428
 31
0.0
  0
LINE
  5
231
330
1E
100
AcDbEntity
  8
0
100
AcDbLine
 10
37.067
 20
164.795428
 30
0.0
 11
37.067
 21
165.295428
 31
0.0
  0
LINE
  5
232
330
1E
100
AcDbEntity
  8
0
100
AcDbLine
 10
37.067
 20
164.795428
 30
0.0
 11
37.567
 21
164.045428
 31
0.0
  0
LINE
  5
233
330
1E
100
AcDbEntity
  8
0
100
AcDbLine
 10
30.433
 20
176.478428
 30
0.0
 11
30.433
 21
176.978428
 31
0.0
  0
LINE
  5
234
330
1E
100
AcDbEntity
  8
0
100
AcDbLine
 10
29.933
 20
177.228428
 30
0.0
 11
30.433
 21
176.478428
 31
0.0
  0
LINE
  5
235
330
1E
100
AcDbEntity
  8
0
100
AcDbLine
 10
29.933
 20
177.228428
 30
0.0
 11
29.933
 21
177.728428
 31
0.0
  0
LINE
  5
236
330
1E
100
AcDbEntity
  8
0
100
AcDbLine
 10
29.06699999999999
 20
177.295428
 30
0.0
 11
29.933
 21
177.728428
 31
0.0
  0
LINE
  5
237
330
1E
100
AcDbEntity
  8
0
100
AcDbLine
 10
29.06699999999999
 20
177.295428
 30
0.0
 11
29.06699999999999
 21
176.795428
 31
0.0
  0
LINE
  5
238
330
1E
100
AcDbEntity
  8
0
100
AcDbLine
 10
30.433
 20
176.978428
 30
0.0
 11
30.433
 21
176.478428
 31
0.0
  0
LINE
  5
239
330
1E
100
AcDbEntity
  8
0
100
AcDbLine
 10
29.933
 20
177.728428
 30
0.0
 11
29.933
 21
177.228428
 31
0.0
  0
LINE
  5
23A
330
1E
100
AcDbEntity
  8
0
100
AcDbLine
 10
29.933
 20
177.728428
 30
0.0
 11
30.433
 21
176.978428
 31
0.0
  0
LINE
  5
23B
330
1E
100
AcDbEntity
  8
0
100
AcDbLine
 10
29.06699999999999
 20
176.795428
 30
0.0
 11
29.933
 21
177.228428
 31
0.0
  0
LINE
  5
23C
330
1E
100
AcDbEntity
  8
0
100
AcDbLine
 10
29.06699999999999
 20
176.795428
 30
0.0
 11
29.06699999999999
 21
177.295428
 31
0.0
  0
LINE
  5
23D
330
1E
100
AcDbEntity
  8
0
100
AcDbLine
 10
29.06699999999999
 20
176.795428
 30
0.0
 11
29.56699999999999
 21
176.045428
 31
0.0
  0
LINE
  5
23E
330
1E
100
AcDbEntity
  8
0
100
AcDbLine
 10
28.1
 20
178.7614279999999
 30
0.0
 11
40.2
 21
183.0044279999999
 31
0.0
  0
LINE
  5
23F
330
1E
100
AcDbEntity
  8
0
100
AcDbLine
 10
18.8
 20
180.3804279999999
 30
0.0
 11
28.9
 21
187.135428
 31
0.0
  0
LINE
  5
240
330
1E
100
AcDbEntity
  8
0
100
AcDbLine
 10
26.89999999999999
 20
182.6664279999999
 30
0.0
 11
39.5
 21
187.083428
 31
0.0
  0
LINE
  5
241
330
1E
100
AcDbEntity
  8
0
100
AcDbLine
 10
26.89999999999999
 20
180.916428
 30
0.0
 11
39.5
 21
185.333428
 31
0.0
  0
LINE
  5
243
330
1E
100
AcDbEntity
  8
0
100
AcDbLine
 10
39.5
 20
185.333428
 30
0.0
 11
53.0
 21
186.978428
 31
0.0
  0
LINE
  5
244
330
1E
100
AcDbEntity
  8
0
100
AcDbLine
 10
40.2
 20
183.0044279999999
 30
0.0
 11
53.0
 21
184.563428
 31
0.0
  0
LINE
  5
245
330
1E
100
AcDbEntity
  8
0
100
AcDbLine
 10
20.2
 20
181.9184279999999
 30
0.0
 11
29.9
 21
188.4134279999999
 31
0.0
  0
LINE
  5
246
330
1E
100
AcDbEntity
  8
0
100
AcDbLine
 10
39.5
 20
187.083428
 30
0.0
 11
53.0
 21
188.728428
 31
0.0
  0
LINE
  5
248
330
1E
100
AcDbEntity
  8
0
100
AcDbLine
 10
29.9
 20
188.4134279999999
 30
0.0
 11
41.1
 21
192.310428
 31
0.0
  0
LINE
  5
249
330
1E
100
AcDbEntity
  8
0
100
AcDbLine
 10
28.9
 20
187.135428
 30
0.0
 11
40.49999999999999
 21
191.205428
 31
0.0
  0
LINE
  5
24A
330
1E
100
AcDbEntity
  8
0
100
AcDbLine
 10
28.6
 20
186.731428
 30
0.0
 11
40.4
 21
190.888428
 31
0.0
  0
LINE
  5
24B
330
1E
100
AcDbEntity
  8
0
100
AcDbLine
 10
18.86688506944039
 20
180.4251615291159
 30
0.0
 11
20.2
 21
181.9184279999999
 31
0.0
  0
LINE
  5
24C
330
1E
100
AcDbEntity
  8
0
100
AcDbLine
 10
18.39999999999999
 20
179.9764279999999
 30
0.0
 11
18.8
 21
180.3804279999999
 31
0.0
  0
LINE
  5
24D
330
1E
100
AcDbEntity
  8
0
100
AcDbLine
 10
18.39999999999999
 20
179.9764279999999
 30
0.0
 11
28.6
 21
186.731428
 31
0.0
  0
LINE
  5
24E
330
1E
100
AcDbEntity
  8
0
100
AcDbLine
 10
17.7
 20
111.691428
 30
0.0
 11
28.1
 21
104.763428
 31
0.0
  0
LINE
  5
24F
330
1E
100
AcDbEntity
  8
0
100
AcDbLine
 10
28.1
 20
104.763428
 30
0.0
 11
40.2
 21
100.520428
 31
0.0
  0
LINE
  5
250
330
1E
100
AcDbEntity
  8
0
100
AcDbLine
 10
40.2596
 20
134.892428
 30
0.0
 11
41.1256
 21
135.325428
 31
0.0
  0
LINE
  5
251
330
1E
100
AcDbEntity
  8
0
100
AcDbLine
 10
40.2596
 20
148.632428
 30
0.0
 11
41.1256
 21
148.199428
 31
0.0
  0
LINE
  5
252
330
1E
100
AcDbEntity
  8
0
100
AcDbLine
 10
40.2596
 20
148.632428
 30
0.0
 11
40.2596
 21
149.132428
 31
0.0
  0
LINE
  5
253
330
1E
100
AcDbEntity
  8
0
100
AcDbLine
 10
40.49999999999999
 20
18.589028
 30
0.0
 11
41.0
 21
17.773028
 31
0.0
  0
LINE
  5
254
330
1E
100
AcDbEntity
  8
0
100
AcDbLine
 10
40.49999999999999
 20
18.589028
 30
0.0
 11
41.7
 21
16.989028
 31
0.0
  0
LINE
  5
257
330
1E
100
AcDbEntity
  8
0
100
AcDbLine
 10
40.49999999999999
 20
21.889028
 30
0.0
 11
41.0
 21
22.705028
 31
0.0
  0
LINE
  5
258
330
1E
100
AcDbEntity
  8
0
100
AcDbLine
 10
40.3525
 20
103.058428
 30
0.0
 11
40.3525
 21
102.558428
 31
0.0
  0
LINE
  5
259
330
1E
100
AcDbEntity
  8
0
100
AcDbLine
 10
40.3525
 20
103.058428
 30
0.0
 11
40.6114
 21
103.894428
 31
0.0
  0
LINE
  5
25A
330
1E
100
AcDbEntity
  8
0
100
AcDbLine
 10
40.3525
 20
102.558428
 30
0.0
 11
40.3525
 21
103.058428
 31
0.0
  0
LINE
  5
25B
330
1E
100
AcDbEntity
  8
0
100
AcDbLine
 10
40.3525
 20
102.558428
 30
0.0
 11
41.3185
 21
102.334428
 31
0.0
  0
LINE
  5
25C
330
1E
100
AcDbEntity
  8
0
100
AcDbLine
 10
40.3525
 20
102.558428
 30
0.0
 11
40.6114
 21
103.394428
 31
0.0
  0
LINE
  5
25D
330
1E
100
AcDbEntity
  8
0
100
AcDbLine
 10
40.2596
 20
149.132428
 30
0.0
 11
40.2596
 21
148.632428
 31
0.0
  0
LINE
  5
25E
330
1E
100
AcDbEntity
  8
0
100
AcDbLine
 10
40.2596
 20
149.132428
 30
0.0
 11
41.1256
 21
148.699428
 31
0.0
  0
LINE
  5
25F
330
1E
100
AcDbEntity
  8
0
100
AcDbLine
 10
40.3525
 20
181.466428
 30
0.0
 11
41.3185
 21
181.6904279999999
 31
0.0
  0
LINE
  5
260
330
1E
100
AcDbEntity
  8
0
100
AcDbLine
 10
40.3525
 20
181.466428
 30
0.0
 11
40.3525
 21
180.9664279999999
 31
0.0
  0
LINE
  5
261
330
1E
100
AcDbEntity
  8
0
100
AcDbLine
 10
40.3525
 20
180.9664279999999
 30
0.0
 11
41.3185
 21
181.190428
 31
0.0
  0
LINE
  5
262
330
1E
100
AcDbEntity
  8
0
100
AcDbLine
 10
40.3525
 20
180.9664279999999
 30
0.0
 11
40.3525
 21
181.466428
 31
0.0
  0
LINE
  5
263
330
1E
100
AcDbEntity
  8
0
100
AcDbLine
 10
40.3525
 20
180.9664279999999
 30
0.0
 11
40.6114
 21
180.130428
 31
0.0
  0
LINE
  5
264
330
1E
100
AcDbEntity
  8
0
100
AcDbLine
 10
41.0
 20
17.773028
 30
0.0
 11
42.2
 21
16.273028
 31
0.0
  0
LINE
  5
265
330
1E
100
AcDbEntity
  8
0
100
AcDbLine
 10
41.7
 20
16.989028
 30
0.0
 11
43.79999999999999
 21
15.639028
 31
0.0
  0
LINE
  5
266
330
1E
100
AcDbEntity
  8
0
100
AcDbLine
 10
41.52395999999999
 20
17.118078
 30
0.0
 11
41.9
 21
15.70792799999999
 31
0.0
  0
LINE
  5
267
330
1E
100
AcDbEntity
  8
0
100
AcDbLine
 10
42.2
 20
16.273028
 30
0.0
 11
44.2
 21
14.97302799999999
 31
0.0
  0
LINE
  5
268
330
1E
100
AcDbEntity
  8
0
100
AcDbLine
 10
41.9
 20
15.70792799999999
 30
0.0
 11
42.4
 21
14.07592799999999
 31
0.0
  0
LINE
  5
269
330
1E
100
AcDbEntity
  8
0
100
AcDbLine
 10
42.4
 20
14.07592799999999
 30
0.0
 11
43.5
 21
12.72592799999999
 31
0.0
  0
LINE
  5
26A
330
1E
100
AcDbEntity
  8
0
100
AcDbLine
 10
43.5
 20
12.72592799999999
 30
0.0
 11
44.29999999999999
 21
11.676828
 31
0.0
  0
LINE
  5
26B
330
1E
100
AcDbEntity
  8
0
100
AcDbLine
 10
44.29999999999999
 20
11.676828
 30
0.0
 11
45.89999999999999
 21
10.62682799999999
 31
0.0
  0
LINE
  5
26C
330
1E
100
AcDbEntity
  8
0
100
AcDbLine
 10
43.79999999999999
 20
15.639028
 30
0.0
 11
46.5
 21
14.58902799999999
 31
0.0
  0
LINE
  5
26D
330
1E
100
AcDbEntity
  8
0
100
AcDbLine
 10
44.2
 20
14.97302799999999
 30
0.0
 11
46.79999999999999
 21
13.973028
 31
0.0
  0
LINE
  5
26E
330
1E
100
AcDbEntity
  8
0
100
AcDbLine
 10
45.0
 20
11.21745299999999
 30
0.0
 11
45.0
 21
4.21756799999999
 31
0.0
  0
LINE
  5
26F
330
1E
100
AcDbEntity
  8
0
100
AcDbLine
 10
44.9
 20
17.488128
 30
0.0
 11
47.29999999999999
 21
16.538128
 31
0.0
  0
LINE
  5
270
330
1E
100
AcDbEntity
  8
0
100
AcDbLine
 10
43.0
 20
18.68812799999999
 30
0.0
 11
44.9
 21
17.488128
 31
0.0
  0
LINE
  5
271
330
1E
100
AcDbEntity
  8
0
100
AcDbLine
 10
41.9
 20
20.03812799999999
 30
0.0
 11
43.0
 21
18.68812799999999
 31
0.0
  0
LINE
  5
272
330
1E
100
AcDbEntity
  8
0
100
AcDbLine
 10
41.5
 20
21.538128
 30
0.0
 11
41.9
 21
20.03812799999999
 31
0.0
  0
LINE
  5
273
330
1E
100
AcDbEntity
  8
0
100
AcDbLine
 10
41.0
 20
22.705028
 30
0.0
 11
41.2808931060625
 21
23.0561443825781
 31
0.0
  0
LINE
  5
274
330
1E
100
AcDbEntity
  8
0
100
AcDbLine
 10
47.4
 20
1.417567999999989
 30
0.0
 11
49.0
 21
0.767567999999989
 31
0.0
  0
LINE
  5
275
330
1E
100
AcDbEntity
  8
0
100
AcDbLine
 10
49.0
 20
0.767567999999989
 30
0.0
 11
50.89999999999999
 21
0.3675719999999891
 31
0.0
  0
LINE
  5
276
330
1E
100
AcDbEntity
  8
0
100
AcDbLine
 10
49.0
 20
0.767567999999989
 30
0.0
 11
50.89999999999999
 21
0.3675719999999891
 31
0.0
  0
LINE
  5
277
330
1E
100
AcDbEntity
  8
0
100
AcDbLine
 10
53.0
 20
0.2175719999999889
 30
0.0
 11
55.1
 21
0.3675719999999891
 31
0.0
  0
LINE
  5
278
330
1E
100
AcDbEntity
  8
0
100
AcDbLine
 10
50.89999999999999
 20
0.3675719999999891
 30
0.0
 11
53.0
 21
0.2175719999999889
 31
0.0
  0
LINE
  5
279
330
1E
100
AcDbEntity
  8
0
100
AcDbLine
 10
46.5
 20
14.58902799999999
 30
0.0
 11
49.7
 21
13.989028
 31
0.0
  0
LINE
  5
27B
330
1E
100
AcDbEntity
  8
0
100
AcDbLine
 10
49.7
 20
13.989028
 30
0.0
 11
53.0
 21
13.73902799999999
 31
0.0
  0
LINE
  5
27C
330
1E
100
AcDbEntity
  8
0
100
AcDbLine
 10
46.79999999999999
 20
13.973028
 30
0.0
 11
49.8
 21
13.373028
 31
0.0
  0
LINE
  5
27D
330
1E
100
AcDbEntity
  8
0
100
AcDbLine
 10
49.8
 20
13.373028
 30
0.0
 11
53.0
 21
13.123028
 31
0.0
  0
LINE
  5
27E
330
1E
100
AcDbEntity
  8
0
100
AcDbLine
 10
45.89999999999999
 20
10.62682799999999
 30
0.0
 11
48.0
 21
9.82682799999999
 31
0.0
  0
LINE
  5
27F
330
1E
100
AcDbEntity
  8
0
100
AcDbLine
 10
48.0
 20
9.82682799999999
 30
0.0
 11
50.4
 21
9.376867999999991
 31
0.0
  0
LINE
  5
280
330
1E
100
AcDbEntity
  8
0
100
AcDbLine
 10
53.0
 20
15.788128
 30
0.0
 11
56.0
 21
15.988128
 31
0.0
  0
LINE
  5
282
330
1E
100
AcDbEntity
  8
0
100
AcDbLine
 10
53.0
 20
13.73902799999999
 30
0.0
 11
56.29999999999999
 21
13.989028
 31
0.0
  0
LINE
  5
283
330
1E
100
AcDbEntity
  8
0
100
AcDbLine
 10
53.0
 20
13.123028
 30
0.0
 11
56.2
 21
13.373028
 31
0.0
  0
LINE
  5
284
330
1E
100
AcDbEntity
  8
0
100
AcDbLine
 10
53.0
 20
9.17686799999999
 30
0.0
 11
55.6
 21
9.376867999999991
 31
0.0
  0
LINE
  5
285
330
1E
100
AcDbEntity
  8
0
100
AcDbLine
 10
50.4
 20
9.376867999999991
 30
0.0
 11
53.0
 21
9.17686799999999
 31
0.0
  0
LINE
  5
286
330
1E
100
AcDbEntity
  8
0
100
AcDbLine
 10
46.1
 20
2.21756799999999
 30
0.0
 11
47.4
 21
1.417567999999989
 31
0.0
  0
LINE
  5
287
330
1E
100
AcDbEntity
  8
0
100
AcDbLine
 10
45.3
 20
3.16756799999999
 30
0.0
 11
46.1
 21
2.21756799999999
 31
0.0
  0
LINE
  5
288
330
1E
100
AcDbEntity
  8
0
100
AcDbLine
 10
53.0
 20
95.39542800000001
 30
0.0
 11
56.2
 21
95.64542800000001
 31
0.0
  0
LINE
  5
289
330
1E
100
AcDbEntity
  8
0
100
AcDbLine
 10
53.0
 20
96.01142800000001
 30
0.0
 11
56.29999999999999
 21
96.26142800000001
 31
0.0
  0
LINE
  5
28A
330
1E
100
AcDbEntity
  8
0
100
AcDbLine
 10
49.8
 20
95.64542800000001
 30
0.0
 11
53.0
 21
95.39542800000001
 31
0.0
  0
LINE
  5
28B
330
1E
100
AcDbEntity
  8
0
100
AcDbLine
 10
47.29999999999999
 20
16.538128
 30
0.0
 11
50.0
 21
15.988128
 31
0.0
  0
LINE
  5
28C
330
1E
100
AcDbEntity
  8
0
100
AcDbLine
 10
50.0
 20
15.988128
 30
0.0
 11
53.0
 21
15.788128
 31
0.0
  0
LINE
  5
28D
330
1E
100
AcDbEntity
  8
0
100
AcDbLine
 10
45.0
 20
4.21756799999999
 30
0.0
 11
45.0
 21
11.21745299999999
 31
0.0
  0
LINE
  5
28E
330
1E
100
AcDbEntity
  8
0
100
AcDbLine
 10
45.0
 20
4.21756799999999
 30
0.0
 11
45.3
 21
3.16756799999999
 31
0.0
  0
LINE
  5
28F
330
1E
100
AcDbEntity
  8
0
100
AcDbLine
 10
46.79999999999999
 20
96.245428
 30
0.0
 11
49.8
 21
95.64542800000001
 31
0.0
  0
LINE
  5
290
330
1E
100
AcDbEntity
  8
0
100
AcDbLine
 10
44.6825466020365
 20
97.05983315306291
 30
0.0
 11
46.79999999999999
 21
96.245428
 31
0.0
  0
LINE
  5
291
330
1E
100
AcDbEntity
  8
0
100
AcDbLine
 10
46.8524132091447
 20
96.79535052328541
 30
0.0
 11
49.7
 21
96.26142800000001
 31
0.0
  0
LINE
  5
292
330
1E
100
AcDbEntity
  8
0
100
AcDbLine
 10
49.7
 20
96.26142800000001
 30
0.0
 11
53.0
 21
96.01142800000001
 31
0.0
  0
LINE
  5
293
330
1E
100
AcDbEntity
  8
0
100
AcDbLine
 10
53.0
 20
96.04602800000002
 30
0.0
 11
66.5
 21
97.691528
 31
0.0
  0
LINE
  5
294
330
1E
100
AcDbEntity
  8
0
100
AcDbLine
 10
55.1
 20
0.3675719999999891
 30
0.0
 11
57.0
 21
0.767567999999989
 31
0.0
  0
LINE
  5
295
330
1E
100
AcDbEntity
  8
0
100
AcDbLine
 10
57.0
 20
0.767567999999989
 30
0.0
 11
58.6
 21
1.417567999999989
 31
0.0
  0
LINE
  5
296
330
1E
100
AcDbEntity
  8
0
100
AcDbLine
 10
55.1
 20
0.3675719999999891
 30
0.0
 11
57.0
 21
0.767567999999989
 31
0.0
  0
LINE
  5
297
330
1E
100
AcDbEntity
  8
0
100
AcDbLine
 10
58.6
 20
1.417567999999989
 30
0.0
 11
59.9
 21
2.21756799999999
 31
0.0
  0
LINE
  5
298
330
1E
100
AcDbEntity
  8
0
100
AcDbLine
 10
58.0
 20
9.82682799999999
 30
0.0
 11
60.1
 21
10.62682799999999
 31
0.0
  0
LINE
  5
299
330
1E
100
AcDbEntity
  8
0
100
AcDbLine
 10
55.6
 20
9.376867999999991
 30
0.0
 11
58.0
 21
9.82682799999999
 31
0.0
  0
LINE
  5
29A
330
1E
100
AcDbEntity
  8
0
100
AcDbLine
 10
59.9
 20
2.21756799999999
 30
0.0
 11
60.7
 21
3.16756799999999
 31
0.0
  0
LINE
  5
29B
330
1E
100
AcDbEntity
  8
0
100
AcDbLine
 10
61.0
 20
4.21756799999999
 30
0.0
 11
61.0
 21
11.21745299999999
 31
0.0
  0
LINE
  5
29C
330
1E
100
AcDbEntity
  8
0
100
AcDbLine
 10
60.7
 20
3.16756799999999
 30
0.0
 11
61.0
 21
4.21756799999999
 31
0.0
  0
LINE
  5
29D
330
1E
100
AcDbEntity
  8
0
100
AcDbLine
 10
56.0
 20
15.988128
 30
0.0
 11
58.7
 21
16.538128
 31
0.0
  0
LINE
  5
29E
330
1E
100
AcDbEntity
  8
0
100
AcDbLine
 10
61.0
 20
11.21745299999999
 30
0.0
 11
61.0
 21
4.21756799999999
 31
0.0
  0
LINE
  5
29F
330
1E
100
AcDbEntity
  8
0
100
AcDbLine
 10
58.7
 20
16.538128
 30
0.0
 11
61.1
 21
17.488128
 31
0.0
  0
LINE
  5
2A0
330
1E
100
AcDbEntity
  8
0
100
AcDbLine
 10
59.5
 20
14.58902799999999
 30
0.0
 11
62.2
 21
15.639028
 31
0.0
  0
LINE
  5
2A1
330
1E
100
AcDbEntity
  8
0
100
AcDbLine
 10
56.29999999999999
 20
13.989028
 30
0.0
 11
59.5
 21
14.58902799999999
 31
0.0
  0
LINE
  5
2A2
330
1E
100
AcDbEntity
  8
0
100
AcDbLine
 10
59.2
 20
13.973028
 30
0.0
 11
61.79999999999999
 21
14.97302799999999
 31
0.0
  0
LINE
  5
2A3
330
1E
100
AcDbEntity
  8
0
100
AcDbLine
 10
56.2
 20
13.373028
 30
0.0
 11
59.2
 21
13.973028
 31
0.0
  0
LINE
  5
2A4
330
1E
100
AcDbEntity
  8
0
100
AcDbLine
 10
56.2
 20
95.64542800000001
 30
0.0
 11
59.2
 21
96.245428
 31
0.0
  0
LINE
  5
2A5
330
1E
100
AcDbEntity
  8
0
100
AcDbLine
 10
59.2
 20
96.245428
 30
0.0
 11
61.31745339796349
 21
97.05983315306291
 31
0.0
  0
LINE
  5
2A6
330
1E
100
AcDbEntity
  8
0
100
AcDbLine
 10
56.29999999999999
 20
96.26142800000001
 30
0.0
 11
59.14758679085529
 21
96.79535052328541
 31
0.0
  0
LINE
  5
2A7
330
1E
100
AcDbEntity
  8
0
100
AcDbLine
 10
61.1
 20
17.488128
 30
0.0
 11
63.0
 21
18.68812799999999
 31
0.0
  0
LINE
  5
2A8
330
1E
100
AcDbEntity
  8
0
100
AcDbLine
 10
63.0
 20
18.68812799999999
 30
0.0
 11
64.1
 21
20.03812799999999
 31
0.0
  0
LINE
  5
2A9
330
1E
100
AcDbEntity
  8
0
100
AcDbLine
 10
62.2
 20
15.639028
 30
0.0
 11
64.29999999999999
 21
16.989028
 31
0.0
  0
LINE
  5
2AA
330
1E
100
AcDbEntity
  8
0
100
AcDbLine
 10
61.79999999999999
 20
14.97302799999999
 30
0.0
 11
63.79999999999999
 21
16.273028
 31
0.0
  0
LINE
  5
2AB
330
1E
100
AcDbEntity
  8
0
100
AcDbLine
 10
64.29999999999999
 20
16.989028
 30
0.0
 11
65.5
 21
18.589028
 31
0.0
  0
LINE
  5
2AC
330
1E
100
AcDbEntity
  8
0
100
AcDbLine
 10
64.71910689393751
 20
23.0561443825781
 30
0.0
 11
65.0
 21
22.705028
 31
0.0
  0
LINE
  5
2AE
330
1E
100
AcDbEntity
  8
0
100
AcDbLine
 10
65.0
 20
22.705028
 30
0.0
 11
65.5
 21
21.889028
 31
0.0
  0
LINE
  5
2AF
330
1E
100
AcDbEntity
  8
0
100
AcDbLine
 10
64.5
 20
21.538128
 30
0.0
 11
66.0
 21
31.930428
 31
0.0
  0
LINE
  5
2B0
330
1E
100
AcDbEntity
  8
0
100
AcDbLine
 10
64.1
 20
20.03812799999999
 30
0.0
 11
64.5
 21
21.538128
 31
0.0
  0
LINE
  5
2B2
330
1E
100
AcDbEntity
  8
0
100
AcDbLine
 10
65.0
 20
17.773028
 30
0.0
 11
65.5
 21
18.589028
 31
0.0
  0
LINE
  5
2B3
330
1E
100
AcDbEntity
  8
0
100
AcDbLine
 10
63.79999999999999
 20
16.273028
 30
0.0
 11
65.0
 21
17.773028
 31
0.0
  0
LINE
  5
2B4
330
1E
100
AcDbEntity
  8
0
100
AcDbLine
 10
64.1
 20
15.70792799999999
 30
0.0
 11
64.47604
 21
17.118078
 31
0.0
  0
LINE
  5
2B5
330
1E
100
AcDbEntity
  8
0
100
AcDbLine
 10
63.6
 20
14.07592799999999
 30
0.0
 11
64.1
 21
15.70792799999999
 31
0.0
  0
LINE
  5
2B6
330
1E
100
AcDbEntity
  8
0
100
AcDbLine
 10
62.5
 20
12.72592799999999
 30
0.0
 11
63.6
 21
14.07592799999999
 31
0.0
  0
LINE
  5
2B7
330
1E
100
AcDbEntity
  8
0
100
AcDbLine
 10
61.7
 20
11.676828
 30
0.0
 11
62.5
 21
12.72592799999999
 31
0.0
  0
LINE
  5
2B8
330
1E
100
AcDbEntity
  8
0
100
AcDbLine
 10
60.1
 20
10.62682799999999
 30
0.0
 11
61.7
 21
11.676828
 31
0.0
  0
LINE
  5
2B9
330
1E
100
AcDbEntity
  8
0
100
AcDbLine
 10
65.5
 20
21.889028
 30
0.0
 11
66.0
 21
20.239028
 31
0.0
  0
LINE
  5
2BA
330
1E
100
AcDbEntity
  8
0
100
AcDbLine
 10
67.5
 20
50.549928
 30
0.0
 11
68.0
 21
61.375228
 31
0.0
  0
LINE
  5
2BB
330
1E
100
AcDbEntity
  8
0
100
AcDbLine
 10
66.0
 20
31.930428
 30
0.0
 11
67.5
 21
50.549928
 31
0.0
  0
LINE
  5
2BC
330
1E
100
AcDbEntity
  8
0
100
AcDbLine
 10
65.5
 20
18.589028
 30
0.0
 11
66.0
 21
20.239028
 31
0.0
  0
LINE
  5
2BD
330
1E
100
AcDbEntity
  8
0
100
AcDbLine
 10
67.5
 20
72.20052800000001
 30
0.0
 11
68.0
 21
61.375228
 31
0.0
  0
LINE
  5
2BE
330
1E
100
AcDbEntity
  8
0
100
AcDbLine
 10
66.0
 20
90.82012799999999
 30
0.0
 11
67.5
 21
72.20052800000001
 31
0.0
  0
LINE
  5
2BF
330
1E
100
AcDbEntity
  8
0
100
AcDbLine
 10
65.0339901151759
 20
97.51283768403871
 30
0.0
 11
66.0
 21
90.82012799999999
 31
0.0
  0
LINE
  5
2C0
330
1E
100
AcDbEntity
  8
0
100
AcDbLine
 10
66.5
 20
97.691528
 30
0.0
 11
79.1
 21
102.1084279999999
 31
0.0
  0
LINE
  5
2C1
330
1E
100
AcDbEntity
  8
0
100
AcDbLine
 10
53.0
 20
97.96112800000001
 30
0.0
 11
65.8
 21
99.520428
 31
0.0
  0
LINE
  5
2C2
330
1E
100
AcDbEntity
  8
0
100
AcDbLine
 10
41.3185
 20
102.334428
 30
0.0
 11
41.57729999999999
 21
103.170428
 31
0.0
  0
LINE
  5
2C3
330
1E
100
AcDbEntity
  8
0
100
AcDbLine
 10
40.6114
 20
103.894428
 30
0.0
 11
40.6114
 21
103.394428
 31
0.0
  0
LINE
  5
2C4
330
1E
100
AcDbEntity
  8
0
100
AcDbLine
 10
40.6114
 20
103.894428
 30
0.0
 11
41.57729999999999
 21
103.6704279999999
 31
0.0
  0
LINE
  5
2C5
330
1E
100
AcDbEntity
  8
0
100
AcDbLine
 10
48.4052
 20
108.219428
 30
0.0
 11
48.5357
 21
109.078428
 31
0.0
  0
LINE
  5
2C6
330
1E
100
AcDbEntity
  8
0
100
AcDbLine
 10
41.57729999999999
 20
103.6704279999999
 30
0.0
 11
41.57729999999999
 21
103.170428
 31
0.0
  0
LINE
  5
2C7
330
1E
100
AcDbEntity
  8
0
100
AcDbLine
 10
41.57729999999999
 20
103.170428
 30
0.0
 11
41.57729999999999
 21
103.6704279999999
 31
0.0
  0
LINE
  5
2C8
330
1E
100
AcDbEntity
  8
0
100
AcDbLine
 10
40.6114
 20
103.394428
 30
0.0
 11
40.6114
 21
103.894428
 31
0.0
  0
LINE
  5
2C9
330
1E
100
AcDbEntity
  8
0
100
AcDbLine
 10
40.6114
 20
103.394428
 30
0.0
 11
41.57729999999999
 21
103.170428
 31
0.0
  0
LINE
  5
2CA
330
1E
100
AcDbEntity
  8
0
100
AcDbLine
 10
52.5
 20
102.425428
 30
0.0
 11
53.5
 21
102.425428
 31
0.0
  0
LINE
  5
2CB
330
1E
100
AcDbEntity
  8
0
100
AcDbLine
 10
52.5
 20
102.425428
 30
0.0
 11
52.5
 21
101.9254279999999
 31
0.0
  0
LINE
  5
2CC
330
1E
100
AcDbEntity
  8
0
100
AcDbLine
 10
52.5
 20
102.425428
 30
0.0
 11
52.5
 21
101.5594279999999
 31
0.0
  0
LINE
  5
2CD
330
1E
100
AcDbEntity
  8
0
100
AcDbLine
 10
52.5
 20
101.9254279999999
 30
0.0
 11
52.5
 21
102.425428
 31
0.0
  0
LINE
  5
2CE
330
1E
100
AcDbEntity
  8
0
100
AcDbLine
 10
52.5
 20
101.9254279999999
 30
0.0
 11
53.5
 21
101.9254279999999
 31
0.0
  0
LINE
  5
2CF
330
1E
100
AcDbEntity
  8
0
100
AcDbLine
 10
52.5
 20
101.9254279999999
 30
0.0
 11
52.5
 21
101.059428
 31
0.0
  0
LINE
  5
2D0
330
1E
100
AcDbEntity
  8
0
100
AcDbLine
 10
52.5
 20
101.5594279999999
 30
0.0
 11
52.5
 21
101.059428
 31
0.0
  0
LINE
  5
2D1
330
1E
100
AcDbEntity
  8
0
100
AcDbLine
 10
52.5
 20
101.5594279999999
 30
0.0
 11
52.5
 21
102.425428
 31
0.0
  0
LINE
  5
2D2
330
1E
100
AcDbEntity
  8
0
100
AcDbLine
 10
53.5
 20
102.425428
 30
0.0
 11
53.5
 21
101.9254279999999
 31
0.0
  0
LINE
  5
2D3
330
1E
100
AcDbEntity
  8
0
100
AcDbLine
 10
53.5
 20
101.9254279999999
 30
0.0
 11
53.5
 21
102.425428
 31
0.0
  0
LINE
  5
2D4
330
1E
100
AcDbEntity
  8
0
100
AcDbLine
 10
53.5
 20
101.9254279999999
 30
0.0
 11
53.5
 21
101.059428
 31
0.0
  0
LINE
  5
2D5
330
1E
100
AcDbEntity
  8
0
100
AcDbLine
 10
53.5
 20
101.059428
 30
0.0
 11
53.5
 21
101.9254279999999
 31
0.0
  0
LINE
  5
2D6
330
1E
100
AcDbEntity
  8
0
100
AcDbLine
 10
52.5
 20
101.059428
 30
0.0
 11
53.5
 21
101.059428
 31
0.0
  0
LINE
  5
2D7
330
1E
100
AcDbEntity
  8
0
100
AcDbLine
 10
52.5
 20
101.059428
 30
0.0
 11
52.5
 21
101.9254279999999
 31
0.0
  0
LINE
  5
2D8
330
1E
100
AcDbEntity
  8
0
100
AcDbLine
 10
52.5
 20
101.059428
 30
0.0
 11
52.5
 21
101.5594279999999
 31
0.0
  0
LINE
  5
2D9
330
1E
100
AcDbEntity
  8
0
100
AcDbLine
 10
47.4138
 20
108.832428
 30
0.0
 11
47.4138
 21
108.332428
 31
0.0
  0
LINE
  5
2DA
330
1E
100
AcDbEntity
  8
0
100
AcDbLine
 10
47.4138
 20
108.832428
 30
0.0
 11
47.5443
 21
109.691428
 31
0.0
  0
LINE
  5
2DB
330
1E
100
AcDbEntity
  8
0
100
AcDbLine
 10
48.5357
 20
109.078428
 30
0.0
 11
48.5357
 21
109.5784279999999
 31
0.0
  0
LINE
  5
2DC
330
1E
100
AcDbEntity
  8
0
100
AcDbLine
 10
48.5357
 20
109.5784279999999
 30
0.0
 11
48.5357
 21
109.078428
 31
0.0
  0
LINE
  5
2DD
330
1E
100
AcDbEntity
  8
0
100
AcDbLine
 10
47.5443
 20
109.191428
 30
0.0
 11
47.5443
 21
109.691428
 31
0.0
  0
LINE
  5
2DE
330
1E
100
AcDbEntity
  8
0
100
AcDbLine
 10
47.5443
 20
109.191428
 30
0.0
 11
48.5357
 21
109.078428
 31
0.0
  0
LINE
  5
2DF
330
1E
100
AcDbEntity
  8
0
100
AcDbLine
 10
47.4138
 20
108.332428
 30
0.0
 11
47.4138
 21
108.832428
 31
0.0
  0
LINE
  5
2E0
330
1E
100
AcDbEntity
  8
0
100
AcDbLine
 10
47.4138
 20
108.332428
 30
0.0
 11
48.4052
 21
108.219428
 31
0.0
  0
LINE
  5
2E1
330
1E
100
AcDbEntity
  8
0
100
AcDbLine
 10
47.4138
 20
108.332428
 30
0.0
 11
47.5443
 21
109.191428
 31
0.0
  0
LINE
  5
2E2
330
1E
100
AcDbEntity
  8
0
100
AcDbLine
 10
47.5443
 20
109.691428
 30
0.0
 11
47.5443
 21
109.191428
 31
0.0
  0
LINE
  5
2E3
330
1E
100
AcDbEntity
  8
0
100
AcDbLine
 10
47.5443
 20
109.691428
 30
0.0
 11
48.5357
 21
109.5784279999999
 31
0.0
  0
LINE
  5
2E4
330
1E
100
AcDbEntity
  8
0
100
AcDbLine
 10
57.4643
 20
109.5784279999999
 30
0.0
 11
58.4557
 21
109.691428
 31
0.0
  0
LINE
  5
2E5
330
1E
100
AcDbEntity
  8
0
100
AcDbLine
 10
57.4643
 20
109.5784279999999
 30
0.0
 11
57.4643
 21
109.078428
 31
0.0
  0
LINE
  5
2E6
330
1E
100
AcDbEntity
  8
0
100
AcDbLine
 10
57.4643
 20
109.078428
 30
0.0
 11
58.4557
 21
109.191428
 31
0.0
  0
LINE
  5
2E7
330
1E
100
AcDbEntity
  8
0
100
AcDbLine
 10
57.4643
 20
109.078428
 30
0.0
 11
57.4643
 21
109.5784279999999
 31
0.0
  0
LINE
  5
2E8
330
1E
100
AcDbEntity
  8
0
100
AcDbLine
 10
57.4643
 20
109.078428
 30
0.0
 11
57.59479999999999
 21
108.219428
 31
0.0
  0
LINE
  5
2E9
330
1E
100
AcDbEntity
  8
0
100
AcDbLine
 10
58.4557
 20
109.691428
 30
0.0
 11
58.5862
 21
108.832428
 31
0.0
  0
LINE
  5
2EA
330
1E
100
AcDbEntity
  8
0
100
AcDbLine
 10
58.4557
 20
109.691428
 30
0.0
 11
58.4557
 21
109.191428
 31
0.0
  0
LINE
  5
2EB
330
1E
100
AcDbEntity
  8
0
100
AcDbLine
 10
58.5862
 20
108.832428
 30
0.0
 11
58.5862
 21
108.332428
 31
0.0
  0
LINE
  5
2EC
330
1E
100
AcDbEntity
  8
0
100
AcDbLine
 10
58.4557
 20
109.191428
 30
0.0
 11
58.5862
 21
108.332428
 31
0.0
  0
LINE
  5
2ED
330
1E
100
AcDbEntity
  8
0
100
AcDbLine
 10
58.4557
 20
109.191428
 30
0.0
 11
58.4557
 21
109.691428
 31
0.0
  0
LINE
  5
2EE
330
1E
100
AcDbEntity
  8
0
100
AcDbLine
 10
57.59479999999999
 20
108.219428
 30
0.0
 11
58.5862
 21
108.332428
 31
0.0
  0
LINE
  5
2EF
330
1E
100
AcDbEntity
  8
0
100
AcDbLine
 10
64.6815
 20
102.334428
 30
0.0
 11
65.6475
 21
102.558428
 31
0.0
  0
LINE
  5
2F0
330
1E
100
AcDbEntity
  8
0
100
AcDbLine
 10
64.4227
 20
103.6704279999999
 30
0.0
 11
65.38859999999999
 21
103.894428
 31
0.0
  0
LINE
  5
2F1
330
1E
100
AcDbEntity
  8
0
100
AcDbLine
 10
64.4227
 20
103.6704279999999
 30
0.0
 11
64.4227
 21
103.170428
 31
0.0
  0
LINE
  5
2F2
330
1E
100
AcDbEntity
  8
0
100
AcDbLine
 10
64.4227
 20
103.170428
 30
0.0
 11
65.38859999999999
 21
103.394428
 31
0.0
  0
LINE
  5
2F3
330
1E
100
AcDbEntity
  8
0
100
AcDbLine
 10
64.4227
 20
103.170428
 30
0.0
 11
64.4227
 21
103.6704279999999
 31
0.0
  0
LINE
  5
2F4
330
1E
100
AcDbEntity
  8
0
100
AcDbLine
 10
64.4227
 20
103.170428
 30
0.0
 11
64.6815
 21
102.334428
 31
0.0
  0
LINE
  5
2F5
330
1E
100
AcDbEntity
  8
0
100
AcDbLine
 10
65.38859999999999
 20
103.894428
 30
0.0
 11
65.6475
 21
103.058428
 31
0.0
  0
LINE
  5
2F6
330
1E
100
AcDbEntity
  8
0
100
AcDbLine
 10
65.38859999999999
 20
103.894428
 30
0.0
 11
65.38859999999999
 21
103.394428
 31
0.0
  0
LINE
  5
2F7
330
1E
100
AcDbEntity
  8
0
100
AcDbLine
 10
65.6475
 20
103.058428
 30
0.0
 11
65.6475
 21
102.558428
 31
0.0
  0
LINE
  5
2F8
330
1E
100
AcDbEntity
  8
0
100
AcDbLine
 10
65.38859999999999
 20
103.394428
 30
0.0
 11
65.6475
 21
102.558428
 31
0.0
  0
LINE
  5
2F9
330
1E
100
AcDbEntity
  8
0
100
AcDbLine
 10
65.38859999999999
 20
103.394428
 30
0.0
 11
65.38859999999999
 21
103.894428
 31
0.0
  0
LINE
  5
2FA
330
1E
100
AcDbEntity
  8
0
100
AcDbLine
 10
65.6475
 20
102.558428
 30
0.0
 11
65.6475
 21
103.058428
 31
0.0
  0
LINE
  5
2FB
330
1E
100
AcDbEntity
  8
0
100
AcDbLine
 10
58.5862
 20
108.332428
 30
0.0
 11
58.5862
 21
108.832428
 31
0.0
  0
LINE
  5
2FC
330
1E
100
AcDbEntity
  8
0
100
AcDbLine
 10
65.8
 20
99.520428
 30
0.0
 11
77.9
 21
103.763428
 31
0.0
  0
LINE
  5
2FD
330
1E
100
AcDbEntity
  8
0
100
AcDbLine
 10
79.1
 20
102.1084279999999
 30
0.0
 11
90.0
 21
109.469428
 31
0.0
  0
LINE
  5
2FE
330
1E
100
AcDbEntity
  8
0
100
AcDbLine
 10
77.9
 20
103.763428
 30
0.0
 11
88.3
 21
110.691428
 31
0.0
  0
LINE
  5
2FF
330
1E
100
AcDbEntity
  8
0
100
AcDbLine
 10
67.08
 20
111.1924279999999
 30
0.0
 11
68.0039
 21
111.5244279999999
 31
0.0
  0
LINE
  5
300
330
1E
100
AcDbEntity
  8
0
100
AcDbLine
 10
67.08
 20
111.1924279999999
 30
0.0
 11
67.08
 21
111.692428
 31
0.0
  0
LINE
  5
301
330
1E
100
AcDbEntity
  8
0
100
AcDbLine
 10
67.08
 20
111.1924279999999
 30
0.0
 11
67.46269999999999
 21
110.392428
 31
0.0
  0
LINE
  5
302
330
1E
100
AcDbEntity
  8
0
100
AcDbLine
 10
68.3866
 20
111.224428
 30
0.0
 11
68.3866
 21
110.7244279999999
 31
0.0
  0
LINE
  5
303
330
1E
100
AcDbEntity
  8
0
100
AcDbLine
 10
68.0039
 20
111.5244279999999
 30
0.0
 11
68.3866
 21
110.7244279999999
 31
0.0
  0
LINE
  5
304
330
1E
100
AcDbEntity
  8
0
100
AcDbLine
 10
68.0039
 20
111.5244279999999
 30
0.0
 11
68.0039
 21
112.024428
 31
0.0
  0
LINE
  5
305
330
1E
100
AcDbEntity
  8
0
100
AcDbLine
 10
67.46269999999999
 20
110.392428
 30
0.0
 11
68.3866
 21
110.7244279999999
 31
0.0
  0
LINE
  5
306
330
1E
100
AcDbEntity
  8
0
100
AcDbLine
 10
76.067
 20
106.295428
 30
0.0
 11
76.933
 21
106.728428
 31
0.0
  0
LINE
  5
307
330
1E
100
AcDbEntity
  8
0
100
AcDbLine
 10
75.56699999999999
 20
107.5454279999999
 30
0.0
 11
76.433
 21
107.978428
 31
0.0
  0
LINE
  5
308
330
1E
100
AcDbEntity
  8
0
100
AcDbLine
 10
75.56699999999999
 20
107.5454279999999
 30
0.0
 11
75.56699999999999
 21
107.045428
 31
0.0
  0
LINE
  5
309
330
1E
100
AcDbEntity
  8
0
100
AcDbLine
 10
75.56699999999999
 20
107.045428
 30
0.0
 11
76.433
 21
107.478428
 31
0.0
  0
LINE
  5
30A
330
1E
100
AcDbEntity
  8
0
100
AcDbLine
 10
75.56699999999999
 20
107.045428
 30
0.0
 11
75.56699999999999
 21
107.5454279999999
 31
0.0
  0
LINE
  5
30B
330
1E
100
AcDbEntity
  8
0
100
AcDbLine
 10
75.56699999999999
 20
107.045428
 30
0.0
 11
76.067
 21
106.295428
 31
0.0
  0
LINE
  5
30C
330
1E
100
AcDbEntity
  8
0
100
AcDbLine
 10
76.433
 20
107.978428
 30
0.0
 11
76.933
 21
107.228428
 31
0.0
  0
LINE
  5
30D
330
1E
100
AcDbEntity
  8
0
100
AcDbLine
 10
76.433
 20
107.978428
 30
0.0
 11
76.433
 21
107.478428
 31
0.0
  0
LINE
  5
30E
330
1E
100
AcDbEntity
  8
0
100
AcDbLine
 10
76.933
 20
107.228428
 30
0.0
 11
76.933
 21
106.728428
 31
0.0
  0
LINE
  5
30F
330
1E
100
AcDbEntity
  8
0
100
AcDbLine
 10
76.433
 20
107.478428
 30
0.0
 11
76.933
 21
106.728428
 31
0.0
  0
LINE
  5
310
330
1E
100
AcDbEntity
  8
0
100
AcDbLine
 10
76.433
 20
107.478428
 30
0.0
 11
76.433
 21
107.978428
 31
0.0
  0
LINE
  5
311
330
1E
100
AcDbEntity
  8
0
100
AcDbLine
 10
76.933
 20
106.728428
 30
0.0
 11
76.933
 21
107.228428
 31
0.0
  0
LINE
  5
312
330
1E
100
AcDbEntity
  8
0
100
AcDbLine
 10
68.3866
 20
110.7244279999999
 30
0.0
 11
68.3866
 21
111.224428
 31
0.0
  0
LINE
  5
313
330
1E
100
AcDbEntity
  8
0
100
AcDbLine
 10
77.9
 20
104.763428
 30
0.0
 11
88.3
 21
111.691428
 31
0.0
  0
LINE
  5
314
330
1E
100
AcDbEntity
  8
0
100
AcDbLine
 10
65.8
 20
100.520428
 30
0.0
 11
77.9
 21
104.763428
 31
0.0
  0
LINE
  5
315
330
1E
100
AcDbEntity
  8
0
100
AcDbLine
 10
53.0
 20
98.961128
 30
0.0
 11
65.8
 21
100.520428
 31
0.0
  0
LINE
  5
316
330
1E
100
AcDbEntity
  8
0
100
AcDbLine
 10
90.0
 20
109.469428
 30
0.0
 11
98.50000000000001
 21
118.909428
 31
0.0
  0
LINE
  5
317
330
1E
100
AcDbEntity
  8
0
100
AcDbLine
 10
88.3
 20
110.691428
 30
0.0
 11
96.3
 21
119.698428
 31
0.0
  0
LINE
  5
318
330
1E
100
AcDbEntity
  8
0
100
AcDbLine
 10
67.08
 20
111.692428
 30
0.0
 11
68.0039
 21
112.024428
 31
0.0
  0
LINE
  5
319
330
1E
100
AcDbEntity
  8
0
100
AcDbLine
 10
67.08
 20
111.692428
 30
0.0
 11
67.08
 21
111.1924279999999
 31
0.0
  0
LINE
  5
31A
330
1E
100
AcDbEntity
  8
0
100
AcDbLine
 10
68.0039
 20
112.024428
 30
0.0
 11
68.3866
 21
111.224428
 31
0.0
  0
LINE
  5
31B
330
1E
100
AcDbEntity
  8
0
100
AcDbLine
 10
68.0039
 20
112.024428
 30
0.0
 11
68.0039
 21
111.5244279999999
 31
0.0
  0
LINE
  5
31C
330
1E
100
AcDbEntity
  8
0
100
AcDbLine
 10
85.1734
 20
113.287428
 30
0.0
 11
85.8805
 21
113.899428
 31
0.0
  0
LINE
  5
31D
330
1E
100
AcDbEntity
  8
0
100
AcDbLine
 10
85.1734
 20
113.287428
 30
0.0
 11
85.1734
 21
113.787428
 31
0.0
  0
LINE
  5
31E
330
1E
100
AcDbEntity
  8
0
100
AcDbLine
 10
85.1734
 20
113.287428
 30
0.0
 11
85.8805
 21
112.674428
 31
0.0
  0
LINE
  5
31F
330
1E
100
AcDbEntity
  8
0
100
AcDbLine
 10
85.8805
 20
112.674428
 30
0.0
 11
86.58759999999999
 21
113.287428
 31
0.0
  0
LINE
  5
320
330
1E
100
AcDbEntity
  8
0
100
AcDbLine
 10
85.1734
 20
113.787428
 30
0.0
 11
85.8805
 21
114.399428
 31
0.0
  0
LINE
  5
321
330
1E
100
AcDbEntity
  8
0
100
AcDbLine
 10
85.1734
 20
113.787428
 30
0.0
 11
85.1734
 21
113.287428
 31
0.0
  0
LINE
  5
322
330
1E
100
AcDbEntity
  8
0
100
AcDbLine
 10
76.345
 20
114.7034279999999
 30
0.0
 11
77.13840000000001
 21
115.230428
 31
0.0
  0
LINE
  5
323
330
1E
100
AcDbEntity
  8
0
100
AcDbLine
 10
85.8805
 20
114.399428
 30
0.0
 11
86.58759999999999
 21
113.787428
 31
0.0
  0
LINE
  5
324
330
1E
100
AcDbEntity
  8
0
100
AcDbLine
 10
85.8805
 20
114.399428
 30
0.0
 11
85.8805
 21
113.899428
 31
0.0
  0
LINE
  5
325
330
1E
100
AcDbEntity
  8
0
100
AcDbLine
 10
86.58759999999999
 20
113.787428
 30
0.0
 11
86.58759999999999
 21
113.287428
 31
0.0
  0
LINE
  5
326
330
1E
100
AcDbEntity
  8
0
100
AcDbLine
 10
85.8805
 20
113.899428
 30
0.0
 11
85.8805
 21
114.399428
 31
0.0
  0
LINE
  5
327
330
1E
100
AcDbEntity
  8
0
100
AcDbLine
 10
85.8805
 20
113.899428
 30
0.0
 11
86.58759999999999
 21
113.287428
 31
0.0
  0
LINE
  5
328
330
1E
100
AcDbEntity
  8
0
100
AcDbLine
 10
86.58759999999999
 20
113.287428
 30
0.0
 11
86.58759999999999
 21
113.787428
 31
0.0
  0
LINE
  5
329
330
1E
100
AcDbEntity
  8
0
100
AcDbLine
 10
53.5
 20
114.915428
 30
0.0
 11
53.5
 21
115.7814279999999
 31
0.0
  0
LINE
  5
32A
330
1E
100
AcDbEntity
  8
0
100
AcDbLine
 10
45.4596
 20
115.718428
 30
0.0
 11
45.7184
 21
116.5544279999999
 31
0.0
  0
LINE
  5
32B
330
1E
100
AcDbEntity
  8
0
100
AcDbLine
 10
44.4936
 20
116.442428
 30
0.0
 11
44.4936
 21
115.942428
 31
0.0
  0
LINE
  5
32C
330
1E
100
AcDbEntity
  8
0
100
AcDbLine
 10
44.4936
 20
116.442428
 30
0.0
 11
44.75249999999999
 21
117.2794279999999
 31
0.0
  0
LINE
  5
32D
330
1E
100
AcDbEntity
  8
0
100
AcDbLine
 10
45.7184
 20
116.5544279999999
 30
0.0
 11
45.7184
 21
117.054428
 31
0.0
  0
LINE
  5
32E
330
1E
100
AcDbEntity
  8
0
100
AcDbLine
 10
45.7184
 20
117.054428
 30
0.0
 11
45.7184
 21
116.5544279999999
 31
0.0
  0
LINE
  5
32F
330
1E
100
AcDbEntity
  8
0
100
AcDbLine
 10
44.75249999999999
 20
117.2794279999999
 30
0.0
 11
44.75249999999999
 21
116.779428
 31
0.0
  0
LINE
  5
330
330
1E
100
AcDbEntity
  8
0
100
AcDbLine
 10
44.75249999999999
 20
117.2794279999999
 30
0.0
 11
45.7184
 21
117.054428
 31
0.0
  0
LINE
  5
331
330
1E
100
AcDbEntity
  8
0
100
AcDbLine
 10
44.75249999999999
 20
116.779428
 30
0.0
 11
44.75249999999999
 21
117.2794279999999
 31
0.0
  0
LINE
  5
332
330
1E
100
AcDbEntity
  8
0
100
AcDbLine
 10
44.75249999999999
 20
116.779428
 30
0.0
 11
45.7184
 21
116.5544279999999
 31
0.0
  0
LINE
  5
333
330
1E
100
AcDbEntity
  8
0
100
AcDbLine
 10
44.4936
 20
115.942428
 30
0.0
 11
44.4936
 21
116.442428
 31
0.0
  0
LINE
  5
334
330
1E
100
AcDbEntity
  8
0
100
AcDbLine
 10
44.4936
 20
115.942428
 30
0.0
 11
45.4596
 21
115.718428
 31
0.0
  0
LINE
  5
335
330
1E
100
AcDbEntity
  8
0
100
AcDbLine
 10
44.4936
 20
115.942428
 30
0.0
 11
44.75249999999999
 21
116.779428
 31
0.0
  0
LINE
  5
336
330
1E
100
AcDbEntity
  8
0
100
AcDbLine
 10
43.7363
 20
124.025428
 30
0.0
 11
43.7363
 21
123.525428
 31
0.0
  0
LINE
  5
337
330
1E
100
AcDbEntity
  8
0
100
AcDbLine
 10
43.7363
 20
124.025428
 30
0.0
 11
44.119
 21
124.825428
 31
0.0
  0
LINE
  5
338
330
1E
100
AcDbEntity
  8
0
100
AcDbLine
 10
44.6602
 20
123.194428
 30
0.0
 11
45.0429
 21
123.994428
 31
0.0
  0
LINE
  5
339
330
1E
100
AcDbEntity
  8
0
100
AcDbLine
 10
45.0429
 20
123.994428
 30
0.0
 11
45.0429
 21
124.494428
 31
0.0
  0
LINE
  5
33A
330
1E
100
AcDbEntity
  8
0
100
AcDbLine
 10
45.0429
 20
124.494428
 30
0.0
 11
45.0429
 21
123.994428
 31
0.0
  0
LINE
  5
33B
330
1E
100
AcDbEntity
  8
0
100
AcDbLine
 10
44.119
 20
124.825428
 30
0.0
 11
44.119
 21
124.325428
 31
0.0
  0
LINE
  5
33C
330
1E
100
AcDbEntity
  8
0
100
AcDbLine
 10
44.119
 20
124.825428
 30
0.0
 11
45.0429
 21
124.494428
 31
0.0
  0
LINE
  5
33D
330
1E
100
AcDbEntity
  8
0
100
AcDbLine
 10
44.119
 20
124.325428
 30
0.0
 11
44.119
 21
124.825428
 31
0.0
  0
LINE
  5
33E
330
1E
100
AcDbEntity
  8
0
100
AcDbLine
 10
44.119
 20
124.325428
 30
0.0
 11
45.0429
 21
123.994428
 31
0.0
  0
LINE
  5
33F
330
1E
100
AcDbEntity
  8
0
100
AcDbLine
 10
43.7363
 20
123.525428
 30
0.0
 11
43.7363
 21
124.025428
 31
0.0
  0
LINE
  5
340
330
1E
100
AcDbEntity
  8
0
100
AcDbLine
 10
43.7363
 20
123.525428
 30
0.0
 11
44.6602
 21
123.194428
 31
0.0
  0
LINE
  5
341
330
1E
100
AcDbEntity
  8
0
100
AcDbLine
 10
43.7363
 20
123.525428
 30
0.0
 11
44.119
 21
124.325428
 31
0.0
  0
LINE
  5
342
330
1E
100
AcDbEntity
  8
0
100
AcDbLine
 10
49.5022
 20
122.570428
 30
0.0
 11
49.5022
 21
122.070428
 31
0.0
  0
LINE
  5
343
330
1E
100
AcDbEntity
  8
0
100
AcDbLine
 10
49.5022
 20
122.570428
 30
0.0
 11
49.6327
 21
123.429428
 31
0.0
  0
LINE
  5
344
330
1E
100
AcDbEntity
  8
0
100
AcDbLine
 10
50.4936
 20
121.957428
 30
0.0
 11
50.62409999999999
 21
122.816428
 31
0.0
  0
LINE
  5
345
330
1E
100
AcDbEntity
  8
0
100
AcDbLine
 10
50.62409999999999
 20
122.816428
 30
0.0
 11
50.62409999999999
 21
123.316428
 31
0.0
  0
LINE
  5
346
330
1E
100
AcDbEntity
  8
0
100
AcDbLine
 10
50.62409999999999
 20
123.316428
 30
0.0
 11
50.62409999999999
 21
122.816428
 31
0.0
  0
LINE
  5
347
330
1E
100
AcDbEntity
  8
0
100
AcDbLine
 10
49.6327
 20
123.429428
 30
0.0
 11
49.6327
 21
122.9294279999999
 31
0.0
  0
LINE
  5
348
330
1E
100
AcDbEntity
  8
0
100
AcDbLine
 10
49.6327
 20
123.429428
 30
0.0
 11
50.62409999999999
 21
123.316428
 31
0.0
  0
LINE
  5
349
330
1E
100
AcDbEntity
  8
0
100
AcDbLine
 10
49.6327
 20
122.9294279999999
 30
0.0
 11
49.6327
 21
123.429428
 31
0.0
  0
LINE
  5
34A
330
1E
100
AcDbEntity
  8
0
100
AcDbLine
 10
49.6327
 20
122.9294279999999
 30
0.0
 11
50.62409999999999
 21
122.816428
 31
0.0
  0
LINE
  5
34B
330
1E
100
AcDbEntity
  8
0
100
AcDbLine
 10
49.5022
 20
122.070428
 30
0.0
 11
49.5022
 21
122.570428
 31
0.0
  0
LINE
  5
34C
330
1E
100
AcDbEntity
  8
0
100
AcDbLine
 10
49.5022
 20
122.070428
 30
0.0
 11
50.4936
 21
121.957428
 31
0.0
  0
LINE
  5
34D
330
1E
100
AcDbEntity
  8
0
100
AcDbLine
 10
49.5022
 20
122.070428
 30
0.0
 11
49.6327
 21
122.9294279999999
 31
0.0
  0
LINE
  5
34E
330
1E
100
AcDbEntity
  8
0
100
AcDbLine
 10
49.6007
 20
129.102428
 30
0.0
 11
49.85949999999999
 21
129.939428
 31
0.0
  0
LINE
  5
34F
330
1E
100
AcDbEntity
  8
0
100
AcDbLine
 10
48.6348
 20
129.326428
 30
0.0
 11
48.6348
 21
129.8264279999999
 31
0.0
  0
LINE
  5
350
330
1E
100
AcDbEntity
  8
0
100
AcDbLine
 10
48.6348
 20
129.326428
 30
0.0
 11
49.6007
 21
129.102428
 31
0.0
  0
LINE
  5
351
330
1E
100
AcDbEntity
  8
0
100
AcDbLine
 10
48.6348
 20
129.326428
 30
0.0
 11
48.89359999999999
 21
130.163428
 31
0.0
  0
LINE
  5
352
330
1E
100
AcDbEntity
  8
0
100
AcDbLine
 10
48.89359999999999
 20
130.663428
 30
0.0
 11
48.89359999999999
 21
130.163428
 31
0.0
  0
LINE
  5
353
330
1E
100
AcDbEntity
  8
0
100
AcDbLine
 10
48.89359999999999
 20
130.663428
 30
0.0
 11
49.85949999999999
 21
130.4394279999999
 31
0.0
  0
LINE
  5
354
330
1E
100
AcDbEntity
  8
0
100
AcDbLine
 10
49.85949999999999
 20
130.4394279999999
 30
0.0
 11
49.85949999999999
 21
129.939428
 31
0.0
  0
LINE
  5
355
330
1E
100
AcDbEntity
  8
0
100
AcDbLine
 10
49.85949999999999
 20
129.939428
 30
0.0
 11
49.85949999999999
 21
130.4394279999999
 31
0.0
  0
LINE
  5
356
330
1E
100
AcDbEntity
  8
0
100
AcDbLine
 10
48.89359999999999
 20
130.163428
 30
0.0
 11
48.89359999999999
 21
130.663428
 31
0.0
  0
LINE
  5
357
330
1E
100
AcDbEntity
  8
0
100
AcDbLine
 10
48.89359999999999
 20
130.163428
 30
0.0
 11
49.85949999999999
 21
129.939428
 31
0.0
  0
LINE
  5
358
330
1E
100
AcDbEntity
  8
0
100
AcDbLine
 10
48.6348
 20
129.8264279999999
 30
0.0
 11
48.6348
 21
129.326428
 31
0.0
  0
LINE
  5
359
330
1E
100
AcDbEntity
  8
0
100
AcDbLine
 10
48.6348
 20
129.8264279999999
 30
0.0
 11
48.89359999999999
 21
130.663428
 31
0.0
  0
LINE
  5
35A
330
1E
100
AcDbEntity
  8
0
100
AcDbLine
 10
45.933
 20
130.295428
 30
0.0
 11
46.43299999999999
 21
131.045428
 31
0.0
  0
LINE
  5
35B
330
1E
100
AcDbEntity
  8
0
100
AcDbLine
 10
46.43299999999999
 20
131.045428
 30
0.0
 11
46.43299999999999
 21
131.545428
 31
0.0
  0
LINE
  5
35C
330
1E
100
AcDbEntity
  8
0
100
AcDbLine
 10
45.067
 20
130.728428
 30
0.0
 11
45.067
 21
131.228428
 31
0.0
  0
LINE
  5
35D
330
1E
100
AcDbEntity
  8
0
100
AcDbLine
 10
45.067
 20
130.728428
 30
0.0
 11
45.933
 21
130.295428
 31
0.0
  0
LINE
  5
35E
330
1E
100
AcDbEntity
  8
0
100
AcDbLine
 10
45.067
 20
130.728428
 30
0.0
 11
45.567
 21
131.478428
 31
0.0
  0
LINE
  5
35F
330
1E
100
AcDbEntity
  8
0
100
AcDbLine
 10
52.5
 20
130.138428
 30
0.0
 11
53.5
 21
130.138428
 31
0.0
  0
LINE
  5
360
330
1E
100
AcDbEntity
  8
0
100
AcDbLine
 10
52.5
 20
130.138428
 30
0.0
 11
52.5
 21
129.638428
 31
0.0
  0
LINE
  5
361
330
1E
100
AcDbEntity
  8
0
100
AcDbLine
 10
52.5
 20
130.138428
 30
0.0
 11
52.5
 21
129.2724279999999
 31
0.0
  0
LINE
  5
362
330
1E
100
AcDbEntity
  8
0
100
AcDbLine
 10
52.5
 20
129.638428
 30
0.0
 11
52.5
 21
130.138428
 31
0.0
  0
LINE
  5
363
330
1E
100
AcDbEntity
  8
0
100
AcDbLine
 10
52.5
 20
129.638428
 30
0.0
 11
53.5
 21
129.638428
 31
0.0
  0
LINE
  5
364
330
1E
100
AcDbEntity
  8
0
100
AcDbLine
 10
52.5
 20
129.638428
 30
0.0
 11
52.5
 21
128.7724279999999
 31
0.0
  0
LINE
  5
365
330
1E
100
AcDbEntity
  8
0
100
AcDbLine
 10
52.5
 20
129.2724279999999
 30
0.0
 11
52.5
 21
128.7724279999999
 31
0.0
  0
LINE
  5
366
330
1E
100
AcDbEntity
  8
0
100
AcDbLine
 10
52.5
 20
129.2724279999999
 30
0.0
 11
52.5
 21
130.138428
 31
0.0
  0
LINE
  5
367
330
1E
100
AcDbEntity
  8
0
100
AcDbLine
 10
52.5
 20
128.7724279999999
 30
0.0
 11
53.5
 21
128.7724279999999
 31
0.0
  0
LINE
  5
368
330
1E
100
AcDbEntity
  8
0
100
AcDbLine
 10
52.5
 20
128.7724279999999
 30
0.0
 11
52.5
 21
129.638428
 31
0.0
  0
LINE
  5
369
330
1E
100
AcDbEntity
  8
0
100
AcDbLine
 10
52.5
 20
128.7724279999999
 30
0.0
 11
52.5
 21
129.2724279999999
 31
0.0
  0
LINE
  5
36A
330
1E
100
AcDbEntity
  8
0
100
AcDbLine
 10
52.5
 20
116.281428
 30
0.0
 11
53.5
 21
116.281428
 31
0.0
  0
LINE
  5
36B
330
1E
100
AcDbEntity
  8
0
100
AcDbLine
 10
52.5
 20
116.281428
 30
0.0
 11
52.5
 21
115.7814279999999
 31
0.0
  0
LINE
  5
36C
330
1E
100
AcDbEntity
  8
0
100
AcDbLine
 10
52.5
 20
116.281428
 30
0.0
 11
52.5
 21
115.4154279999999
 31
0.0
  0
LINE
  5
36D
330
1E
100
AcDbEntity
  8
0
100
AcDbLine
 10
52.5
 20
115.7814279999999
 30
0.0
 11
52.5
 21
116.281428
 31
0.0
  0
LINE
  5
36E
330
1E
100
AcDbEntity
  8
0
100
AcDbLine
 10
52.5
 20
115.7814279999999
 30
0.0
 11
53.5
 21
115.7814279999999
 31
0.0
  0
LINE
  5
36F
330
1E
100
AcDbEntity
  8
0
100
AcDbLine
 10
52.5
 20
115.7814279999999
 30
0.0
 11
52.5
 21
114.915428
 31
0.0
  0
LINE
  5
370
330
1E
100
AcDbEntity
  8
0
100
AcDbLine
 10
75.7363
 20
115.390428
 30
0.0
 11
76.5296
 21
115.917428
 31
0.0
  0
LINE
  5
371
330
1E
100
AcDbEntity
  8
0
100
AcDbLine
 10
75.7363
 20
115.390428
 30
0.0
 11
75.7363
 21
115.890428
 31
0.0
  0
LINE
  5
372
330
1E
100
AcDbEntity
  8
0
100
AcDbLine
 10
75.7363
 20
115.390428
 30
0.0
 11
76.345
 21
114.7034279999999
 31
0.0
  0
LINE
  5
373
330
1E
100
AcDbEntity
  8
0
100
AcDbLine
 10
77.13840000000001
 20
115.7304279999999
 30
0.0
 11
77.13840000000001
 21
115.230428
 31
0.0
  0
LINE
  5
374
330
1E
100
AcDbEntity
  8
0
100
AcDbLine
 10
77.13840000000001
 20
115.230428
 30
0.0
 11
77.13840000000001
 21
115.7304279999999
 31
0.0
  0
LINE
  5
375
330
1E
100
AcDbEntity
  8
0
100
AcDbLine
 10
60.5404
 20
115.718428
 30
0.0
 11
61.5064
 21
115.942428
 31
0.0
  0
LINE
  5
376
330
1E
100
AcDbEntity
  8
0
100
AcDbLine
 10
53.5
 20
130.138428
 30
0.0
 11
53.5
 21
129.638428
 31
0.0
  0
LINE
  5
377
330
1E
100
AcDbEntity
  8
0
100
AcDbLine
 10
53.5
 20
129.638428
 30
0.0
 11
53.5
 21
130.138428
 31
0.0
  0
LINE
  5
378
330
1E
100
AcDbEntity
  8
0
100
AcDbLine
 10
53.5
 20
129.638428
 30
0.0
 11
53.5
 21
128.7724279999999
 31
0.0
  0
LINE
  5
379
330
1E
100
AcDbEntity
  8
0
100
AcDbLine
 10
53.5
 20
128.7724279999999
 30
0.0
 11
53.5
 21
129.638428
 31
0.0
  0
LINE
  5
37A
330
1E
100
AcDbEntity
  8
0
100
AcDbLine
 10
55.3759
 20
123.316428
 30
0.0
 11
56.3673
 21
123.429428
 31
0.0
  0
LINE
  5
37B
330
1E
100
AcDbEntity
  8
0
100
AcDbLine
 10
55.3759
 20
123.316428
 30
0.0
 11
55.3759
 21
122.816428
 31
0.0
  0
LINE
  5
37C
330
1E
100
AcDbEntity
  8
0
100
AcDbLine
 10
55.3759
 20
122.816428
 30
0.0
 11
56.3673
 21
122.9294279999999
 31
0.0
  0
LINE
  5
37D
330
1E
100
AcDbEntity
  8
0
100
AcDbLine
 10
55.3759
 20
122.816428
 30
0.0
 11
55.3759
 21
123.316428
 31
0.0
  0
LINE
  5
37E
330
1E
100
AcDbEntity
  8
0
100
AcDbLine
 10
55.3759
 20
122.816428
 30
0.0
 11
55.5064
 21
121.957428
 31
0.0
  0
LINE
  5
37F
330
1E
100
AcDbEntity
  8
0
100
AcDbLine
 10
56.3673
 20
123.429428
 30
0.0
 11
56.49779999999999
 21
122.570428
 31
0.0
  0
LINE
  5
380
330
1E
100
AcDbEntity
  8
0
100
AcDbLine
 10
56.3673
 20
123.429428
 30
0.0
 11
56.3673
 21
122.9294279999999
 31
0.0
  0
LINE
  5
381
330
1E
100
AcDbEntity
  8
0
100
AcDbLine
 10
56.3673
 20
122.9294279999999
 30
0.0
 11
56.49779999999999
 21
122.070428
 31
0.0
  0
LINE
  5
382
330
1E
100
AcDbEntity
  8
0
100
AcDbLine
 10
56.3673
 20
122.9294279999999
 30
0.0
 11
56.3673
 21
123.429428
 31
0.0
  0
LINE
  5
383
330
1E
100
AcDbEntity
  8
0
100
AcDbLine
 10
55.5064
 20
121.957428
 30
0.0
 11
56.49779999999999
 21
122.070428
 31
0.0
  0
LINE
  5
384
330
1E
100
AcDbEntity
  8
0
100
AcDbLine
 10
60.28159999999999
 20
116.5544279999999
 30
0.0
 11
61.2475
 21
116.779428
 31
0.0
  0
LINE
  5
385
330
1E
100
AcDbEntity
  8
0
100
AcDbLine
 10
60.28159999999999
 20
116.5544279999999
 30
0.0
 11
60.28159999999999
 21
117.054428
 31
0.0
  0
LINE
  5
386
330
1E
100
AcDbEntity
  8
0
100
AcDbLine
 10
60.28159999999999
 20
116.5544279999999
 30
0.0
 11
60.5404
 21
115.718428
 31
0.0
  0
LINE
  5
387
330
1E
100
AcDbEntity
  8
0
100
AcDbLine
 10
56.49779999999999
 20
122.570428
 30
0.0
 11
56.49779999999999
 21
122.070428
 31
0.0
  0
LINE
  5
388
330
1E
100
AcDbEntity
  8
0
100
AcDbLine
 10
56.49779999999999
 20
122.070428
 30
0.0
 11
56.49779999999999
 21
122.570428
 31
0.0
  0
LINE
  5
389
330
1E
100
AcDbEntity
  8
0
100
AcDbLine
 10
60.28159999999999
 20
117.054428
 30
0.0
 11
61.2475
 21
117.2794279999999
 31
0.0
  0
LINE
  5
38A
330
1E
100
AcDbEntity
  8
0
100
AcDbLine
 10
60.28159999999999
 20
117.054428
 30
0.0
 11
60.28159999999999
 21
116.5544279999999
 31
0.0
  0
LINE
  5
38B
330
1E
100
AcDbEntity
  8
0
100
AcDbLine
 10
61.2475
 20
117.2794279999999
 30
0.0
 11
61.5064
 21
116.442428
 31
0.0
  0
LINE
  5
38C
330
1E
100
AcDbEntity
  8
0
100
AcDbLine
 10
61.2475
 20
117.2794279999999
 30
0.0
 11
61.2475
 21
116.779428
 31
0.0
  0
LINE
  5
38D
330
1E
100
AcDbEntity
  8
0
100
AcDbLine
 10
61.2475
 20
116.779428
 30
0.0
 11
61.5064
 21
115.942428
 31
0.0
  0
LINE
  5
38E
330
1E
100
AcDbEntity
  8
0
100
AcDbLine
 10
61.2475
 20
116.779428
 30
0.0
 11
61.2475
 21
117.2794279999999
 31
0.0
  0
LINE
  5
38F
330
1E
100
AcDbEntity
  8
0
100
AcDbLine
 10
61.5064
 20
116.442428
 30
0.0
 11
61.5064
 21
115.942428
 31
0.0
  0
LINE
  5
390
330
1E
100
AcDbEntity
  8
0
100
AcDbLine
 10
61.5064
 20
115.942428
 30
0.0
 11
61.5064
 21
116.442428
 31
0.0
  0
LINE
  5
391
330
1E
100
AcDbEntity
  8
0
100
AcDbLine
 10
75.7363
 20
115.890428
 30
0.0
 11
76.5296
 21
116.417428
 31
0.0
  0
LINE
  5
392
330
1E
100
AcDbEntity
  8
0
100
AcDbLine
 10
75.7363
 20
115.890428
 30
0.0
 11
75.7363
 21
115.390428
 31
0.0
  0
LINE
  5
393
330
1E
100
AcDbEntity
  8
0
100
AcDbLine
 10
76.5296
 20
116.417428
 30
0.0
 11
77.13840000000001
 21
115.7304279999999
 31
0.0
  0
LINE
  5
394
330
1E
100
AcDbEntity
  8
0
100
AcDbLine
 10
76.5296
 20
116.417428
 30
0.0
 11
76.5296
 21
115.917428
 31
0.0
  0
LINE
  5
395
330
1E
100
AcDbEntity
  8
0
100
AcDbLine
 10
76.5296
 20
115.917428
 30
0.0
 11
76.5296
 21
116.417428
 31
0.0
  0
LINE
  5
396
330
1E
100
AcDbEntity
  8
0
100
AcDbLine
 10
76.5296
 20
115.917428
 30
0.0
 11
77.13840000000001
 21
115.230428
 31
0.0
  0
LINE
  5
397
330
1E
100
AcDbEntity
  8
0
100
AcDbLine
 10
68.06699999999999
 20
118.295428
 30
0.0
 11
68.933
 21
118.728428
 31
0.0
  0
LINE
  5
398
330
1E
100
AcDbEntity
  8
0
100
AcDbLine
 10
67.56699999999999
 20
119.545428
 30
0.0
 11
68.43300000000001
 21
119.978428
 31
0.0
  0
LINE
  5
399
330
1E
100
AcDbEntity
  8
0
100
AcDbLine
 10
67.56699999999999
 20
119.545428
 30
0.0
 11
67.56699999999999
 21
119.0454279999999
 31
0.0
  0
LINE
  5
39A
330
1E
100
AcDbEntity
  8
0
100
AcDbLine
 10
67.56699999999999
 20
119.0454279999999
 30
0.0
 11
68.43300000000001
 21
119.478428
 31
0.0
  0
LINE
  5
39B
330
1E
100
AcDbEntity
  8
0
100
AcDbLine
 10
67.56699999999999
 20
119.0454279999999
 30
0.0
 11
67.56699999999999
 21
119.545428
 31
0.0
  0
LINE
  5
39C
330
1E
100
AcDbEntity
  8
0
100
AcDbLine
 10
67.56699999999999
 20
119.0454279999999
 30
0.0
 11
68.06699999999999
 21
118.295428
 31
0.0
  0
LINE
  5
39D
330
1E
100
AcDbEntity
  8
0
100
AcDbLine
 10
68.43300000000001
 20
119.978428
 30
0.0
 11
68.933
 21
119.228428
 31
0.0
  0
LINE
  5
39E
330
1E
100
AcDbEntity
  8
0
100
AcDbLine
 10
68.43300000000001
 20
119.978428
 30
0.0
 11
68.43300000000001
 21
119.478428
 31
0.0
  0
LINE
  5
39F
330
1E
100
AcDbEntity
  8
0
100
AcDbLine
 10
74.5668
 20
122.4724279999999
 30
0.0
 11
75.2739
 21
123.085428
 31
0.0
  0
LINE
  5
3A0
330
1E
100
AcDbEntity
  8
0
100
AcDbLine
 10
82.84299999999999
 20
121.885428
 30
0.0
 11
83.4518
 21
122.572428
 31
0.0
  0
LINE
  5
3A1
330
1E
100
AcDbEntity
  8
0
100
AcDbLine
 10
82.84299999999999
 20
121.885428
 30
0.0
 11
82.84299999999999
 21
121.385428
 31
0.0
  0
LINE
  5
3A2
330
1E
100
AcDbEntity
  8
0
100
AcDbLine
 10
82.84299999999999
 20
121.385428
 30
0.0
 11
83.4518
 21
122.0724279999999
 31
0.0
  0
LINE
  5
3A3
330
1E
100
AcDbEntity
  8
0
100
AcDbLine
 10
82.84299999999999
 20
121.385428
 30
0.0
 11
82.84299999999999
 21
121.885428
 31
0.0
  0
LINE
  5
3A4
330
1E
100
AcDbEntity
  8
0
100
AcDbLine
 10
82.84299999999999
 20
121.385428
 30
0.0
 11
83.6364
 21
120.8584279999999
 31
0.0
  0
LINE
  5
3A5
330
1E
100
AcDbEntity
  8
0
100
AcDbLine
 10
73.8596
 20
123.085428
 30
0.0
 11
74.5668
 21
123.697428
 31
0.0
  0
LINE
  5
3A6
330
1E
100
AcDbEntity
  8
0
100
AcDbLine
 10
73.8596
 20
123.085428
 30
0.0
 11
73.8596
 21
123.585428
 31
0.0
  0
LINE
  5
3A7
330
1E
100
AcDbEntity
  8
0
100
AcDbLine
 10
73.8596
 20
123.085428
 30
0.0
 11
74.5668
 21
122.4724279999999
 31
0.0
  0
LINE
  5
3A8
330
1E
100
AcDbEntity
  8
0
100
AcDbLine
 10
75.2739
 20
123.085428
 30
0.0
 11
75.2739
 21
123.585428
 31
0.0
  0
LINE
  5
3A9
330
1E
100
AcDbEntity
  8
0
100
AcDbLine
 10
83.4518
 20
122.572428
 30
0.0
 11
84.24519999999999
 21
122.045428
 31
0.0
  0
LINE
  5
3AA
330
1E
100
AcDbEntity
  8
0
100
AcDbLine
 10
83.4518
 20
122.572428
 30
0.0
 11
83.4518
 21
122.0724279999999
 31
0.0
  0
LINE
  5
3AB
330
1E
100
AcDbEntity
  8
0
100
AcDbLine
 10
84.24519999999999
 20
122.045428
 30
0.0
 11
84.24519999999999
 21
121.545428
 31
0.0
  0
LINE
  5
3AC
330
1E
100
AcDbEntity
  8
0
100
AcDbLine
 10
83.4518
 20
122.0724279999999
 30
0.0
 11
83.4518
 21
122.572428
 31
0.0
  0
LINE
  5
3AD
330
1E
100
AcDbEntity
  8
0
100
AcDbLine
 10
83.4518
 20
122.0724279999999
 30
0.0
 11
84.24519999999999
 21
121.545428
 31
0.0
  0
LINE
  5
3AE
330
1E
100
AcDbEntity
  8
0
100
AcDbLine
 10
83.6364
 20
120.8584279999999
 30
0.0
 11
84.24519999999999
 21
121.545428
 31
0.0
  0
LINE
  5
3AF
330
1E
100
AcDbEntity
  8
0
100
AcDbLine
 10
92.5872
 20
121.968428
 30
0.0
 11
93.08719999999999
 21
122.718428
 31
0.0
  0
LINE
  5
3B0
330
1E
100
AcDbEntity
  8
0
100
AcDbLine
 10
92.5872
 20
121.968428
 30
0.0
 11
92.5872
 21
121.4684279999999
 31
0.0
  0
LINE
  5
3B1
330
1E
100
AcDbEntity
  8
0
100
AcDbLine
 10
92.5872
 20
121.4684279999999
 30
0.0
 11
92.5872
 21
121.968428
 31
0.0
  0
LINE
  5
3B2
330
1E
100
AcDbEntity
  8
0
100
AcDbLine
 10
92.5872
 20
121.4684279999999
 30
0.0
 11
93.08719999999999
 21
122.218428
 31
0.0
  0
LINE
  5
3B3
330
1E
100
AcDbEntity
  8
0
100
AcDbLine
 10
92.5872
 20
121.4684279999999
 30
0.0
 11
93.45319999999999
 21
121.035428
 31
0.0
  0
LINE
  5
3B4
330
1E
100
AcDbEntity
  8
0
100
AcDbLine
 10
93.08719999999999
 20
122.718428
 30
0.0
 11
93.95319999999999
 21
122.2854279999999
 31
0.0
  0
LINE
  5
3B5
330
1E
100
AcDbEntity
  8
0
100
AcDbLine
 10
93.08719999999999
 20
122.718428
 30
0.0
 11
93.08719999999999
 21
122.218428
 31
0.0
  0
LINE
  5
3B6
330
1E
100
AcDbEntity
  8
0
100
AcDbLine
 10
93.95319999999999
 20
122.2854279999999
 30
0.0
 11
93.95319999999999
 21
121.785428
 31
0.0
  0
LINE
  5
3B7
330
1E
100
AcDbEntity
  8
0
100
AcDbLine
 10
93.08719999999999
 20
122.218428
 30
0.0
 11
93.08719999999999
 21
122.718428
 31
0.0
  0
LINE
  5
3B8
330
1E
100
AcDbEntity
  8
0
100
AcDbLine
 10
93.08719999999999
 20
122.218428
 30
0.0
 11
93.95319999999999
 21
121.785428
 31
0.0
  0
LINE
  5
3B9
330
1E
100
AcDbEntity
  8
0
100
AcDbLine
 10
93.95319999999999
 20
121.785428
 30
0.0
 11
93.95319999999999
 21
122.2854279999999
 31
0.0
  0
LINE
  5
3BA
330
1E
100
AcDbEntity
  8
0
100
AcDbLine
 10
93.45319999999999
 20
121.035428
 30
0.0
 11
93.95319999999999
 21
121.785428
 31
0.0
  0
LINE
  5
3BB
330
1E
100
AcDbEntity
  8
0
100
AcDbLine
 10
84.24519999999999
 20
121.545428
 30
0.0
 11
84.24519999999999
 21
122.045428
 31
0.0
  0
LINE
  5
3BC
330
1E
100
AcDbEntity
  8
0
100
AcDbLine
 10
68.933
 20
119.228428
 30
0.0
 11
68.933
 21
118.728428
 31
0.0
  0
LINE
  5
3BD
330
1E
100
AcDbEntity
  8
0
100
AcDbLine
 10
68.43300000000001
 20
119.478428
 30
0.0
 11
68.933
 21
118.728428
 31
0.0
  0
LINE
  5
3BE
330
1E
100
AcDbEntity
  8
0
100
AcDbLine
 10
68.43300000000001
 20
119.478428
 30
0.0
 11
68.43300000000001
 21
119.978428
 31
0.0
  0
LINE
  5
3BF
330
1E
100
AcDbEntity
  8
0
100
AcDbLine
 10
68.933
 20
118.728428
 30
0.0
 11
68.933
 21
119.228428
 31
0.0
  0
LINE
  5
3C0
330
1E
100
AcDbEntity
  8
0
100
AcDbLine
 10
61.3398
 20
123.194428
 30
0.0
 11
62.2637
 21
123.525428
 31
0.0
  0
LINE
  5
3C1
330
1E
100
AcDbEntity
  8
0
100
AcDbLine
 10
60.9571
 20
124.494428
 30
0.0
 11
61.881
 21
124.825428
 31
0.0
  0
LINE
  5
3C2
330
1E
100
AcDbEntity
  8
0
100
AcDbLine
 10
60.9571
 20
124.494428
 30
0.0
 11
60.9571
 21
123.994428
 31
0.0
  0
LINE
  5
3C3
330
1E
100
AcDbEntity
  8
0
100
AcDbLine
 10
60.9571
 20
123.994428
 30
0.0
 11
61.881
 21
124.325428
 31
0.0
  0
LINE
  5
3C4
330
1E
100
AcDbEntity
  8
0
100
AcDbLine
 10
60.9571
 20
123.994428
 30
0.0
 11
60.9571
 21
124.494428
 31
0.0
  0
LINE
  5
3C5
330
1E
100
AcDbEntity
  8
0
100
AcDbLine
 10
60.9571
 20
123.994428
 30
0.0
 11
61.3398
 21
123.194428
 31
0.0
  0
LINE
  5
3C6
330
1E
100
AcDbEntity
  8
0
100
AcDbLine
 10
61.881
 20
124.825428
 30
0.0
 11
62.2637
 21
124.025428
 31
0.0
  0
LINE
  5
3C7
330
1E
100
AcDbEntity
  8
0
100
AcDbLine
 10
61.881
 20
124.825428
 30
0.0
 11
61.881
 21
124.325428
 31
0.0
  0
LINE
  5
3C8
330
1E
100
AcDbEntity
  8
0
100
AcDbLine
 10
73.8596
 20
123.585428
 30
0.0
 11
74.5668
 21
124.1974279999999
 31
0.0
  0
LINE
  5
3C9
330
1E
100
AcDbEntity
  8
0
100
AcDbLine
 10
73.8596
 20
123.585428
 30
0.0
 11
73.8596
 21
123.085428
 31
0.0
  0
LINE
  5
3CA
330
1E
100
AcDbEntity
  8
0
100
AcDbLine
 10
75.2739
 20
123.585428
 30
0.0
 11
75.2739
 21
123.085428
 31
0.0
  0
LINE
  5
3CB
330
1E
100
AcDbEntity
  8
0
100
AcDbLine
 10
74.5668
 20
123.697428
 30
0.0
 11
74.5668
 21
124.1974279999999
 31
0.0
  0
LINE
  5
3CC
330
1E
100
AcDbEntity
  8
0
100
AcDbLine
 10
74.5668
 20
123.697428
 30
0.0
 11
75.2739
 21
123.085428
 31
0.0
  0
LINE
  5
3CD
330
1E
100
AcDbEntity
  8
0
100
AcDbLine
 10
65.9961
 20
126.883428
 30
0.0
 11
66.7894
 21
127.4104279999999
 31
0.0
  0
LINE
  5
3CE
330
1E
100
AcDbEntity
  8
0
100
AcDbLine
 10
65.9961
 20
126.883428
 30
0.0
 11
65.9961
 21
126.383428
 31
0.0
  0
LINE
  5
3CF
330
1E
100
AcDbEntity
  8
0
100
AcDbLine
 10
65.9961
 20
126.383428
 30
0.0
 11
66.7894
 21
126.910428
 31
0.0
  0
LINE
  5
3D0
330
1E
100
AcDbEntity
  8
0
100
AcDbLine
 10
65.9961
 20
126.383428
 30
0.0
 11
65.9961
 21
126.883428
 31
0.0
  0
LINE
  5
3D1
330
1E
100
AcDbEntity
  8
0
100
AcDbLine
 10
65.9961
 20
126.383428
 30
0.0
 11
66.60479999999999
 21
125.696428
 31
0.0
  0
LINE
  5
3D2
330
1E
100
AcDbEntity
  8
0
100
AcDbLine
 10
66.7894
 20
127.4104279999999
 30
0.0
 11
67.3982
 21
126.723428
 31
0.0
  0
LINE
  5
3D3
330
1E
100
AcDbEntity
  8
0
100
AcDbLine
 10
66.7894
 20
127.4104279999999
 30
0.0
 11
66.7894
 21
126.910428
 31
0.0
  0
LINE
  5
3D4
330
1E
100
AcDbEntity
  8
0
100
AcDbLine
 10
67.3982
 20
126.723428
 30
0.0
 11
67.3982
 21
126.2234279999999
 31
0.0
  0
LINE
  5
3D5
330
1E
100
AcDbEntity
  8
0
100
AcDbLine
 10
66.7894
 20
126.910428
 30
0.0
 11
66.7894
 21
127.4104279999999
 31
0.0
  0
LINE
  5
3D6
330
1E
100
AcDbEntity
  8
0
100
AcDbLine
 10
66.7894
 20
126.910428
 30
0.0
 11
67.3982
 21
126.2234279999999
 31
0.0
  0
LINE
  5
3D7
330
1E
100
AcDbEntity
  8
0
100
AcDbLine
 10
66.60479999999999
 20
125.696428
 30
0.0
 11
67.3982
 21
126.2234279999999
 31
0.0
  0
LINE
  5
3D8
330
1E
100
AcDbEntity
  8
0
100
AcDbLine
 10
74.5668
 20
124.1974279999999
 30
0.0
 11
75.2739
 21
123.585428
 31
0.0
  0
LINE
  5
3D9
330
1E
100
AcDbEntity
  8
0
100
AcDbLine
 10
74.5668
 20
124.1974279999999
 30
0.0
 11
74.5668
 21
123.697428
 31
0.0
  0
LINE
  5
3DA
330
1E
100
AcDbEntity
  8
0
100
AcDbLine
 10
78.7308
 20
128.8974279999999
 30
0.0
 11
79.2308
 21
129.6474279999999
 31
0.0
  0
LINE
  5
3DB
330
1E
100
AcDbEntity
  8
0
100
AcDbLine
 10
78.7308
 20
128.8974279999999
 30
0.0
 11
78.7308
 21
128.397428
 31
0.0
  0
LINE
  5
3DC
330
1E
100
AcDbEntity
  8
0
100
AcDbLine
 10
78.7308
 20
128.397428
 30
0.0
 11
78.7308
 21
128.8974279999999
 31
0.0
  0
LINE
  5
3DD
330
1E
100
AcDbEntity
  8
0
100
AcDbLine
 10
78.7308
 20
128.397428
 30
0.0
 11
79.2308
 21
129.1474279999999
 31
0.0
  0
LINE
  5
3DE
330
1E
100
AcDbEntity
  8
0
100
AcDbLine
 10
78.7308
 20
128.397428
 30
0.0
 11
79.5968
 21
127.964428
 31
0.0
  0
LINE
  5
3DF
330
1E
100
AcDbEntity
  8
0
100
AcDbLine
 10
79.2308
 20
129.1474279999999
 30
0.0
 11
79.2308
 21
129.6474279999999
 31
0.0
  0
LINE
  5
3E0
330
1E
100
AcDbEntity
  8
0
100
AcDbLine
 10
79.2308
 20
129.1474279999999
 30
0.0
 11
80.09680000000001
 21
128.7144279999999
 31
0.0
  0
LINE
  5
3E1
330
1E
100
AcDbEntity
  8
0
100
AcDbLine
 10
88.84
 20
128.437428
 30
0.0
 11
89.22259999999999
 21
129.2374279999999
 31
0.0
  0
LINE
  5
3E2
330
1E
100
AcDbEntity
  8
0
100
AcDbLine
 10
87.9161
 20
128.768428
 30
0.0
 11
87.9161
 21
129.268428
 31
0.0
  0
LINE
  5
3E3
330
1E
100
AcDbEntity
  8
0
100
AcDbLine
 10
87.9161
 20
128.768428
 30
0.0
 11
88.29880000000001
 21
129.568428
 31
0.0
  0
LINE
  5
3E4
330
1E
100
AcDbEntity
  8
0
100
AcDbLine
 10
87.9161
 20
128.768428
 30
0.0
 11
88.84
 21
128.437428
 31
0.0
  0
LINE
  5
3E5
330
1E
100
AcDbEntity
  8
0
100
AcDbLine
 10
87.9161
 20
129.268428
 30
0.0
 11
88.29880000000001
 21
130.068428
 31
0.0
  0
LINE
  5
3E6
330
1E
100
AcDbEntity
  8
0
100
AcDbLine
 10
87.9161
 20
129.268428
 30
0.0
 11
87.9161
 21
128.768428
 31
0.0
  0
LINE
  5
3E7
330
1E
100
AcDbEntity
  8
0
100
AcDbLine
 10
89.22259999999999
 20
129.2374279999999
 30
0.0
 11
89.22259999999999
 21
129.7374279999999
 31
0.0
  0
LINE
  5
3E8
330
1E
100
AcDbEntity
  8
0
100
AcDbLine
 10
80.09680000000001
 20
129.214428
 30
0.0
 11
80.09680000000001
 21
128.7144279999999
 31
0.0
  0
LINE
  5
3E9
330
1E
100
AcDbEntity
  8
0
100
AcDbLine
 10
80.09680000000001
 20
128.7144279999999
 30
0.0
 11
80.09680000000001
 21
129.214428
 31
0.0
  0
LINE
  5
3EA
330
1E
100
AcDbEntity
  8
0
100
AcDbLine
 10
79.5968
 20
127.964428
 30
0.0
 11
80.09680000000001
 21
128.7144279999999
 31
0.0
  0
LINE
  5
3EB
330
1E
100
AcDbEntity
  8
0
100
AcDbLine
 10
70.9427
 20
129.293428
 30
0.0
 11
71.5515
 21
129.9804279999999
 31
0.0
  0
LINE
  5
3EC
330
1E
100
AcDbEntity
  8
0
100
AcDbLine
 10
67.3982
 20
126.2234279999999
 30
0.0
 11
67.3982
 21
126.723428
 31
0.0
  0
LINE
  5
3ED
330
1E
100
AcDbEntity
  8
0
100
AcDbLine
 10
62.2637
 20
124.025428
 30
0.0
 11
62.2637
 21
123.525428
 31
0.0
  0
LINE
  5
3EE
330
1E
100
AcDbEntity
  8
0
100
AcDbLine
 10
61.881
 20
124.325428
 30
0.0
 11
62.2637
 21
123.525428
 31
0.0
  0
LINE
  5
3EF
330
1E
100
AcDbEntity
  8
0
100
AcDbLine
 10
61.881
 20
124.325428
 30
0.0
 11
61.881
 21
124.825428
 31
0.0
  0
LINE
  5
3F0
330
1E
100
AcDbEntity
  8
0
100
AcDbLine
 10
62.2637
 20
123.525428
 30
0.0
 11
62.2637
 21
124.025428
 31
0.0
  0
LINE
  5
3F1
330
1E
100
AcDbEntity
  8
0
100
AcDbLine
 10
56.39929999999999
 20
129.102428
 30
0.0
 11
57.3652
 21
129.326428
 31
0.0
  0
LINE
  5
3F2
330
1E
100
AcDbEntity
  8
0
100
AcDbLine
 10
56.1405
 20
130.4394279999999
 30
0.0
 11
57.1064
 21
130.663428
 31
0.0
  0
LINE
  5
3F3
330
1E
100
AcDbEntity
  8
0
100
AcDbLine
 10
56.1405
 20
130.4394279999999
 30
0.0
 11
56.1405
 21
129.939428
 31
0.0
  0
LINE
  5
3F4
330
1E
100
AcDbEntity
  8
0
100
AcDbLine
 10
56.1405
 20
129.939428
 30
0.0
 11
57.1064
 21
130.163428
 31
0.0
  0
LINE
  5
3F5
330
1E
100
AcDbEntity
  8
0
100
AcDbLine
 10
56.1405
 20
129.939428
 30
0.0
 11
56.1405
 21
130.4394279999999
 31
0.0
  0
LINE
  5
3F6
330
1E
100
AcDbEntity
  8
0
100
AcDbLine
 10
56.1405
 20
129.939428
 30
0.0
 11
56.39929999999999
 21
129.102428
 31
0.0
  0
LINE
  5
3F7
330
1E
100
AcDbEntity
  8
0
100
AcDbLine
 10
57.1064
 20
130.663428
 30
0.0
 11
57.3652
 21
129.8264279999999
 31
0.0
  0
LINE
  5
3F8
330
1E
100
AcDbEntity
  8
0
100
AcDbLine
 10
57.1064
 20
130.663428
 30
0.0
 11
57.1064
 21
130.163428
 31
0.0
  0
LINE
  5
3F9
330
1E
100
AcDbEntity
  8
0
100
AcDbLine
 10
88.29880000000001
 20
129.568428
 30
0.0
 11
88.29880000000001
 21
130.068428
 31
0.0
  0
LINE
  5
3FA
330
1E
100
AcDbEntity
  8
0
100
AcDbLine
 10
88.29880000000001
 20
129.568428
 30
0.0
 11
89.22259999999999
 21
129.2374279999999
 31
0.0
  0
LINE
  5
3FB
330
1E
100
AcDbEntity
  8
0
100
AcDbLine
 10
89.22259999999999
 20
129.7374279999999
 30
0.0
 11
89.22259999999999
 21
129.2374279999999
 31
0.0
  0
LINE
  5
3FC
330
1E
100
AcDbEntity
  8
0
100
AcDbLine
 10
79.2308
 20
129.6474279999999
 30
0.0
 11
80.09680000000001
 21
129.214428
 31
0.0
  0
LINE
  5
3FD
330
1E
100
AcDbEntity
  8
0
100
AcDbLine
 10
79.2308
 20
129.6474279999999
 30
0.0
 11
79.2308
 21
129.1474279999999
 31
0.0
  0
LINE
  5
3FE
330
1E
100
AcDbEntity
  8
0
100
AcDbLine
 10
70.1494
 20
129.8204279999999
 30
0.0
 11
70.7582
 21
130.507428
 31
0.0
  0
LINE
  5
3FF
330
1E
100
AcDbEntity
  8
0
100
AcDbLine
 10
70.1494
 20
129.8204279999999
 30
0.0
 11
70.1494
 21
130.3204279999999
 31
0.0
  0
LINE
  5
400
330
1E
100
AcDbEntity
  8
0
100
AcDbLine
 10
70.1494
 20
129.8204279999999
 30
0.0
 11
70.9427
 21
129.293428
 31
0.0
  0
LINE
  5
401
330
1E
100
AcDbEntity
  8
0
100
AcDbLine
 10
59.567
 20
131.045428
 30
0.0
 11
60.433
 21
131.478428
 31
0.0
  0
LINE
  5
402
330
1E
100
AcDbEntity
  8
0
100
AcDbLine
 10
59.567
 20
131.045428
 30
0.0
 11
59.567
 21
131.545428
 31
0.0
  0
LINE
  5
403
330
1E
100
AcDbEntity
  8
0
100
AcDbLine
 10
59.567
 20
131.045428
 30
0.0
 11
60.067
 21
130.295428
 31
0.0
  0
LINE
  5
404
330
1E
100
AcDbEntity
  8
0
100
AcDbLine
 10
60.067
 20
130.295428
 30
0.0
 11
60.933
 21
130.728428
 31
0.0
  0
LINE
  5
405
330
1E
100
AcDbEntity
  8
0
100
AcDbLine
 10
70.1494
 20
130.3204279999999
 30
0.0
 11
70.7582
 21
131.007428
 31
0.0
  0
LINE
  5
406
330
1E
100
AcDbEntity
  8
0
100
AcDbLine
 10
70.1494
 20
130.3204279999999
 30
0.0
 11
70.1494
 21
129.8204279999999
 31
0.0
  0
LINE
  5
407
330
1E
100
AcDbEntity
  8
0
100
AcDbLine
 10
70.7582
 20
131.007428
 30
0.0
 11
71.5515
 21
130.4804279999999
 31
0.0
  0
LINE
  5
408
330
1E
100
AcDbEntity
  8
0
100
AcDbLine
 10
70.7582
 20
131.007428
 30
0.0
 11
70.7582
 21
130.507428
 31
0.0
  0
LINE
  5
409
330
1E
100
AcDbEntity
  8
0
100
AcDbLine
 10
88.29880000000001
 20
130.068428
 30
0.0
 11
89.22259999999999
 21
129.7374279999999
 31
0.0
  0
LINE
  5
40A
330
1E
100
AcDbEntity
  8
0
100
AcDbLine
 10
88.29880000000001
 20
130.068428
 30
0.0
 11
88.29880000000001
 21
129.568428
 31
0.0
  0
LINE
  5
40B
330
1E
100
AcDbEntity
  8
0
100
AcDbLine
 10
71.5515
 20
130.4804279999999
 30
0.0
 11
71.5515
 21
129.9804279999999
 31
0.0
  0
LINE
  5
40C
330
1E
100
AcDbEntity
  8
0
100
AcDbLine
 10
70.7582
 20
130.507428
 30
0.0
 11
70.7582
 21
131.007428
 31
0.0
  0
LINE
  5
40D
330
1E
100
AcDbEntity
  8
0
100
AcDbLine
 10
70.7582
 20
130.507428
 30
0.0
 11
71.5515
 21
129.9804279999999
 31
0.0
  0
LINE
  5
40E
330
1E
100
AcDbEntity
  8
0
100
AcDbLine
 10
71.5515
 20
129.9804279999999
 30
0.0
 11
71.5515
 21
130.4804279999999
 31
0.0
  0
LINE
  5
40F
330
1E
100
AcDbEntity
  8
0
100
AcDbLine
 10
60.933
 20
130.728428
 30
0.0
 11
60.933
 21
131.228428
 31
0.0
  0
LINE
  5
410
330
1E
100
AcDbEntity
  8
0
100
AcDbLine
 10
57.3652
 20
129.8264279999999
 30
0.0
 11
57.3652
 21
129.326428
 31
0.0
  0
LINE
  5
411
330
1E
100
AcDbEntity
  8
0
100
AcDbLine
 10
57.1064
 20
130.163428
 30
0.0
 11
57.3652
 21
129.326428
 31
0.0
  0
LINE
  5
412
330
1E
100
AcDbEntity
  8
0
100
AcDbLine
 10
57.1064
 20
130.163428
 30
0.0
 11
57.1064
 21
130.663428
 31
0.0
  0
LINE
  5
413
330
1E
100
AcDbEntity
  8
0
100
AcDbLine
 10
57.3652
 20
129.326428
 30
0.0
 11
57.3652
 21
129.8264279999999
 31
0.0
  0
LINE
  5
414
330
1E
100
AcDbEntity
  8
0
100
AcDbLine
 10
53.5
 20
116.281428
 30
0.0
 11
53.5
 21
115.7814279999999
 31
0.0
  0
LINE
  5
415
330
1E
100
AcDbEntity
  8
0
100
AcDbLine
 10
53.5
 20
115.7814279999999
 30
0.0
 11
53.5
 21
116.281428
 31
0.0
  0
LINE
  5
416
330
1E
100
AcDbEntity
  8
0
100
AcDbLine
 10
53.5
 20
115.7814279999999
 30
0.0
 11
53.5
 21
114.915428
 31
0.0
  0
LINE
  5
417
330
1E
100
AcDbEntity
  8
0
100
AcDbLine
 10
52.5
 20
115.4154279999999
 30
0.0
 11
52.5
 21
114.915428
 31
0.0
  0
LINE
  5
418
330
1E
100
AcDbEntity
  8
0
100
AcDbLine
 10
52.5
 20
115.4154279999999
 30
0.0
 11
52.5
 21
116.281428
 31
0.0
  0
LINE
  5
419
330
1E
100
AcDbEntity
  8
0
100
AcDbLine
 10
52.5
 20
114.915428
 30
0.0
 11
53.5
 21
114.915428
 31
0.0
  0
LINE
  5
41A
330
1E
100
AcDbEntity
  8
0
100
AcDbLine
 10
52.5
 20
114.915428
 30
0.0
 11
52.5
 21
115.7814279999999
 31
0.0
  0
LINE
  5
41B
330
1E
100
AcDbEntity
  8
0
100
AcDbLine
 10
52.5
 20
114.915428
 30
0.0
 11
52.5
 21
115.4154279999999
 31
0.0
  0
LINE
  5
41C
330
1E
100
AcDbEntity
  8
0
100
AcDbLine
 10
96.3
 20
119.698428
 30
0.0
 11
101.2
 21
130.1774279999999
 31
0.0
  0
LINE
  5
41D
330
1E
100
AcDbEntity
  8
0
100
AcDbLine
 10
88.3
 20
111.691428
 30
0.0
 11
96.3
 21
120.698428
 31
0.0
  0
LINE
  5
41E
330
1E
100
AcDbEntity
  8
0
100
AcDbLine
 10
98.9
 20
119.486428
 30
0.0
 11
104.0999999999999
 21
130.484428
 31
0.0
  0
LINE
  5
41F
330
1E
100
AcDbEntity
  8
0
100
AcDbLine
 10
98.50000000000001
 20
118.909428
 30
0.0
 11
103.6
 21
129.821428
 31
0.0
  0
LINE
  5
420
330
1E
100
AcDbEntity
  8
0
100
AcDbLine
 10
98.50000000000001
 20
118.909428
 30
0.0
 11
98.9
 21
119.486428
 31
0.0
  0
LINE
  5
421
330
1E
100
AcDbEntity
  8
0
100
AcDbLine
 10
103.6
 20
129.821428
 30
0.0
 11
105.4999999999999
 21
141.512428
 31
0.0
  0
LINE
  5
422
330
1E
100
AcDbEntity
  8
0
100
AcDbLine
 10
97.3032
 20
131.033428
 30
0.0
 11
97.3032
 21
131.533428
 31
0.0
  0
LINE
  5
423
330
1E
100
AcDbEntity
  8
0
100
AcDbLine
 10
97.3032
 20
131.033428
 30
0.0
 11
97.56200000000001
 21
131.870428
 31
0.0
  0
LINE
  5
424
330
1E
100
AcDbEntity
  8
0
100
AcDbLine
 10
97.3032
 20
131.033428
 30
0.0
 11
98.26909999999999
 21
130.8094279999999
 31
0.0
  0
LINE
  5
425
330
1E
100
AcDbEntity
  8
0
100
AcDbLine
 10
98.26909999999999
 20
130.8094279999999
 30
0.0
 11
98.5279
 21
131.645428
 31
0.0
  0
LINE
  5
426
330
1E
100
AcDbEntity
  8
0
100
AcDbLine
 10
104.0999999999999
 20
130.484428
 30
0.0
 11
106.0
 21
142.2624279999999
 31
0.0
  0
LINE
  5
427
330
1E
100
AcDbEntity
  8
0
100
AcDbLine
 10
101.2
 20
130.1774279999999
 30
0.0
 11
103.0
 21
141.2624279999999
 31
0.0
  0
LINE
  5
428
330
1E
100
AcDbEntity
  8
0
100
AcDbLine
 10
96.3
 20
120.698428
 30
0.0
 11
101.2
 21
131.1774279999999
 31
0.0
  0
LINE
  5
429
330
1E
100
AcDbEntity
  8
0
100
AcDbLine
 10
41.1256
 20
135.825428
 30
0.0
 11
41.1256
 21
135.325428
 31
0.0
  0
LINE
  5
42A
330
1E
100
AcDbEntity
  8
0
100
AcDbLine
 10
42.747
 20
132.270428
 30
0.0
 11
43.4541
 21
132.883428
 31
0.0
  0
LINE
  5
42B
330
1E
100
AcDbEntity
  8
0
100
AcDbLine
 10
45.567
 20
131.978428
 30
0.0
 11
45.567
 21
131.478428
 31
0.0
  0
LINE
  5
42C
330
1E
100
AcDbEntity
  8
0
100
AcDbLine
 10
45.567
 20
131.978428
 30
0.0
 11
46.43299999999999
 21
131.545428
 31
0.0
  0
LINE
  5
42D
330
1E
100
AcDbEntity
  8
0
100
AcDbLine
 10
46.43299999999999
 20
131.545428
 30
0.0
 11
46.43299999999999
 21
131.045428
 31
0.0
  0
LINE
  5
42E
330
1E
100
AcDbEntity
  8
0
100
AcDbLine
 10
45.567
 20
131.478428
 30
0.0
 11
45.567
 21
131.978428
 31
0.0
  0
LINE
  5
42F
330
1E
100
AcDbEntity
  8
0
100
AcDbLine
 10
45.567
 20
131.478428
 30
0.0
 11
46.43299999999999
 21
131.045428
 31
0.0
  0
LINE
  5
430
330
1E
100
AcDbEntity
  8
0
100
AcDbLine
 10
45.067
 20
131.228428
 30
0.0
 11
45.067
 21
130.728428
 31
0.0
  0
LINE
  5
431
330
1E
100
AcDbEntity
  8
0
100
AcDbLine
 10
45.067
 20
131.228428
 30
0.0
 11
45.567
 21
131.978428
 31
0.0
  0
LINE
  5
432
330
1E
100
AcDbEntity
  8
0
100
AcDbLine
 10
43.4541
 20
132.883428
 30
0.0
 11
43.4541
 21
133.383428
 31
0.0
  0
LINE
  5
433
330
1E
100
AcDbEntity
  8
0
100
AcDbLine
 10
42.747
 20
133.995428
 30
0.0
 11
42.747
 21
133.495428
 31
0.0
  0
LINE
  5
434
330
1E
100
AcDbEntity
  8
0
100
AcDbLine
 10
42.747
 20
133.995428
 30
0.0
 11
43.4541
 21
133.383428
 31
0.0
  0
LINE
  5
435
330
1E
100
AcDbEntity
  8
0
100
AcDbLine
 10
42.0398
 20
133.383428
 30
0.0
 11
42.0398
 21
132.883428
 31
0.0
  0
LINE
  5
436
330
1E
100
AcDbEntity
  8
0
100
AcDbLine
 10
42.0398
 20
133.383428
 30
0.0
 11
42.747
 21
133.995428
 31
0.0
  0
LINE
  5
437
330
1E
100
AcDbEntity
  8
0
100
AcDbLine
 10
43.4541
 20
133.383428
 30
0.0
 11
43.4541
 21
132.883428
 31
0.0
  0
LINE
  5
438
330
1E
100
AcDbEntity
  8
0
100
AcDbLine
 10
42.747
 20
133.495428
 30
0.0
 11
42.747
 21
133.995428
 31
0.0
  0
LINE
  5
439
330
1E
100
AcDbEntity
  8
0
100
AcDbLine
 10
42.747
 20
133.495428
 30
0.0
 11
43.4541
 21
132.883428
 31
0.0
  0
LINE
  5
43A
330
1E
100
AcDbEntity
  8
0
100
AcDbLine
 10
42.0398
 20
132.883428
 30
0.0
 11
42.0398
 21
133.383428
 31
0.0
  0
LINE
  5
43B
330
1E
100
AcDbEntity
  8
0
100
AcDbLine
 10
42.0398
 20
132.883428
 30
0.0
 11
42.747
 21
132.270428
 31
0.0
  0
LINE
  5
43C
330
1E
100
AcDbEntity
  8
0
100
AcDbLine
 10
42.0398
 20
132.883428
 30
0.0
 11
42.747
 21
133.495428
 31
0.0
  0
LINE
  5
43D
330
1E
100
AcDbEntity
  8
0
100
AcDbLine
 10
41.1256
 20
135.325428
 30
0.0
 11
41.1256
 21
135.825428
 31
0.0
  0
LINE
  5
43E
330
1E
100
AcDbEntity
  8
0
100
AcDbLine
 10
40.6256
 20
136.575428
 30
0.0
 11
40.6256
 21
136.075428
 31
0.0
  0
LINE
  5
43F
330
1E
100
AcDbEntity
  8
0
100
AcDbLine
 10
40.6256
 20
136.575428
 30
0.0
 11
41.1256
 21
135.825428
 31
0.0
  0
LINE
  5
440
330
1E
100
AcDbEntity
  8
0
100
AcDbLine
 10
40.6256
 20
136.075428
 30
0.0
 11
40.6256
 21
136.575428
 31
0.0
  0
LINE
  5
441
330
1E
100
AcDbEntity
  8
0
100
AcDbLine
 10
40.6256
 20
136.075428
 30
0.0
 11
41.1256
 21
135.325428
 31
0.0
  0
LINE
  5
442
330
1E
100
AcDbEntity
  8
0
100
AcDbLine
 10
59.567
 20
131.545428
 30
0.0
 11
60.433
 21
131.978428
 31
0.0
  0
LINE
  5
443
330
1E
100
AcDbEntity
  8
0
100
AcDbLine
 10
59.567
 20
131.545428
 30
0.0
 11
59.567
 21
131.045428
 31
0.0
  0
LINE
  5
444
330
1E
100
AcDbEntity
  8
0
100
AcDbLine
 10
60.433
 20
131.978428
 30
0.0
 11
60.933
 21
131.228428
 31
0.0
  0
LINE
  5
445
330
1E
100
AcDbEntity
  8
0
100
AcDbLine
 10
60.433
 20
131.978428
 30
0.0
 11
60.433
 21
131.478428
 31
0.0
  0
LINE
  5
446
330
1E
100
AcDbEntity
  8
0
100
AcDbLine
 10
62.5459
 20
133.383428
 30
0.0
 11
63.253
 21
133.995428
 31
0.0
  0
LINE
  5
447
330
1E
100
AcDbEntity
  8
0
100
AcDbLine
 10
62.5459
 20
133.383428
 30
0.0
 11
62.5459
 21
132.883428
 31
0.0
  0
LINE
  5
448
330
1E
100
AcDbEntity
  8
0
100
AcDbLine
 10
62.5459
 20
132.883428
 30
0.0
 11
63.253
 21
133.495428
 31
0.0
  0
LINE
  5
449
330
1E
100
AcDbEntity
  8
0
100
AcDbLine
 10
62.5459
 20
132.883428
 30
0.0
 11
62.5459
 21
133.383428
 31
0.0
  0
LINE
  5
44A
330
1E
100
AcDbEntity
  8
0
100
AcDbLine
 10
62.5459
 20
132.883428
 30
0.0
 11
63.253
 21
132.270428
 31
0.0
  0
LINE
  5
44B
330
1E
100
AcDbEntity
  8
0
100
AcDbLine
 10
63.253
 20
133.995428
 30
0.0
 11
63.9602
 21
133.383428
 31
0.0
  0
LINE
  5
44C
330
1E
100
AcDbEntity
  8
0
100
AcDbLine
 10
63.253
 20
133.995428
 30
0.0
 11
63.253
 21
133.495428
 31
0.0
  0
LINE
  5
44D
330
1E
100
AcDbEntity
  8
0
100
AcDbLine
 10
63.9602
 20
133.383428
 30
0.0
 11
63.9602
 21
132.883428
 31
0.0
  0
LINE
  5
44E
330
1E
100
AcDbEntity
  8
0
100
AcDbLine
 10
63.253
 20
133.495428
 30
0.0
 11
63.253
 21
133.995428
 31
0.0
  0
LINE
  5
44F
330
1E
100
AcDbEntity
  8
0
100
AcDbLine
 10
63.253
 20
133.495428
 30
0.0
 11
63.9602
 21
132.883428
 31
0.0
  0
LINE
  5
450
330
1E
100
AcDbEntity
  8
0
100
AcDbLine
 10
63.253
 20
132.270428
 30
0.0
 11
63.9602
 21
132.883428
 31
0.0
  0
LINE
  5
451
330
1E
100
AcDbEntity
  8
0
100
AcDbLine
 10
64.87439999999999
 20
135.825428
 30
0.0
 11
65.3744
 21
136.575428
 31
0.0
  0
LINE
  5
452
330
1E
100
AcDbEntity
  8
0
100
AcDbLine
 10
64.87439999999999
 20
135.825428
 30
0.0
 11
64.87439999999999
 21
135.325428
 31
0.0
  0
LINE
  5
453
330
1E
100
AcDbEntity
  8
0
100
AcDbLine
 10
64.87439999999999
 20
135.325428
 30
0.0
 11
64.87439999999999
 21
135.825428
 31
0.0
  0
LINE
  5
454
330
1E
100
AcDbEntity
  8
0
100
AcDbLine
 10
64.87439999999999
 20
135.325428
 30
0.0
 11
65.3744
 21
136.075428
 31
0.0
  0
LINE
  5
455
330
1E
100
AcDbEntity
  8
0
100
AcDbLine
 10
64.87439999999999
 20
135.325428
 30
0.0
 11
65.7404
 21
134.892428
 31
0.0
  0
LINE
  5
456
330
1E
100
AcDbEntity
  8
0
100
AcDbLine
 10
65.3744
 20
136.575428
 30
0.0
 11
66.24039999999999
 21
136.142428
 31
0.0
  0
LINE
  5
457
330
1E
100
AcDbEntity
  8
0
100
AcDbLine
 10
65.3744
 20
136.575428
 30
0.0
 11
65.3744
 21
136.075428
 31
0.0
  0
LINE
  5
458
330
1E
100
AcDbEntity
  8
0
100
AcDbLine
 10
65.3744
 20
136.075428
 30
0.0
 11
65.3744
 21
136.575428
 31
0.0
  0
LINE
  5
459
330
1E
100
AcDbEntity
  8
0
100
AcDbLine
 10
65.3744
 20
136.075428
 30
0.0
 11
66.24039999999999
 21
135.6424279999999
 31
0.0
  0
LINE
  5
45A
330
1E
100
AcDbEntity
  8
0
100
AcDbLine
 10
65.7404
 20
134.892428
 30
0.0
 11
66.24039999999999
 21
135.6424279999999
 31
0.0
  0
LINE
  5
45B
330
1E
100
AcDbEntity
  8
0
100
AcDbLine
 10
63.9602
 20
132.883428
 30
0.0
 11
63.9602
 21
133.383428
 31
0.0
  0
LINE
  5
45C
330
1E
100
AcDbEntity
  8
0
100
AcDbLine
 10
60.933
 20
131.228428
 30
0.0
 11
60.933
 21
130.728428
 31
0.0
  0
LINE
  5
45D
330
1E
100
AcDbEntity
  8
0
100
AcDbLine
 10
60.433
 20
131.478428
 30
0.0
 11
60.933
 21
130.728428
 31
0.0
  0
LINE
  5
45E
330
1E
100
AcDbEntity
  8
0
100
AcDbLine
 10
60.433
 20
131.478428
 30
0.0
 11
60.433
 21
131.978428
 31
0.0
  0
LINE
  5
45F
330
1E
100
AcDbEntity
  8
0
100
AcDbLine
 10
54.28
 20
137.5884279999999
 30
0.0
 11
55.48
 21
138.003428
 31
0.0
  0
LINE
  5
460
330
1E
100
AcDbEntity
  8
0
100
AcDbLine
 10
53.0
 20
137.432428
 30
0.0
 11
54.28
 21
137.5884279999999
 31
0.0
  0
LINE
  5
461
330
1E
100
AcDbEntity
  8
0
100
AcDbLine
 10
42.747
 20
150.029428
 30
0.0
 11
43.4541
 21
150.6414279999999
 31
0.0
  0
LINE
  5
462
330
1E
100
AcDbEntity
  8
0
100
AcDbLine
 10
43.4541
 20
150.6414279999999
 30
0.0
 11
43.4541
 21
151.1414279999999
 31
0.0
  0
LINE
  5
463
330
1E
100
AcDbEntity
  8
0
100
AcDbLine
 10
42.747
 20
151.254428
 30
0.0
 11
43.4541
 21
150.6414279999999
 31
0.0
  0
LINE
  5
464
330
1E
100
AcDbEntity
  8
0
100
AcDbLine
 10
42.747
 20
151.254428
 30
0.0
 11
42.747
 21
151.7544279999999
 31
0.0
  0
LINE
  5
465
330
1E
100
AcDbEntity
  8
0
100
AcDbLine
 10
42.0398
 20
151.1414279999999
 30
0.0
 11
42.747
 21
151.7544279999999
 31
0.0
  0
LINE
  5
466
330
1E
100
AcDbEntity
  8
0
100
AcDbLine
 10
42.0398
 20
151.1414279999999
 30
0.0
 11
42.0398
 21
150.6414279999999
 31
0.0
  0
LINE
  5
467
330
1E
100
AcDbEntity
  8
0
100
AcDbLine
 10
43.4541
 20
151.1414279999999
 30
0.0
 11
43.4541
 21
150.6414279999999
 31
0.0
  0
LINE
  5
468
330
1E
100
AcDbEntity
  8
0
100
AcDbLine
 10
42.747
 20
151.7544279999999
 30
0.0
 11
42.747
 21
151.254428
 31
0.0
  0
LINE
  5
469
330
1E
100
AcDbEntity
  8
0
100
AcDbLine
 10
42.747
 20
151.7544279999999
 30
0.0
 11
43.4541
 21
151.1414279999999
 31
0.0
  0
LINE
  5
46A
330
1E
100
AcDbEntity
  8
0
100
AcDbLine
 10
42.0398
 20
150.6414279999999
 30
0.0
 11
42.747
 21
151.254428
 31
0.0
  0
LINE
  5
46B
330
1E
100
AcDbEntity
  8
0
100
AcDbLine
 10
42.0398
 20
150.6414279999999
 30
0.0
 11
42.0398
 21
151.1414279999999
 31
0.0
  0
LINE
  5
46C
330
1E
100
AcDbEntity
  8
0
100
AcDbLine
 10
42.0398
 20
150.6414279999999
 30
0.0
 11
42.747
 21
150.029428
 31
0.0
  0
LINE
  5
46D
330
1E
100
AcDbEntity
  8
0
100
AcDbLine
 10
41.1256
 20
148.699428
 30
0.0
 11
41.1256
 21
148.199428
 31
0.0
  0
LINE
  5
46E
330
1E
100
AcDbEntity
  8
0
100
AcDbLine
 10
41.1256
 20
148.199428
 30
0.0
 11
41.1256
 21
148.699428
 31
0.0
  0
LINE
  5
46F
330
1E
100
AcDbEntity
  8
0
100
AcDbLine
 10
40.6256
 20
147.449428
 30
0.0
 11
41.1256
 21
148.199428
 31
0.0
  0
LINE
  5
470
330
1E
100
AcDbEntity
  8
0
100
AcDbLine
 10
41.3185
 20
181.190428
 30
0.0
 11
41.57729999999999
 21
180.354428
 31
0.0
  0
LINE
  5
471
330
1E
100
AcDbEntity
  8
0
100
AcDbLine
 10
41.3185
 20
181.190428
 30
0.0
 11
41.3185
 21
181.6904279999999
 31
0.0
  0
LINE
  5
472
330
1E
100
AcDbEntity
  8
0
100
AcDbLine
 10
40.6114
 20
180.130428
 30
0.0
 11
41.57729999999999
 21
180.354428
 31
0.0
  0
LINE
  5
473
330
1E
100
AcDbEntity
  8
0
100
AcDbLine
 10
41.57729999999999
 20
180.854428
 30
0.0
 11
41.57729999999999
 21
180.354428
 31
0.0
  0
LINE
  5
474
330
1E
100
AcDbEntity
  8
0
100
AcDbLine
 10
41.57729999999999
 20
180.354428
 30
0.0
 11
41.57729999999999
 21
180.854428
 31
0.0
  0
LINE
  5
475
330
1E
100
AcDbEntity
  8
0
100
AcDbLine
 10
41.3185
 20
181.6904279999999
 30
0.0
 11
41.3185
 21
181.190428
 31
0.0
  0
LINE
  5
476
330
1E
100
AcDbEntity
  8
0
100
AcDbLine
 10
41.3185
 20
181.6904279999999
 30
0.0
 11
41.57729999999999
 21
180.854428
 31
0.0
  0
LINE
  5
477
330
1E
100
AcDbEntity
  8
0
100
AcDbLine
 10
43.7363
 20
160.4994279999999
 30
0.0
 11
44.6602
 21
160.830428
 31
0.0
  0
LINE
  5
478
330
1E
100
AcDbEntity
  8
0
100
AcDbLine
 10
43.7363
 20
160.4994279999999
 30
0.0
 11
43.7363
 21
159.9994279999999
 31
0.0
  0
LINE
  5
479
330
1E
100
AcDbEntity
  8
0
100
AcDbLine
 10
45.0429
 20
160.030428
 30
0.0
 11
45.0429
 21
159.530428
 31
0.0
  0
LINE
  5
47A
330
1E
100
AcDbEntity
  8
0
100
AcDbLine
 10
44.6602
 20
160.330428
 30
0.0
 11
45.0429
 21
159.530428
 31
0.0
  0
LINE
  5
47B
330
1E
100
AcDbEntity
  8
0
100
AcDbLine
 10
44.6602
 20
160.330428
 30
0.0
 11
44.6602
 21
160.830428
 31
0.0
  0
LINE
  5
47C
330
1E
100
AcDbEntity
  8
0
100
AcDbLine
 10
44.119
 20
159.199428
 30
0.0
 11
45.0429
 21
159.530428
 31
0.0
  0
LINE
  5
47D
330
1E
100
AcDbEntity
  8
0
100
AcDbLine
 10
45.567
 20
152.045428
 30
0.0
 11
46.43299999999999
 21
152.478428
 31
0.0
  0
LINE
  5
47E
330
1E
100
AcDbEntity
  8
0
100
AcDbLine
 10
46.43299999999999
 20
152.478428
 30
0.0
 11
46.43299999999999
 21
152.978428
 31
0.0
  0
LINE
  5
47F
330
1E
100
AcDbEntity
  8
0
100
AcDbLine
 10
45.933
 20
153.228428
 30
0.0
 11
46.43299999999999
 21
152.478428
 31
0.0
  0
LINE
  5
480
330
1E
100
AcDbEntity
  8
0
100
AcDbLine
 10
45.933
 20
153.228428
 30
0.0
 11
45.933
 21
153.728428
 31
0.0
  0
LINE
  5
481
330
1E
100
AcDbEntity
  8
0
100
AcDbLine
 10
45.067
 20
153.295428
 30
0.0
 11
45.933
 21
153.728428
 31
0.0
  0
LINE
  5
482
330
1E
100
AcDbEntity
  8
0
100
AcDbLine
 10
45.067
 20
153.295428
 30
0.0
 11
45.067
 21
152.795428
 31
0.0
  0
LINE
  5
483
330
1E
100
AcDbEntity
  8
0
100
AcDbLine
 10
46.43299999999999
 20
152.978428
 30
0.0
 11
46.43299999999999
 21
152.478428
 31
0.0
  0
LINE
  5
484
330
1E
100
AcDbEntity
  8
0
100
AcDbLine
 10
45.933
 20
153.728428
 30
0.0
 11
45.933
 21
153.228428
 31
0.0
  0
LINE
  5
485
330
1E
100
AcDbEntity
  8
0
100
AcDbLine
 10
45.933
 20
153.728428
 30
0.0
 11
46.43299999999999
 21
152.978428
 31
0.0
  0
LINE
  5
486
330
1E
100
AcDbEntity
  8
0
100
AcDbLine
 10
45.067
 20
152.795428
 30
0.0
 11
45.933
 21
153.228428
 31
0.0
  0
LINE
  5
487
330
1E
100
AcDbEntity
  8
0
100
AcDbLine
 10
45.067
 20
152.795428
 30
0.0
 11
45.067
 21
153.295428
 31
0.0
  0
LINE
  5
488
330
1E
100
AcDbEntity
  8
0
100
AcDbLine
 10
45.067
 20
152.795428
 30
0.0
 11
45.567
 21
152.045428
 31
0.0
  0
LINE
  5
489
330
1E
100
AcDbEntity
  8
0
100
AcDbLine
 10
45.0429
 20
159.530428
 30
0.0
 11
45.0429
 21
160.030428
 31
0.0
  0
LINE
  5
48A
330
1E
100
AcDbEntity
  8
0
100
AcDbLine
 10
44.4936
 20
168.0824279999999
 30
0.0
 11
45.4596
 21
168.306428
 31
0.0
  0
LINE
  5
48B
330
1E
100
AcDbEntity
  8
0
100
AcDbLine
 10
44.4936
 20
168.0824279999999
 30
0.0
 11
44.4936
 21
167.582428
 31
0.0
  0
LINE
  5
48C
330
1E
100
AcDbEntity
  8
0
100
AcDbLine
 10
45.7184
 20
167.470428
 30
0.0
 11
45.7184
 21
166.9704279999999
 31
0.0
  0
LINE
  5
48D
330
1E
100
AcDbEntity
  8
0
100
AcDbLine
 10
45.4596
 20
167.806428
 30
0.0
 11
45.7184
 21
166.9704279999999
 31
0.0
  0
LINE
  5
48E
330
1E
100
AcDbEntity
  8
0
100
AcDbLine
 10
45.4596
 20
167.806428
 30
0.0
 11
45.4596
 21
168.306428
 31
0.0
  0
LINE
  5
48F
330
1E
100
AcDbEntity
  8
0
100
AcDbLine
 10
44.75249999999999
 20
166.745428
 30
0.0
 11
45.7184
 21
166.9704279999999
 31
0.0
  0
LINE
  5
490
330
1E
100
AcDbEntity
  8
0
100
AcDbLine
 10
45.7184
 20
166.9704279999999
 30
0.0
 11
45.7184
 21
167.470428
 31
0.0
  0
LINE
  5
491
330
1E
100
AcDbEntity
  8
0
100
AcDbLine
 10
45.4596
 20
168.306428
 30
0.0
 11
45.4596
 21
167.806428
 31
0.0
  0
LINE
  5
492
330
1E
100
AcDbEntity
  8
0
100
AcDbLine
 10
45.4596
 20
168.306428
 30
0.0
 11
45.7184
 21
167.470428
 31
0.0
  0
LINE
  5
493
330
1E
100
AcDbEntity
  8
0
100
AcDbLine
 10
44.4936
 20
167.582428
 30
0.0
 11
45.4596
 21
167.806428
 31
0.0
  0
LINE
  5
494
330
1E
100
AcDbEntity
  8
0
100
AcDbLine
 10
44.4936
 20
167.582428
 30
0.0
 11
44.4936
 21
168.0824279999999
 31
0.0
  0
LINE
  5
495
330
1E
100
AcDbEntity
  8
0
100
AcDbLine
 10
44.4936
 20
167.582428
 30
0.0
 11
44.75249999999999
 21
166.745428
 31
0.0
  0
LINE
  5
496
330
1E
100
AcDbEntity
  8
0
100
AcDbLine
 10
47.4138
 20
175.691428
 30
0.0
 11
48.4052
 21
175.805428
 31
0.0
  0
LINE
  5
497
330
1E
100
AcDbEntity
  8
0
100
AcDbLine
 10
47.4138
 20
175.691428
 30
0.0
 11
47.4138
 21
175.191428
 31
0.0
  0
LINE
  5
498
330
1E
100
AcDbEntity
  8
0
100
AcDbLine
 10
47.5443
 20
174.333428
 30
0.0
 11
48.5357
 21
174.446428
 31
0.0
  0
LINE
  5
499
330
1E
100
AcDbEntity
  8
0
100
AcDbLine
 10
47.4138
 20
175.191428
 30
0.0
 11
48.4052
 21
175.305428
 31
0.0
  0
LINE
  5
49A
330
1E
100
AcDbEntity
  8
0
100
AcDbLine
 10
47.4138
 20
175.191428
 30
0.0
 11
47.4138
 21
175.691428
 31
0.0
  0
LINE
  5
49B
330
1E
100
AcDbEntity
  8
0
100
AcDbLine
 10
47.4138
 20
175.191428
 30
0.0
 11
47.5443
 21
174.333428
 31
0.0
  0
LINE
  5
49C
330
1E
100
AcDbEntity
  8
0
100
AcDbLine
 10
44.6602
 20
160.830428
 30
0.0
 11
44.6602
 21
160.330428
 31
0.0
  0
LINE
  5
49D
330
1E
100
AcDbEntity
  8
0
100
AcDbLine
 10
44.6602
 20
160.830428
 30
0.0
 11
45.0429
 21
160.030428
 31
0.0
  0
LINE
  5
49E
330
1E
100
AcDbEntity
  8
0
100
AcDbLine
 10
43.7363
 20
159.9994279999999
 30
0.0
 11
44.6602
 21
160.330428
 31
0.0
  0
LINE
  5
49F
330
1E
100
AcDbEntity
  8
0
100
AcDbLine
 10
43.7363
 20
159.9994279999999
 30
0.0
 11
43.7363
 21
160.4994279999999
 31
0.0
  0
LINE
  5
4A0
330
1E
100
AcDbEntity
  8
0
100
AcDbLine
 10
43.7363
 20
159.9994279999999
 30
0.0
 11
44.119
 21
159.199428
 31
0.0
  0
LINE
  5
4A1
330
1E
100
AcDbEntity
  8
0
100
AcDbLine
 10
48.0
 20
142.2624279999999
 30
0.0
 11
48.0
 21
141.762428
 31
0.0
  0
LINE
  5
4A2
330
1E
100
AcDbEntity
  8
0
100
AcDbLine
 10
48.0
 20
142.2624279999999
 30
0.0
 11
48.18
 21
143.370428
 31
0.0
  0
LINE
  5
4A3
330
1E
100
AcDbEntity
  8
0
100
AcDbLine
 10
48.18
 20
143.370428
 30
0.0
 11
48.65999999999999
 21
144.4104279999999
 31
0.0
  0
LINE
  5
4A4
330
1E
100
AcDbEntity
  8
0
100
AcDbLine
 10
48.18
 20
142.870428
 30
0.0
 11
48.65999999999999
 21
143.910428
 31
0.0
  0
LINE
  5
4A5
330
1E
100
AcDbEntity
  8
0
100
AcDbLine
 10
48.5357
 20
174.9464279999999
 30
0.0
 11
48.5357
 21
174.446428
 31
0.0
  0
LINE
  5
4A6
330
1E
100
AcDbEntity
  8
0
100
AcDbLine
 10
48.4052
 20
175.305428
 30
0.0
 11
48.5357
 21
174.446428
 31
0.0
  0
LINE
  5
4A7
330
1E
100
AcDbEntity
  8
0
100
AcDbLine
 10
48.4052
 20
175.305428
 30
0.0
 11
48.4052
 21
175.805428
 31
0.0
  0
LINE
  5
4A8
330
1E
100
AcDbEntity
  8
0
100
AcDbLine
 10
48.5357
 20
174.446428
 30
0.0
 11
48.5357
 21
174.9464279999999
 31
0.0
  0
LINE
  5
4A9
330
1E
100
AcDbEntity
  8
0
100
AcDbLine
 10
48.4052
 20
175.805428
 30
0.0
 11
48.4052
 21
175.305428
 31
0.0
  0
LINE
  5
4AA
330
1E
100
AcDbEntity
  8
0
100
AcDbLine
 10
48.4052
 20
175.805428
 30
0.0
 11
48.5357
 21
174.9464279999999
 31
0.0
  0
LINE
  5
4AB
330
1E
100
AcDbEntity
  8
0
100
AcDbLine
 10
48.6348
 20
154.698428
 30
0.0
 11
49.6007
 21
154.9224279999999
 31
0.0
  0
LINE
  5
4AC
330
1E
100
AcDbEntity
  8
0
100
AcDbLine
 10
48.6348
 20
154.698428
 30
0.0
 11
48.6348
 21
154.198428
 31
0.0
  0
LINE
  5
4AD
330
1E
100
AcDbEntity
  8
0
100
AcDbLine
 10
48.6348
 20
154.198428
 30
0.0
 11
49.6007
 21
154.4224279999999
 31
0.0
  0
LINE
  5
4AE
330
1E
100
AcDbEntity
  8
0
100
AcDbLine
 10
48.6348
 20
154.198428
 30
0.0
 11
48.6348
 21
154.698428
 31
0.0
  0
LINE
  5
4AF
330
1E
100
AcDbEntity
  8
0
100
AcDbLine
 10
48.6348
 20
154.198428
 30
0.0
 11
48.89359999999999
 21
153.3614279999999
 31
0.0
  0
LINE
  5
4B0
330
1E
100
AcDbEntity
  8
0
100
AcDbLine
 10
48.65999999999999
 20
144.4104279999999
 30
0.0
 11
49.46
 21
145.328428
 31
0.0
  0
LINE
  5
4B1
330
1E
100
AcDbEntity
  8
0
100
AcDbLine
 10
48.65999999999999
 20
143.910428
 30
0.0
 11
49.46
 21
144.828428
 31
0.0
  0
LINE
  5
4B2
330
1E
100
AcDbEntity
  8
0
100
AcDbLine
 10
48.0
 20
141.762428
 30
0.0
 11
48.18
 21
140.6534279999999
 31
0.0
  0
LINE
  5
4B3
330
1E
100
AcDbEntity
  8
0
100
AcDbLine
 10
48.0
 20
141.762428
 30
0.0
 11
48.18
 21
142.870428
 31
0.0
  0
LINE
  5
4B4
330
1E
100
AcDbEntity
  8
0
100
AcDbLine
 10
48.0
 20
141.762428
 30
0.0
 11
48.0
 21
142.2624279999999
 31
0.0
  0
LINE
  5
4B5
330
1E
100
AcDbEntity
  8
0
100
AcDbLine
 10
48.18
 20
140.6534279999999
 30
0.0
 11
48.65999999999999
 21
139.614428
 31
0.0
  0
LINE
  5
4B6
330
1E
100
AcDbEntity
  8
0
100
AcDbLine
 10
49.46
 20
145.328428
 30
0.0
 11
50.52
 21
146.021428
 31
0.0
  0
LINE
  5
4B7
330
1E
100
AcDbEntity
  8
0
100
AcDbLine
 10
49.46
 20
144.828428
 30
0.0
 11
50.52
 21
145.521428
 31
0.0
  0
LINE
  5
4B8
330
1E
100
AcDbEntity
  8
0
100
AcDbLine
 10
49.85949999999999
 20
154.085428
 30
0.0
 11
49.85949999999999
 21
153.585428
 31
0.0
  0
LINE
  5
4B9
330
1E
100
AcDbEntity
  8
0
100
AcDbLine
 10
49.6007
 20
154.4224279999999
 30
0.0
 11
49.85949999999999
 21
153.585428
 31
0.0
  0
LINE
  5
4BA
330
1E
100
AcDbEntity
  8
0
100
AcDbLine
 10
49.6007
 20
154.4224279999999
 30
0.0
 11
49.6007
 21
154.9224279999999
 31
0.0
  0
LINE
  5
4BB
330
1E
100
AcDbEntity
  8
0
100
AcDbLine
 10
48.89359999999999
 20
153.3614279999999
 30
0.0
 11
49.85949999999999
 21
153.585428
 31
0.0
  0
LINE
  5
4BC
330
1E
100
AcDbEntity
  8
0
100
AcDbLine
 10
49.85949999999999
 20
153.585428
 30
0.0
 11
49.85949999999999
 21
154.085428
 31
0.0
  0
LINE
  5
4BD
330
1E
100
AcDbEntity
  8
0
100
AcDbLine
 10
49.5022
 20
161.954428
 30
0.0
 11
50.4936
 21
162.067428
 31
0.0
  0
LINE
  5
4BE
330
1E
100
AcDbEntity
  8
0
100
AcDbLine
 10
49.5022
 20
161.954428
 30
0.0
 11
49.5022
 21
161.454428
 31
0.0
  0
LINE
  5
4BF
330
1E
100
AcDbEntity
  8
0
100
AcDbLine
 10
50.4936
 20
161.567428
 30
0.0
 11
50.62409999999999
 21
160.708428
 31
0.0
  0
LINE
  5
4C0
330
1E
100
AcDbEntity
  8
0
100
AcDbLine
 10
50.4936
 20
161.567428
 30
0.0
 11
50.4936
 21
162.067428
 31
0.0
  0
LINE
  5
4C1
330
1E
100
AcDbEntity
  8
0
100
AcDbLine
 10
49.6327
 20
160.5954279999999
 30
0.0
 11
50.62409999999999
 21
160.708428
 31
0.0
  0
LINE
  5
4C2
330
1E
100
AcDbEntity
  8
0
100
AcDbLine
 10
50.4936
 20
162.067428
 30
0.0
 11
50.4936
 21
161.567428
 31
0.0
  0
LINE
  5
4C3
330
1E
100
AcDbEntity
  8
0
100
AcDbLine
 10
50.4936
 20
162.067428
 30
0.0
 11
50.62409999999999
 21
161.2084279999999
 31
0.0
  0
LINE
  5
4C4
330
1E
100
AcDbEntity
  8
0
100
AcDbLine
 10
49.5022
 20
161.454428
 30
0.0
 11
50.4936
 21
161.567428
 31
0.0
  0
LINE
  5
4C5
330
1E
100
AcDbEntity
  8
0
100
AcDbLine
 10
49.5022
 20
161.454428
 30
0.0
 11
49.5022
 21
161.954428
 31
0.0
  0
LINE
  5
4C6
330
1E
100
AcDbEntity
  8
0
100
AcDbLine
 10
49.5022
 20
161.454428
 30
0.0
 11
49.6327
 21
160.5954279999999
 31
0.0
  0
LINE
  5
4C7
330
1E
100
AcDbEntity
  8
0
100
AcDbLine
 10
49.6007
 20
154.9224279999999
 30
0.0
 11
49.6007
 21
154.4224279999999
 31
0.0
  0
LINE
  5
4C8
330
1E
100
AcDbEntity
  8
0
100
AcDbLine
 10
49.6007
 20
154.9224279999999
 30
0.0
 11
49.85949999999999
 21
154.085428
 31
0.0
  0
LINE
  5
4C9
330
1E
100
AcDbEntity
  8
0
100
AcDbLine
 10
50.52
 20
146.021428
 30
0.0
 11
51.72
 21
146.436428
 31
0.0
  0
LINE
  5
4CA
330
1E
100
AcDbEntity
  8
0
100
AcDbLine
 10
50.52
 20
145.521428
 30
0.0
 11
51.72
 21
145.936428
 31
0.0
  0
LINE
  5
4CB
330
1E
100
AcDbEntity
  8
0
100
AcDbLine
 10
48.65999999999999
 20
139.614428
 30
0.0
 11
49.46
 21
138.6964279999999
 31
0.0
  0
LINE
  5
4CC
330
1E
100
AcDbEntity
  8
0
100
AcDbLine
 10
49.46
 20
138.6964279999999
 30
0.0
 11
50.52
 21
138.003428
 31
0.0
  0
LINE
  5
4CD
330
1E
100
AcDbEntity
  8
0
100
AcDbLine
 10
56.53999999999999
 20
138.6964279999999
 30
0.0
 11
57.34
 21
139.614428
 31
0.0
  0
LINE
  5
4CE
330
1E
100
AcDbEntity
  8
0
100
AcDbLine
 10
55.48
 20
138.003428
 30
0.0
 11
56.53999999999999
 21
138.6964279999999
 31
0.0
  0
LINE
  5
4CF
330
1E
100
AcDbEntity
  8
0
100
AcDbLine
 10
56.53999999999999
 20
145.328428
 30
0.0
 11
57.34
 21
144.4104279999999
 31
0.0
  0
LINE
  5
4D0
330
1E
100
AcDbEntity
  8
0
100
AcDbLine
 10
57.82
 20
140.6534279999999
 30
0.0
 11
58.0
 21
141.762428
 31
0.0
  0
LINE
  5
4D1
330
1E
100
AcDbEntity
  8
0
100
AcDbLine
 10
57.34
 20
139.614428
 30
0.0
 11
57.82
 21
140.6534279999999
 31
0.0
  0
LINE
  5
4D2
330
1E
100
AcDbEntity
  8
0
100
AcDbLine
 10
57.82
 20
143.370428
 30
0.0
 11
58.0
 21
142.2624279999999
 31
0.0
  0
LINE
  5
4D3
330
1E
100
AcDbEntity
  8
0
100
AcDbLine
 10
58.0
 20
141.762428
 30
0.0
 11
58.0
 21
142.2624279999999
 31
0.0
  0
LINE
  5
4D4
330
1E
100
AcDbEntity
  8
0
100
AcDbLine
 10
58.0
 20
142.2624279999999
 30
0.0
 11
58.0
 21
141.762428
 31
0.0
  0
LINE
  5
4D5
330
1E
100
AcDbEntity
  8
0
100
AcDbLine
 10
57.82
 20
142.870428
 30
0.0
 11
58.0
 21
141.762428
 31
0.0
  0
LINE
  5
4D6
330
1E
100
AcDbEntity
  8
0
100
AcDbLine
 10
57.34
 20
144.4104279999999
 30
0.0
 11
57.82
 21
143.370428
 31
0.0
  0
LINE
  5
4D7
330
1E
100
AcDbEntity
  8
0
100
AcDbLine
 10
57.34
 20
143.910428
 30
0.0
 11
57.82
 21
142.870428
 31
0.0
  0
LINE
  5
4D8
330
1E
100
AcDbEntity
  8
0
100
AcDbLine
 10
56.53999999999999
 20
144.828428
 30
0.0
 11
57.34
 21
143.910428
 31
0.0
  0
LINE
  5
4D9
330
1E
100
AcDbEntity
  8
0
100
AcDbLine
 10
55.48
 20
145.521428
 30
0.0
 11
56.53999999999999
 21
144.828428
 31
0.0
  0
LINE
  5
4DA
330
1E
100
AcDbEntity
  8
0
100
AcDbLine
 10
54.28
 20
145.936428
 30
0.0
 11
55.48
 21
145.521428
 31
0.0
  0
LINE
  5
4DB
330
1E
100
AcDbEntity
  8
0
100
AcDbLine
 10
50.62409999999999
 20
161.2084279999999
 30
0.0
 11
50.62409999999999
 21
160.708428
 31
0.0
  0
LINE
  5
4DC
330
1E
100
AcDbEntity
  8
0
100
AcDbLine
 10
50.62409999999999
 20
160.708428
 30
0.0
 11
50.62409999999999
 21
161.2084279999999
 31
0.0
  0
LINE
  5
4DD
330
1E
100
AcDbEntity
  8
0
100
AcDbLine
 10
55.48
 20
146.021428
 30
0.0
 11
56.53999999999999
 21
145.328428
 31
0.0
  0
LINE
  5
4DE
330
1E
100
AcDbEntity
  8
0
100
AcDbLine
 10
52.5
 20
154.386428
 30
0.0
 11
52.5
 21
155.252428
 31
0.0
  0
LINE
  5
4DF
330
1E
100
AcDbEntity
  8
0
100
AcDbLine
 10
52.5
 20
154.386428
 30
0.0
 11
52.5
 21
153.886428
 31
0.0
  0
LINE
  5
4E0
330
1E
100
AcDbEntity
  8
0
100
AcDbLine
 10
52.5
 20
153.886428
 30
0.0
 11
52.5
 21
154.386428
 31
0.0
  0
LINE
  5
4E1
330
1E
100
AcDbEntity
  8
0
100
AcDbLine
 10
52.5
 20
153.886428
 30
0.0
 11
53.5
 21
153.886428
 31
0.0
  0
LINE
  5
4E2
330
1E
100
AcDbEntity
  8
0
100
AcDbLine
 10
52.5
 20
153.886428
 30
0.0
 11
52.5
 21
154.752428
 31
0.0
  0
LINE
  5
4E3
330
1E
100
AcDbEntity
  8
0
100
AcDbLine
 10
52.5
 20
155.252428
 30
0.0
 11
53.5
 21
155.252428
 31
0.0
  0
LINE
  5
4E4
330
1E
100
AcDbEntity
  8
0
100
AcDbLine
 10
52.5
 20
155.252428
 30
0.0
 11
52.5
 21
154.752428
 31
0.0
  0
LINE
  5
4E5
330
1E
100
AcDbEntity
  8
0
100
AcDbLine
 10
52.5
 20
155.252428
 30
0.0
 11
52.5
 21
154.386428
 31
0.0
  0
LINE
  5
4E6
330
1E
100
AcDbEntity
  8
0
100
AcDbLine
 10
52.5
 20
154.752428
 30
0.0
 11
52.5
 21
155.252428
 31
0.0
  0
LINE
  5
4E7
330
1E
100
AcDbEntity
  8
0
100
AcDbLine
 10
52.5
 20
154.752428
 30
0.0
 11
53.5
 21
154.752428
 31
0.0
  0
LINE
  5
4E8
330
1E
100
AcDbEntity
  8
0
100
AcDbLine
 10
52.5
 20
154.752428
 30
0.0
 11
52.5
 21
153.886428
 31
0.0
  0
LINE
  5
4E9
330
1E
100
AcDbEntity
  8
0
100
AcDbLine
 10
52.5
 20
168.243428
 30
0.0
 11
52.5
 21
169.109428
 31
0.0
  0
LINE
  5
4EA
330
1E
100
AcDbEntity
  8
0
100
AcDbLine
 10
52.5
 20
168.243428
 30
0.0
 11
52.5
 21
167.7434279999999
 31
0.0
  0
LINE
  5
4EB
330
1E
100
AcDbEntity
  8
0
100
AcDbLine
 10
52.5
 20
167.7434279999999
 30
0.0
 11
52.5
 21
168.243428
 31
0.0
  0
LINE
  5
4EC
330
1E
100
AcDbEntity
  8
0
100
AcDbLine
 10
52.5
 20
167.7434279999999
 30
0.0
 11
53.5
 21
167.7434279999999
 31
0.0
  0
LINE
  5
4ED
330
1E
100
AcDbEntity
  8
0
100
AcDbLine
 10
52.5
 20
167.7434279999999
 30
0.0
 11
52.5
 21
168.609428
 31
0.0
  0
LINE
  5
4EE
330
1E
100
AcDbEntity
  8
0
100
AcDbLine
 10
52.5
 20
169.109428
 30
0.0
 11
53.5
 21
169.109428
 31
0.0
  0
LINE
  5
4EF
330
1E
100
AcDbEntity
  8
0
100
AcDbLine
 10
52.5
 20
169.109428
 30
0.0
 11
52.5
 21
168.609428
 31
0.0
  0
LINE
  5
4F0
330
1E
100
AcDbEntity
  8
0
100
AcDbLine
 10
52.5
 20
169.109428
 30
0.0
 11
52.5
 21
168.243428
 31
0.0
  0
LINE
  5
4F1
330
1E
100
AcDbEntity
  8
0
100
AcDbLine
 10
52.5
 20
168.609428
 30
0.0
 11
52.5
 21
169.109428
 31
0.0
  0
LINE
  5
4F2
330
1E
100
AcDbEntity
  8
0
100
AcDbLine
 10
52.5
 20
168.609428
 30
0.0
 11
53.5
 21
168.609428
 31
0.0
  0
LINE
  5
4F3
330
1E
100
AcDbEntity
  8
0
100
AcDbLine
 10
52.5
 20
168.609428
 30
0.0
 11
52.5
 21
167.7434279999999
 31
0.0
  0
LINE
  5
4F4
330
1E
100
AcDbEntity
  8
0
100
AcDbLine
 10
52.5
 20
182.0994279999999
 30
0.0
 11
52.5
 21
182.9654279999999
 31
0.0
  0
LINE
  5
4F5
330
1E
100
AcDbEntity
  8
0
100
AcDbLine
 10
52.5
 20
182.0994279999999
 30
0.0
 11
52.5
 21
181.5994279999999
 31
0.0
  0
LINE
  5
4F6
330
1E
100
AcDbEntity
  8
0
100
AcDbLine
 10
52.5
 20
181.5994279999999
 30
0.0
 11
52.5
 21
182.0994279999999
 31
0.0
  0
LINE
  5
4F7
330
1E
100
AcDbEntity
  8
0
100
AcDbLine
 10
52.5
 20
181.5994279999999
 30
0.0
 11
53.5
 21
181.5994279999999
 31
0.0
  0
LINE
  5
4F8
330
1E
100
AcDbEntity
  8
0
100
AcDbLine
 10
52.5
 20
181.5994279999999
 30
0.0
 11
52.5
 21
182.465428
 31
0.0
  0
LINE
  5
4F9
330
1E
100
AcDbEntity
  8
0
100
AcDbLine
 10
52.5
 20
182.9654279999999
 30
0.0
 11
53.5
 21
182.9654279999999
 31
0.0
  0
LINE
  5
4FA
330
1E
100
AcDbEntity
  8
0
100
AcDbLine
 10
52.5
 20
182.9654279999999
 30
0.0
 11
52.5
 21
182.465428
 31
0.0
  0
LINE
  5
4FB
330
1E
100
AcDbEntity
  8
0
100
AcDbLine
 10
52.5
 20
182.9654279999999
 30
0.0
 11
52.5
 21
182.0994279999999
 31
0.0
  0
LINE
  5
4FC
330
1E
100
AcDbEntity
  8
0
100
AcDbLine
 10
52.5
 20
182.465428
 30
0.0
 11
52.5
 21
182.9654279999999
 31
0.0
  0
LINE
  5
4FD
330
1E
100
AcDbEntity
  8
0
100
AcDbLine
 10
52.5
 20
182.465428
 30
0.0
 11
53.5
 21
182.465428
 31
0.0
  0
LINE
  5
4FE
330
1E
100
AcDbEntity
  8
0
100
AcDbLine
 10
52.5
 20
182.465428
 30
0.0
 11
52.5
 21
181.5994279999999
 31
0.0
  0
LINE
  5
4FF
330
1E
100
AcDbEntity
  8
0
100
AcDbLine
 10
53.5
 20
153.886428
 30
0.0
 11
53.5
 21
154.752428
 31
0.0
  0
LINE
  5
500
330
1E
100
AcDbEntity
  8
0
100
AcDbLine
 10
53.5
 20
154.752428
 30
0.0
 11
53.5
 21
153.886428
 31
0.0
  0
LINE
  5
501
330
1E
100
AcDbEntity
  8
0
100
AcDbLine
 10
53.5
 20
154.752428
 30
0.0
 11
53.5
 21
155.252428
 31
0.0
  0
LINE
  5
502
330
1E
100
AcDbEntity
  8
0
100
AcDbLine
 10
53.5
 20
155.252428
 30
0.0
 11
53.5
 21
154.752428
 31
0.0
  0
LINE
  5
503
330
1E
100
AcDbEntity
  8
0
100
AcDbLine
 10
53.5
 20
167.7434279999999
 30
0.0
 11
53.5
 21
168.609428
 31
0.0
  0
LINE
  5
504
330
1E
100
AcDbEntity
  8
0
100
AcDbLine
 10
53.5
 20
168.609428
 30
0.0
 11
53.5
 21
167.7434279999999
 31
0.0
  0
LINE
  5
505
330
1E
100
AcDbEntity
  8
0
100
AcDbLine
 10
53.5
 20
168.609428
 30
0.0
 11
53.5
 21
169.109428
 31
0.0
  0
LINE
  5
506
330
1E
100
AcDbEntity
  8
0
100
AcDbLine
 10
53.5
 20
169.109428
 30
0.0
 11
53.5
 21
168.609428
 31
0.0
  0
LINE
  5
507
330
1E
100
AcDbEntity
  8
0
100
AcDbLine
 10
53.5
 20
181.5994279999999
 30
0.0
 11
53.5
 21
182.465428
 31
0.0
  0
LINE
  5
508
330
1E
100
AcDbEntity
  8
0
100
AcDbLine
 10
53.5
 20
182.465428
 30
0.0
 11
53.5
 21
181.5994279999999
 31
0.0
  0
LINE
  5
509
330
1E
100
AcDbEntity
  8
0
100
AcDbLine
 10
53.5
 20
182.465428
 30
0.0
 11
53.5
 21
182.9654279999999
 31
0.0
  0
LINE
  5
50A
330
1E
100
AcDbEntity
  8
0
100
AcDbLine
 10
64.87439999999999
 20
148.199428
 30
0.0
 11
65.3744
 21
147.449428
 31
0.0
  0
LINE
  5
50B
330
1E
100
AcDbEntity
  8
0
100
AcDbLine
 10
64.87439999999999
 20
148.199428
 30
0.0
 11
64.87439999999999
 21
148.699428
 31
0.0
  0
LINE
  5
50C
330
1E
100
AcDbEntity
  8
0
100
AcDbLine
 10
64.87439999999999
 20
148.199428
 30
0.0
 11
65.7404
 21
148.632428
 31
0.0
  0
LINE
  5
50D
330
1E
100
AcDbEntity
  8
0
100
AcDbLine
 10
65.3744
 20
147.449428
 30
0.0
 11
66.24039999999999
 21
147.8824279999999
 31
0.0
  0
LINE
  5
50E
330
1E
100
AcDbEntity
  8
0
100
AcDbLine
 10
62.5459
 20
151.1414279999999
 30
0.0
 11
62.5459
 21
150.6414279999999
 31
0.0
  0
LINE
  5
50F
330
1E
100
AcDbEntity
  8
0
100
AcDbLine
 10
62.5459
 20
151.1414279999999
 30
0.0
 11
63.253
 21
151.7544279999999
 31
0.0
  0
LINE
  5
510
330
1E
100
AcDbEntity
  8
0
100
AcDbLine
 10
62.5459
 20
150.6414279999999
 30
0.0
 11
62.5459
 21
151.1414279999999
 31
0.0
  0
LINE
  5
511
330
1E
100
AcDbEntity
  8
0
100
AcDbLine
 10
62.5459
 20
150.6414279999999
 30
0.0
 11
63.253
 21
150.029428
 31
0.0
  0
LINE
  5
512
330
1E
100
AcDbEntity
  8
0
100
AcDbLine
 10
62.5459
 20
150.6414279999999
 30
0.0
 11
63.253
 21
151.254428
 31
0.0
  0
LINE
  5
513
330
1E
100
AcDbEntity
  8
0
100
AcDbLine
 10
63.253
 20
150.029428
 30
0.0
 11
63.9602
 21
150.6414279999999
 31
0.0
  0
LINE
  5
514
330
1E
100
AcDbEntity
  8
0
100
AcDbLine
 10
55.3759
 20
161.2084279999999
 30
0.0
 11
55.3759
 21
160.708428
 31
0.0
  0
LINE
  5
515
330
1E
100
AcDbEntity
  8
0
100
AcDbLine
 10
55.3759
 20
161.2084279999999
 30
0.0
 11
55.5064
 21
162.067428
 31
0.0
  0
LINE
  5
516
330
1E
100
AcDbEntity
  8
0
100
AcDbLine
 10
55.3759
 20
160.708428
 30
0.0
 11
55.3759
 21
161.2084279999999
 31
0.0
  0
LINE
  5
517
330
1E
100
AcDbEntity
  8
0
100
AcDbLine
 10
55.3759
 20
160.708428
 30
0.0
 11
56.3673
 21
160.5954279999999
 31
0.0
  0
LINE
  5
518
330
1E
100
AcDbEntity
  8
0
100
AcDbLine
 10
55.3759
 20
160.708428
 30
0.0
 11
55.5064
 21
161.567428
 31
0.0
  0
LINE
  5
519
330
1E
100
AcDbEntity
  8
0
100
AcDbLine
 10
55.5064
 20
162.067428
 30
0.0
 11
55.5064
 21
161.567428
 31
0.0
  0
LINE
  5
51A
330
1E
100
AcDbEntity
  8
0
100
AcDbLine
 10
55.5064
 20
162.067428
 30
0.0
 11
56.49779999999999
 21
161.954428
 31
0.0
  0
LINE
  5
51B
330
1E
100
AcDbEntity
  8
0
100
AcDbLine
 10
56.1405
 20
154.085428
 30
0.0
 11
56.1405
 21
153.585428
 31
0.0
  0
LINE
  5
51C
330
1E
100
AcDbEntity
  8
0
100
AcDbLine
 10
56.1405
 20
154.085428
 30
0.0
 11
56.39929999999999
 21
154.9224279999999
 31
0.0
  0
LINE
  5
51D
330
1E
100
AcDbEntity
  8
0
100
AcDbLine
 10
56.1405
 20
153.585428
 30
0.0
 11
56.1405
 21
154.085428
 31
0.0
  0
LINE
  5
51E
330
1E
100
AcDbEntity
  8
0
100
AcDbLine
 10
56.1405
 20
153.585428
 30
0.0
 11
57.1064
 21
153.3614279999999
 31
0.0
  0
LINE
  5
51F
330
1E
100
AcDbEntity
  8
0
100
AcDbLine
 10
56.1405
 20
153.585428
 30
0.0
 11
56.39929999999999
 21
154.4224279999999
 31
0.0
  0
LINE
  5
520
330
1E
100
AcDbEntity
  8
0
100
AcDbLine
 10
59.567
 20
152.978428
 30
0.0
 11
59.567
 21
152.478428
 31
0.0
  0
LINE
  5
521
330
1E
100
AcDbEntity
  8
0
100
AcDbLine
 10
59.567
 20
152.978428
 30
0.0
 11
60.067
 21
153.728428
 31
0.0
  0
LINE
  5
522
330
1E
100
AcDbEntity
  8
0
100
AcDbLine
 10
59.567
 20
152.478428
 30
0.0
 11
59.567
 21
152.978428
 31
0.0
  0
LINE
  5
523
330
1E
100
AcDbEntity
  8
0
100
AcDbLine
 10
59.567
 20
152.478428
 30
0.0
 11
60.433
 21
152.045428
 31
0.0
  0
LINE
  5
524
330
1E
100
AcDbEntity
  8
0
100
AcDbLine
 10
59.567
 20
152.478428
 30
0.0
 11
60.067
 21
153.228428
 31
0.0
  0
LINE
  5
525
330
1E
100
AcDbEntity
  8
0
100
AcDbLine
 10
60.433
 20
152.045428
 30
0.0
 11
60.933
 21
152.795428
 31
0.0
  0
LINE
  5
526
330
1E
100
AcDbEntity
  8
0
100
AcDbLine
 10
60.933
 20
152.795428
 30
0.0
 11
60.933
 21
153.295428
 31
0.0
  0
LINE
  5
527
330
1E
100
AcDbEntity
  8
0
100
AcDbLine
 10
57.1064
 20
153.3614279999999
 30
0.0
 11
57.3652
 21
154.198428
 31
0.0
  0
LINE
  5
528
330
1E
100
AcDbEntity
  8
0
100
AcDbLine
 10
57.3652
 20
154.198428
 30
0.0
 11
57.3652
 21
154.698428
 31
0.0
  0
LINE
  5
529
330
1E
100
AcDbEntity
  8
0
100
AcDbLine
 10
57.3652
 20
154.698428
 30
0.0
 11
57.3652
 21
154.198428
 31
0.0
  0
LINE
  5
52A
330
1E
100
AcDbEntity
  8
0
100
AcDbLine
 10
56.39929999999999
 20
154.9224279999999
 30
0.0
 11
56.39929999999999
 21
154.4224279999999
 31
0.0
  0
LINE
  5
52B
330
1E
100
AcDbEntity
  8
0
100
AcDbLine
 10
56.39929999999999
 20
154.9224279999999
 30
0.0
 11
57.3652
 21
154.698428
 31
0.0
  0
LINE
  5
52C
330
1E
100
AcDbEntity
  8
0
100
AcDbLine
 10
56.39929999999999
 20
154.4224279999999
 30
0.0
 11
57.3652
 21
154.198428
 31
0.0
  0
LINE
  5
52D
330
1E
100
AcDbEntity
  8
0
100
AcDbLine
 10
56.39929999999999
 20
154.4224279999999
 30
0.0
 11
56.39929999999999
 21
154.9224279999999
 31
0.0
  0
LINE
  5
52E
330
1E
100
AcDbEntity
  8
0
100
AcDbLine
 10
60.9571
 20
160.030428
 30
0.0
 11
60.9571
 21
159.530428
 31
0.0
  0
LINE
  5
52F
330
1E
100
AcDbEntity
  8
0
100
AcDbLine
 10
60.9571
 20
160.030428
 30
0.0
 11
61.3398
 21
160.830428
 31
0.0
  0
LINE
  5
530
330
1E
100
AcDbEntity
  8
0
100
AcDbLine
 10
60.9571
 20
159.530428
 30
0.0
 11
60.9571
 21
160.030428
 31
0.0
  0
LINE
  5
531
330
1E
100
AcDbEntity
  8
0
100
AcDbLine
 10
60.9571
 20
159.530428
 30
0.0
 11
61.881
 21
159.199428
 31
0.0
  0
LINE
  5
532
330
1E
100
AcDbEntity
  8
0
100
AcDbLine
 10
60.9571
 20
159.530428
 30
0.0
 11
61.3398
 21
160.330428
 31
0.0
  0
LINE
  5
533
330
1E
100
AcDbEntity
  8
0
100
AcDbLine
 10
61.3398
 20
160.830428
 30
0.0
 11
61.3398
 21
160.330428
 31
0.0
  0
LINE
  5
534
330
1E
100
AcDbEntity
  8
0
100
AcDbLine
 10
61.3398
 20
160.830428
 30
0.0
 11
62.2637
 21
160.4994279999999
 31
0.0
  0
LINE
  5
535
330
1E
100
AcDbEntity
  8
0
100
AcDbLine
 10
61.881
 20
159.199428
 30
0.0
 11
62.2637
 21
159.9994279999999
 31
0.0
  0
LINE
  5
536
330
1E
100
AcDbEntity
  8
0
100
AcDbLine
 10
62.2637
 20
160.4994279999999
 30
0.0
 11
62.2637
 21
159.9994279999999
 31
0.0
  0
LINE
  5
537
330
1E
100
AcDbEntity
  8
0
100
AcDbLine
 10
62.2637
 20
159.9994279999999
 30
0.0
 11
62.2637
 21
160.4994279999999
 31
0.0
  0
LINE
  5
538
330
1E
100
AcDbEntity
  8
0
100
AcDbLine
 10
61.3398
 20
160.330428
 30
0.0
 11
62.2637
 21
159.9994279999999
 31
0.0
  0
LINE
  5
539
330
1E
100
AcDbEntity
  8
0
100
AcDbLine
 10
61.3398
 20
160.330428
 30
0.0
 11
61.3398
 21
160.830428
 31
0.0
  0
LINE
  5
53A
330
1E
100
AcDbEntity
  8
0
100
AcDbLine
 10
60.933
 20
153.295428
 30
0.0
 11
60.933
 21
152.795428
 31
0.0
  0
LINE
  5
53B
330
1E
100
AcDbEntity
  8
0
100
AcDbLine
 10
60.067
 20
153.728428
 30
0.0
 11
60.067
 21
153.228428
 31
0.0
  0
LINE
  5
53C
330
1E
100
AcDbEntity
  8
0
100
AcDbLine
 10
60.067
 20
153.728428
 30
0.0
 11
60.933
 21
153.295428
 31
0.0
  0
LINE
  5
53D
330
1E
100
AcDbEntity
  8
0
100
AcDbLine
 10
60.067
 20
153.228428
 30
0.0
 11
60.933
 21
152.795428
 31
0.0
  0
LINE
  5
53E
330
1E
100
AcDbEntity
  8
0
100
AcDbLine
 10
60.067
 20
153.228428
 30
0.0
 11
60.067
 21
153.728428
 31
0.0
  0
LINE
  5
53F
330
1E
100
AcDbEntity
  8
0
100
AcDbLine
 10
56.3673
 20
160.5954279999999
 30
0.0
 11
56.49779999999999
 21
161.454428
 31
0.0
  0
LINE
  5
540
330
1E
100
AcDbEntity
  8
0
100
AcDbLine
 10
60.28159999999999
 20
167.470428
 30
0.0
 11
60.28159999999999
 21
166.9704279999999
 31
0.0
  0
LINE
  5
541
330
1E
100
AcDbEntity
  8
0
100
AcDbLine
 10
60.28159999999999
 20
167.470428
 30
0.0
 11
60.5404
 21
168.306428
 31
0.0
  0
LINE
  5
542
330
1E
100
AcDbEntity
  8
0
100
AcDbLine
 10
60.28159999999999
 20
166.9704279999999
 30
0.0
 11
60.28159999999999
 21
167.470428
 31
0.0
  0
LINE
  5
543
330
1E
100
AcDbEntity
  8
0
100
AcDbLine
 10
60.28159999999999
 20
166.9704279999999
 30
0.0
 11
61.2475
 21
166.745428
 31
0.0
  0
LINE
  5
544
330
1E
100
AcDbEntity
  8
0
100
AcDbLine
 10
60.28159999999999
 20
166.9704279999999
 30
0.0
 11
60.5404
 21
167.806428
 31
0.0
  0
LINE
  5
545
330
1E
100
AcDbEntity
  8
0
100
AcDbLine
 10
61.2475
 20
166.745428
 30
0.0
 11
61.5064
 21
167.582428
 31
0.0
  0
LINE
  5
546
330
1E
100
AcDbEntity
  8
0
100
AcDbLine
 10
61.5064
 20
167.582428
 30
0.0
 11
61.5064
 21
168.0824279999999
 31
0.0
  0
LINE
  5
547
330
1E
100
AcDbEntity
  8
0
100
AcDbLine
 10
57.4643
 20
174.9464279999999
 30
0.0
 11
57.4643
 21
174.446428
 31
0.0
  0
LINE
  5
548
330
1E
100
AcDbEntity
  8
0
100
AcDbLine
 10
57.4643
 20
174.9464279999999
 30
0.0
 11
57.59479999999999
 21
175.805428
 31
0.0
  0
LINE
  5
549
330
1E
100
AcDbEntity
  8
0
100
AcDbLine
 10
57.4643
 20
174.446428
 30
0.0
 11
57.4643
 21
174.9464279999999
 31
0.0
  0
LINE
  5
54A
330
1E
100
AcDbEntity
  8
0
100
AcDbLine
 10
57.4643
 20
174.446428
 30
0.0
 11
58.4557
 21
174.333428
 31
0.0
  0
LINE
  5
54B
330
1E
100
AcDbEntity
  8
0
100
AcDbLine
 10
57.4643
 20
174.446428
 30
0.0
 11
57.59479999999999
 21
175.305428
 31
0.0
  0
LINE
  5
54C
330
1E
100
AcDbEntity
  8
0
100
AcDbLine
 10
58.4557
 20
174.333428
 30
0.0
 11
58.5862
 21
175.191428
 31
0.0
  0
LINE
  5
54D
330
1E
100
AcDbEntity
  8
0
100
AcDbLine
 10
58.5862
 20
175.191428
 30
0.0
 11
58.5862
 21
175.691428
 31
0.0
  0
LINE
  5
54E
330
1E
100
AcDbEntity
  8
0
100
AcDbLine
 10
58.5862
 20
175.691428
 30
0.0
 11
58.5862
 21
175.191428
 31
0.0
  0
LINE
  5
54F
330
1E
100
AcDbEntity
  8
0
100
AcDbLine
 10
57.59479999999999
 20
175.805428
 30
0.0
 11
57.59479999999999
 21
175.305428
 31
0.0
  0
LINE
  5
550
330
1E
100
AcDbEntity
  8
0
100
AcDbLine
 10
57.59479999999999
 20
175.805428
 30
0.0
 11
58.5862
 21
175.691428
 31
0.0
  0
LINE
  5
551
330
1E
100
AcDbEntity
  8
0
100
AcDbLine
 10
57.59479999999999
 20
175.305428
 30
0.0
 11
58.5862
 21
175.191428
 31
0.0
  0
LINE
  5
552
330
1E
100
AcDbEntity
  8
0
100
AcDbLine
 10
57.59479999999999
 20
175.305428
 30
0.0
 11
57.59479999999999
 21
175.805428
 31
0.0
  0
LINE
  5
553
330
1E
100
AcDbEntity
  8
0
100
AcDbLine
 10
61.5064
 20
168.0824279999999
 30
0.0
 11
61.5064
 21
167.582428
 31
0.0
  0
LINE
  5
554
330
1E
100
AcDbEntity
  8
0
100
AcDbLine
 10
60.5404
 20
168.306428
 30
0.0
 11
60.5404
 21
167.806428
 31
0.0
  0
LINE
  5
555
330
1E
100
AcDbEntity
  8
0
100
AcDbLine
 10
60.5404
 20
168.306428
 30
0.0
 11
61.5064
 21
168.0824279999999
 31
0.0
  0
LINE
  5
556
330
1E
100
AcDbEntity
  8
0
100
AcDbLine
 10
60.5404
 20
167.806428
 30
0.0
 11
61.5064
 21
167.582428
 31
0.0
  0
LINE
  5
557
330
1E
100
AcDbEntity
  8
0
100
AcDbLine
 10
60.5404
 20
167.806428
 30
0.0
 11
60.5404
 21
168.306428
 31
0.0
  0
LINE
  5
558
330
1E
100
AcDbEntity
  8
0
100
AcDbLine
 10
56.49779999999999
 20
161.954428
 30
0.0
 11
56.49779999999999
 21
161.454428
 31
0.0
  0
LINE
  5
559
330
1E
100
AcDbEntity
  8
0
100
AcDbLine
 10
56.49779999999999
 20
161.454428
 30
0.0
 11
56.49779999999999
 21
161.954428
 31
0.0
  0
LINE
  5
55A
330
1E
100
AcDbEntity
  8
0
100
AcDbLine
 10
55.5064
 20
161.567428
 30
0.0
 11
56.49779999999999
 21
161.454428
 31
0.0
  0
LINE
  5
55B
330
1E
100
AcDbEntity
  8
0
100
AcDbLine
 10
55.5064
 20
161.567428
 30
0.0
 11
55.5064
 21
162.067428
 31
0.0
  0
LINE
  5
55C
330
1E
100
AcDbEntity
  8
0
100
AcDbLine
 10
63.253
 20
151.7544279999999
 30
0.0
 11
63.253
 21
151.254428
 31
0.0
  0
LINE
  5
55D
330
1E
100
AcDbEntity
  8
0
100
AcDbLine
 10
63.253
 20
151.7544279999999
 30
0.0
 11
63.9602
 21
151.1414279999999
 31
0.0
  0
LINE
  5
55E
330
1E
100
AcDbEntity
  8
0
100
AcDbLine
 10
64.4227
 20
180.854428
 30
0.0
 11
64.4227
 21
180.354428
 31
0.0
  0
LINE
  5
55F
330
1E
100
AcDbEntity
  8
0
100
AcDbLine
 10
64.4227
 20
180.854428
 30
0.0
 11
64.6815
 21
181.6904279999999
 31
0.0
  0
LINE
  5
560
330
1E
100
AcDbEntity
  8
0
100
AcDbLine
 10
64.4227
 20
180.354428
 30
0.0
 11
64.4227
 21
180.854428
 31
0.0
  0
LINE
  5
561
330
1E
100
AcDbEntity
  8
0
100
AcDbLine
 10
64.4227
 20
180.354428
 30
0.0
 11
65.38859999999999
 21
180.130428
 31
0.0
  0
LINE
  5
562
330
1E
100
AcDbEntity
  8
0
100
AcDbLine
 10
64.4227
 20
180.354428
 30
0.0
 11
64.6815
 21
181.190428
 31
0.0
  0
LINE
  5
563
330
1E
100
AcDbEntity
  8
0
100
AcDbLine
 10
65.38859999999999
 20
180.130428
 30
0.0
 11
65.6475
 21
180.9664279999999
 31
0.0
  0
LINE
  5
564
330
1E
100
AcDbEntity
  8
0
100
AcDbLine
 10
65.6475
 20
180.9664279999999
 30
0.0
 11
65.6475
 21
181.466428
 31
0.0
  0
LINE
  5
565
330
1E
100
AcDbEntity
  8
0
100
AcDbLine
 10
65.6475
 20
181.466428
 30
0.0
 11
65.6475
 21
180.9664279999999
 31
0.0
  0
LINE
  5
566
330
1E
100
AcDbEntity
  8
0
100
AcDbLine
 10
64.6815
 20
181.6904279999999
 30
0.0
 11
64.6815
 21
181.190428
 31
0.0
  0
LINE
  5
567
330
1E
100
AcDbEntity
  8
0
100
AcDbLine
 10
64.6815
 20
181.6904279999999
 30
0.0
 11
65.6475
 21
181.466428
 31
0.0
  0
LINE
  5
568
330
1E
100
AcDbEntity
  8
0
100
AcDbLine
 10
64.6815
 20
181.190428
 30
0.0
 11
65.6475
 21
180.9664279999999
 31
0.0
  0
LINE
  5
569
330
1E
100
AcDbEntity
  8
0
100
AcDbLine
 10
64.6815
 20
181.190428
 30
0.0
 11
64.6815
 21
181.6904279999999
 31
0.0
  0
LINE
  5
56A
330
1E
100
AcDbEntity
  8
0
100
AcDbLine
 10
63.9602
 20
151.1414279999999
 30
0.0
 11
63.9602
 21
150.6414279999999
 31
0.0
  0
LINE
  5
56B
330
1E
100
AcDbEntity
  8
0
100
AcDbLine
 10
63.9602
 20
150.6414279999999
 30
0.0
 11
63.9602
 21
151.1414279999999
 31
0.0
  0
LINE
  5
56C
330
1E
100
AcDbEntity
  8
0
100
AcDbLine
 10
63.253
 20
151.254428
 30
0.0
 11
63.9602
 21
150.6414279999999
 31
0.0
  0
LINE
  5
56D
330
1E
100
AcDbEntity
  8
0
100
AcDbLine
 10
63.253
 20
151.254428
 30
0.0
 11
63.253
 21
151.7544279999999
 31
0.0
  0
LINE
  5
56E
330
1E
100
AcDbEntity
  8
0
100
AcDbLine
 10
64.87439999999999
 20
148.699428
 30
0.0
 11
64.87439999999999
 21
148.199428
 31
0.0
  0
LINE
  5
56F
330
1E
100
AcDbEntity
  8
0
100
AcDbLine
 10
64.87439999999999
 20
148.699428
 30
0.0
 11
65.7404
 21
149.132428
 31
0.0
  0
LINE
  5
570
330
1E
100
AcDbEntity
  8
0
100
AcDbLine
 10
65.7404
 20
149.132428
 30
0.0
 11
65.7404
 21
148.632428
 31
0.0
  0
LINE
  5
571
330
1E
100
AcDbEntity
  8
0
100
AcDbLine
 10
65.7404
 20
149.132428
 30
0.0
 11
66.24039999999999
 21
148.382428
 31
0.0
  0
LINE
  5
572
330
1E
100
AcDbEntity
  8
0
100
AcDbLine
 10
65.7404
 20
148.632428
 30
0.0
 11
66.24039999999999
 21
147.8824279999999
 31
0.0
  0
LINE
  5
573
330
1E
100
AcDbEntity
  8
0
100
AcDbLine
 10
65.7404
 20
148.632428
 30
0.0
 11
65.7404
 21
149.132428
 31
0.0
  0
LINE
  5
574
330
1E
100
AcDbEntity
  8
0
100
AcDbLine
 10
53.5
 20
182.9654279999999
 30
0.0
 11
53.5
 21
182.465428
 31
0.0
  0
LINE
  5
575
330
1E
100
AcDbEntity
  8
0
100
AcDbLine
 10
54.28
 20
146.436428
 30
0.0
 11
55.48
 21
146.021428
 31
0.0
  0
LINE
  5
576
330
1E
100
AcDbEntity
  8
0
100
AcDbLine
 10
53.0
 20
146.592428
 30
0.0
 11
54.28
 21
146.436428
 31
0.0
  0
LINE
  5
577
330
1E
100
AcDbEntity
  8
0
100
AcDbLine
 10
53.0
 20
146.092428
 30
0.0
 11
54.28
 21
145.936428
 31
0.0
  0
LINE
  5
578
330
1E
100
AcDbEntity
  8
0
100
AcDbLine
 10
51.72
 20
146.436428
 30
0.0
 11
53.0
 21
146.592428
 31
0.0
  0
LINE
  5
579
330
1E
100
AcDbEntity
  8
0
100
AcDbLine
 10
51.72
 20
145.936428
 30
0.0
 11
53.0
 21
146.092428
 31
0.0
  0
LINE
  5
57A
330
1E
100
AcDbEntity
  8
0
100
AcDbLine
 10
50.52
 20
138.003428
 30
0.0
 11
51.72
 21
137.5884279999999
 31
0.0
  0
LINE
  5
57B
330
1E
100
AcDbEntity
  8
0
100
AcDbLine
 10
51.72
 20
137.5884279999999
 30
0.0
 11
53.0
 21
137.432428
 31
0.0
  0
LINE
  5
57C
330
1E
100
AcDbEntity
  8
0
100
AcDbLine
 10
66.24039999999999
 20
136.142428
 30
0.0
 11
66.24039999999999
 21
135.6424279999999
 31
0.0
  0
LINE
  5
57D
330
1E
100
AcDbEntity
  8
0
100
AcDbLine
 10
66.24039999999999
 20
135.6424279999999
 30
0.0
 11
66.24039999999999
 21
136.142428
 31
0.0
  0
LINE
  5
57E
330
1E
100
AcDbEntity
  8
0
100
AcDbLine
 10
66.3936
 20
138.706428
 30
0.0
 11
66.6524
 21
139.542428
 31
0.0
  0
LINE
  5
57F
330
1E
100
AcDbEntity
  8
0
100
AcDbLine
 10
66.3936
 20
138.706428
 30
0.0
 11
66.3936
 21
138.206428
 31
0.0
  0
LINE
  5
580
330
1E
100
AcDbEntity
  8
0
100
AcDbLine
 10
66.3936
 20
138.206428
 30
0.0
 11
66.3936
 21
138.706428
 31
0.0
  0
LINE
  5
581
330
1E
100
AcDbEntity
  8
0
100
AcDbLine
 10
66.3936
 20
138.206428
 30
0.0
 11
66.6524
 21
139.0424279999999
 31
0.0
  0
LINE
  5
582
330
1E
100
AcDbEntity
  8
0
100
AcDbLine
 10
66.3936
 20
138.206428
 30
0.0
 11
67.35949999999999
 21
137.982428
 31
0.0
  0
LINE
  5
583
330
1E
100
AcDbEntity
  8
0
100
AcDbLine
 10
66.6524
 20
139.542428
 30
0.0
 11
67.6183
 21
139.318428
 31
0.0
  0
LINE
  5
584
330
1E
100
AcDbEntity
  8
0
100
AcDbLine
 10
66.6524
 20
139.542428
 30
0.0
 11
66.6524
 21
139.0424279999999
 31
0.0
  0
LINE
  5
585
330
1E
100
AcDbEntity
  8
0
100
AcDbLine
 10
66.6524
 20
139.0424279999999
 30
0.0
 11
66.6524
 21
139.542428
 31
0.0
  0
LINE
  5
586
330
1E
100
AcDbEntity
  8
0
100
AcDbLine
 10
66.6524
 20
139.0424279999999
 30
0.0
 11
67.6183
 21
138.818428
 31
0.0
  0
LINE
  5
587
330
1E
100
AcDbEntity
  8
0
100
AcDbLine
 10
66.3936
 20
145.318428
 30
0.0
 11
66.6524
 21
144.4824279999999
 31
0.0
  0
LINE
  5
588
330
1E
100
AcDbEntity
  8
0
100
AcDbLine
 10
66.3936
 20
145.318428
 30
0.0
 11
66.3936
 21
145.818428
 31
0.0
  0
LINE
  5
589
330
1E
100
AcDbEntity
  8
0
100
AcDbLine
 10
66.3936
 20
145.318428
 30
0.0
 11
67.35949999999999
 21
145.542428
 31
0.0
  0
LINE
  5
58A
330
1E
100
AcDbEntity
  8
0
100
AcDbLine
 10
67.0
 20
142.195428
 30
0.0
 11
67.0
 21
142.6954279999999
 31
0.0
  0
LINE
  5
58B
330
1E
100
AcDbEntity
  8
0
100
AcDbLine
 10
67.0
 20
142.195428
 30
0.0
 11
67.0
 21
141.329428
 31
0.0
  0
LINE
  5
58C
330
1E
100
AcDbEntity
  8
0
100
AcDbLine
 10
67.0
 20
142.195428
 30
0.0
 11
68.0
 21
142.195428
 31
0.0
  0
LINE
  5
58D
330
1E
100
AcDbEntity
  8
0
100
AcDbLine
 10
67.0
 20
142.6954279999999
 30
0.0
 11
67.0
 21
141.829428
 31
0.0
  0
LINE
  5
58E
330
1E
100
AcDbEntity
  8
0
100
AcDbLine
 10
67.0
 20
142.6954279999999
 30
0.0
 11
67.0
 21
142.195428
 31
0.0
  0
LINE
  5
58F
330
1E
100
AcDbEntity
  8
0
100
AcDbLine
 10
67.0
 20
142.6954279999999
 30
0.0
 11
68.0
 21
142.6954279999999
 31
0.0
  0
LINE
  5
590
330
1E
100
AcDbEntity
  8
0
100
AcDbLine
 10
67.0
 20
141.829428
 30
0.0
 11
67.0
 21
141.329428
 31
0.0
  0
LINE
  5
591
330
1E
100
AcDbEntity
  8
0
100
AcDbLine
 10
67.0
 20
141.829428
 30
0.0
 11
67.0
 21
142.6954279999999
 31
0.0
  0
LINE
  5
592
330
1E
100
AcDbEntity
  8
0
100
AcDbLine
 10
67.6183
 20
139.318428
 30
0.0
 11
67.6183
 21
138.818428
 31
0.0
  0
LINE
  5
593
330
1E
100
AcDbEntity
  8
0
100
AcDbLine
 10
67.6183
 20
138.818428
 30
0.0
 11
67.6183
 21
139.318428
 31
0.0
  0
LINE
  5
594
330
1E
100
AcDbEntity
  8
0
100
AcDbLine
 10
67.35949999999999
 20
137.982428
 30
0.0
 11
67.6183
 21
138.818428
 31
0.0
  0
LINE
  5
595
330
1E
100
AcDbEntity
  8
0
100
AcDbLine
 10
67.0
 20
141.329428
 30
0.0
 11
67.0
 21
141.829428
 31
0.0
  0
LINE
  5
596
330
1E
100
AcDbEntity
  8
0
100
AcDbLine
 10
67.0
 20
141.329428
 30
0.0
 11
68.0
 21
141.329428
 31
0.0
  0
LINE
  5
597
330
1E
100
AcDbEntity
  8
0
100
AcDbLine
 10
67.0
 20
141.329428
 30
0.0
 11
67.0
 21
142.195428
 31
0.0
  0
LINE
  5
598
330
1E
100
AcDbEntity
  8
0
100
AcDbLine
 10
67.6183
 20
145.206428
 30
0.0
 11
67.6183
 21
144.706428
 31
0.0
  0
LINE
  5
599
330
1E
100
AcDbEntity
  8
0
100
AcDbLine
 10
66.6524
 20
144.4824279999999
 30
0.0
 11
67.6183
 21
144.706428
 31
0.0
  0
LINE
  5
59A
330
1E
100
AcDbEntity
  8
0
100
AcDbLine
 10
65.9961
 20
157.6414279999999
 30
0.0
 11
65.9961
 21
157.1414279999999
 31
0.0
  0
LINE
  5
59B
330
1E
100
AcDbEntity
  8
0
100
AcDbLine
 10
65.9961
 20
157.6414279999999
 30
0.0
 11
66.60479999999999
 21
158.3284279999999
 31
0.0
  0
LINE
  5
59C
330
1E
100
AcDbEntity
  8
0
100
AcDbLine
 10
66.24039999999999
 20
148.382428
 30
0.0
 11
66.24039999999999
 21
147.8824279999999
 31
0.0
  0
LINE
  5
59D
330
1E
100
AcDbEntity
  8
0
100
AcDbLine
 10
66.24039999999999
 20
147.8824279999999
 30
0.0
 11
66.24039999999999
 21
148.382428
 31
0.0
  0
LINE
  5
59E
330
1E
100
AcDbEntity
  8
0
100
AcDbLine
 10
65.9961
 20
157.1414279999999
 30
0.0
 11
65.9961
 21
157.6414279999999
 31
0.0
  0
LINE
  5
59F
330
1E
100
AcDbEntity
  8
0
100
AcDbLine
 10
65.9961
 20
157.1414279999999
 30
0.0
 11
66.7894
 21
156.614428
 31
0.0
  0
LINE
  5
5A0
330
1E
100
AcDbEntity
  8
0
100
AcDbLine
 10
65.9961
 20
157.1414279999999
 30
0.0
 11
66.60479999999999
 21
157.828428
 31
0.0
  0
LINE
  5
5A1
330
1E
100
AcDbEntity
  8
0
100
AcDbLine
 10
66.60479999999999
 20
158.3284279999999
 30
0.0
 11
66.60479999999999
 21
157.828428
 31
0.0
  0
LINE
  5
5A2
330
1E
100
AcDbEntity
  8
0
100
AcDbLine
 10
66.60479999999999
 20
158.3284279999999
 30
0.0
 11
67.3982
 21
157.801428
 31
0.0
  0
LINE
  5
5A3
330
1E
100
AcDbEntity
  8
0
100
AcDbLine
 10
66.7894
 20
156.614428
 30
0.0
 11
67.3982
 21
157.301428
 31
0.0
  0
LINE
  5
5A4
330
1E
100
AcDbEntity
  8
0
100
AcDbLine
 10
66.60479999999999
 20
157.828428
 30
0.0
 11
67.3982
 21
157.301428
 31
0.0
  0
LINE
  5
5A5
330
1E
100
AcDbEntity
  8
0
100
AcDbLine
 10
66.60479999999999
 20
157.828428
 30
0.0
 11
66.60479999999999
 21
158.3284279999999
 31
0.0
  0
LINE
  5
5A6
330
1E
100
AcDbEntity
  8
0
100
AcDbLine
 10
66.3936
 20
145.818428
 30
0.0
 11
66.3936
 21
145.318428
 31
0.0
  0
LINE
  5
5A7
330
1E
100
AcDbEntity
  8
0
100
AcDbLine
 10
66.3936
 20
145.818428
 30
0.0
 11
67.35949999999999
 21
146.0424279999999
 31
0.0
  0
LINE
  5
5A8
330
1E
100
AcDbEntity
  8
0
100
AcDbLine
 10
67.56699999999999
 20
164.978428
 30
0.0
 11
67.56699999999999
 21
164.478428
 31
0.0
  0
LINE
  5
5A9
330
1E
100
AcDbEntity
  8
0
100
AcDbLine
 10
67.56699999999999
 20
164.978428
 30
0.0
 11
68.06699999999999
 21
165.728428
 31
0.0
  0
LINE
  5
5AA
330
1E
100
AcDbEntity
  8
0
100
AcDbLine
 10
67.56699999999999
 20
164.478428
 30
0.0
 11
67.56699999999999
 21
164.978428
 31
0.0
  0
LINE
  5
5AB
330
1E
100
AcDbEntity
  8
0
100
AcDbLine
 10
67.56699999999999
 20
164.478428
 30
0.0
 11
68.43300000000001
 21
164.045428
 31
0.0
  0
LINE
  5
5AC
330
1E
100
AcDbEntity
  8
0
100
AcDbLine
 10
67.56699999999999
 20
164.478428
 30
0.0
 11
68.06699999999999
 21
165.228428
 31
0.0
  0
LINE
  5
5AD
330
1E
100
AcDbEntity
  8
0
100
AcDbLine
 10
67.3982
 20
157.801428
 30
0.0
 11
67.3982
 21
157.301428
 31
0.0
  0
LINE
  5
5AE
330
1E
100
AcDbEntity
  8
0
100
AcDbLine
 10
67.3982
 20
157.301428
 30
0.0
 11
67.3982
 21
157.801428
 31
0.0
  0
LINE
  5
5AF
330
1E
100
AcDbEntity
  8
0
100
AcDbLine
 10
67.35949999999999
 20
146.0424279999999
 30
0.0
 11
67.35949999999999
 21
145.542428
 31
0.0
  0
LINE
  5
5B0
330
1E
100
AcDbEntity
  8
0
100
AcDbLine
 10
67.35949999999999
 20
146.0424279999999
 30
0.0
 11
67.6183
 21
145.206428
 31
0.0
  0
LINE
  5
5B1
330
1E
100
AcDbEntity
  8
0
100
AcDbLine
 10
67.35949999999999
 20
145.542428
 30
0.0
 11
67.6183
 21
144.706428
 31
0.0
  0
LINE
  5
5B2
330
1E
100
AcDbEntity
  8
0
100
AcDbLine
 10
67.35949999999999
 20
145.542428
 30
0.0
 11
67.35949999999999
 21
146.0424279999999
 31
0.0
  0
LINE
  5
5B3
330
1E
100
AcDbEntity
  8
0
100
AcDbLine
 10
73.134
 20
134.5714279999999
 30
0.0
 11
73.5167
 21
135.371428
 31
0.0
  0
LINE
  5
5B4
330
1E
100
AcDbEntity
  8
0
100
AcDbLine
 10
73.134
 20
134.5714279999999
 30
0.0
 11
73.134
 21
134.071428
 31
0.0
  0
LINE
  5
5B5
330
1E
100
AcDbEntity
  8
0
100
AcDbLine
 10
73.134
 20
134.071428
 30
0.0
 11
73.134
 21
134.5714279999999
 31
0.0
  0
LINE
  5
5B6
330
1E
100
AcDbEntity
  8
0
100
AcDbLine
 10
73.134
 20
134.071428
 30
0.0
 11
73.5167
 21
134.871428
 31
0.0
  0
LINE
  5
5B7
330
1E
100
AcDbEntity
  8
0
100
AcDbLine
 10
73.134
 20
134.071428
 30
0.0
 11
74.0579
 21
133.739428
 31
0.0
  0
LINE
  5
5B8
330
1E
100
AcDbEntity
  8
0
100
AcDbLine
 10
73.5167
 20
135.371428
 30
0.0
 11
74.4406
 21
135.040428
 31
0.0
  0
LINE
  5
5B9
330
1E
100
AcDbEntity
  8
0
100
AcDbLine
 10
73.5167
 20
135.371428
 30
0.0
 11
73.5167
 21
134.871428
 31
0.0
  0
LINE
  5
5BA
330
1E
100
AcDbEntity
  8
0
100
AcDbLine
 10
73.5167
 20
134.871428
 30
0.0
 11
73.5167
 21
135.371428
 31
0.0
  0
LINE
  5
5BB
330
1E
100
AcDbEntity
  8
0
100
AcDbLine
 10
73.5167
 20
134.871428
 30
0.0
 11
74.4406
 21
134.5404279999999
 31
0.0
  0
LINE
  5
5BC
330
1E
100
AcDbEntity
  8
0
100
AcDbLine
 10
74.4406
 20
135.040428
 30
0.0
 11
74.4406
 21
134.5404279999999
 31
0.0
  0
LINE
  5
5BD
330
1E
100
AcDbEntity
  8
0
100
AcDbLine
 10
74.4406
 20
134.5404279999999
 30
0.0
 11
74.4406
 21
135.040428
 31
0.0
  0
LINE
  5
5BE
330
1E
100
AcDbEntity
  8
0
100
AcDbLine
 10
74.0579
 20
133.739428
 30
0.0
 11
74.4406
 21
134.5404279999999
 31
0.0
  0
LINE
  5
5BF
330
1E
100
AcDbEntity
  8
0
100
AcDbLine
 10
74.7465
 20
139.346428
 30
0.0
 11
74.87709999999999
 21
140.204428
 31
0.0
  0
LINE
  5
5C0
330
1E
100
AcDbEntity
  8
0
100
AcDbLine
 10
74.7465
 20
139.346428
 30
0.0
 11
74.7465
 21
138.8464279999999
 31
0.0
  0
LINE
  5
5C1
330
1E
100
AcDbEntity
  8
0
100
AcDbLine
 10
74.7465
 20
138.8464279999999
 30
0.0
 11
74.7465
 21
139.346428
 31
0.0
  0
LINE
  5
5C2
330
1E
100
AcDbEntity
  8
0
100
AcDbLine
 10
74.7465
 20
138.8464279999999
 30
0.0
 11
74.87709999999999
 21
139.704428
 31
0.0
  0
LINE
  5
5C3
330
1E
100
AcDbEntity
  8
0
100
AcDbLine
 10
74.7465
 20
138.8464279999999
 30
0.0
 11
75.738
 21
138.733428
 31
0.0
  0
LINE
  5
5C4
330
1E
100
AcDbEntity
  8
0
100
AcDbLine
 10
74.87709999999999
 20
140.204428
 30
0.0
 11
75.8685
 21
140.091428
 31
0.0
  0
LINE
  5
5C5
330
1E
100
AcDbEntity
  8
0
100
AcDbLine
 10
74.87709999999999
 20
140.204428
 30
0.0
 11
74.87709999999999
 21
139.704428
 31
0.0
  0
LINE
  5
5C6
330
1E
100
AcDbEntity
  8
0
100
AcDbLine
 10
74.87709999999999
 20
139.704428
 30
0.0
 11
74.87709999999999
 21
140.204428
 31
0.0
  0
LINE
  5
5C7
330
1E
100
AcDbEntity
  8
0
100
AcDbLine
 10
74.87709999999999
 20
139.704428
 30
0.0
 11
75.8685
 21
139.591428
 31
0.0
  0
LINE
  5
5C8
330
1E
100
AcDbEntity
  8
0
100
AcDbLine
 10
68.0
 20
141.329428
 30
0.0
 11
68.0
 21
142.195428
 31
0.0
  0
LINE
  5
5C9
330
1E
100
AcDbEntity
  8
0
100
AcDbLine
 10
68.0
 20
142.6954279999999
 30
0.0
 11
68.0
 21
142.195428
 31
0.0
  0
LINE
  5
5CA
330
1E
100
AcDbEntity
  8
0
100
AcDbLine
 10
68.0
 20
142.195428
 30
0.0
 11
68.0
 21
141.329428
 31
0.0
  0
LINE
  5
5CB
330
1E
100
AcDbEntity
  8
0
100
AcDbLine
 10
68.0
 20
142.195428
 30
0.0
 11
68.0
 21
142.6954279999999
 31
0.0
  0
LINE
  5
5CC
330
1E
100
AcDbEntity
  8
0
100
AcDbLine
 10
81.84839999999999
 20
135.119428
 30
0.0
 11
82.1072
 21
135.956428
 31
0.0
  0
LINE
  5
5CD
330
1E
100
AcDbEntity
  8
0
100
AcDbLine
 10
81.84839999999999
 20
135.119428
 30
0.0
 11
81.84839999999999
 21
134.6194279999999
 31
0.0
  0
LINE
  5
5CE
330
1E
100
AcDbEntity
  8
0
100
AcDbLine
 10
81.84839999999999
 20
134.6194279999999
 30
0.0
 11
81.84839999999999
 21
135.119428
 31
0.0
  0
LINE
  5
5CF
330
1E
100
AcDbEntity
  8
0
100
AcDbLine
 10
81.84839999999999
 20
134.6194279999999
 30
0.0
 11
82.1072
 21
135.456428
 31
0.0
  0
LINE
  5
5D0
330
1E
100
AcDbEntity
  8
0
100
AcDbLine
 10
81.84839999999999
 20
134.6194279999999
 30
0.0
 11
82.8143
 21
134.395428
 31
0.0
  0
LINE
  5
5D1
330
1E
100
AcDbEntity
  8
0
100
AcDbLine
 10
82.1072
 20
135.956428
 30
0.0
 11
83.07309999999999
 21
135.732428
 31
0.0
  0
LINE
  5
5D2
330
1E
100
AcDbEntity
  8
0
100
AcDbLine
 10
82.1072
 20
135.956428
 30
0.0
 11
82.1072
 21
135.456428
 31
0.0
  0
LINE
  5
5D3
330
1E
100
AcDbEntity
  8
0
100
AcDbLine
 10
82.1072
 20
135.456428
 30
0.0
 11
82.1072
 21
135.956428
 31
0.0
  0
LINE
  5
5D4
330
1E
100
AcDbEntity
  8
0
100
AcDbLine
 10
82.1072
 20
135.456428
 30
0.0
 11
83.07309999999999
 21
135.2324279999999
 31
0.0
  0
LINE
  5
5D5
330
1E
100
AcDbEntity
  8
0
100
AcDbLine
 10
82.8143
 20
134.395428
 30
0.0
 11
83.07309999999999
 21
135.2324279999999
 31
0.0
  0
LINE
  5
5D6
330
1E
100
AcDbEntity
  8
0
100
AcDbLine
 10
75.8685
 20
140.091428
 30
0.0
 11
75.8685
 21
139.591428
 31
0.0
  0
LINE
  5
5D7
330
1E
100
AcDbEntity
  8
0
100
AcDbLine
 10
75.8685
 20
139.591428
 30
0.0
 11
75.8685
 21
140.091428
 31
0.0
  0
LINE
  5
5D8
330
1E
100
AcDbEntity
  8
0
100
AcDbLine
 10
75.738
 20
138.733428
 30
0.0
 11
75.8685
 21
139.591428
 31
0.0
  0
LINE
  5
5D9
330
1E
100
AcDbEntity
  8
0
100
AcDbLine
 10
83.0
 20
142.195428
 30
0.0
 11
83.0
 21
142.6954279999999
 31
0.0
  0
LINE
  5
5DA
330
1E
100
AcDbEntity
  8
0
100
AcDbLine
 10
83.0
 20
142.195428
 30
0.0
 11
83.0
 21
141.329428
 31
0.0
  0
LINE
  5
5DB
330
1E
100
AcDbEntity
  8
0
100
AcDbLine
 10
83.0
 20
142.195428
 30
0.0
 11
84.0
 21
142.195428
 31
0.0
  0
LINE
  5
5DC
330
1E
100
AcDbEntity
  8
0
100
AcDbLine
 10
83.0
 20
141.829428
 30
0.0
 11
83.0
 21
141.329428
 31
0.0
  0
LINE
  5
5DD
330
1E
100
AcDbEntity
  8
0
100
AcDbLine
 10
83.0
 20
141.829428
 30
0.0
 11
83.0
 21
142.6954279999999
 31
0.0
  0
LINE
  5
5DE
330
1E
100
AcDbEntity
  8
0
100
AcDbLine
 10
83.07309999999999
 20
135.732428
 30
0.0
 11
83.07309999999999
 21
135.2324279999999
 31
0.0
  0
LINE
  5
5DF
330
1E
100
AcDbEntity
  8
0
100
AcDbLine
 10
90.60959999999999
 20
137.537428
 30
0.0
 11
90.7402
 21
138.396428
 31
0.0
  0
LINE
  5
5E0
330
1E
100
AcDbEntity
  8
0
100
AcDbLine
 10
90.60959999999999
 20
137.537428
 30
0.0
 11
90.60959999999999
 21
137.037428
 31
0.0
  0
LINE
  5
5E1
330
1E
100
AcDbEntity
  8
0
100
AcDbLine
 10
90.60959999999999
 20
137.037428
 30
0.0
 11
90.60959999999999
 21
137.537428
 31
0.0
  0
LINE
  5
5E2
330
1E
100
AcDbEntity
  8
0
100
AcDbLine
 10
90.60959999999999
 20
137.037428
 30
0.0
 11
90.7402
 21
137.896428
 31
0.0
  0
LINE
  5
5E3
330
1E
100
AcDbEntity
  8
0
100
AcDbLine
 10
90.60959999999999
 20
137.037428
 30
0.0
 11
91.60110000000001
 21
136.9244279999999
 31
0.0
  0
LINE
  5
5E4
330
1E
100
AcDbEntity
  8
0
100
AcDbLine
 10
90.7402
 20
138.396428
 30
0.0
 11
91.73160000000001
 21
138.283428
 31
0.0
  0
LINE
  5
5E5
330
1E
100
AcDbEntity
  8
0
100
AcDbLine
 10
90.7402
 20
138.396428
 30
0.0
 11
90.7402
 21
137.896428
 31
0.0
  0
LINE
  5
5E6
330
1E
100
AcDbEntity
  8
0
100
AcDbLine
 10
91.73160000000001
 20
138.283428
 30
0.0
 11
91.73160000000001
 21
137.783428
 31
0.0
  0
LINE
  5
5E7
330
1E
100
AcDbEntity
  8
0
100
AcDbLine
 10
90.7402
 20
137.896428
 30
0.0
 11
90.7402
 21
138.396428
 31
0.0
  0
LINE
  5
5E8
330
1E
100
AcDbEntity
  8
0
100
AcDbLine
 10
90.7402
 20
137.896428
 30
0.0
 11
91.73160000000001
 21
137.783428
 31
0.0
  0
LINE
  5
5E9
330
1E
100
AcDbEntity
  8
0
100
AcDbLine
 10
91.73160000000001
 20
137.783428
 30
0.0
 11
91.73160000000001
 21
138.283428
 31
0.0
  0
LINE
  5
5EA
330
1E
100
AcDbEntity
  8
0
100
AcDbLine
 10
91.60110000000001
 20
136.9244279999999
 30
0.0
 11
91.73160000000001
 21
137.783428
 31
0.0
  0
LINE
  5
5EB
330
1E
100
AcDbEntity
  8
0
100
AcDbLine
 10
83.07309999999999
 20
135.2324279999999
 30
0.0
 11
83.07309999999999
 21
135.732428
 31
0.0
  0
LINE
  5
5EC
330
1E
100
AcDbEntity
  8
0
100
AcDbLine
 10
84.0
 20
141.329428
 30
0.0
 11
84.0
 21
142.195428
 31
0.0
  0
LINE
  5
5ED
330
1E
100
AcDbEntity
  8
0
100
AcDbLine
 10
83.0
 20
141.329428
 30
0.0
 11
83.0
 21
141.829428
 31
0.0
  0
LINE
  5
5EE
330
1E
100
AcDbEntity
  8
0
100
AcDbLine
 10
83.0
 20
141.329428
 30
0.0
 11
84.0
 21
141.329428
 31
0.0
  0
LINE
  5
5EF
330
1E
100
AcDbEntity
  8
0
100
AcDbLine
 10
83.0
 20
141.329428
 30
0.0
 11
83.0
 21
142.195428
 31
0.0
  0
LINE
  5
5F0
330
1E
100
AcDbEntity
  8
0
100
AcDbLine
 10
83.0
 20
142.6954279999999
 30
0.0
 11
83.0
 21
141.829428
 31
0.0
  0
LINE
  5
5F1
330
1E
100
AcDbEntity
  8
0
100
AcDbLine
 10
83.0
 20
142.6954279999999
 30
0.0
 11
83.0
 21
142.195428
 31
0.0
  0
LINE
  5
5F2
330
1E
100
AcDbEntity
  8
0
100
AcDbLine
 10
83.0
 20
142.6954279999999
 30
0.0
 11
84.0
 21
142.6954279999999
 31
0.0
  0
LINE
  5
5F3
330
1E
100
AcDbEntity
  8
0
100
AcDbLine
 10
84.0
 20
142.6954279999999
 30
0.0
 11
84.0
 21
142.195428
 31
0.0
  0
LINE
  5
5F4
330
1E
100
AcDbEntity
  8
0
100
AcDbLine
 10
84.0
 20
142.195428
 30
0.0
 11
84.0
 21
141.329428
 31
0.0
  0
LINE
  5
5F5
330
1E
100
AcDbEntity
  8
0
100
AcDbLine
 10
84.0
 20
142.195428
 30
0.0
 11
84.0
 21
142.6954279999999
 31
0.0
  0
LINE
  5
5F6
330
1E
100
AcDbEntity
  8
0
100
AcDbLine
 10
74.87709999999999
 20
143.8204279999999
 30
0.0
 11
75.8685
 21
143.9334279999999
 31
0.0
  0
LINE
  5
5F7
330
1E
100
AcDbEntity
  8
0
100
AcDbLine
 10
74.7465
 20
145.178428
 30
0.0
 11
74.7465
 21
144.6784279999999
 31
0.0
  0
LINE
  5
5F8
330
1E
100
AcDbEntity
  8
0
100
AcDbLine
 10
74.7465
 20
145.178428
 30
0.0
 11
75.738
 21
145.2914279999999
 31
0.0
  0
LINE
  5
5F9
330
1E
100
AcDbEntity
  8
0
100
AcDbLine
 10
74.7465
 20
144.6784279999999
 30
0.0
 11
74.87709999999999
 21
143.8204279999999
 31
0.0
  0
LINE
  5
5FA
330
1E
100
AcDbEntity
  8
0
100
AcDbLine
 10
74.7465
 20
144.6784279999999
 30
0.0
 11
74.7465
 21
145.178428
 31
0.0
  0
LINE
  5
5FB
330
1E
100
AcDbEntity
  8
0
100
AcDbLine
 10
74.7465
 20
144.6784279999999
 30
0.0
 11
75.738
 21
144.7914279999999
 31
0.0
  0
LINE
  5
5FC
330
1E
100
AcDbEntity
  8
0
100
AcDbLine
 10
73.134
 20
149.453428
 30
0.0
 11
73.5167
 21
148.6534279999999
 31
0.0
  0
LINE
  5
5FD
330
1E
100
AcDbEntity
  8
0
100
AcDbLine
 10
73.134
 20
149.453428
 30
0.0
 11
73.134
 21
149.9534279999999
 31
0.0
  0
LINE
  5
5FE
330
1E
100
AcDbEntity
  8
0
100
AcDbLine
 10
73.134
 20
149.453428
 30
0.0
 11
74.0579
 21
149.785428
 31
0.0
  0
LINE
  5
5FF
330
1E
100
AcDbEntity
  8
0
100
AcDbLine
 10
74.4406
 20
149.484428
 30
0.0
 11
74.4406
 21
148.9844279999999
 31
0.0
  0
LINE
  5
600
330
1E
100
AcDbEntity
  8
0
100
AcDbLine
 10
73.5167
 20
148.6534279999999
 30
0.0
 11
74.4406
 21
148.9844279999999
 31
0.0
  0
LINE
  5
601
330
1E
100
AcDbEntity
  8
0
100
AcDbLine
 10
70.1494
 20
154.204428
 30
0.0
 11
70.1494
 21
153.704428
 31
0.0
  0
LINE
  5
602
330
1E
100
AcDbEntity
  8
0
100
AcDbLine
 10
70.1494
 20
154.204428
 30
0.0
 11
70.9427
 21
154.7314279999999
 31
0.0
  0
LINE
  5
603
330
1E
100
AcDbEntity
  8
0
100
AcDbLine
 10
70.1494
 20
153.704428
 30
0.0
 11
70.1494
 21
154.204428
 31
0.0
  0
LINE
  5
604
330
1E
100
AcDbEntity
  8
0
100
AcDbLine
 10
70.1494
 20
153.704428
 30
0.0
 11
70.7582
 21
153.0174279999999
 31
0.0
  0
LINE
  5
605
330
1E
100
AcDbEntity
  8
0
100
AcDbLine
 10
70.1494
 20
153.704428
 30
0.0
 11
70.9427
 21
154.231428
 31
0.0
  0
LINE
  5
606
330
1E
100
AcDbEntity
  8
0
100
AcDbLine
 10
70.7582
 20
153.0174279999999
 30
0.0
 11
71.5515
 21
153.544428
 31
0.0
  0
LINE
  5
607
330
1E
100
AcDbEntity
  8
0
100
AcDbLine
 10
70.9427
 20
154.7314279999999
 30
0.0
 11
70.9427
 21
154.231428
 31
0.0
  0
LINE
  5
608
330
1E
100
AcDbEntity
  8
0
100
AcDbLine
 10
70.9427
 20
154.7314279999999
 30
0.0
 11
71.5515
 21
154.044428
 31
0.0
  0
LINE
  5
609
330
1E
100
AcDbEntity
  8
0
100
AcDbLine
 10
71.5515
 20
154.044428
 30
0.0
 11
71.5515
 21
153.544428
 31
0.0
  0
LINE
  5
60A
330
1E
100
AcDbEntity
  8
0
100
AcDbLine
 10
71.5515
 20
153.544428
 30
0.0
 11
71.5515
 21
154.044428
 31
0.0
  0
LINE
  5
60B
330
1E
100
AcDbEntity
  8
0
100
AcDbLine
 10
70.9427
 20
154.231428
 30
0.0
 11
71.5515
 21
153.544428
 31
0.0
  0
LINE
  5
60C
330
1E
100
AcDbEntity
  8
0
100
AcDbLine
 10
70.9427
 20
154.231428
 30
0.0
 11
70.9427
 21
154.7314279999999
 31
0.0
  0
LINE
  5
60D
330
1E
100
AcDbEntity
  8
0
100
AcDbLine
 10
68.06699999999999
 20
165.728428
 30
0.0
 11
68.06699999999999
 21
165.228428
 31
0.0
  0
LINE
  5
60E
330
1E
100
AcDbEntity
  8
0
100
AcDbLine
 10
68.06699999999999
 20
165.728428
 30
0.0
 11
68.933
 21
165.295428
 31
0.0
  0
LINE
  5
60F
330
1E
100
AcDbEntity
  8
0
100
AcDbLine
 10
68.43300000000001
 20
164.045428
 30
0.0
 11
68.933
 21
164.795428
 31
0.0
  0
LINE
  5
610
330
1E
100
AcDbEntity
  8
0
100
AcDbLine
 10
68.933
 20
165.295428
 30
0.0
 11
68.933
 21
164.795428
 31
0.0
  0
LINE
  5
611
330
1E
100
AcDbEntity
  8
0
100
AcDbLine
 10
68.933
 20
164.795428
 30
0.0
 11
68.933
 21
165.295428
 31
0.0
  0
LINE
  5
612
330
1E
100
AcDbEntity
  8
0
100
AcDbLine
 10
68.06699999999999
 20
165.228428
 30
0.0
 11
68.933
 21
164.795428
 31
0.0
  0
LINE
  5
613
330
1E
100
AcDbEntity
  8
0
100
AcDbLine
 10
68.06699999999999
 20
165.228428
 30
0.0
 11
68.06699999999999
 21
165.728428
 31
0.0
  0
LINE
  5
614
330
1E
100
AcDbEntity
  8
0
100
AcDbLine
 10
73.8596
 20
160.939428
 30
0.0
 11
73.8596
 21
160.4394279999999
 31
0.0
  0
LINE
  5
615
330
1E
100
AcDbEntity
  8
0
100
AcDbLine
 10
73.8596
 20
160.939428
 30
0.0
 11
74.5668
 21
161.5524279999999
 31
0.0
  0
LINE
  5
616
330
1E
100
AcDbEntity
  8
0
100
AcDbLine
 10
73.8596
 20
160.4394279999999
 30
0.0
 11
73.8596
 21
160.939428
 31
0.0
  0
LINE
  5
617
330
1E
100
AcDbEntity
  8
0
100
AcDbLine
 10
73.8596
 20
160.4394279999999
 30
0.0
 11
74.5668
 21
159.827428
 31
0.0
  0
LINE
  5
618
330
1E
100
AcDbEntity
  8
0
100
AcDbLine
 10
73.8596
 20
160.4394279999999
 30
0.0
 11
74.5668
 21
161.0524279999999
 31
0.0
  0
LINE
  5
619
330
1E
100
AcDbEntity
  8
0
100
AcDbLine
 10
73.134
 20
149.9534279999999
 30
0.0
 11
73.134
 21
149.453428
 31
0.0
  0
LINE
  5
61A
330
1E
100
AcDbEntity
  8
0
100
AcDbLine
 10
73.134
 20
149.9534279999999
 30
0.0
 11
74.0579
 21
150.285428
 31
0.0
  0
LINE
  5
61B
330
1E
100
AcDbEntity
  8
0
100
AcDbLine
 10
74.0579
 20
150.285428
 30
0.0
 11
74.0579
 21
149.785428
 31
0.0
  0
LINE
  5
61C
330
1E
100
AcDbEntity
  8
0
100
AcDbLine
 10
74.0579
 20
150.285428
 30
0.0
 11
74.4406
 21
149.484428
 31
0.0
  0
LINE
  5
61D
330
1E
100
AcDbEntity
  8
0
100
AcDbLine
 10
74.0579
 20
149.785428
 30
0.0
 11
74.4406
 21
148.9844279999999
 31
0.0
  0
LINE
  5
61E
330
1E
100
AcDbEntity
  8
0
100
AcDbLine
 10
74.0579
 20
149.785428
 30
0.0
 11
74.0579
 21
150.285428
 31
0.0
  0
LINE
  5
61F
330
1E
100
AcDbEntity
  8
0
100
AcDbLine
 10
75.2739
 20
160.939428
 30
0.0
 11
75.2739
 21
160.4394279999999
 31
0.0
  0
LINE
  5
620
330
1E
100
AcDbEntity
  8
0
100
AcDbLine
 10
74.5668
 20
159.827428
 30
0.0
 11
75.2739
 21
160.4394279999999
 31
0.0
  0
LINE
  5
621
330
1E
100
AcDbEntity
  8
0
100
AcDbLine
 10
75.2739
 20
160.4394279999999
 30
0.0
 11
75.2739
 21
160.939428
 31
0.0
  0
LINE
  5
622
330
1E
100
AcDbEntity
  8
0
100
AcDbLine
 10
75.7363
 20
168.634428
 30
0.0
 11
75.7363
 21
168.134428
 31
0.0
  0
LINE
  5
623
330
1E
100
AcDbEntity
  8
0
100
AcDbLine
 10
75.7363
 20
168.634428
 30
0.0
 11
76.345
 21
169.321428
 31
0.0
  0
LINE
  5
624
330
1E
100
AcDbEntity
  8
0
100
AcDbLine
 10
75.7363
 20
168.134428
 30
0.0
 11
75.7363
 21
168.634428
 31
0.0
  0
LINE
  5
625
330
1E
100
AcDbEntity
  8
0
100
AcDbLine
 10
75.7363
 20
168.134428
 30
0.0
 11
76.5296
 21
167.6074279999999
 31
0.0
  0
LINE
  5
626
330
1E
100
AcDbEntity
  8
0
100
AcDbLine
 10
75.7363
 20
168.134428
 30
0.0
 11
76.345
 21
168.8214279999999
 31
0.0
  0
LINE
  5
627
330
1E
100
AcDbEntity
  8
0
100
AcDbLine
 10
74.5668
 20
161.5524279999999
 30
0.0
 11
74.5668
 21
161.0524279999999
 31
0.0
  0
LINE
  5
628
330
1E
100
AcDbEntity
  8
0
100
AcDbLine
 10
74.5668
 20
161.5524279999999
 30
0.0
 11
75.2739
 21
160.939428
 31
0.0
  0
LINE
  5
629
330
1E
100
AcDbEntity
  8
0
100
AcDbLine
 10
74.5668
 20
161.0524279999999
 30
0.0
 11
75.2739
 21
160.4394279999999
 31
0.0
  0
LINE
  5
62A
330
1E
100
AcDbEntity
  8
0
100
AcDbLine
 10
74.5668
 20
161.0524279999999
 30
0.0
 11
74.5668
 21
161.5524279999999
 31
0.0
  0
LINE
  5
62B
330
1E
100
AcDbEntity
  8
0
100
AcDbLine
 10
74.4406
 20
148.9844279999999
 30
0.0
 11
74.4406
 21
149.484428
 31
0.0
  0
LINE
  5
62C
330
1E
100
AcDbEntity
  8
0
100
AcDbLine
 10
75.738
 20
145.2914279999999
 30
0.0
 11
75.738
 21
144.7914279999999
 31
0.0
  0
LINE
  5
62D
330
1E
100
AcDbEntity
  8
0
100
AcDbLine
 10
75.738
 20
145.2914279999999
 30
0.0
 11
75.8685
 21
144.4334279999999
 31
0.0
  0
LINE
  5
62E
330
1E
100
AcDbEntity
  8
0
100
AcDbLine
 10
81.84839999999999
 20
148.9054279999999
 30
0.0
 11
82.1072
 21
148.068428
 31
0.0
  0
LINE
  5
62F
330
1E
100
AcDbEntity
  8
0
100
AcDbLine
 10
81.84839999999999
 20
148.9054279999999
 30
0.0
 11
81.84839999999999
 21
149.405428
 31
0.0
  0
LINE
  5
630
330
1E
100
AcDbEntity
  8
0
100
AcDbLine
 10
81.84839999999999
 20
148.9054279999999
 30
0.0
 11
82.8143
 21
149.1294279999999
 31
0.0
  0
LINE
  5
631
330
1E
100
AcDbEntity
  8
0
100
AcDbLine
 10
83.07309999999999
 20
148.792428
 30
0.0
 11
83.07309999999999
 21
148.2924279999999
 31
0.0
  0
LINE
  5
632
330
1E
100
AcDbEntity
  8
0
100
AcDbLine
 10
82.1072
 20
148.068428
 30
0.0
 11
83.07309999999999
 21
148.2924279999999
 31
0.0
  0
LINE
  5
633
330
1E
100
AcDbEntity
  8
0
100
AcDbLine
 10
76.345
 20
169.321428
 30
0.0
 11
76.345
 21
168.8214279999999
 31
0.0
  0
LINE
  5
634
330
1E
100
AcDbEntity
  8
0
100
AcDbLine
 10
76.345
 20
169.321428
 30
0.0
 11
77.13840000000001
 21
168.794428
 31
0.0
  0
LINE
  5
635
330
1E
100
AcDbEntity
  8
0
100
AcDbLine
 10
79.2308
 20
154.377428
 30
0.0
 11
80.09680000000001
 21
154.8104279999999
 31
0.0
  0
LINE
  5
636
330
1E
100
AcDbEntity
  8
0
100
AcDbLine
 10
78.7308
 20
155.627428
 30
0.0
 11
78.7308
 21
155.127428
 31
0.0
  0
LINE
  5
637
330
1E
100
AcDbEntity
  8
0
100
AcDbLine
 10
78.7308
 20
155.627428
 30
0.0
 11
79.5968
 21
156.0604279999999
 31
0.0
  0
LINE
  5
638
330
1E
100
AcDbEntity
  8
0
100
AcDbLine
 10
78.7308
 20
155.127428
 30
0.0
 11
79.2308
 21
154.377428
 31
0.0
  0
LINE
  5
639
330
1E
100
AcDbEntity
  8
0
100
AcDbLine
 10
78.7308
 20
155.127428
 30
0.0
 11
78.7308
 21
155.627428
 31
0.0
  0
LINE
  5
63A
330
1E
100
AcDbEntity
  8
0
100
AcDbLine
 10
78.7308
 20
155.127428
 30
0.0
 11
79.5968
 21
155.560428
 31
0.0
  0
LINE
  5
63B
330
1E
100
AcDbEntity
  8
0
100
AcDbLine
 10
79.5968
 20
156.0604279999999
 30
0.0
 11
79.5968
 21
155.560428
 31
0.0
  0
LINE
  5
63C
330
1E
100
AcDbEntity
  8
0
100
AcDbLine
 10
79.5968
 20
156.0604279999999
 30
0.0
 11
80.09680000000001
 21
155.310428
 31
0.0
  0
LINE
  5
63D
330
1E
100
AcDbEntity
  8
0
100
AcDbLine
 10
80.09680000000001
 20
155.310428
 30
0.0
 11
80.09680000000001
 21
154.8104279999999
 31
0.0
  0
LINE
  5
63E
330
1E
100
AcDbEntity
  8
0
100
AcDbLine
 10
79.5968
 20
155.560428
 30
0.0
 11
80.09680000000001
 21
154.8104279999999
 31
0.0
  0
LINE
  5
63F
330
1E
100
AcDbEntity
  8
0
100
AcDbLine
 10
79.5968
 20
155.560428
 30
0.0
 11
79.5968
 21
156.0604279999999
 31
0.0
  0
LINE
  5
640
330
1E
100
AcDbEntity
  8
0
100
AcDbLine
 10
80.09680000000001
 20
154.8104279999999
 30
0.0
 11
80.09680000000001
 21
155.310428
 31
0.0
  0
LINE
  5
641
330
1E
100
AcDbEntity
  8
0
100
AcDbLine
 10
76.5296
 20
167.6074279999999
 30
0.0
 11
77.13840000000001
 21
168.294428
 31
0.0
  0
LINE
  5
642
330
1E
100
AcDbEntity
  8
0
100
AcDbLine
 10
77.13840000000001
 20
168.794428
 30
0.0
 11
77.13840000000001
 21
168.294428
 31
0.0
  0
LINE
  5
643
330
1E
100
AcDbEntity
  8
0
100
AcDbLine
 10
77.13840000000001
 20
168.294428
 30
0.0
 11
77.13840000000001
 21
168.794428
 31
0.0
  0
LINE
  5
644
330
1E
100
AcDbEntity
  8
0
100
AcDbLine
 10
76.345
 20
168.8214279999999
 30
0.0
 11
77.13840000000001
 21
168.294428
 31
0.0
  0
LINE
  5
645
330
1E
100
AcDbEntity
  8
0
100
AcDbLine
 10
76.345
 20
168.8214279999999
 30
0.0
 11
76.345
 21
169.321428
 31
0.0
  0
LINE
  5
646
330
1E
100
AcDbEntity
  8
0
100
AcDbLine
 10
81.84839999999999
 20
149.405428
 30
0.0
 11
81.84839999999999
 21
148.9054279999999
 31
0.0
  0
LINE
  5
647
330
1E
100
AcDbEntity
  8
0
100
AcDbLine
 10
81.84839999999999
 20
149.405428
 30
0.0
 11
82.8143
 21
149.6294279999999
 31
0.0
  0
LINE
  5
648
330
1E
100
AcDbEntity
  8
0
100
AcDbLine
 10
82.84299999999999
 20
162.639428
 30
0.0
 11
82.84299999999999
 21
162.139428
 31
0.0
  0
LINE
  5
649
330
1E
100
AcDbEntity
  8
0
100
AcDbLine
 10
82.84299999999999
 20
162.639428
 30
0.0
 11
83.6364
 21
163.166428
 31
0.0
  0
LINE
  5
64A
330
1E
100
AcDbEntity
  8
0
100
AcDbLine
 10
82.84299999999999
 20
162.139428
 30
0.0
 11
82.84299999999999
 21
162.639428
 31
0.0
  0
LINE
  5
64B
330
1E
100
AcDbEntity
  8
0
100
AcDbLine
 10
82.84299999999999
 20
162.139428
 30
0.0
 11
83.4518
 21
161.4524279999999
 31
0.0
  0
LINE
  5
64C
330
1E
100
AcDbEntity
  8
0
100
AcDbLine
 10
82.84299999999999
 20
162.139428
 30
0.0
 11
83.6364
 21
162.6664279999999
 31
0.0
  0
LINE
  5
64D
330
1E
100
AcDbEntity
  8
0
100
AcDbLine
 10
82.8143
 20
149.6294279999999
 30
0.0
 11
82.8143
 21
149.1294279999999
 31
0.0
  0
LINE
  5
64E
330
1E
100
AcDbEntity
  8
0
100
AcDbLine
 10
82.8143
 20
149.6294279999999
 30
0.0
 11
83.07309999999999
 21
148.792428
 31
0.0
  0
LINE
  5
64F
330
1E
100
AcDbEntity
  8
0
100
AcDbLine
 10
82.8143
 20
149.1294279999999
 30
0.0
 11
83.07309999999999
 21
148.2924279999999
 31
0.0
  0
LINE
  5
650
330
1E
100
AcDbEntity
  8
0
100
AcDbLine
 10
82.8143
 20
149.1294279999999
 30
0.0
 11
82.8143
 21
149.6294279999999
 31
0.0
  0
LINE
  5
651
330
1E
100
AcDbEntity
  8
0
100
AcDbLine
 10
84.24519999999999
 20
162.479428
 30
0.0
 11
84.24519999999999
 21
161.979428
 31
0.0
  0
LINE
  5
652
330
1E
100
AcDbEntity
  8
0
100
AcDbLine
 10
83.4518
 20
161.4524279999999
 30
0.0
 11
84.24519999999999
 21
161.979428
 31
0.0
  0
LINE
  5
653
330
1E
100
AcDbEntity
  8
0
100
AcDbLine
 10
84.24519999999999
 20
161.979428
 30
0.0
 11
84.24519999999999
 21
162.479428
 31
0.0
  0
LINE
  5
654
330
1E
100
AcDbEntity
  8
0
100
AcDbLine
 10
83.6364
 20
163.166428
 30
0.0
 11
83.6364
 21
162.6664279999999
 31
0.0
  0
LINE
  5
655
330
1E
100
AcDbEntity
  8
0
100
AcDbLine
 10
83.6364
 20
163.166428
 30
0.0
 11
84.24519999999999
 21
162.479428
 31
0.0
  0
LINE
  5
656
330
1E
100
AcDbEntity
  8
0
100
AcDbLine
 10
83.6364
 20
162.6664279999999
 30
0.0
 11
84.24519999999999
 21
161.979428
 31
0.0
  0
LINE
  5
657
330
1E
100
AcDbEntity
  8
0
100
AcDbLine
 10
83.6364
 20
162.6664279999999
 30
0.0
 11
83.6364
 21
163.166428
 31
0.0
  0
LINE
  5
658
330
1E
100
AcDbEntity
  8
0
100
AcDbLine
 10
83.07309999999999
 20
148.2924279999999
 30
0.0
 11
83.07309999999999
 21
148.792428
 31
0.0
  0
LINE
  5
659
330
1E
100
AcDbEntity
  8
0
100
AcDbLine
 10
85.1734
 20
170.7374279999999
 30
0.0
 11
85.1734
 21
170.2374279999999
 31
0.0
  0
LINE
  5
65A
330
1E
100
AcDbEntity
  8
0
100
AcDbLine
 10
85.1734
 20
170.7374279999999
 30
0.0
 11
85.8805
 21
171.3504279999999
 31
0.0
  0
LINE
  5
65B
330
1E
100
AcDbEntity
  8
0
100
AcDbLine
 10
85.1734
 20
170.2374279999999
 30
0.0
 11
85.1734
 21
170.7374279999999
 31
0.0
  0
LINE
  5
65C
330
1E
100
AcDbEntity
  8
0
100
AcDbLine
 10
85.1734
 20
170.2374279999999
 30
0.0
 11
85.8805
 21
169.6254279999999
 31
0.0
  0
LINE
  5
65D
330
1E
100
AcDbEntity
  8
0
100
AcDbLine
 10
85.1734
 20
170.2374279999999
 30
0.0
 11
85.8805
 21
170.8504279999999
 31
0.0
  0
LINE
  5
65E
330
1E
100
AcDbEntity
  8
0
100
AcDbLine
 10
85.8805
 20
169.6254279999999
 30
0.0
 11
86.58759999999999
 21
170.2374279999999
 31
0.0
  0
LINE
  5
65F
330
1E
100
AcDbEntity
  8
0
100
AcDbLine
 10
85.8805
 20
171.3504279999999
 30
0.0
 11
85.8805
 21
170.8504279999999
 31
0.0
  0
LINE
  5
660
330
1E
100
AcDbEntity
  8
0
100
AcDbLine
 10
85.8805
 20
171.3504279999999
 30
0.0
 11
86.58759999999999
 21
170.7374279999999
 31
0.0
  0
LINE
  5
661
330
1E
100
AcDbEntity
  8
0
100
AcDbLine
 10
90.60959999999999
 20
146.4874279999999
 30
0.0
 11
90.7402
 21
145.628428
 31
0.0
  0
LINE
  5
662
330
1E
100
AcDbEntity
  8
0
100
AcDbLine
 10
90.60959999999999
 20
146.4874279999999
 30
0.0
 11
90.60959999999999
 21
146.9874279999999
 31
0.0
  0
LINE
  5
663
330
1E
100
AcDbEntity
  8
0
100
AcDbLine
 10
90.60959999999999
 20
146.4874279999999
 30
0.0
 11
91.60110000000001
 21
146.6004279999999
 31
0.0
  0
LINE
  5
664
330
1E
100
AcDbEntity
  8
0
100
AcDbLine
 10
91.73160000000001
 20
146.241428
 30
0.0
 11
91.73160000000001
 21
145.741428
 31
0.0
  0
LINE
  5
665
330
1E
100
AcDbEntity
  8
0
100
AcDbLine
 10
90.7402
 20
145.628428
 30
0.0
 11
91.73160000000001
 21
145.741428
 31
0.0
  0
LINE
  5
666
330
1E
100
AcDbEntity
  8
0
100
AcDbLine
 10
87.9161
 20
154.756428
 30
0.0
 11
88.29880000000001
 21
153.956428
 31
0.0
  0
LINE
  5
667
330
1E
100
AcDbEntity
  8
0
100
AcDbLine
 10
87.9161
 20
154.756428
 30
0.0
 11
87.9161
 21
155.256428
 31
0.0
  0
LINE
  5
668
330
1E
100
AcDbEntity
  8
0
100
AcDbLine
 10
87.9161
 20
154.756428
 30
0.0
 11
88.84
 21
155.087428
 31
0.0
  0
LINE
  5
669
330
1E
100
AcDbEntity
  8
0
100
AcDbLine
 10
89.22259999999999
 20
154.787428
 30
0.0
 11
89.22259999999999
 21
154.287428
 31
0.0
  0
LINE
  5
66A
330
1E
100
AcDbEntity
  8
0
100
AcDbLine
 10
88.29880000000001
 20
153.956428
 30
0.0
 11
89.22259999999999
 21
154.287428
 31
0.0
  0
LINE
  5
66B
330
1E
100
AcDbEntity
  8
0
100
AcDbLine
 10
87.9161
 20
155.256428
 30
0.0
 11
87.9161
 21
154.756428
 31
0.0
  0
LINE
  5
66C
330
1E
100
AcDbEntity
  8
0
100
AcDbLine
 10
87.9161
 20
155.256428
 30
0.0
 11
88.84
 21
155.587428
 31
0.0
  0
LINE
  5
66D
330
1E
100
AcDbEntity
  8
0
100
AcDbLine
 10
88.84
 20
155.587428
 30
0.0
 11
88.84
 21
155.087428
 31
0.0
  0
LINE
  5
66E
330
1E
100
AcDbEntity
  8
0
100
AcDbLine
 10
88.84
 20
155.587428
 30
0.0
 11
89.22259999999999
 21
154.787428
 31
0.0
  0
LINE
  5
66F
330
1E
100
AcDbEntity
  8
0
100
AcDbLine
 10
88.84
 20
155.087428
 30
0.0
 11
89.22259999999999
 21
154.287428
 31
0.0
  0
LINE
  5
670
330
1E
100
AcDbEntity
  8
0
100
AcDbLine
 10
88.84
 20
155.087428
 30
0.0
 11
88.84
 21
155.587428
 31
0.0
  0
LINE
  5
671
330
1E
100
AcDbEntity
  8
0
100
AcDbLine
 10
89.22259999999999
 20
154.287428
 30
0.0
 11
89.22259999999999
 21
154.787428
 31
0.0
  0
LINE
  5
672
330
1E
100
AcDbEntity
  8
0
100
AcDbLine
 10
90.60959999999999
 20
146.9874279999999
 30
0.0
 11
90.60959999999999
 21
146.4874279999999
 31
0.0
  0
LINE
  5
673
330
1E
100
AcDbEntity
  8
0
100
AcDbLine
 10
90.60959999999999
 20
146.9874279999999
 30
0.0
 11
91.60110000000001
 21
147.100428
 31
0.0
  0
LINE
  5
674
330
1E
100
AcDbEntity
  8
0
100
AcDbLine
 10
91.60110000000001
 20
147.100428
 30
0.0
 11
91.60110000000001
 21
146.6004279999999
 31
0.0
  0
LINE
  5
675
330
1E
100
AcDbEntity
  8
0
100
AcDbLine
 10
91.60110000000001
 20
147.100428
 30
0.0
 11
91.73160000000001
 21
146.241428
 31
0.0
  0
LINE
  5
676
330
1E
100
AcDbEntity
  8
0
100
AcDbLine
 10
91.60110000000001
 20
146.6004279999999
 30
0.0
 11
91.73160000000001
 21
145.741428
 31
0.0
  0
LINE
  5
677
330
1E
100
AcDbEntity
  8
0
100
AcDbLine
 10
91.60110000000001
 20
146.6004279999999
 30
0.0
 11
91.60110000000001
 21
147.100428
 31
0.0
  0
LINE
  5
678
330
1E
100
AcDbEntity
  8
0
100
AcDbLine
 10
93.08719999999999
 20
161.306428
 30
0.0
 11
93.95319999999999
 21
161.739428
 31
0.0
  0
LINE
  5
679
330
1E
100
AcDbEntity
  8
0
100
AcDbLine
 10
92.5872
 20
162.556428
 30
0.0
 11
92.5872
 21
162.056428
 31
0.0
  0
LINE
  5
67A
330
1E
100
AcDbEntity
  8
0
100
AcDbLine
 10
92.5872
 20
162.556428
 30
0.0
 11
93.45319999999999
 21
162.989428
 31
0.0
  0
LINE
  5
67B
330
1E
100
AcDbEntity
  8
0
100
AcDbLine
 10
92.5872
 20
162.056428
 30
0.0
 11
93.08719999999999
 21
161.306428
 31
0.0
  0
LINE
  5
67C
330
1E
100
AcDbEntity
  8
0
100
AcDbLine
 10
92.5872
 20
162.056428
 30
0.0
 11
92.5872
 21
162.556428
 31
0.0
  0
LINE
  5
67D
330
1E
100
AcDbEntity
  8
0
100
AcDbLine
 10
92.5872
 20
162.056428
 30
0.0
 11
93.45319999999999
 21
162.489428
 31
0.0
  0
LINE
  5
67E
330
1E
100
AcDbEntity
  8
0
100
AcDbLine
 10
93.45319999999999
 20
162.989428
 30
0.0
 11
93.45319999999999
 21
162.489428
 31
0.0
  0
LINE
  5
67F
330
1E
100
AcDbEntity
  8
0
100
AcDbLine
 10
93.45319999999999
 20
162.989428
 30
0.0
 11
93.95319999999999
 21
162.2394279999999
 31
0.0
  0
LINE
  5
680
330
1E
100
AcDbEntity
  8
0
100
AcDbLine
 10
93.95319999999999
 20
162.2394279999999
 30
0.0
 11
93.95319999999999
 21
161.739428
 31
0.0
  0
LINE
  5
681
330
1E
100
AcDbEntity
  8
0
100
AcDbLine
 10
93.45319999999999
 20
162.489428
 30
0.0
 11
93.95319999999999
 21
161.739428
 31
0.0
  0
LINE
  5
682
330
1E
100
AcDbEntity
  8
0
100
AcDbLine
 10
93.45319999999999
 20
162.489428
 30
0.0
 11
93.45319999999999
 21
162.989428
 31
0.0
  0
LINE
  5
683
330
1E
100
AcDbEntity
  8
0
100
AcDbLine
 10
93.95319999999999
 20
161.739428
 30
0.0
 11
93.95319999999999
 21
162.2394279999999
 31
0.0
  0
LINE
  5
684
330
1E
100
AcDbEntity
  8
0
100
AcDbLine
 10
91.73160000000001
 20
145.741428
 30
0.0
 11
91.73160000000001
 21
146.241428
 31
0.0
  0
LINE
  5
685
330
1E
100
AcDbEntity
  8
0
100
AcDbLine
 10
86.58759999999999
 20
170.7374279999999
 30
0.0
 11
86.58759999999999
 21
170.2374279999999
 31
0.0
  0
LINE
  5
686
330
1E
100
AcDbEntity
  8
0
100
AcDbLine
 10
86.58759999999999
 20
170.2374279999999
 30
0.0
 11
86.58759999999999
 21
170.7374279999999
 31
0.0
  0
LINE
  5
687
330
1E
100
AcDbEntity
  8
0
100
AcDbLine
 10
85.8805
 20
170.8504279999999
 30
0.0
 11
86.58759999999999
 21
170.2374279999999
 31
0.0
  0
LINE
  5
688
330
1E
100
AcDbEntity
  8
0
100
AcDbLine
 10
85.8805
 20
170.8504279999999
 30
0.0
 11
85.8805
 21
171.3504279999999
 31
0.0
  0
LINE
  5
689
330
1E
100
AcDbEntity
  8
0
100
AcDbLine
 10
75.8685
 20
144.4334279999999
 30
0.0
 11
75.8685
 21
143.9334279999999
 31
0.0
  0
LINE
  5
68A
330
1E
100
AcDbEntity
  8
0
100
AcDbLine
 10
75.738
 20
144.7914279999999
 30
0.0
 11
75.8685
 21
143.9334279999999
 31
0.0
  0
LINE
  5
68B
330
1E
100
AcDbEntity
  8
0
100
AcDbLine
 10
75.738
 20
144.7914279999999
 30
0.0
 11
75.738
 21
145.2914279999999
 31
0.0
  0
LINE
  5
68C
330
1E
100
AcDbEntity
  8
0
100
AcDbLine
 10
75.8685
 20
143.9334279999999
 30
0.0
 11
75.8685
 21
144.4334279999999
 31
0.0
  0
LINE
  5
68D
330
1E
100
AcDbEntity
  8
0
100
AcDbLine
 10
67.6183
 20
144.706428
 30
0.0
 11
67.6183
 21
145.206428
 31
0.0
  0
LINE
  5
68E
330
1E
100
AcDbEntity
  8
0
100
AcDbLine
 10
67.08
 20
172.832428
 30
0.0
 11
67.08
 21
172.3324279999999
 31
0.0
  0
LINE
  5
68F
330
1E
100
AcDbEntity
  8
0
100
AcDbLine
 10
67.08
 20
172.832428
 30
0.0
 11
67.46269999999999
 21
173.632428
 31
0.0
  0
LINE
  5
690
330
1E
100
AcDbEntity
  8
0
100
AcDbLine
 10
67.08
 20
172.3324279999999
 30
0.0
 11
67.08
 21
172.832428
 31
0.0
  0
LINE
  5
691
330
1E
100
AcDbEntity
  8
0
100
AcDbLine
 10
67.08
 20
172.3324279999999
 30
0.0
 11
68.0039
 21
172.0004279999999
 31
0.0
  0
LINE
  5
692
330
1E
100
AcDbEntity
  8
0
100
AcDbLine
 10
67.08
 20
172.3324279999999
 30
0.0
 11
67.46269999999999
 21
173.132428
 31
0.0
  0
LINE
  5
693
330
1E
100
AcDbEntity
  8
0
100
AcDbLine
 10
67.46269999999999
 20
173.632428
 30
0.0
 11
67.46269999999999
 21
173.132428
 31
0.0
  0
LINE
  5
694
330
1E
100
AcDbEntity
  8
0
100
AcDbLine
 10
67.46269999999999
 20
173.632428
 30
0.0
 11
68.3866
 21
173.300428
 31
0.0
  0
LINE
  5
695
330
1E
100
AcDbEntity
  8
0
100
AcDbLine
 10
68.0039
 20
172.0004279999999
 30
0.0
 11
68.3866
 21
172.800428
 31
0.0
  0
LINE
  5
696
330
1E
100
AcDbEntity
  8
0
100
AcDbLine
 10
68.3866
 20
173.300428
 30
0.0
 11
68.3866
 21
172.800428
 31
0.0
  0
LINE
  5
697
330
1E
100
AcDbEntity
  8
0
100
AcDbLine
 10
68.3866
 20
172.800428
 30
0.0
 11
68.3866
 21
173.300428
 31
0.0
  0
LINE
  5
698
330
1E
100
AcDbEntity
  8
0
100
AcDbLine
 10
67.46269999999999
 20
173.132428
 30
0.0
 11
68.3866
 21
172.800428
 31
0.0
  0
LINE
  5
699
330
1E
100
AcDbEntity
  8
0
100
AcDbLine
 10
67.46269999999999
 20
173.132428
 30
0.0
 11
67.46269999999999
 21
173.632428
 31
0.0
  0
LINE
  5
69A
330
1E
100
AcDbEntity
  8
0
100
AcDbLine
 10
75.56699999999999
 20
176.978428
 30
0.0
 11
75.56699999999999
 21
176.478428
 31
0.0
  0
LINE
  5
69B
330
1E
100
AcDbEntity
  8
0
100
AcDbLine
 10
75.56699999999999
 20
176.978428
 30
0.0
 11
76.067
 21
177.728428
 31
0.0
  0
LINE
  5
69C
330
1E
100
AcDbEntity
  8
0
100
AcDbLine
 10
75.56699999999999
 20
176.478428
 30
0.0
 11
75.56699999999999
 21
176.978428
 31
0.0
  0
LINE
  5
69D
330
1E
100
AcDbEntity
  8
0
100
AcDbLine
 10
75.56699999999999
 20
176.478428
 30
0.0
 11
76.433
 21
176.045428
 31
0.0
  0
LINE
  5
69E
330
1E
100
AcDbEntity
  8
0
100
AcDbLine
 10
75.56699999999999
 20
176.478428
 30
0.0
 11
76.067
 21
177.228428
 31
0.0
  0
LINE
  5
69F
330
1E
100
AcDbEntity
  8
0
100
AcDbLine
 10
76.433
 20
176.045428
 30
0.0
 11
76.933
 21
176.795428
 31
0.0
  0
LINE
  5
6A0
330
1E
100
AcDbEntity
  8
0
100
AcDbLine
 10
76.933
 20
176.795428
 30
0.0
 11
76.933
 21
177.295428
 31
0.0
  0
LINE
  5
6A1
330
1E
100
AcDbEntity
  8
0
100
AcDbLine
 10
76.933
 20
177.295428
 30
0.0
 11
76.933
 21
176.795428
 31
0.0
  0
LINE
  5
6A2
330
1E
100
AcDbEntity
  8
0
100
AcDbLine
 10
76.067
 20
177.728428
 30
0.0
 11
76.067
 21
177.228428
 31
0.0
  0
LINE
  5
6A3
330
1E
100
AcDbEntity
  8
0
100
AcDbLine
 10
76.067
 20
177.728428
 30
0.0
 11
76.933
 21
177.295428
 31
0.0
  0
LINE
  5
6A4
330
1E
100
AcDbEntity
  8
0
100
AcDbLine
 10
76.067
 20
177.228428
 30
0.0
 11
76.933
 21
176.795428
 31
0.0
  0
LINE
  5
6A5
330
1E
100
AcDbEntity
  8
0
100
AcDbLine
 10
76.067
 20
177.228428
 30
0.0
 11
76.067
 21
177.728428
 31
0.0
  0
LINE
  5
6A6
330
1E
100
AcDbEntity
  8
0
100
AcDbLine
 10
90.84335260115629
 20
174.719930890173
 30
0.0
 11
96.3
 21
168.5764279999999
 31
0.0
  0
LINE
  5
6A8
330
1E
100
AcDbEntity
  8
0
100
AcDbLine
 10
90.0
 20
173.555428
 30
0.0
 11
98.50000000000001
 21
164.115428
 31
0.0
  0
LINE
  5
6A9
330
1E
100
AcDbEntity
  8
0
100
AcDbLine
 10
88.3
 20
171.833428
 30
0.0
 11
96.3
 21
162.8264279999999
 31
0.0
  0
LINE
  5
6AA
330
1E
100
AcDbEntity
  8
0
100
AcDbLine
 10
97.3032
 20
131.533428
 30
0.0
 11
97.56200000000001
 21
132.370428
 31
0.0
  0
LINE
  5
6AB
330
1E
100
AcDbEntity
  8
0
100
AcDbLine
 10
97.3032
 20
131.533428
 30
0.0
 11
97.3032
 21
131.033428
 31
0.0
  0
LINE
  5
6AC
330
1E
100
AcDbEntity
  8
0
100
AcDbLine
 10
97.56200000000001
 20
132.370428
 30
0.0
 11
98.5279
 21
132.145428
 31
0.0
  0
LINE
  5
6AD
330
1E
100
AcDbEntity
  8
0
100
AcDbLine
 10
97.56200000000001
 20
132.370428
 30
0.0
 11
97.56200000000001
 21
131.870428
 31
0.0
  0
LINE
  5
6AE
330
1E
100
AcDbEntity
  8
0
100
AcDbLine
 10
98.5279
 20
132.145428
 30
0.0
 11
98.5279
 21
131.645428
 31
0.0
  0
LINE
  5
6AF
330
1E
100
AcDbEntity
  8
0
100
AcDbLine
 10
97.56200000000001
 20
131.870428
 30
0.0
 11
97.56200000000001
 21
132.370428
 31
0.0
  0
LINE
  5
6B0
330
1E
100
AcDbEntity
  8
0
100
AcDbLine
 10
97.56200000000001
 20
131.870428
 30
0.0
 11
98.5279
 21
131.645428
 31
0.0
  0
LINE
  5
6B1
330
1E
100
AcDbEntity
  8
0
100
AcDbLine
 10
98.5279
 20
131.645428
 30
0.0
 11
98.5279
 21
132.145428
 31
0.0
  0
LINE
  5
6B2
330
1E
100
AcDbEntity
  8
0
100
AcDbLine
 10
99.0
 20
142.195428
 30
0.0
 11
99.0
 21
142.6954279999999
 31
0.0
  0
LINE
  5
6B3
330
1E
100
AcDbEntity
  8
0
100
AcDbLine
 10
99.0
 20
142.195428
 30
0.0
 11
99.0
 21
141.329428
 31
0.0
  0
LINE
  5
6B4
330
1E
100
AcDbEntity
  8
0
100
AcDbLine
 10
99.0
 20
142.195428
 30
0.0
 11
100.0
 21
142.195428
 31
0.0
  0
LINE
  5
6B5
330
1E
100
AcDbEntity
  8
0
100
AcDbLine
 10
99.0
 20
141.829428
 30
0.0
 11
99.0
 21
141.329428
 31
0.0
  0
LINE
  5
6B6
330
1E
100
AcDbEntity
  8
0
100
AcDbLine
 10
99.0
 20
141.829428
 30
0.0
 11
99.0
 21
142.6954279999999
 31
0.0
  0
LINE
  5
6B7
330
1E
100
AcDbEntity
  8
0
100
AcDbLine
 10
100.0
 20
141.329428
 30
0.0
 11
100.0
 21
142.195428
 31
0.0
  0
LINE
  5
6B8
330
1E
100
AcDbEntity
  8
0
100
AcDbLine
 10
99.0
 20
141.329428
 30
0.0
 11
99.0
 21
141.829428
 31
0.0
  0
LINE
  5
6B9
330
1E
100
AcDbEntity
  8
0
100
AcDbLine
 10
99.0
 20
141.329428
 30
0.0
 11
100.0
 21
141.329428
 31
0.0
  0
LINE
  5
6BA
330
1E
100
AcDbEntity
  8
0
100
AcDbLine
 10
99.0
 20
141.329428
 30
0.0
 11
99.0
 21
142.195428
 31
0.0
  0
LINE
  5
6BB
330
1E
100
AcDbEntity
  8
0
100
AcDbLine
 10
97.56200000000001
 20
151.6544279999999
 30
0.0
 11
98.5279
 21
151.878428
 31
0.0
  0
LINE
  5
6BC
330
1E
100
AcDbEntity
  8
0
100
AcDbLine
 10
98.5279
 20
151.878428
 30
0.0
 11
98.5279
 21
152.378428
 31
0.0
  0
LINE
  5
6BD
330
1E
100
AcDbEntity
  8
0
100
AcDbLine
 10
99.0
 20
142.6954279999999
 30
0.0
 11
99.0
 21
141.829428
 31
0.0
  0
LINE
  5
6BE
330
1E
100
AcDbEntity
  8
0
100
AcDbLine
 10
99.0
 20
142.6954279999999
 30
0.0
 11
99.0
 21
142.195428
 31
0.0
  0
LINE
  5
6BF
330
1E
100
AcDbEntity
  8
0
100
AcDbLine
 10
99.0
 20
142.6954279999999
 30
0.0
 11
100.0
 21
142.6954279999999
 31
0.0
  0
LINE
  5
6C0
330
1E
100
AcDbEntity
  8
0
100
AcDbLine
 10
100.0
 20
142.6954279999999
 30
0.0
 11
100.0
 21
142.195428
 31
0.0
  0
LINE
  5
6C1
330
1E
100
AcDbEntity
  8
0
100
AcDbLine
 10
100.0
 20
142.195428
 30
0.0
 11
100.0
 21
141.329428
 31
0.0
  0
LINE
  5
6C2
330
1E
100
AcDbEntity
  8
0
100
AcDbLine
 10
100.0
 20
142.195428
 30
0.0
 11
100.0
 21
142.6954279999999
 31
0.0
  0
LINE
  5
6C3
330
1E
100
AcDbEntity
  8
0
100
AcDbLine
 10
106.0
 20
142.2624279999999
 30
0.0
 11
106.0
 21
142.512428
 31
0.0
  0
LINE
  5
6C4
330
1E
100
AcDbEntity
  8
0
100
AcDbLine
 10
96.3
 20
168.5764279999999
 30
0.0
 11
96.70000000000001
 21
167.999428
 31
0.0
  0
LINE
  5
6C5
330
1E
100
AcDbEntity
  8
0
100
AcDbLine
 10
97.3032
 20
152.991428
 30
0.0
 11
97.3032
 21
152.491428
 31
0.0
  0
LINE
  5
6C6
330
1E
100
AcDbEntity
  8
0
100
AcDbLine
 10
97.3032
 20
152.991428
 30
0.0
 11
98.26909999999999
 21
153.215428
 31
0.0
  0
LINE
  5
6C7
330
1E
100
AcDbEntity
  8
0
100
AcDbLine
 10
97.3032
 20
152.491428
 30
0.0
 11
97.56200000000001
 21
151.6544279999999
 31
0.0
  0
LINE
  5
6C8
330
1E
100
AcDbEntity
  8
0
100
AcDbLine
 10
97.3032
 20
152.491428
 30
0.0
 11
97.3032
 21
152.991428
 31
0.0
  0
LINE
  5
6C9
330
1E
100
AcDbEntity
  8
0
100
AcDbLine
 10
97.3032
 20
152.491428
 30
0.0
 11
98.26909999999999
 21
152.7154279999999
 31
0.0
  0
LINE
  5
6CA
330
1E
100
AcDbEntity
  8
0
100
AcDbLine
 10
98.5279
 20
152.378428
 30
0.0
 11
98.5279
 21
151.878428
 31
0.0
  0
LINE
  5
6CB
330
1E
100
AcDbEntity
  8
0
100
AcDbLine
 10
98.26909999999999
 20
152.7154279999999
 30
0.0
 11
98.5279
 21
151.878428
 31
0.0
  0
LINE
  5
6CC
330
1E
100
AcDbEntity
  8
0
100
AcDbLine
 10
98.26909999999999
 20
152.7154279999999
 30
0.0
 11
98.26909999999999
 21
153.215428
 31
0.0
  0
LINE
  5
6CD
330
1E
100
AcDbEntity
  8
0
100
AcDbLine
 10
98.26909999999999
 20
153.215428
 30
0.0
 11
98.26909999999999
 21
152.7154279999999
 31
0.0
  0
LINE
  5
6CE
330
1E
100
AcDbEntity
  8
0
100
AcDbLine
 10
98.26909999999999
 20
153.215428
 30
0.0
 11
98.5279
 21
152.378428
 31
0.0
  0
LINE
  5
6D0
330
1E
100
AcDbEntity
  8
0
100
AcDbLine
 10
98.50000000000001
 20
165.865428
 30
0.0
 11
98.9
 21
165.288428
 31
0.0
  0
LINE
  5
6D1
330
1E
100
AcDbEntity
  8
0
100
AcDbLine
 10
98.9
 20
165.288428
 30
0.0
 11
104.0999999999999
 21
154.2904279999999
 31
0.0
  0
LINE
  5
6D2
330
1E
100
AcDbEntity
  8
0
100
AcDbLine
 10
104.0999999999999
 20
154.2904279999999
 30
0.0
 11
106.0
 21
142.512428
 31
0.0
  0
LINE
  5
6D3
330
1E
100
AcDbEntity
  8
0
100
AcDbLine
 10
98.50000000000001
 20
164.115428
 30
0.0
 11
103.6
 21
153.2034279999999
 31
0.0
  0
LINE
  5
6D4
330
1E
100
AcDbEntity
  8
0
100
AcDbLine
 10
103.6
 20
153.2034279999999
 30
0.0
 11
105.4999999999999
 21
141.512428
 31
0.0
  0
LINE
  5
6D5
330
1E
100
AcDbEntity
  8
0
100
AcDbLine
 10
96.3
 20
162.8264279999999
 30
0.0
 11
101.2
 21
152.347428
 31
0.0
  0
LINE
  5
6D6
330
1E
100
AcDbEntity
  8
0
100
AcDbLine
 10
101.2
 20
152.347428
 30
0.0
 11
103.0
 21
141.2624279999999
 31
0.0
  0
LINE
  5
6D7
330
1E
100
AcDbEntity
  8
0
100
AcDbLine
 10
95.4
 20
171.1434279999999
 30
0.0
 11
98.50000000000001
 21
165.865428
 31
0.0
  0
LINE
  5
6D9
330
1E
100
AcDbEntity
  8
0
100
AcDbLine
 10
79.1
 20
182.6664279999999
 30
0.0
 11
90.84335260115629
 21
174.719930890173
 31
0.0
  0
LINE
  5
6DA
330
1E
100
AcDbEntity
  8
0
100
AcDbLine
 10
87.59999999999999
 20
179.9764279999999
 30
0.0
 11
95.4
 21
171.1434279999999
 31
0.0
  0
LINE
  5
6DB
330
1E
100
AcDbEntity
  8
0
100
AcDbLine
 10
85.8
 20
181.9184279999999
 30
0.0
 11
87.13311493055959
 21
180.4251615291159
 31
0.0
  0
LINE
  5
6DC
330
1E
100
AcDbEntity
  8
0
100
AcDbLine
 10
87.2
 20
180.3804279999999
 30
0.0
 11
87.59999999999999
 21
179.9764279999999
 31
0.0
  0
LINE
  5
6DD
330
1E
100
AcDbEntity
  8
0
100
AcDbLine
 10
79.1
 20
180.916428
 30
0.0
 11
90.0
 21
173.555428
 31
0.0
  0
LINE
  5
6DE
330
1E
100
AcDbEntity
  8
0
100
AcDbLine
 10
77.9
 20
178.7614279999999
 30
0.0
 11
88.3
 21
171.833428
 31
0.0
  0
LINE
  5
6DF
330
1E
100
AcDbEntity
  8
0
100
AcDbLine
 10
65.8
 20
183.0044279999999
 30
0.0
 11
77.9
 21
178.7614279999999
 31
0.0
  0
LINE
  5
6E0
330
1E
100
AcDbEntity
  8
0
100
AcDbLine
 10
53.0
 20
188.728428
 30
0.0
 11
66.5
 21
187.083428
 31
0.0
  0
LINE
  5
6E3
330
1E
100
AcDbEntity
  8
0
100
AcDbLine
 10
76.09999999999999
 20
188.4134279999999
 30
0.0
 11
85.8
 21
181.9184279999999
 31
0.0
  0
LINE
  5
6E4
330
1E
100
AcDbEntity
  8
0
100
AcDbLine
 10
77.09999999999999
 20
187.135428
 30
0.0
 11
87.2
 21
180.3804279999999
 31
0.0
  0
LINE
  5
6E5
330
1E
100
AcDbEntity
  8
0
100
AcDbLine
 10
77.40000000000001
 20
186.731428
 30
0.0
 11
87.59999999999999
 21
179.9764279999999
 31
0.0
  0
LINE
  5
6E6
330
1E
100
AcDbEntity
  8
0
100
AcDbLine
 10
66.5
 20
187.083428
 30
0.0
 11
79.1
 21
182.6664279999999
 31
0.0
  0
LINE
  5
6E7
330
1E
100
AcDbEntity
  8
0
100
AcDbLine
 10
66.5
 20
185.333428
 30
0.0
 11
79.1
 21
180.916428
 31
0.0
  0
LINE
  5
6E8
330
1E
100
AcDbEntity
  8
0
100
AcDbLine
 10
53.0
 20
186.978428
 30
0.0
 11
66.5
 21
185.333428
 31
0.0
  0
LINE
  5
6E9
330
1E
100
AcDbEntity
  8
0
100
AcDbLine
 10
53.0
 20
184.563428
 30
0.0
 11
65.8
 21
183.0044279999999
 31
0.0
  0
LINE
  5
6EA
330
1E
100
AcDbEntity
  8
0
100
AcDbLine
 10
106.0
 20
142.512428
 30
0.0
 11
106.0
 21
142.2624279999999
 31
0.0
  0
LINE
  5
6EB
330
1E
100
AcDbEntity
  8
0
100
AcDbLine
 10
101.2
 20
131.1774279999999
 30
0.0
 11
102.9188092016239
 21
141.762428
 31
0.0
  0
LINE
  5
6EE
330
1E
100
AcDbEntity
  8
0
100
AcDbLine
 10
65.5
 20
191.205428
 30
0.0
 11
77.09999999999999
 21
187.135428
 31
0.0
  0
LINE
  5
6EF
330
1E
100
AcDbEntity
  8
0
100
AcDbLine
 10
65.59999999999999
 20
190.888428
 30
0.0
 11
77.40000000000001
 21
186.731428
 31
0.0
  0
LINE
  5
6F1
330
1E
100
AcDbEntity
  8
0
100
AcDbLine
 10
64.90000000000001
 20
192.310428
 30
0.0
 11
76.09999999999999
 21
188.4134279999999
 31
0.0
  0
LINE
  5
6F2
330
1E
100
AcDbEntity
  8
0
100
AcDbLine
 10
53.0
 20
193.782428
 30
0.0
 11
64.90000000000001
 21
192.310428
 31
0.0
  0
LINE
  5
6F3
330
1E
100
AcDbEntity
  8
0
100
AcDbLine
 10
53.0
 20
192.764428
 30
0.0
 11
65.5
 21
191.205428
 31
0.0
  0
LINE
  5
6F4
330
1E
100
AcDbEntity
  8
0
100
AcDbLine
 10
53.0
 20
192.447428
 30
0.0
 11
65.59999999999999
 21
190.888428
 31
0.0
  0
LINE
  5
6F5
330
1E
100
AcDbEntity
  8
0
100
AcDbLine
 10
41.1
 20
192.310428
 30
0.0
 11
53.0
 21
193.782428
 31
0.0
  0
LINE
  5
6F6
330
1E
100
AcDbEntity
  8
0
100
AcDbLine
 10
40.49999999999999
 20
191.205428
 30
0.0
 11
53.0
 21
192.764428
 31
0.0
  0
LINE
  5
6F7
330
1E
100
AcDbEntity
  8
0
100
AcDbLine
 10
40.4
 20
190.888428
 30
0.0
 11
53.0
 21
192.447428
 31
0.0
  0
LINE
  5
6F9
330
1E
100
AcDbEntity
  8
0
100
AcDbLine
 10
40.2
 20
100.520428
 30
0.0
 11
53.0
 21
98.961128
 31
0.0
  0
ENDSEC
  0
SECTION
  2
OBJECTS
  0
DICTIONARY
  5
C
330
0
100
AcDbDictionary
281
     1
  3
ACAD_GROUP
350
D
  3
ACAD_LAYOUT
350
19
  3
ACAD_MLINESTYLE
350
16
  3
ACAD_PLOTSETTINGS
350
18
  3
ACAD_PLOTSTYLENAME
350
E
  3
AcDbVariableDictionary
350
6FE
  0
DICTIONARY
  5
D
102
{ACAD_REACTORS
330
C
102
}
330
C
100
AcDbDictionary
281
     1
  0
DICTIONARY
  5
19
102
{ACAD_REACTORS
330
C
102
}
330
C
100
AcDbDictionary
281
     1
  3
Layout1
350
1D
  3
Model
350
21
  0
DICTIONARY
  5
16
102
{ACAD_REACTORS
330
C
102
}
330
C
100
AcDbDictionary
281
     1
  3
Standard
350
17
  0
DICTIONARY
  5
18
102
{ACAD_REACTORS
330
C
102
}
330
C
100
AcDbDictionary
281
     1
  0
ACDBDICTIONARYWDFLT
  5
E
102
{ACAD_REACTORS
330
C
102
}
330
C
100
AcDbDictionary
281
     1
  3
Normal
350
F
100
AcDbDictionaryWithDefault
340
F
  0
DICTIONARY
  5
6FE
102
{ACAD_REACTORS
330
C
102
}
330
C
100
AcDbDictionary
281
     1
  3
DIMASSOC
350
6FF
  0
LAYOUT
  5
1D
102
{ACAD_REACTORS
330
19
102
}
330
19
100
AcDbPlotSettings
  1

  2
hp deskjet 980c series
  4

  6

 40
0.0
 41
0.0
 42
0.0
 43
0.0
 44
0.0
 45
0.0
 46
0.0
 47
0.0
 48
0.0
 49
0.0
140
0.0
141
0.0
142
1.0
143
1.0
 70
   688
 72
     0
 73
     0
 74
     5
  7

 75
    16
147
1.0
148
0.0
149
0.0
100
AcDbLayout
  1
Layout1
 70
     1
 71
     1
 10
0.0
 20
0.0
 11
12.0
 21
9.0
 12
0.0
 22
0.0
 32
0.0
 14
1.000000000000000E+20
 24
1.000000000000000E+20
 34
1.000000000000000E+20
 15
-1.000000000000000E+20
 25
-1.000000000000000E+20
 35
-1.000000000000000E+20
146
0.0
 13
0.0
 23
0.0
 33
0.0
 16
1.0
 26
0.0
 36
0.0
 17
0.0
 27
1.0
 37
0.0
 76
     0
330
1A
  0
LAYOUT
  5
21
102
{ACAD_REACTORS
330
19
102
}
330
19
100
AcDbPlotSettings
  1

  2
hp deskjet 980c series
  4

  6

 40
0.0
 41
0.0
 42
0.0
 43
0.0
 44
0.0
 45
0.0
 46
0.0
 47
0.0
 48
0.0
 49
0.0
140
0.0
141
0.0
142
1.0
143
1.0
 70
  1712
 72
     0
 73
     0
 74
     0
  7

 75
     0
147
1.0
148
0.0
149
0.0
100
AcDbLayout
  1
Model
 70
     1
 71
     0
 10
0.0
 20
0.0
 11
12.0
 21
9.0
 12
0.0
 22
0.0
 32
0.0
 14
0.0
 24
0.0
 34
0.0
 15
0.0
 25
0.0
 35
0.0
146
0.0
 13
0.0
 23
0.0
 33
0.0
 16
1.0
 26
0.0
 36
0.0
 17
0.0
 27
1.0
 37
0.0
 76
     0
330
1E
  0
MLINESTYLE
  5
17
102
{ACAD_REACTORS
330
16
102
}
330
16
100
AcDbMlineStyle
  2
STANDARD
 70
     0
  3

 62
   256
 51
90.0
 52
90.0
 71
     2
 49
0.5
 62
   256
  6
BYLAYER
 49
-0.5
 62
   256
  6
BYLAYER
  0
ACDBPLACEHOLDER
  5
F
102
{ACAD_REACTORS
330
E
102
}
330
E
  0
DICTIONARYVAR
  5
6FF
102
{ACAD_REACTORS
330
6FE
102
}
330
6FE
100
DictionaryVariables
280
     0
  1
1
  0
ENDSEC
  0
EOF
