  0
SECTION
  2
HEADER
  9
$ACADVER
  1
AC1015
  9
$ACADMAINTVER
 70
    13
  9
$DWGCODEPAGE
  3
ANSI_1252
  9
$INSBASE
 10
0.0
 20
0.0
 30
0.0
  9
$EXTMIN
 10
0.0000000000000044
 20
0.0000000000000621
 30
0.0
  9
$EXTMAX
 10
280.0
 20
1931.0
 30
0.0
  9
$LIMMIN
 10
0.0
 20
0.0
  9
$LIMMAX
 10
12.0
 20
9.0
  9
$ORTHOMODE
 70
     0
  9
$REGENMODE
 70
     1
  9
$FILLMODE
 70
     1
  9
$QTEXTMODE
 70
     0
  9
$MIRRTEXT
 70
     1
  9
$LTSCALE
 40
1.0
  9
$ATTMODE
 70
     1
  9
$TEXTSIZE
 40
0.2
  9
$TRACEWID
 40
0.05
  9
$TEXTSTYLE
  7
Standard
  9
$CLAYER
  8
0
  9
$CELTYPE
  6
Continuous
  9
$CECOLOR
 62
   256
  9
$CELTSCALE
 40
1.0
  9
$DISPSILH
 70
     0
  9
$DIMSCALE
 40
1.0
  9
$DIMASZ
 40
0.18
  9
$DIMEXO
 40
0.0625
  9
$DIMDLI
 40
0.38
  9
$DIMRND
 40
0.0
  9
$DIMDLE
 40
0.0
  9
$DIMEXE
 40
0.18
  9
$DIMTP
 40
0.0
  9
$DIMTM
 40
0.0
  9
$DIMTXT
 40
0.18
  9
$DIMCEN
 40
0.09
  9
$DIMTSZ
 40
0.0
  9
$DIMTOL
 70
     0
  9
$DIMLIM
 70
     0
  9
$DIMTIH
 70
     1
  9
$DIMTOH
 70
     1
  9
$DIMSE1
 70
     0
  9
$DIMSE2
 70
     0
  9
$DIMTAD
 70
     0
  9
$DIMZIN
 70
     0
  9
$DIMBLK
  1

  9
$DIMASO
 70
     1
  9
$DIMSHO
 70
     1
  9
$DIMPOST
  1

  9
$DIMAPOST
  1

  9
$DIMALT
 70
     0
  9
$DIMALTD
 70
     2
  9
$DIMALTF
 40
25.4
  9
$DIMLFAC
 40
1.0
  9
$DIMTOFL
 70
     0
  9
$DIMTVP
 40
0.0
  9
$DIMTIX
 70
     0
  9
$DIMSOXD
 70
     0
  9
$DIMSAH
 70
     0
  9
$DIMBLK1
  1

  9
$DIMBLK2
  1

  9
$DIMSTYLE
  2
Standard
  9
$DIMCLRD
 70
     0
  9
$DIMCLRE
 70
     0
  9
$DIMCLRT
 70
     0
  9
$DIMTFAC
 40
1.0
  9
$DIMGAP
 40
0.09
  9
$DIMJUST
 70
     0
  9
$DIMSD1
 70
     0
  9
$DIMSD2
 70
     0
  9
$DIMTOLJ
 70
     1
  9
$DIMTZIN
 70
     0
  9
$DIMALTZ
 70
     0
  9
$DIMALTTZ
 70
     0
  9
$DIMUPT
 70
     0
  9
$DIMDEC
 70
     4
  9
$DIMTDEC
 70
     4
  9
$DIMALTU
 70
     2
  9
$DIMALTTD
 70
     2
  9
$DIMTXSTY
  7
Standard
  9
$DIMAUNIT
 70
     0
  9
$DIMADEC
 70
     0
  9
$DIMALTRND
 40
0.0
  9
$DIMAZIN
 70
     0
  9
$DIMDSEP
 70
    46
  9
$DIMATFIT
 70
     3
  9
$DIMFRAC
 70
     0
  9
$DIMLDRBLK
  1

  9
$DIMLUNIT
 70
     2
  9
$DIMLWD
 70
    -2
  9
$DIMLWE
 70
    -2
  9
$DIMTMOVE
 70
     0
  9
$LUNITS
 70
     2
  9
$LUPREC
 70
     4
  9
$SKETCHINC
 40
0.1
  9
$FILLETRAD
 40
0.0
  9
$AUNITS
 70
     0
  9
$AUPREC
 70
     0
  9
$MENU
  1
.
  9
$ELEVATION
 40
0.0
  9
$PELEVATION
 40
0.0
  9
$THICKNESS
 40
0.0
  9
$LIMCHECK
 70
     0
  9
$CHAMFERA
 40
0.0
  9
$CHAMFERB
 40
0.0
  9
$CHAMFERC
 40
0.0
  9
$CHAMFERD
 40
0.0
  9
$SKPOLY
 70
     0
  9
$TDCREATE
 40
2454745.687839074
  9
$TDUCREATE
 40
2454745.604505740
  9
$TDUPDATE
 40
2454745.690662974
  9
$TDUUPDATE
 40
2454745.607329641
  9
$TDINDWG
 40
0.0028239005
  9
$TDUSRTIMER
 40
0.0028239005
  9
$USRTIMER
 70
     1
  9
$ANGBASE
 50
0.0
  9
$ANGDIR
 70
     0
  9
$PDMODE
 70
     0
  9
$PDSIZE
 40
0.0
  9
$PLINEWID
 40
0.0
  9
$SPLFRAME
 70
     0
  9
$SPLINETYPE
 70
     6
  9
$SPLINESEGS
 70
     8
  9
$HANDSEED
  5
2B7
  9
$SURFTAB1
 70
     6
  9
$SURFTAB2
 70
     6
  9
$SURFTYPE
 70
     6
  9
$SURFU
 70
     6
  9
$SURFV
 70
     6
  9
$UCSBASE
  2

  9
$UCSNAME
  2

  9
$UCSORG
 10
0.0
 20
0.0
 30
0.0
  9
$UCSXDIR
 10
1.0
 20
0.0
 30
0.0
  9
$UCSYDIR
 10
0.0
 20
1.0
 30
0.0
  9
$UCSORTHOREF
  2

  9
$UCSORTHOVIEW
 70
     1
  9
$UCSORGTOP
 10
0.0
 20
0.0
 30
0.0
  9
$UCSORGBOTTOM
 10
0.0
 20
0.0
 30
0.0
  9
$UCSORGLEFT
 10
0.0
 20
0.0
 30
0.0
  9
$UCSORGRIGHT
 10
0.0
 20
0.0
 30
0.0
  9
$UCSORGFRONT
 10
0.0
 20
0.0
 30
0.0
  9
$UCSORGBACK
 10
0.0
 20
0.0
 30
0.0
  9
$PUCSBASE
  2

  9
$PUCSNAME
  2

  9
$PUCSORG
 10
0.0
 20
0.0
 30
0.0
  9
$PUCSXDIR
 10
1.0
 20
0.0
 30
0.0
  9
$PUCSYDIR
 10
0.0
 20
1.0
 30
0.0
  9
$PUCSORTHOREF
  2

  9
$PUCSORTHOVIEW
 70
     0
  9
$PUCSORGTOP
 10
0.0
 20
0.0
 30
0.0
  9
$PUCSORGBOTTOM
 10
0.0
 20
0.0
 30
0.0
  9
$PUCSORGLEFT
 10
0.0
 20
0.0
 30
0.0
  9
$PUCSORGRIGHT
 10
0.0
 20
0.0
 30
0.0
  9
$PUCSORGFRONT
 10
0.0
 20
0.0
 30
0.0
  9
$PUCSORGBACK
 10
0.0
 20
0.0
 30
0.0
  9
$USERI1
 70
     0
  9
$USERI2
 70
     0
  9
$USERI3
 70
     0
  9
$USERI4
 70
     0
  9
$USERI5
 70
     0
  9
$USERR1
 40
0.0
  9
$USERR2
 40
0.0
  9
$USERR3
 40
0.0
  9
$USERR4
 40
0.0
  9
$USERR5
 40
0.0
  9
$WORLDVIEW
 70
     1
  9
$SHADEDGE
 70
     3
  9
$SHADEDIF
 70
    70
  9
$TILEMODE
 70
     1
  9
$MAXACTVP
 70
    64
  9
$PINSBASE
 10
0.0
 20
0.0
 30
0.0
  9
$PLIMCHECK
 70
     0
  9
$PEXTMIN
 10
1.000000000000000E+20
 20
1.000000000000000E+20
 30
1.000000000000000E+20
  9
$PEXTMAX
 10
-1.000000000000000E+20
 20
-1.000000000000000E+20
 30
-1.000000000000000E+20
  9
$PLIMMIN
 10
0.0
 20
0.0
  9
$PLIMMAX
 10
12.0
 20
9.0
  9
$UNITMODE
 70
     0
  9
$VISRETAIN
 70
     1
  9
$PLINEGEN
 70
     0
  9
$PSLTSCALE
 70
     1
  9
$TREEDEPTH
 70
  3020
  9
$CMLSTYLE
  2
Standard
  9
$CMLJUST
 70
     0
  9
$CMLSCALE
 40
1.0
  9
$PROXYGRAPHICS
 70
     1
  9
$MEASUREMENT
 70
     0
  9
$CELWEIGHT
370
    -1
  9
$ENDCAPS
280
     0
  9
$JOINSTYLE
280
     0
  9
$LWDISPLAY
290
     0
  9
$INSUNITS
 70
     0
  9
$HYPERLINKBASE
  1

  9
$STYLESHEET
  1

  9
$XEDIT
290
     1
  9
$CEPSNTYPE
380
     0
  9
$PSTYLEMODE
290
     1
  9
$FINGERPRINTGUID
  2
{9B37F859-9CE0-4499-858C-59D7EB470EE4}
  9
$VERSIONGUID
  2
{39A605B8-FD19-4341-B62B-8A6A4678049F}
  9
$EXTNAMES
290
     1
  9
$PSVPSCALE
 40
0.0
  9
$OLESTARTUP
290
     0
  0
ENDSEC
  0
SECTION
  2
CLASSES
  0
CLASS
  1
ACDBDICTIONARYWDFLT
  2
AcDbDictionaryWithDefault
  3
AutoCAD 2000
 90
        0
280
     0
281
     0
  0
CLASS
  1
ACDBPLACEHOLDER
  2
AcDbPlaceHolder
  3
AutoCAD 2000
 90
        0
280
     0
281
     0
  0
CLASS
  1
LAYOUT
  2
AcDbLayout
  3
AutoCAD 2000
 90
        0
280
     0
281
     0
  0
CLASS
  1
DICTIONARYVAR
  2
AcDbDictionaryVar
  3
AutoCAD 2000
 90
        0
280
     0
281
     0
  0
ENDSEC
  0
SECTION
  2
TABLES
  0
TABLE
  2
VPORT
  5
8
330
0
100
AcDbSymbolTable
 70
     2
  0
VPORT
  5
2B6
330
8
100
AcDbSymbolTableRecord
100
AcDbViewportTableRecord
  2
*Active
 70
     0
 10
0.0
 20
0.0
 11
1.0
 21
1.0
 12
140.0
 22
965.5000000000001
 13
0.0
 23
0.0
 14
1.0
 24
1.0
 15
0.0
 25
0.0
 16
0.0
 26
0.0
 36
1.0
 17
0.0
 27
0.0
 37
0.0
 40
1945.815856777493
 41
2.078104993597951
 42
50.0
 43
0.0
 44
0.0
 50
0.0
 51
0.0
 71
     0
 72
   100
 73
     1
 74
     3
 75
     0
 76
     0
 77
     0
 78
     0
281
     0
 65
     1
110
0.0
120
0.0
130
0.0
111
1.0
121
0.0
131
0.0
112
0.0
122
1.0
132
0.0
 79
     1
146
0.0
  0
ENDTAB
  0
TABLE
  2
LTYPE
  5
5
330
0
100
AcDbSymbolTable
 70
     1
  0
LTYPE
  5
13
330
5
100
AcDbSymbolTableRecord
100
AcDbLinetypeTableRecord
  2
ByBlock
 70
     0
  3

 72
    65
 73
     0
 40
0.0
  0
LTYPE
  5
14
330
5
100
AcDbSymbolTableRecord
100
AcDbLinetypeTableRecord
  2
ByLayer
 70
     0
  3

 72
    65
 73
     0
 40
0.0
  0
LTYPE
  5
15
330
5
100
AcDbSymbolTableRecord
100
AcDbLinetypeTableRecord
  2
Continuous
 70
     0
  3
Solid line
 72
    65
 73
     0
 40
0.0
  0
ENDTAB
  0
TABLE
  2
LAYER
  5
2
330
0
100
AcDbSymbolTable
 70
     1
  0
LAYER
  5
10
330
2
100
AcDbSymbolTableRecord
100
AcDbLayerTableRecord
  2
0
 70
     0
 62
     7
  6
Continuous
370
    -3
390
F
  0
ENDTAB
  0
TABLE
  2
STYLE
  5
3
330
0
100
AcDbSymbolTable
 70
     1
  0
STYLE
  5
11
330
3
100
AcDbSymbolTableRecord
100
AcDbTextStyleTableRecord
  2
Standard
 70
     0
 40
0.0
 41
1.0
 50
0.0
 71
     0
 42
0.2
  3
txt
  4

  0
ENDTAB
  0
TABLE
  2
VIEW
  5
6
330
0
100
AcDbSymbolTable
 70
     0
  0
ENDTAB
  0
TABLE
  2
UCS
  5
7
330
0
100
AcDbSymbolTable
 70
     0
  0
ENDTAB
  0
TABLE
  2
APPID
  5
9
330
0
100
AcDbSymbolTable
 70
     1
  0
APPID
  5
12
330
9
100
AcDbSymbolTableRecord
100
AcDbRegAppTableRecord
  2
ACAD
 70
     0
  0
ENDTAB
  0
TABLE
  2
DIMSTYLE
  5
A
330
0
100
AcDbSymbolTable
 70
     1
100
AcDbDimStyleTable
 71
     0
  0
DIMSTYLE
105
2AD
330
A
100
AcDbSymbolTableRecord
100
AcDbDimStyleTableRecord
  2
Standard
 70
     0
340
11
  0
ENDTAB
  0
TABLE
  2
BLOCK_RECORD
  5
1
330
0
100
AcDbSymbolTable
 70
     0
  0
BLOCK_RECORD
  5
1E
330
1
100
AcDbSymbolTableRecord
100
AcDbBlockTableRecord
  2
*Model_Space
340
21
  0
BLOCK_RECORD
  5
1A
330
1
100
AcDbSymbolTableRecord
100
AcDbBlockTableRecord
  2
*Paper_Space
340
1D
  0
ENDTAB
  0
ENDSEC
  0
SECTION
  2
BLOCKS
  0
BLOCK
  5
1F
330
1E
100
AcDbEntity
  8
0
100
AcDbBlockBegin
  2
*Model_Space
 70
     0
 10
0.0
 20
0.0
 30
0.0
  3
*Model_Space
  1

  0
ENDBLK
  5
20
330
1E
100
AcDbEntity
  8
0
100
AcDbBlockEnd
  0
BLOCK
  5
1B
330
1A
100
AcDbEntity
 67
     1
  8
0
100
AcDbBlockBegin
  2
*Paper_Space
 70
     0
 10
0.0
 20
0.0
 30
0.0
  3
*Paper_Space
  1

  0
ENDBLK
  5
1C
330
1A
100
AcDbEntity
 67
     1
  8
0
100
AcDbBlockEnd
  0
ENDSEC
  0
SECTION
  2
ENTITIES
  0
LINE
  5
22
330
1E
100
AcDbEntity
  8
0
100
AcDbLine
 10
0.0000000000000044
 20
0.0000000000000804
 30
0.0
 11
0.0000000000000058
 21
23.0000000000001
 31
0.0
  0
LINE
  5
23
330
1E
100
AcDbEntity
  8
0
100
AcDbLine
 10
41.15999999999999
 20
0.0000000000000767
 30
0.0
 11
50.12
 21
0.0000000000000762
 31
0.0
  0
LINE
  5
24
330
1E
100
AcDbEntity
  8
0
100
AcDbLine
 10
25.48
 20
0.0000000000000777
 30
0.0
 11
33.04
 21
0.0000000000000772
 31
0.0
  0
LINE
  5
25
330
1E
100
AcDbEntity
  8
0
100
AcDbLine
 10
33.04
 20
0.0000000000000772
 30
0.0
 11
41.15999999999999
 21
0.0000000000000767
 31
0.0
  0
LINE
  5
26
330
1E
100
AcDbEntity
  8
0
100
AcDbLine
 10
19.03999999999999
 20
0.0000000000000781
 30
0.0
 11
25.48
 21
0.0000000000000777
 31
0.0
  0
LINE
  5
27
330
1E
100
AcDbEntity
  8
0
100
AcDbLine
 10
13.44
 20
0.0000000000000784
 30
0.0
 11
19.03999999999999
 21
0.0000000000000781
 31
0.0
  0
LINE
  5
28
330
1E
100
AcDbEntity
  8
0
100
AcDbLine
 10
8.679999999999999
 20
0.0000000000000787
 30
0.0
 11
13.44
 21
0.0000000000000784
 31
0.0
  0
LINE
  5
29
330
1E
100
AcDbEntity
  8
0
100
AcDbLine
 10
5.04
 20
0.0000000000000789
 30
0.0
 11
8.679999999999999
 21
0.0000000000000787
 31
0.0
  0
LINE
  5
2A
330
1E
100
AcDbEntity
  8
0
100
AcDbLine
 10
2.24
 20
0.0000000000000791
 30
0.0
 11
5.04
 21
0.0000000000000789
 31
0.0
  0
LINE
  5
2B
330
1E
100
AcDbEntity
  8
0
100
AcDbLine
 10
0.0000000000000058
 20
23.0000000000001
 30
0.0
 11
0.8400000000000058
 21
23.0000000000001
 31
0.0
  0
LINE
  5
2C
330
1E
100
AcDbEntity
  8
0
100
AcDbLine
 10
41.15999999999999
 20
23.0000000000001
 30
0.0
 11
50.12
 21
23.0000000000001
 31
0.0
  0
LINE
  5
2D
330
1E
100
AcDbEntity
  8
0
100
AcDbLine
 10
50.12
 20
23.0000000000001
 30
0.0
 11
59.64
 21
23.0000000000001
 31
0.0
  0
LINE
  5
2E
330
1E
100
AcDbEntity
  8
0
100
AcDbLine
 10
59.64
 20
23.0000000000001
 30
0.0
 11
70.28
 21
23.0000000000001
 31
0.0
  0
LINE
  5
2F
330
1E
100
AcDbEntity
  8
0
100
AcDbLine
 10
33.04
 20
23.0000000000001
 30
0.0
 11
41.15999999999999
 21
23.0000000000001
 31
0.0
  0
LINE
  5
30
330
1E
100
AcDbEntity
  8
0
100
AcDbLine
 10
25.48
 20
23.0000000000001
 30
0.0
 11
33.04
 21
23.0000000000001
 31
0.0
  0
LINE
  5
31
330
1E
100
AcDbEntity
  8
0
100
AcDbLine
 10
19.03999999999999
 20
23.0000000000001
 30
0.0
 11
25.48
 21
23.0000000000001
 31
0.0
  0
LINE
  5
32
330
1E
100
AcDbEntity
  8
0
100
AcDbLine
 10
13.44
 20
23.0000000000001
 30
0.0
 11
19.03999999999999
 21
23.0000000000001
 31
0.0
  0
LINE
  5
33
330
1E
100
AcDbEntity
  8
0
100
AcDbLine
 10
8.68000000000001
 20
23.0000000000001
 30
0.0
 11
13.44
 21
23.0000000000001
 31
0.0
  0
LINE
  5
34
330
1E
100
AcDbEntity
  8
0
100
AcDbLine
 10
5.040000000000009
 20
23.0000000000001
 30
0.0
 11
8.68000000000001
 21
23.0000000000001
 31
0.0
  0
LINE
  5
35
330
1E
100
AcDbEntity
  8
0
100
AcDbLine
 10
2.240000000000009
 20
23.0000000000001
 30
0.0
 11
5.040000000000009
 21
23.0000000000001
 31
0.0
  0
LINE
  5
36
330
1E
100
AcDbEntity
  8
0
100
AcDbLine
 10
0.8400000000000058
 20
23.0000000000001
 30
0.0
 11
2.240000000000009
 21
23.0000000000001
 31
0.0
  0
LINE
  5
37
330
1E
100
AcDbEntity
  8
0
100
AcDbLine
 10
0.0000000000000058
 20
23.0000000000001
 30
0.0
 11
0.8400000000000058
 21
23.0000000000001
 31
0.0
  0
LINE
  5
38
330
1E
100
AcDbEntity
  8
0
100
AcDbLine
 10
0.8400000000000041
 20
0.0000000000000792
 30
0.0
 11
2.24
 21
0.0000000000000791
 31
0.0
  0
LINE
  5
39
330
1E
100
AcDbEntity
  8
0
100
AcDbLine
 10
0.0000000000000044
 20
0.0000000000000792
 30
0.0
 11
0.8400000000000041
 21
0.0000000000000792
 31
0.0
  0
LINE
  5
3A
330
1E
100
AcDbEntity
  8
0
100
AcDbLine
 10
0.0000000000000044
 20
0.0000000000000792
 30
0.0
 11
0.0000000000000058
 21
23.0000000000001
 31
0.0
  0
LINE
  5
3B
330
1E
100
AcDbEntity
  8
0
100
AcDbLine
 10
50.12
 20
0.0000000000000762
 30
0.0
 11
59.64
 21
0.0000000000000756
 31
0.0
  0
LINE
  5
3C
330
1E
100
AcDbEntity
  8
0
100
AcDbLine
 10
70.28
 20
23.0000000000001
 30
0.0
 11
80.92
 21
23.0000000000001
 31
0.0
  0
LINE
  5
3D
330
1E
100
AcDbEntity
  8
0
100
AcDbLine
 10
80.92
 20
23.0000000000001
 30
0.0
 11
92.12000000000001
 21
23.0000000000001
 31
0.0
  0
LINE
  5
3E
330
1E
100
AcDbEntity
  8
0
100
AcDbLine
 10
59.64
 20
0.0000000000000756
 30
0.0
 11
70.28
 21
0.0000000000000749
 31
0.0
  0
LINE
  5
3F
330
1E
100
AcDbEntity
  8
0
100
AcDbLine
 10
70.28
 20
0.0000000000000749
 30
0.0
 11
80.92
 21
0.0000000000000743
 31
0.0
  0
LINE
  5
40
330
1E
100
AcDbEntity
  8
0
100
AcDbLine
 10
92.12000000000001
 20
23.0000000000001
 30
0.0
 11
103.6
 21
23.0000000000001
 31
0.0
  0
LINE
  5
41
330
1E
100
AcDbEntity
  8
0
100
AcDbLine
 10
103.6
 20
23.0000000000001
 30
0.0
 11
115.64
 21
23.0000000000001
 31
0.0
  0
LINE
  5
42
330
1E
100
AcDbEntity
  8
0
100
AcDbLine
 10
80.92
 20
0.0000000000000743
 30
0.0
 11
92.12000000000001
 21
0.0000000000000736
 31
0.0
  0
LINE
  5
43
330
1E
100
AcDbEntity
  8
0
100
AcDbLine
 10
92.12000000000001
 20
0.0000000000000736
 30
0.0
 11
103.6
 21
0.0000000000000729
 31
0.0
  0
LINE
  5
44
330
1E
100
AcDbEntity
  8
0
100
AcDbLine
 10
115.64
 20
23.0000000000001
 30
0.0
 11
127.68
 21
23.0000000000001
 31
0.0
  0
LINE
  5
45
330
1E
100
AcDbEntity
  8
0
100
AcDbLine
 10
115.64
 20
0.0000000000000722
 30
0.0
 11
127.68
 21
0.0000000000000714
 31
0.0
  0
LINE
  5
46
330
1E
100
AcDbEntity
  8
0
100
AcDbLine
 10
103.6
 20
0.0000000000000729
 30
0.0
 11
115.64
 21
0.0000000000000722
 31
0.0
  0
LINE
  5
47
330
1E
100
AcDbEntity
  8
0
100
AcDbLine
 10
127.0
 20
33.0000000000001
 30
0.0
 11
127.5
 21
33.0000000000001
 31
0.0
  0
LINE
  5
48
330
1E
100
AcDbEntity
  8
0
100
AcDbLine
 10
127.0
 20
33.0000000000001
 30
0.0
 11
127.0
 21
908.5
 31
0.0
  0
LINE
  5
49
330
1E
100
AcDbEntity
  8
0
100
AcDbLine
 10
127.0
 20
908.5
 30
0.0
 11
127.5
 21
908.5
 31
0.0
  0
LINE
  5
4A
330
1E
100
AcDbEntity
  8
0
100
AcDbLine
 10
127.0
 20
908.5
 30
0.0
 11
127.5
 21
909.0
 31
0.0
  0
LINE
  5
4B
330
1E
100
AcDbEntity
  8
0
100
AcDbLine
 10
89.51330000000011
 20
1549.05
 30
0.0
 11
101.0279999999999
 21
1520.57
 31
0.0
  0
LINE
  5
4C
330
1E
100
AcDbEntity
  8
0
100
AcDbLine
 10
101.0279999999999
 20
1520.57
 30
0.0
 11
111.05
 21
1496.739999999999
 31
0.0
  0
LINE
  5
4D
330
1E
100
AcDbEntity
  8
0
100
AcDbLine
 10
111.05
 20
1496.739999999999
 30
0.0
 11
117.2199999999999
 21
1480.92
 31
0.0
  0
LINE
  5
4E
330
1E
100
AcDbEntity
  8
0
100
AcDbLine
 10
117.2199999999999
 20
1480.92
 30
0.0
 11
122.1139999999999
 21
1465.84
 31
0.0
  0
LINE
  5
4F
330
1E
100
AcDbEntity
  8
0
100
AcDbLine
 10
76.88810000000009
 20
1579.299999999999
 30
0.0
 11
89.51330000000011
 21
1549.05
 31
0.0
  0
LINE
  5
50
330
1E
100
AcDbEntity
  8
0
100
AcDbLine
 10
76.5929000000001
 20
1580.499999999999
 30
0.0
 11
77.04040000000009
 21
1581.8
 31
0.0
  0
LINE
  5
51
330
1E
100
AcDbEntity
  8
0
100
AcDbLine
 10
76.5929000000001
 20
1580.499999999999
 30
0.0
 11
76.88810000000009
 21
1579.299999999999
 31
0.0
  0
LINE
  5
52
330
1E
100
AcDbEntity
  8
0
100
AcDbLine
 10
86.16950000000009
 20
1588.3
 30
0.0
 11
88.58140000000011
 21
1588.799999999999
 31
0.0
  0
LINE
  5
53
330
1E
100
AcDbEntity
  8
0
100
AcDbLine
 10
83.7065000000001
 20
1587.4
 30
0.0
 11
86.16950000000009
 21
1588.3
 31
0.0
  0
LINE
  5
54
330
1E
100
AcDbEntity
  8
0
100
AcDbLine
 10
81.41280000000008
 20
1586.2
 30
0.0
 11
83.7065000000001
 21
1587.4
 31
0.0
  0
LINE
  5
55
330
1E
100
AcDbEntity
  8
0
100
AcDbLine
 10
79.50910000000009
 20
1584.8
 30
0.0
 11
81.41280000000008
 21
1586.2
 31
0.0
  0
LINE
  5
56
330
1E
100
AcDbEntity
  8
0
100
AcDbLine
 10
77.8924000000001
 20
1583.3
 30
0.0
 11
79.50910000000009
 21
1584.8
 31
0.0
  0
LINE
  5
57
330
1E
100
AcDbEntity
  8
0
100
AcDbLine
 10
77.04040000000009
 20
1581.8
 30
0.0
 11
77.8924000000001
 21
1583.3
 31
0.0
  0
LINE
  5
58
330
1E
100
AcDbEntity
  8
0
100
AcDbLine
 10
88.58140000000011
 20
1588.799999999999
 30
0.0
 11
90.86120000000009
 21
1589.0
 31
0.0
  0
LINE
  5
59
330
1E
100
AcDbEntity
  8
0
100
AcDbLine
 10
44.89430000000011
 20
1747.6
 30
0.0
 11
45.98310000000011
 21
1747.8
 31
0.0
  0
LINE
  5
5A
330
1E
100
AcDbEntity
  8
0
100
AcDbLine
 10
44.3762000000001
 20
1747.8
 30
0.0
 11
44.3954000000001
 21
1748.3
 31
0.0
  0
LINE
  5
5B
330
1E
100
AcDbEntity
  8
0
100
AcDbLine
 10
44.3762000000001
 20
1747.8
 30
0.0
 11
64.7738000000001
 21
1717.05
 31
0.0
  0
LINE
  5
5C
330
1E
100
AcDbEntity
  8
0
100
AcDbLine
 10
44.3762000000001
 20
1747.8
 30
0.0
 11
44.89430000000011
 21
1747.6
 31
0.0
  0
LINE
  5
5D
330
1E
100
AcDbEntity
  8
0
100
AcDbLine
 10
44.3954000000001
 20
1748.3
 30
0.0
 11
44.9829000000001
 21
1749.299999999999
 31
0.0
  0
LINE
  5
5E
330
1E
100
AcDbEntity
  8
0
100
AcDbLine
 10
45.98310000000011
 20
1747.8
 30
0.0
 11
47.4856000000001
 21
1748.3
 31
0.0
  0
LINE
  5
5F
330
1E
100
AcDbEntity
  8
0
100
AcDbLine
 10
47.4856000000001
 20
1748.3
 30
0.0
 11
49.37090000000011
 21
1749.299999999999
 31
0.0
  0
LINE
  5
60
330
1E
100
AcDbEntity
  8
0
100
AcDbLine
 10
44.9829000000001
 20
1749.299999999999
 30
0.0
 11
46.1052000000001
 21
1750.499999999999
 31
0.0
  0
LINE
  5
61
330
1E
100
AcDbEntity
  8
0
100
AcDbLine
 10
46.1052000000001
 20
1750.499999999999
 30
0.0
 11
47.7292000000001
 21
1751.8
 31
0.0
  0
LINE
  5
62
330
1E
100
AcDbEntity
  8
0
100
AcDbLine
 10
49.37090000000011
 20
1749.299999999999
 30
0.0
 11
51.4821000000001
 21
1750.499999999999
 31
0.0
  0
LINE
  5
63
330
1E
100
AcDbEntity
  8
0
100
AcDbLine
 10
51.4821000000001
 20
1750.499999999999
 30
0.0
 11
53.66240000000011
 21
1751.8
 31
0.0
  0
LINE
  5
64
330
1E
100
AcDbEntity
  8
0
100
AcDbLine
 10
57.6568000000001
 20
1754.799999999999
 30
0.0
 11
59.28080000000011
 21
1756.2
 31
0.0
  0
LINE
  5
65
330
1E
100
AcDbEntity
  8
0
100
AcDbLine
 10
55.6881000000001
 20
1753.3
 30
0.0
 11
57.6568000000001
 21
1754.799999999999
 31
0.0
  0
LINE
  5
66
330
1E
100
AcDbEntity
  8
0
100
AcDbLine
 10
53.66240000000011
 20
1751.8
 30
0.0
 11
55.6881000000001
 21
1753.3
 31
0.0
  0
LINE
  5
67
330
1E
100
AcDbEntity
  8
0
100
AcDbLine
 10
60.40320000000011
 20
1757.4
 30
0.0
 11
60.99060000000011
 21
1758.3
 31
0.0
  0
LINE
  5
68
330
1E
100
AcDbEntity
  8
0
100
AcDbLine
 10
59.28080000000011
 20
1756.2
 30
0.0
 11
60.40320000000011
 21
1757.4
 31
0.0
  0
LINE
  5
69
330
1E
100
AcDbEntity
  8
0
100
AcDbLine
 10
61.0098000000001
 20
1758.8
 30
0.0
 11
82.54570000000009
 21
1729.68
 31
0.0
  0
LINE
  5
6A
330
1E
100
AcDbEntity
  8
0
100
AcDbLine
 10
60.99060000000011
 20
1758.3
 30
0.0
 11
61.0098000000001
 21
1758.8
 31
0.0
  0
LINE
  5
6B
330
1E
100
AcDbEntity
  8
0
100
AcDbLine
 10
60.4917000000001
 20
1759.0
 30
0.0
 11
61.0098000000001
 21
1758.8
 31
0.0
  0
LINE
  5
6C
330
1E
100
AcDbEntity
  8
0
100
AcDbLine
 10
59.4029000000001
 20
1758.8
 30
0.0
 11
60.4917000000001
 21
1759.0
 31
0.0
  0
LINE
  5
6D
330
1E
100
AcDbEntity
  8
0
100
AcDbLine
 10
57.9004000000001
 20
1758.3
 30
0.0
 11
59.4029000000001
 21
1758.8
 31
0.0
  0
LINE
  5
6E
330
1E
100
AcDbEntity
  8
0
100
AcDbLine
 10
56.0151000000001
 20
1757.4
 30
0.0
 11
57.9004000000001
 21
1758.3
 31
0.0
  0
LINE
  5
6F
330
1E
100
AcDbEntity
  8
0
100
AcDbLine
 10
53.9039000000001
 20
1756.2
 30
0.0
 11
56.0151000000001
 21
1757.4
 31
0.0
  0
LINE
  5
70
330
1E
100
AcDbEntity
  8
0
100
AcDbLine
 10
51.72370000000011
 20
1754.799999999999
 30
0.0
 11
53.9039000000001
 21
1756.2
 31
0.0
  0
LINE
  5
71
330
1E
100
AcDbEntity
  8
0
100
AcDbLine
 10
49.5077000000001
 20
1753.3
 30
0.0
 11
51.72370000000011
 21
1754.799999999999
 31
0.0
  0
LINE
  5
72
330
1E
100
AcDbEntity
  8
0
100
AcDbLine
 10
82.54570000000009
 20
1729.68
 30
0.0
 11
103.0929999999999
 21
1702.309999999999
 31
0.0
  0
LINE
  5
74
330
1E
100
AcDbEntity
  8
0
100
AcDbLine
 10
47.7292000000001
 20
1751.8
 30
0.0
 11
49.5077000000001
 21
1753.3
 31
0.0
  0
LINE
  5
75
330
1E
100
AcDbEntity
  8
0
100
AcDbLine
 10
64.7738000000001
 20
1717.05
 30
0.0
 11
84.2921000000001
 21
1688.799999999999
 31
0.0
  0
LINE
  5
76
330
1E
100
AcDbEntity
  8
0
100
AcDbLine
 10
84.2921000000001
 20
1688.799999999999
 30
0.0
 11
99.9227000000001
 21
1664.9
 31
0.0
  0
LINE
  5
77
330
1E
100
AcDbEntity
  8
0
100
AcDbLine
 10
90.86120000000009
 20
1589.0
 30
0.0
 11
92.78830000000009
 21
1588.799999999999
 31
0.0
  0
LINE
  5
78
330
1E
100
AcDbEntity
  8
0
100
AcDbLine
 10
92.78830000000009
 20
1588.799999999999
 30
0.0
 11
94.2597000000001
 21
1588.3
 31
0.0
  0
LINE
  5
79
330
1E
100
AcDbEntity
  8
0
100
AcDbLine
 10
94.2597000000001
 20
1588.3
 30
0.0
 11
95.19450000000009
 21
1587.4
 31
0.0
  0
LINE
  5
7A
330
1E
100
AcDbEntity
  8
0
100
AcDbLine
 10
108.003111073494
 20
1698.41323096708
 30
0.0
 11
112.949
 21
1696.539999999999
 31
0.0
  0
LINE
  5
7B
330
1E
100
AcDbEntity
  8
0
100
AcDbLine
 10
99.9227000000001
 20
1664.9
 30
0.0
 11
109.8779999999999
 21
1649.599999999999
 31
0.0
  0
LINE
  5
7C
330
1E
100
AcDbEntity
  8
0
100
AcDbLine
 10
112.949
 20
1696.539999999999
 30
0.0
 11
117.84
 21
1696.979999999999
 31
0.0
  0
LINE
  5
7D
330
1E
100
AcDbEntity
  8
0
100
AcDbLine
 10
117.84
 20
1696.979999999999
 30
0.0
 11
121.6939149650379
 21
1699.119602392421
 31
0.0
  0
LINE
  5
7E
330
1E
100
AcDbEntity
  8
0
100
AcDbLine
 10
109.8779999999999
 20
1649.599999999999
 30
0.0
 11
118.471
 21
1634.9
 31
0.0
  0
LINE
  5
7F
330
1E
100
AcDbEntity
  8
0
100
AcDbLine
 10
118.471
 20
1634.9
 30
0.0
 11
124.208
 21
1618.0
 31
0.0
  0
LINE
  5
80
330
1E
100
AcDbEntity
  8
0
100
AcDbLine
 10
95.19450000000009
 20
1587.4
 30
0.0
 11
108.8799999999999
 21
1557.65
 31
0.0
  0
LINE
  5
81
330
1E
100
AcDbEntity
  8
0
100
AcDbLine
 10
108.8799999999999
 20
1557.65
 30
0.0
 11
121.6877836708839
 21
1530.17923858662
 31
0.0
  0
LINE
  5
82
330
1E
100
AcDbEntity
  8
0
100
AcDbLine
 10
121.693914965037
 20
1699.119602392419
 30
0.0
 11
124.6669999999999
 21
1703.599999999999
 31
0.0
  0
LINE
  5
85
330
1E
100
AcDbEntity
  8
0
100
AcDbLine
 10
123.6852085174249
 20
1528.02731679062
 30
0.0
 11
124.4179999999999
 21
1529.68
 31
0.0
  0
LINE
  5
86
330
1E
100
AcDbEntity
  8
0
100
AcDbLine
 10
124.4179999999999
 20
1529.68
 30
0.0
 11
126.626
 21
1537.7
 31
0.0
  0
LINE
  5
87
330
1E
100
AcDbEntity
  8
0
100
AcDbLine
 10
124.6669999999999
 20
1703.599999999999
 30
0.0
 11
126.657
 21
1709.88
 31
0.0
  0
LINE
  5
88
330
1E
100
AcDbEntity
  8
0
100
AcDbLine
 10
126.657
 20
1709.88
 30
0.0
 11
127.061
 21
1715.0
 31
0.0
  0
LINE
  5
89
330
1E
100
AcDbEntity
  8
0
100
AcDbLine
 10
124.208
 20
1618.0
 30
0.0
 11
127.061
 21
1599.0
 31
0.0
  0
LINE
  5
8A
330
1E
100
AcDbEntity
  8
0
100
AcDbLine
 10
126.626
 20
1537.7
 30
0.0
 11
127.038
 21
1545.0
 31
0.0
  0
LINE
  5
8B
330
1E
100
AcDbEntity
  8
0
100
AcDbLine
 10
122.1139999999999
 20
1465.84
 30
0.0
 11
125.717
 21
1448.2
 31
0.0
  0
LINE
  5
8C
330
1E
100
AcDbEntity
  8
0
100
AcDbLine
 10
125.717
 20
1448.2
 30
0.0
 11
126.746194455937
 21
1434.40074472487
 31
0.0
  0
LINE
  5
8D
330
1E
100
AcDbEntity
  8
0
100
AcDbLine
 10
121.6877836708839
 20
1530.17923858662
 30
0.0
 11
123.6852085174249
 21
1528.02731679062
 31
0.0
  0
LINE
  5
8E
330
1E
100
AcDbEntity
  8
0
100
AcDbLine
 10
127.0
 20
1035.0
 30
0.0
 11
127.0
 21
919.0
 31
0.0
  0
LINE
  5
8F
330
1E
100
AcDbEntity
  8
0
100
AcDbLine
 10
127.0
 20
1035.0
 30
0.0
 11
127.0
 21
1078.5
 31
0.0
  0
LINE
  5
90
330
1E
100
AcDbEntity
  8
0
100
AcDbLine
 10
127.0
 20
1078.5
 30
0.0
 11
127.5
 21
1078.5
 31
0.0
  0
LINE
  5
91
330
1E
100
AcDbEntity
  8
0
100
AcDbLine
 10
127.0
 20
1078.5
 30
0.0
 11
127.5
 21
1079.0
 31
0.0
  0
LINE
  5
92
330
1E
100
AcDbEntity
  8
0
100
AcDbLine
 10
127.0
 20
1078.5
 30
0.0
 11
127.0
 21
1035.0
 31
0.0
  0
LINE
  5
93
330
1E
100
AcDbEntity
  8
0
100
AcDbLine
 10
127.0
 20
919.0
 30
0.0
 11
127.0
 21
909.5
 31
0.0
  0
LINE
  5
94
330
1E
100
AcDbEntity
  8
0
100
AcDbLine
 10
127.0
 20
919.0
 30
0.0
 11
127.0
 21
1035.0
 31
0.0
  0
LINE
  5
95
330
1E
100
AcDbEntity
  8
0
100
AcDbLine
 10
127.68
 20
23.0000000000001
 30
0.0
 11
140.0
 21
23.0000000000001
 31
0.0
  0
LINE
  5
96
330
1E
100
AcDbEntity
  8
0
100
AcDbLine
 10
127.68
 20
0.0000000000000714
 30
0.0
 11
140.0
 21
0.0000000000000707
 31
0.0
  0
LINE
  5
97
330
1E
100
AcDbEntity
  8
0
100
AcDbLine
 10
127.5
 20
33.0000000000001
 30
0.0
 11
128.6999999999999
 21
33.0000000000001
 31
0.0
  0
LINE
  5
98
330
1E
100
AcDbEntity
  8
0
100
AcDbLine
 10
127.5
 20
908.5
 30
0.0
 11
128.6999999999999
 21
908.5
 31
0.0
  0
LINE
  5
99
330
1E
100
AcDbEntity
  8
0
100
AcDbLine
 10
130.0
 20
33.0000000000001
 30
0.0
 11
130.0
 21
23.0000000000001
 31
0.0
  0
LINE
  5
9A
330
1E
100
AcDbEntity
  8
0
100
AcDbLine
 10
130.0
 20
33.0000000000001
 30
0.0
 11
130.36
 21
33.0000000000001
 31
0.0
  0
LINE
  5
9B
330
1E
100
AcDbEntity
  8
0
100
AcDbLine
 10
130.36
 20
33.0000000000001
 30
0.0
 11
131.3199999999999
 21
33.0000000000001
 31
0.0
  0
LINE
  5
9C
330
1E
100
AcDbEntity
  8
0
100
AcDbLine
 10
130.0
 20
23.0000000000001
 30
0.0
 11
130.0
 21
33.0000000000001
 31
0.0
  0
LINE
  5
9D
330
1E
100
AcDbEntity
  8
0
100
AcDbLine
 10
130.8
 20
33.0000000000001
 30
0.0
 11
133.4999999999999
 21
33.0000000000001
 31
0.0
  0
LINE
  5
9E
330
1E
100
AcDbEntity
  8
0
100
AcDbLine
 10
128.6999999999999
 20
33.0000000000001
 30
0.0
 11
130.8
 21
33.0000000000001
 31
0.0
  0
LINE
  5
9F
330
1E
100
AcDbEntity
  8
0
100
AcDbLine
 10
128.6999999999999
 20
33.0000000000001
 30
0.0
 11
130.0
 21
33.0000000000001
 31
0.0
  0
LINE
  5
A0
330
1E
100
AcDbEntity
  8
0
100
AcDbLine
 10
130.8
 20
908.5
 30
0.0
 11
133.4999999999999
 21
908.5
 31
0.0
  0
LINE
  5
A1
330
1E
100
AcDbEntity
  8
0
100
AcDbLine
 10
128.6999999999999
 20
908.5
 30
0.0
 11
130.8
 21
908.5
 31
0.0
  0
LINE
  5
A2
330
1E
100
AcDbEntity
  8
0
100
AcDbLine
 10
131.3199999999999
 20
33.0000000000001
 30
0.0
 11
132.9199999999999
 21
33.0000000000001
 31
0.0
  0
LINE
  5
A3
330
1E
100
AcDbEntity
  8
0
100
AcDbLine
 10
132.9199999999999
 20
33.0000000000001
 30
0.0
 11
135.04
 21
33.0000000000001
 31
0.0
  0
LINE
  5
A4
330
1E
100
AcDbEntity
  8
0
100
AcDbLine
 10
135.04
 20
33.0000000000001
 30
0.0
 11
137.44
 21
33.0000000000001
 31
0.0
  0
LINE
  5
A5
330
1E
100
AcDbEntity
  8
0
100
AcDbLine
 10
136.5999999999999
 20
33.0000000000001
 30
0.0
 11
140.0
 21
33.0000000000001
 31
0.0
  0
LINE
  5
A6
330
1E
100
AcDbEntity
  8
0
100
AcDbLine
 10
133.4999999999999
 20
33.0000000000001
 30
0.0
 11
136.5999999999999
 21
33.0000000000001
 31
0.0
  0
LINE
  5
A7
330
1E
100
AcDbEntity
  8
0
100
AcDbLine
 10
136.5999999999999
 20
908.5
 30
0.0
 11
140.0
 21
908.5
 31
0.0
  0
LINE
  5
A8
330
1E
100
AcDbEntity
  8
0
100
AcDbLine
 10
133.4999999999999
 20
908.5
 30
0.0
 11
136.5999999999999
 21
908.5
 31
0.0
  0
LINE
  5
A9
330
1E
100
AcDbEntity
  8
0
100
AcDbLine
 10
137.44
 20
33.0000000000001
 30
0.0
 11
140.0
 21
33.0000000000001
 31
0.0
  0
LINE
  5
AA
330
1E
100
AcDbEntity
  8
0
100
AcDbLine
 10
140.0
 20
23.0000000000001
 30
0.0
 11
152.3199999999999
 21
23.0000000000001
 31
0.0
  0
LINE
  5
AB
330
1E
100
AcDbEntity
  8
0
100
AcDbLine
 10
140.0
 20
0.0000000000000707
 30
0.0
 11
152.3199999999999
 21
0.0000000000000699
 31
0.0
  0
LINE
  5
AC
330
1E
100
AcDbEntity
  8
0
100
AcDbLine
 10
140.0
 20
33.0000000000001
 30
0.0
 11
143.4
 21
33.0000000000001
 31
0.0
  0
LINE
  5
AD
330
1E
100
AcDbEntity
  8
0
100
AcDbLine
 10
140.0
 20
33.0000000000001
 30
0.0
 11
142.56
 21
33.0000000000001
 31
0.0
  0
LINE
  5
AE
330
1E
100
AcDbEntity
  8
0
100
AcDbLine
 10
142.56
 20
33.0000000000001
 30
0.0
 11
144.96
 21
33.0000000000001
 31
0.0
  0
LINE
  5
AF
330
1E
100
AcDbEntity
  8
0
100
AcDbLine
 10
140.0
 20
908.5
 30
0.0
 11
143.4
 21
908.5
 31
0.0
  0
LINE
  5
B0
330
1E
100
AcDbEntity
  8
0
100
AcDbLine
 10
140.0
 20
909.0
 30
0.0
 11
143.3
 21
909.0
 31
0.0
  0
LINE
  5
B1
330
1E
100
AcDbEntity
  8
0
100
AcDbLine
 10
143.4
 20
33.0000000000001
 30
0.0
 11
146.5
 21
33.0000000000001
 31
0.0
  0
LINE
  5
B2
330
1E
100
AcDbEntity
  8
0
100
AcDbLine
 10
144.96
 20
33.0000000000001
 30
0.0
 11
146.5
 21
33.0000000000001
 31
0.0
  0
LINE
  5
B3
330
1E
100
AcDbEntity
  8
0
100
AcDbLine
 10
146.5
 20
33.0000000000001
 30
0.0
 11
149.1999999999999
 21
33.0000000000001
 31
0.0
  0
LINE
  5
B4
330
1E
100
AcDbEntity
  8
0
100
AcDbLine
 10
143.4
 20
908.5
 30
0.0
 11
146.5
 21
908.5
 31
0.0
  0
LINE
  5
B5
330
1E
100
AcDbEntity
  8
0
100
AcDbLine
 10
146.5
 20
908.5
 30
0.0
 11
149.1999999999999
 21
908.5
 31
0.0
  0
LINE
  5
B6
330
1E
100
AcDbEntity
  8
0
100
AcDbLine
 10
143.3
 20
909.0
 30
0.0
 11
146.3
 21
909.0
 31
0.0
  0
LINE
  5
B7
330
1E
100
AcDbEntity
  8
0
100
AcDbLine
 10
146.3
 20
909.0
 30
0.0
 11
148.9
 21
909.0
 31
0.0
  0
LINE
  5
B8
330
1E
100
AcDbEntity
  8
0
100
AcDbLine
 10
149.6399999999999
 20
33.0000000000001
 30
0.0
 11
150.0
 21
33.0000000000001
 31
0.0
  0
LINE
  5
B9
330
1E
100
AcDbEntity
  8
0
100
AcDbLine
 10
150.0
 20
23.0000000000001
 30
0.0
 11
150.0
 21
33.0000000000001
 31
0.0
  0
LINE
  5
BA
330
1E
100
AcDbEntity
  8
0
100
AcDbLine
 10
149.1999999999999
 20
33.0000000000001
 30
0.0
 11
151.3
 21
33.0000000000001
 31
0.0
  0
LINE
  5
BB
330
1E
100
AcDbEntity
  8
0
100
AcDbLine
 10
149.1999999999999
 20
33.0000000000001
 30
0.0
 11
149.6399999999999
 21
33.0000000000001
 31
0.0
  0
LINE
  5
BC
330
1E
100
AcDbEntity
  8
0
100
AcDbLine
 10
150.0
 20
33.0000000000001
 30
0.0
 11
151.3
 21
33.0000000000001
 31
0.0
  0
LINE
  5
BD
330
1E
100
AcDbEntity
  8
0
100
AcDbLine
 10
150.0
 20
33.0000000000001
 30
0.0
 11
150.0
 21
23.0000000000001
 31
0.0
  0
LINE
  5
BE
330
1E
100
AcDbEntity
  8
0
100
AcDbLine
 10
149.1999999999999
 20
908.5
 30
0.0
 11
151.3
 21
908.5
 31
0.0
  0
LINE
  5
BF
330
1E
100
AcDbEntity
  8
0
100
AcDbLine
 10
151.3
 20
908.5
 30
0.0
 11
152.5
 21
908.5
 31
0.0
  0
LINE
  5
C0
330
1E
100
AcDbEntity
  8
0
100
AcDbLine
 10
151.3
 20
33.0000000000001
 30
0.0
 11
152.5
 21
33.0000000000001
 31
0.0
  0
LINE
  5
C1
330
1E
100
AcDbEntity
  8
0
100
AcDbLine
 10
148.9
 20
909.0
 30
0.0
 11
150.9
 21
909.0
 31
0.0
  0
LINE
  5
C2
330
1E
100
AcDbEntity
  8
0
100
AcDbLine
 10
150.9
 20
909.0
 30
0.0
 11
152.0999999999999
 21
909.0
 31
0.0
  0
LINE
  5
C3
330
1E
100
AcDbEntity
  8
0
100
AcDbLine
 10
152.3199999999999
 20
23.0000000000001
 30
0.0
 11
164.36
 21
23.0000000000001
 31
0.0
  0
LINE
  5
C4
330
1E
100
AcDbEntity
  8
0
100
AcDbLine
 10
152.3199999999999
 20
0.0000000000000699
 30
0.0
 11
164.36
 21
0.0000000000000692
 31
0.0
  0
LINE
  5
C5
330
1E
100
AcDbEntity
  8
0
100
AcDbLine
 10
238.84
 20
0.0000000000000646
 30
0.0
 11
246.96
 21
0.0000000000000641
 31
0.0
  0
LINE
  5
C6
330
1E
100
AcDbEntity
  8
0
100
AcDbLine
 10
246.96
 20
0.0000000000000641
 30
0.0
 11
254.52
 21
0.0000000000000637
 31
0.0
  0
LINE
  5
C7
330
1E
100
AcDbEntity
  8
0
100
AcDbLine
 10
254.52
 20
0.0000000000000637
 30
0.0
 11
260.9599999999999
 21
0.0000000000000633
 31
0.0
  0
LINE
  5
C8
330
1E
100
AcDbEntity
  8
0
100
AcDbLine
 10
260.9599999999999
 20
0.0000000000000633
 30
0.0
 11
266.5599999999999
 21
0.0000000000000629
 31
0.0
  0
LINE
  5
C9
330
1E
100
AcDbEntity
  8
0
100
AcDbLine
 10
266.5599999999999
 20
0.0000000000000629
 30
0.0
 11
271.32
 21
0.0000000000000626
 31
0.0
  0
LINE
  5
CA
330
1E
100
AcDbEntity
  8
0
100
AcDbLine
 10
271.32
 20
0.0000000000000626
 30
0.0
 11
274.96
 21
0.0000000000000624
 31
0.0
  0
LINE
  5
CB
330
1E
100
AcDbEntity
  8
0
100
AcDbLine
 10
274.96
 20
0.0000000000000624
 30
0.0
 11
277.76
 21
0.0000000000000622
 31
0.0
  0
LINE
  5
CC
330
1E
100
AcDbEntity
  8
0
100
AcDbLine
 10
277.76
 20
0.0000000000000622
 30
0.0
 11
279.16
 21
0.0000000000000621
 31
0.0
  0
LINE
  5
CD
330
1E
100
AcDbEntity
  8
0
100
AcDbLine
 10
280.0
 20
0.0000000000000621
 30
0.0
 11
280.0
 21
23.0000000000001
 31
0.0
  0
LINE
  5
CE
330
1E
100
AcDbEntity
  8
0
100
AcDbLine
 10
279.16
 20
0.0000000000000621
 30
0.0
 11
280.0
 21
0.0000000000000621
 31
0.0
  0
LINE
  5
CF
330
1E
100
AcDbEntity
  8
0
100
AcDbLine
 10
229.8799999999999
 20
0.0000000000000652
 30
0.0
 11
238.84
 21
0.0000000000000646
 31
0.0
  0
LINE
  5
D0
330
1E
100
AcDbEntity
  8
0
100
AcDbLine
 10
220.36
 20
0.0000000000000657
 30
0.0
 11
229.8799999999999
 21
0.0000000000000652
 31
0.0
  0
LINE
  5
D1
330
1E
100
AcDbEntity
  8
0
100
AcDbLine
 10
209.7199999999999
 20
0.0000000000000664
 30
0.0
 11
220.36
 21
0.0000000000000657
 31
0.0
  0
LINE
  5
D2
330
1E
100
AcDbEntity
  8
0
100
AcDbLine
 10
199.08
 20
0.0000000000000671
 30
0.0
 11
209.7199999999999
 21
0.0000000000000664
 31
0.0
  0
LINE
  5
D3
330
1E
100
AcDbEntity
  8
0
100
AcDbLine
 10
187.88
 20
0.0000000000000677
 30
0.0
 11
199.08
 21
0.0000000000000671
 31
0.0
  0
LINE
  5
D4
330
1E
100
AcDbEntity
  8
0
100
AcDbLine
 10
176.4
 20
0.0000000000000684
 30
0.0
 11
187.88
 21
0.0000000000000677
 31
0.0
  0
LINE
  5
D5
330
1E
100
AcDbEntity
  8
0
100
AcDbLine
 10
254.52
 20
23.0000000000001
 30
0.0
 11
260.9599999999999
 21
23.0000000000001
 31
0.0
  0
LINE
  5
D6
330
1E
100
AcDbEntity
  8
0
100
AcDbLine
 10
260.9599999999999
 20
23.0000000000001
 30
0.0
 11
266.5599999999999
 21
23.0000000000001
 31
0.0
  0
LINE
  5
D7
330
1E
100
AcDbEntity
  8
0
100
AcDbLine
 10
266.5599999999999
 20
23.0000000000001
 30
0.0
 11
271.32
 21
23.0000000000001
 31
0.0
  0
LINE
  5
D8
330
1E
100
AcDbEntity
  8
0
100
AcDbLine
 10
271.32
 20
23.0000000000001
 30
0.0
 11
274.96
 21
23.0000000000001
 31
0.0
  0
LINE
  5
D9
330
1E
100
AcDbEntity
  8
0
100
AcDbLine
 10
274.96
 20
23.0000000000001
 30
0.0
 11
277.76
 21
23.0000000000001
 31
0.0
  0
LINE
  5
DA
330
1E
100
AcDbEntity
  8
0
100
AcDbLine
 10
280.0
 20
23.0000000000001
 30
0.0
 11
280.0
 21
0.0000000000000636
 31
0.0
  0
LINE
  5
DB
330
1E
100
AcDbEntity
  8
0
100
AcDbLine
 10
277.76
 20
23.0000000000001
 30
0.0
 11
279.16
 21
23.0000000000001
 31
0.0
  0
LINE
  5
DC
330
1E
100
AcDbEntity
  8
0
100
AcDbLine
 10
238.84
 20
23.0000000000001
 30
0.0
 11
246.96
 21
23.0000000000001
 31
0.0
  0
LINE
  5
DD
330
1E
100
AcDbEntity
  8
0
100
AcDbLine
 10
246.96
 20
23.0000000000001
 30
0.0
 11
254.52
 21
23.0000000000001
 31
0.0
  0
LINE
  5
DE
330
1E
100
AcDbEntity
  8
0
100
AcDbLine
 10
279.16
 20
23.0000000000001
 30
0.0
 11
280.0
 21
23.0000000000001
 31
0.0
  0
LINE
  5
DF
330
1E
100
AcDbEntity
  8
0
100
AcDbLine
 10
229.8799999999999
 20
23.0000000000001
 30
0.0
 11
238.84
 21
23.0000000000001
 31
0.0
  0
LINE
  5
E0
330
1E
100
AcDbEntity
  8
0
100
AcDbLine
 10
220.36
 20
23.0000000000001
 30
0.0
 11
229.8799999999999
 21
23.0000000000001
 31
0.0
  0
LINE
  5
E1
330
1E
100
AcDbEntity
  8
0
100
AcDbLine
 10
209.7199999999999
 20
23.0000000000001
 30
0.0
 11
220.36
 21
23.0000000000001
 31
0.0
  0
LINE
  5
E2
330
1E
100
AcDbEntity
  8
0
100
AcDbLine
 10
199.08
 20
23.0000000000001
 30
0.0
 11
209.7199999999999
 21
23.0000000000001
 31
0.0
  0
LINE
  5
E3
330
1E
100
AcDbEntity
  8
0
100
AcDbLine
 10
187.88
 20
23.0000000000001
 30
0.0
 11
199.08
 21
23.0000000000001
 31
0.0
  0
LINE
  5
E4
330
1E
100
AcDbEntity
  8
0
100
AcDbLine
 10
176.4
 20
23.0000000000001
 30
0.0
 11
187.88
 21
23.0000000000001
 31
0.0
  0
LINE
  5
E5
330
1E
100
AcDbEntity
  8
0
100
AcDbLine
 10
164.36
 20
23.0000000000001
 30
0.0
 11
176.4
 21
23.0000000000001
 31
0.0
  0
LINE
  5
E6
330
1E
100
AcDbEntity
  8
0
100
AcDbLine
 10
164.36
 20
0.0000000000000692
 30
0.0
 11
176.4
 21
0.0000000000000684
 31
0.0
  0
LINE
  5
E7
330
1E
100
AcDbEntity
  8
0
100
AcDbLine
 10
153.0
 20
33.0000000000001
 30
0.0
 11
153.0
 21
908.5
 31
0.0
  0
LINE
  5
E8
330
1E
100
AcDbEntity
  8
0
100
AcDbLine
 10
152.5
 20
908.5
 30
0.0
 11
153.0
 21
908.5
 31
0.0
  0
LINE
  5
E9
330
1E
100
AcDbEntity
  8
0
100
AcDbLine
 10
153.0
 20
33.0000000000001
 30
0.0
 11
153.0
 21
908.5
 31
0.0
  0
LINE
  5
EA
330
1E
100
AcDbEntity
  8
0
100
AcDbLine
 10
152.5
 20
33.0000000000001
 30
0.0
 11
153.0
 21
33.0000000000001
 31
0.0
  0
LINE
  5
EB
330
1E
100
AcDbEntity
  8
0
100
AcDbLine
 10
152.0999999999999
 20
909.0
 30
0.0
 11
152.5
 21
909.0
 31
0.0
  0
LINE
  5
EC
330
1E
100
AcDbEntity
  8
0
100
AcDbLine
 10
152.5
 20
909.0
 30
0.0
 11
153.0
 21
909.5
 31
0.0
  0
LINE
  5
ED
330
1E
100
AcDbEntity
  8
0
100
AcDbLine
 10
152.5
 20
909.0
 30
0.0
 11
153.0
 21
908.5
 31
0.0
  0
LINE
  5
EE
330
1E
100
AcDbEntity
  8
0
100
AcDbLine
 10
136.6999999999999
 20
909.0
 30
0.0
 11
140.0
 21
909.0
 31
0.0
  0
LINE
  5
EF
330
1E
100
AcDbEntity
  8
0
100
AcDbLine
 10
133.6999999999999
 20
909.0
 30
0.0
 11
136.6999999999999
 21
909.0
 31
0.0
  0
LINE
  5
F0
330
1E
100
AcDbEntity
  8
0
100
AcDbLine
 10
131.0999999999999
 20
909.0
 30
0.0
 11
133.6999999999999
 21
909.0
 31
0.0
  0
LINE
  5
F1
330
1E
100
AcDbEntity
  8
0
100
AcDbLine
 10
129.0999999999999
 20
909.0
 30
0.0
 11
131.0999999999999
 21
909.0
 31
0.0
  0
LINE
  5
F2
330
1E
100
AcDbEntity
  8
0
100
AcDbLine
 10
127.9
 20
909.0
 30
0.0
 11
129.0999999999999
 21
909.0
 31
0.0
  0
LINE
  5
F3
330
1E
100
AcDbEntity
  8
0
100
AcDbLine
 10
127.5
 20
1078.5
 30
0.0
 11
128.6999999999999
 21
1078.5
 31
0.0
  0
LINE
  5
F4
330
1E
100
AcDbEntity
  8
0
100
AcDbLine
 10
127.061
 20
1089.0
 30
0.0
 11
127.061
 21
1205.0
 31
0.0
  0
LINE
  5
F5
330
1E
100
AcDbEntity
  8
0
100
AcDbLine
 10
127.061
 20
1079.5
 30
0.0
 11
127.244
 21
1079.5
 31
0.0
  0
LINE
  5
F6
330
1E
100
AcDbEntity
  8
0
100
AcDbLine
 10
127.061
 20
1079.5
 30
0.0
 11
127.5679999999999
 21
1079.0
 31
0.0
  0
LINE
  5
F7
330
1E
100
AcDbEntity
  8
0
100
AcDbLine
 10
127.061
 20
1079.5
 30
0.0
 11
127.061
 21
1089.0
 31
0.0
  0
LINE
  5
F8
330
1E
100
AcDbEntity
  8
0
100
AcDbLine
 10
127.244
 20
1079.5
 30
0.0
 11
128.407
 21
1079.5
 31
0.0
  0
LINE
  5
F9
330
1E
100
AcDbEntity
  8
0
100
AcDbLine
 10
127.061
 20
1205.0
 30
0.0
 11
127.061
 21
1248.499999999999
 31
0.0
  0
LINE
  5
FA
330
1E
100
AcDbEntity
  8
0
100
AcDbLine
 10
127.061
 20
1205.0
 30
0.0
 11
127.061
 21
1089.0
 31
0.0
  0
LINE
  5
FB
330
1E
100
AcDbEntity
  8
0
100
AcDbLine
 10
127.038
 20
1249.5
 30
0.0
 11
127.149
 21
1249.5
 31
0.0
  0
LINE
  5
FC
330
1E
100
AcDbEntity
  8
0
100
AcDbLine
 10
127.038
 20
1249.5
 30
0.0
 11
127.537
 21
1249.0
 31
0.0
  0
LINE
  5
FD
330
1E
100
AcDbEntity
  8
0
100
AcDbLine
 10
127.038
 20
1249.5
 30
0.0
 11
127.038
 21
1259.0
 31
0.0
  0
LINE
  5
FE
330
1E
100
AcDbEntity
  8
0
100
AcDbLine
 10
127.038
 20
1418.5
 30
0.0
 11
127.537
 21
1419.0
 31
0.0
  0
LINE
  5
FF
330
1E
100
AcDbEntity
  8
0
100
AcDbLine
 10
127.038
 20
1418.5
 30
0.0
 11
127.149
 21
1418.5
 31
0.0
  0
LINE
  5
100
330
1E
100
AcDbEntity
  8
0
100
AcDbLine
 10
127.038
 20
1418.5
 30
0.0
 11
127.038
 21
1375.0
 31
0.0
  0
LINE
  5
101
330
1E
100
AcDbEntity
  8
0
100
AcDbLine
 10
127.038
 20
1259.0
 30
0.0
 11
127.038
 21
1375.0
 31
0.0
  0
LINE
  5
102
330
1E
100
AcDbEntity
  8
0
100
AcDbLine
 10
127.038
 20
1259.0
 30
0.0
 11
127.038
 21
1249.5
 31
0.0
  0
LINE
  5
103
330
1E
100
AcDbEntity
  8
0
100
AcDbLine
 10
127.038
 20
1375.0
 30
0.0
 11
127.038
 21
1259.0
 31
0.0
  0
LINE
  5
104
330
1E
100
AcDbEntity
  8
0
100
AcDbLine
 10
127.038
 20
1375.0
 30
0.0
 11
127.038
 21
1418.5
 31
0.0
  0
LINE
  5
105
330
1E
100
AcDbEntity
  8
0
100
AcDbLine
 10
126.746194455937
 20
1434.40074472487
 30
0.0
 11
127.038
 21
1419.5
 31
0.0
  0
LINE
  5
106
330
1E
100
AcDbEntity
  8
0
100
AcDbLine
 10
127.038
 20
1419.5
 30
0.0
 11
127.9479999999999
 21
1419.5
 31
0.0
  0
LINE
  5
107
330
1E
100
AcDbEntity
  8
0
100
AcDbLine
 10
127.038
 20
1419.5
 30
0.0
 11
127.537
 21
1419.0
 31
0.0
  0
LINE
  5
108
330
1E
100
AcDbEntity
  8
0
100
AcDbLine
 10
127.038
 20
1419.5
 30
0.0
 11
126.746194455937
 21
1434.40074472487
 31
0.0
  0
LINE
  5
109
330
1E
100
AcDbEntity
  8
0
100
AcDbLine
 10
127.0
 20
1930.5
 30
0.0
 11
127.5
 21
1930.5
 31
0.0
  0
LINE
  5
10A
330
1E
100
AcDbEntity
  8
0
100
AcDbLine
 10
127.0
 20
1930.5
 30
0.0
 11
127.5
 21
1931.0
 31
0.0
  0
LINE
  5
10B
330
1E
100
AcDbEntity
  8
0
100
AcDbLine
 10
127.0
 20
1759.5
 30
0.0
 11
127.5
 21
1759.5
 31
0.0
  0
LINE
  5
10C
330
1E
100
AcDbEntity
  8
0
100
AcDbLine
 10
127.0
 20
1759.5
 30
0.0
 11
127.5
 21
1759.0
 31
0.0
  0
LINE
  5
10D
330
1E
100
AcDbEntity
  8
0
100
AcDbLine
 10
127.0
 20
1759.5
 30
0.0
 11
127.0
 21
1930.5
 31
0.0
  0
LINE
  5
10E
330
1E
100
AcDbEntity
  8
0
100
AcDbLine
 10
127.038
 20
1545.0
 30
0.0
 11
127.038
 21
1588.499999999999
 31
0.0
  0
LINE
  5
10F
330
1E
100
AcDbEntity
  8
0
100
AcDbLine
 10
127.061
 20
1715.0
 30
0.0
 11
127.061
 21
1758.5
 31
0.0
  0
LINE
  5
110
330
1E
100
AcDbEntity
  8
0
100
AcDbLine
 10
127.061
 20
1758.5
 30
0.0
 11
127.5679999999999
 21
1759.0
 31
0.0
  0
LINE
  5
111
330
1E
100
AcDbEntity
  8
0
100
AcDbLine
 10
127.061
 20
1758.5
 30
0.0
 11
127.636
 21
1758.5
 31
0.0
  0
LINE
  5
112
330
1E
100
AcDbEntity
  8
0
100
AcDbLine
 10
127.061
 20
1758.5
 30
0.0
 11
127.061
 21
1715.0
 31
0.0
  0
LINE
  5
113
330
1E
100
AcDbEntity
  8
0
100
AcDbLine
 10
127.061
 20
1589.5
 30
0.0
 11
127.5679999999999
 21
1589.0
 31
0.0
  0
LINE
  5
114
330
1E
100
AcDbEntity
  8
0
100
AcDbLine
 10
127.061
 20
1589.5
 30
0.0
 11
127.636
 21
1589.5
 31
0.0
  0
LINE
  5
115
330
1E
100
AcDbEntity
  8
0
100
AcDbLine
 10
127.061
 20
1589.5
 30
0.0
 11
127.061
 21
1599.0
 31
0.0
  0
LINE
  5
116
330
1E
100
AcDbEntity
  8
0
100
AcDbLine
 10
127.149
 20
1418.5
 30
0.0
 11
128.0989999999999
 21
1418.5
 31
0.0
  0
LINE
  5
117
330
1E
100
AcDbEntity
  8
0
100
AcDbLine
 10
127.149
 20
1249.5
 30
0.0
 11
128.0989999999999
 21
1249.5
 31
0.0
  0
LINE
  5
118
330
1E
100
AcDbEntity
  8
0
100
AcDbLine
 10
127.038
 20
1588.499999999999
 30
0.0
 11
127.9479999999999
 21
1588.499999999999
 31
0.0
  0
LINE
  5
119
330
1E
100
AcDbEntity
  8
0
100
AcDbLine
 10
127.038
 20
1588.499999999999
 30
0.0
 11
127.537
 21
1589.0
 31
0.0
  0
LINE
  5
11A
330
1E
100
AcDbEntity
  8
0
100
AcDbLine
 10
127.038
 20
1588.499999999999
 30
0.0
 11
127.038
 21
1545.0
 31
0.0
  0
LINE
  5
11B
330
1E
100
AcDbEntity
  8
0
100
AcDbLine
 10
127.061
 20
1248.499999999999
 30
0.0
 11
127.244
 21
1248.499999999999
 31
0.0
  0
LINE
  5
11C
330
1E
100
AcDbEntity
  8
0
100
AcDbLine
 10
127.061
 20
1248.499999999999
 30
0.0
 11
127.5679999999999
 21
1249.0
 31
0.0
  0
LINE
  5
11D
330
1E
100
AcDbEntity
  8
0
100
AcDbLine
 10
127.061
 20
1248.499999999999
 30
0.0
 11
127.061
 21
1205.0
 31
0.0
  0
LINE
  5
11E
330
1E
100
AcDbEntity
  8
0
100
AcDbLine
 10
127.244
 20
1248.499999999999
 30
0.0
 11
128.407
 21
1248.499999999999
 31
0.0
  0
LINE
  5
11F
330
1E
100
AcDbEntity
  8
0
100
AcDbLine
 10
127.5
 20
1079.0
 30
0.0
 11
127.9
 21
1079.0
 31
0.0
  0
LINE
  5
120
330
1E
100
AcDbEntity
  8
0
100
AcDbLine
 10
140.0
 20
909.5
 30
0.0
 11
143.4
 21
909.5
 31
0.0
  0
LINE
  5
121
330
1E
100
AcDbEntity
  8
0
100
AcDbLine
 10
143.4
 20
909.5
 30
0.0
 11
146.5
 21
909.5
 31
0.0
  0
LINE
  5
122
330
1E
100
AcDbEntity
  8
0
100
AcDbLine
 10
146.5
 20
909.5
 30
0.0
 11
149.1999999999999
 21
909.5
 31
0.0
  0
LINE
  5
123
330
1E
100
AcDbEntity
  8
0
100
AcDbLine
 10
149.1999999999999
 20
909.5
 30
0.0
 11
151.3
 21
909.5
 31
0.0
  0
LINE
  5
124
330
1E
100
AcDbEntity
  8
0
100
AcDbLine
 10
153.0
 20
909.5
 30
0.0
 11
153.0
 21
919.0
 31
0.0
  0
LINE
  5
125
330
1E
100
AcDbEntity
  8
0
100
AcDbLine
 10
151.3
 20
909.5
 30
0.0
 11
152.5
 21
909.5
 31
0.0
  0
LINE
  5
126
330
1E
100
AcDbEntity
  8
0
100
AcDbLine
 10
152.5
 20
909.5
 30
0.0
 11
153.0
 21
909.5
 31
0.0
  0
LINE
  5
127
330
1E
100
AcDbEntity
  8
0
100
AcDbLine
 10
136.5999999999999
 20
909.5
 30
0.0
 11
140.0
 21
909.5
 31
0.0
  0
LINE
  5
128
330
1E
100
AcDbEntity
  8
0
100
AcDbLine
 10
133.4999999999999
 20
909.5
 30
0.0
 11
136.5999999999999
 21
909.5
 31
0.0
  0
LINE
  5
129
330
1E
100
AcDbEntity
  8
0
100
AcDbLine
 10
130.8
 20
909.5
 30
0.0
 11
133.4999999999999
 21
909.5
 31
0.0
  0
LINE
  5
12A
330
1E
100
AcDbEntity
  8
0
100
AcDbLine
 10
127.537
 20
1249.0
 30
0.0
 11
127.627
 21
1249.0
 31
0.0
  0
LINE
  5
12B
330
1E
100
AcDbEntity
  8
0
100
AcDbLine
 10
127.5679999999999
 20
1079.0
 30
0.0
 11
127.782
 21
1079.0
 31
0.0
  0
LINE
  5
12C
330
1E
100
AcDbEntity
  8
0
100
AcDbLine
 10
127.627
 20
1249.0
 30
0.0
 11
128.555
 21
1249.0
 31
0.0
  0
LINE
  5
12D
330
1E
100
AcDbEntity
  8
0
100
AcDbLine
 10
127.782
 20
1079.0
 30
0.0
 11
128.8799999999999
 21
1079.0
 31
0.0
  0
LINE
  5
12E
330
1E
100
AcDbEntity
  8
0
100
AcDbLine
 10
127.5679999999999
 20
1249.0
 30
0.0
 11
127.782
 21
1249.0
 31
0.0
  0
LINE
  5
12F
330
1E
100
AcDbEntity
  8
0
100
AcDbLine
 10
127.5
 20
1759.5
 30
0.0
 11
128.6999999999999
 21
1759.5
 31
0.0
  0
LINE
  5
130
330
1E
100
AcDbEntity
  8
0
100
AcDbLine
 10
127.5
 20
1931.0
 30
0.0
 11
127.9
 21
1931.0
 31
0.0
  0
LINE
  5
131
330
1E
100
AcDbEntity
  8
0
100
AcDbLine
 10
127.5
 20
1930.5
 30
0.0
 11
128.6999999999999
 21
1930.5
 31
0.0
  0
LINE
  5
132
330
1E
100
AcDbEntity
  8
0
100
AcDbLine
 10
127.5
 20
1759.0
 30
0.0
 11
127.9
 21
1759.0
 31
0.0
  0
LINE
  5
133
330
1E
100
AcDbEntity
  8
0
100
AcDbLine
 10
127.5
 20
1759.0
 30
0.0
 11
127.5679999999999
 21
1759.0
 31
0.0
  0
LINE
  5
134
330
1E
100
AcDbEntity
  8
0
100
AcDbLine
 10
127.537
 20
1419.0
 30
0.0
 11
128.33
 21
1419.0
 31
0.0
  0
LINE
  5
135
330
1E
100
AcDbEntity
  8
0
100
AcDbLine
 10
127.537
 20
1419.0
 30
0.0
 11
127.627
 21
1419.0
 31
0.0
  0
LINE
  5
136
330
1E
100
AcDbEntity
  8
0
100
AcDbLine
 10
127.636
 20
1589.5
 30
0.0
 11
129.1619999999999
 21
1589.5
 31
0.0
  0
LINE
  5
137
330
1E
100
AcDbEntity
  8
0
100
AcDbLine
 10
127.636
 20
1758.5
 30
0.0
 11
129.1619999999999
 21
1758.5
 31
0.0
  0
LINE
  5
138
330
1E
100
AcDbEntity
  8
0
100
AcDbLine
 10
127.5679999999999
 20
1759.0
 30
0.0
 11
128.112
 21
1759.0
 31
0.0
  0
LINE
  5
139
330
1E
100
AcDbEntity
  8
0
100
AcDbLine
 10
127.5679999999999
 20
1589.0
 30
0.0
 11
128.112
 21
1589.0
 31
0.0
  0
LINE
  5
13A
330
1E
100
AcDbEntity
  8
0
100
AcDbLine
 10
127.627
 20
1419.0
 30
0.0
 11
128.555
 21
1419.0
 31
0.0
  0
LINE
  5
13B
330
1E
100
AcDbEntity
  8
0
100
AcDbLine
 10
127.537
 20
1589.0
 30
0.0
 11
128.33
 21
1589.0
 31
0.0
  0
LINE
  5
13C
330
1E
100
AcDbEntity
  8
0
100
AcDbLine
 10
127.782
 20
1249.0
 30
0.0
 11
128.8799999999999
 21
1249.0
 31
0.0
  0
LINE
  5
13D
330
1E
100
AcDbEntity
  8
0
100
AcDbLine
 10
128.1999999999999
 20
1007.31
 30
0.0
 11
128.4999999999999
 21
1015.02
 31
0.0
  0
LINE
  5
13E
330
1E
100
AcDbEntity
  8
0
100
AcDbLine
 10
128.0
 20
1003.56
 30
0.0
 11
128.1999999999999
 21
1007.31
 31
0.0
  0
LINE
  5
13F
330
1E
100
AcDbEntity
  8
0
100
AcDbLine
 10
130.4
 20
1071.8
 30
0.0
 11
131.3
 21
1070.5
 31
0.0
  0
LINE
  5
140
330
1E
100
AcDbEntity
  8
0
100
AcDbLine
 10
130.4
 20
1074.799999999999
 30
0.0
 11
131.3
 21
1076.2
 31
0.0
  0
LINE
  5
141
330
1E
100
AcDbEntity
  8
0
100
AcDbLine
 10
130.0
 20
1073.3
 30
0.0
 11
130.4
 21
1071.8
 31
0.0
  0
LINE
  5
142
330
1E
100
AcDbEntity
  8
0
100
AcDbLine
 10
130.0
 20
1073.3
 30
0.0
 11
130.4
 21
1074.799999999999
 31
0.0
  0
LINE
  5
143
330
1E
100
AcDbEntity
  8
0
100
AcDbLine
 10
129.1999999999999
 20
1043.3
 30
0.0
 11
130.0
 21
1073.3
 31
0.0
  0
LINE
  5
144
330
1E
100
AcDbEntity
  8
0
100
AcDbLine
 10
128.4999999999999
 20
1015.02
 30
0.0
 11
129.1999999999999
 21
1043.3
 31
0.0
  0
LINE
  5
145
330
1E
100
AcDbEntity
  8
0
100
AcDbLine
 10
131.3
 20
1076.2
 30
0.0
 11
132.9
 21
1077.4
 31
0.0
  0
LINE
  5
146
330
1E
100
AcDbEntity
  8
0
100
AcDbLine
 10
140.0
 20
1067.6
 30
0.0
 11
142.5999999999999
 21
1067.799999999999
 31
0.0
  0
LINE
  5
147
330
1E
100
AcDbEntity
  8
0
100
AcDbLine
 10
142.5999999999999
 20
1067.799999999999
 30
0.0
 11
145.0
 21
1068.3
 31
0.0
  0
LINE
  5
148
330
1E
100
AcDbEntity
  8
0
100
AcDbLine
 10
150.8
 20
1043.3
 30
0.0
 11
151.5
 21
1015.02
 31
0.0
  0
LINE
  5
149
330
1E
100
AcDbEntity
  8
0
100
AcDbLine
 10
151.5
 20
1015.02
 30
0.0
 11
151.8
 21
1007.31
 31
0.0
  0
LINE
  5
14A
330
1E
100
AcDbEntity
  8
0
100
AcDbLine
 10
151.8
 20
1007.31
 30
0.0
 11
152.0
 21
1003.56
 31
0.0
  0
LINE
  5
14B
330
1E
100
AcDbEntity
  8
0
100
AcDbLine
 10
153.0
 20
1035.0
 30
0.0
 11
153.0
 21
1078.5
 31
0.0
  0
LINE
  5
14C
330
1E
100
AcDbEntity
  8
0
100
AcDbLine
 10
153.0
 20
919.0
 30
0.0
 11
153.0
 21
1035.0
 31
0.0
  0
LINE
  5
14D
330
1E
100
AcDbEntity
  8
0
100
AcDbLine
 10
153.0
 20
919.0
 30
0.0
 11
153.0
 21
909.5
 31
0.0
  0
LINE
  5
14E
330
1E
100
AcDbEntity
  8
0
100
AcDbLine
 10
145.0
 20
1068.3
 30
0.0
 11
147.0999999999999
 21
1069.299999999999
 31
0.0
  0
LINE
  5
14F
330
1E
100
AcDbEntity
  8
0
100
AcDbLine
 10
147.0999999999999
 20
1069.299999999999
 30
0.0
 11
148.6999999999999
 21
1070.5
 31
0.0
  0
LINE
  5
150
330
1E
100
AcDbEntity
  8
0
100
AcDbLine
 10
137.4
 20
1067.799999999999
 30
0.0
 11
140.0
 21
1067.6
 31
0.0
  0
LINE
  5
151
330
1E
100
AcDbEntity
  8
0
100
AcDbLine
 10
135.0
 20
1068.3
 30
0.0
 11
137.4
 21
1067.799999999999
 31
0.0
  0
LINE
  5
152
330
1E
100
AcDbEntity
  8
0
100
AcDbLine
 10
145.0
 20
1078.3
 30
0.0
 11
147.0999999999999
 21
1077.4
 31
0.0
  0
LINE
  5
153
330
1E
100
AcDbEntity
  8
0
100
AcDbLine
 10
147.0999999999999
 20
1077.4
 30
0.0
 11
148.6999999999999
 21
1076.2
 31
0.0
  0
LINE
  5
154
330
1E
100
AcDbEntity
  8
0
100
AcDbLine
 10
148.6999999999999
 20
1076.2
 30
0.0
 11
149.5999999999999
 21
1074.799999999999
 31
0.0
  0
LINE
  5
155
330
1E
100
AcDbEntity
  8
0
100
AcDbLine
 10
149.5999999999999
 20
1074.799999999999
 30
0.0
 11
150.0
 21
1073.3
 31
0.0
  0
LINE
  5
156
330
1E
100
AcDbEntity
  8
0
100
AcDbLine
 10
148.6999999999999
 20
1070.5
 30
0.0
 11
149.5999999999999
 21
1071.8
 31
0.0
  0
LINE
  5
157
330
1E
100
AcDbEntity
  8
0
100
AcDbLine
 10
150.0
 20
1073.3
 30
0.0
 11
150.8
 21
1043.3
 31
0.0
  0
LINE
  5
158
330
1E
100
AcDbEntity
  8
0
100
AcDbLine
 10
149.5999999999999
 20
1071.8
 30
0.0
 11
150.0
 21
1073.3
 31
0.0
  0
LINE
  5
159
330
1E
100
AcDbEntity
  8
0
100
AcDbLine
 10
144.0399999999999
 20
1078.5
 30
0.0
 11
146.5
 21
1078.5
 31
0.0
  0
LINE
  5
15A
330
1E
100
AcDbEntity
  8
0
100
AcDbLine
 10
146.5
 20
1078.5
 30
0.0
 11
149.1999999999999
 21
1078.5
 31
0.0
  0
LINE
  5
15B
330
1E
100
AcDbEntity
  8
0
100
AcDbLine
 10
149.1999999999999
 20
1078.5
 30
0.0
 11
151.3
 21
1078.5
 31
0.0
  0
LINE
  5
15C
330
1E
100
AcDbEntity
  8
0
100
AcDbLine
 10
151.3
 20
1078.5
 30
0.0
 11
152.5
 21
1078.5
 31
0.0
  0
LINE
  5
15D
330
1E
100
AcDbEntity
  8
0
100
AcDbLine
 10
153.0
 20
1078.5
 30
0.0
 11
153.0
 21
1035.0
 31
0.0
  0
LINE
  5
15E
330
1E
100
AcDbEntity
  8
0
100
AcDbLine
 10
152.5
 20
1078.5
 30
0.0
 11
153.0
 21
1078.5
 31
0.0
  0
LINE
  5
15F
330
1E
100
AcDbEntity
  8
0
100
AcDbLine
 10
135.0
 20
1078.3
 30
0.0
 11
137.4
 21
1078.799999999999
 31
0.0
  0
LINE
  5
160
330
1E
100
AcDbEntity
  8
0
100
AcDbLine
 10
132.9
 20
1077.4
 30
0.0
 11
135.0
 21
1078.3
 31
0.0
  0
LINE
  5
161
330
1E
100
AcDbEntity
  8
0
100
AcDbLine
 10
132.9
 20
1069.299999999999
 30
0.0
 11
135.0
 21
1068.3
 31
0.0
  0
LINE
  5
162
330
1E
100
AcDbEntity
  8
0
100
AcDbLine
 10
131.3
 20
1070.5
 30
0.0
 11
132.9
 21
1069.299999999999
 31
0.0
  0
LINE
  5
163
330
1E
100
AcDbEntity
  8
0
100
AcDbLine
 10
133.4999999999999
 20
1078.5
 30
0.0
 11
135.96
 21
1078.5
 31
0.0
  0
LINE
  5
164
330
1E
100
AcDbEntity
  8
0
100
AcDbLine
 10
130.8
 20
1078.5
 30
0.0
 11
133.4999999999999
 21
1078.5
 31
0.0
  0
LINE
  5
165
330
1E
100
AcDbEntity
  8
0
100
AcDbLine
 10
128.8799999999999
 20
1079.0
 30
0.0
 11
130.735
 21
1079.0
 31
0.0
  0
LINE
  5
166
330
1E
100
AcDbEntity
  8
0
100
AcDbLine
 10
128.407
 20
1079.5
 30
0.0
 11
130.3259999999999
 21
1079.5
 31
0.0
  0
LINE
  5
167
330
1E
100
AcDbEntity
  8
0
100
AcDbLine
 10
128.555
 20
1419.0
 30
0.0
 11
130.277
 21
1419.0
 31
0.0
  0
LINE
  5
168
330
1E
100
AcDbEntity
  8
0
100
AcDbLine
 10
128.0989999999999
 20
1418.5
 30
0.0
 11
129.902
 21
1418.5
 31
0.0
  0
LINE
  5
169
330
1E
100
AcDbEntity
  8
0
100
AcDbLine
 10
128.555
 20
1249.0
 30
0.0
 11
130.277
 21
1249.0
 31
0.0
  0
LINE
  5
16A
330
1E
100
AcDbEntity
  8
0
100
AcDbLine
 10
128.0989999999999
 20
1249.5
 30
0.0
 11
129.902
 21
1249.5
 31
0.0
  0
LINE
  5
16B
330
1E
100
AcDbEntity
  8
0
100
AcDbLine
 10
128.33
 20
1419.0
 30
0.0
 11
129.8869999999999
 21
1419.0
 31
0.0
  0
LINE
  5
16C
330
1E
100
AcDbEntity
  8
0
100
AcDbLine
 10
127.9479999999999
 20
1419.5
 30
0.0
 11
129.483
 21
1419.5
 31
0.0
  0
LINE
  5
16D
330
1E
100
AcDbEntity
  8
0
100
AcDbLine
 10
127.9
 20
1759.0
 30
0.0
 11
129.0999999999999
 21
1759.0
 31
0.0
  0
LINE
  5
16E
330
1E
100
AcDbEntity
  8
0
100
AcDbLine
 10
128.112
 20
1589.0
 30
0.0
 11
129.607
 21
1589.0
 31
0.0
  0
LINE
  5
16F
330
1E
100
AcDbEntity
  8
0
100
AcDbLine
 10
127.9
 20
1931.0
 30
0.0
 11
129.0999999999999
 21
1931.0
 31
0.0
  0
LINE
  5
170
330
1E
100
AcDbEntity
  8
0
100
AcDbLine
 10
128.112
 20
1759.0
 30
0.0
 11
129.607
 21
1759.0
 31
0.0
  0
LINE
  5
171
330
1E
100
AcDbEntity
  8
0
100
AcDbLine
 10
128.6999999999999
 20
1930.5
 30
0.0
 11
130.8
 21
1930.5
 31
0.0
  0
LINE
  5
172
330
1E
100
AcDbEntity
  8
0
100
AcDbLine
 10
128.6999999999999
 20
1759.5
 30
0.0
 11
130.8
 21
1759.5
 31
0.0
  0
LINE
  5
173
330
1E
100
AcDbEntity
  8
0
100
AcDbLine
 10
128.33
 20
1589.0
 30
0.0
 11
129.8869999999999
 21
1589.0
 31
0.0
  0
LINE
  5
174
330
1E
100
AcDbEntity
  8
0
100
AcDbLine
 10
127.9479999999999
 20
1588.499999999999
 30
0.0
 11
129.483
 21
1588.499999999999
 31
0.0
  0
LINE
  5
175
330
1E
100
AcDbEntity
  8
0
100
AcDbLine
 10
128.8799999999999
 20
1249.0
 30
0.0
 11
130.735
 21
1249.0
 31
0.0
  0
LINE
  5
176
330
1E
100
AcDbEntity
  8
0
100
AcDbLine
 10
128.407
 20
1248.499999999999
 30
0.0
 11
130.3259999999999
 21
1248.499999999999
 31
0.0
  0
LINE
  5
177
330
1E
100
AcDbEntity
  8
0
100
AcDbLine
 10
130.735
 20
1079.0
 30
0.0
 11
133.2179999999999
 21
1079.0
 31
0.0
  0
LINE
  5
178
330
1E
100
AcDbEntity
  8
0
100
AcDbLine
 10
133.2179999999999
 20
1079.0
 30
0.0
 11
136.1369999999999
 21
1079.0
 31
0.0
  0
LINE
  5
179
330
1E
100
AcDbEntity
  8
0
100
AcDbLine
 10
136.1369999999999
 20
1079.0
 30
0.0
 11
139.304
 21
1079.0
 31
0.0
  0
LINE
  5
17A
330
1E
100
AcDbEntity
  8
0
100
AcDbLine
 10
139.304
 20
1079.0
 30
0.0
 11
142.5279999999999
 21
1079.0
 31
0.0
  0
LINE
  5
17B
330
1E
100
AcDbEntity
  8
0
100
AcDbLine
 10
142.5279999999999
 20
1079.0
 30
0.0
 11
145.619
 21
1079.0
 31
0.0
  0
LINE
  5
17C
330
1E
100
AcDbEntity
  8
0
100
AcDbLine
 10
148.3249999999999
 20
1079.0
 30
0.0
 11
150.3929999999999
 21
1079.0
 31
0.0
  0
LINE
  5
17D
330
1E
100
AcDbEntity
  8
0
100
AcDbLine
 10
145.619
 20
1079.0
 30
0.0
 11
148.3249999999999
 21
1079.0
 31
0.0
  0
LINE
  5
17E
330
1E
100
AcDbEntity
  8
0
100
AcDbLine
 10
143.3
 20
1079.0
 30
0.0
 11
146.3
 21
1079.0
 31
0.0
  0
LINE
  5
17F
330
1E
100
AcDbEntity
  8
0
100
AcDbLine
 10
146.3
 20
1079.0
 30
0.0
 11
148.9
 21
1079.0
 31
0.0
  0
LINE
  5
180
330
1E
100
AcDbEntity
  8
0
100
AcDbLine
 10
151.888
 20
1079.0
 30
0.0
 11
152.432
 21
1079.0
 31
0.0
  0
LINE
  5
181
330
1E
100
AcDbEntity
  8
0
100
AcDbLine
 10
152.432
 20
1079.0
 30
0.0
 11
152.939
 21
1079.5
 31
0.0
  0
LINE
  5
182
330
1E
100
AcDbEntity
  8
0
100
AcDbLine
 10
150.3929999999999
 20
1079.0
 30
0.0
 11
151.888
 21
1079.0
 31
0.0
  0
LINE
  5
183
330
1E
100
AcDbEntity
  8
0
100
AcDbLine
 10
148.9
 20
1079.0
 30
0.0
 11
150.9
 21
1079.0
 31
0.0
  0
LINE
  5
184
330
1E
100
AcDbEntity
  8
0
100
AcDbLine
 10
150.9
 20
1079.0
 30
0.0
 11
152.0999999999999
 21
1079.0
 31
0.0
  0
LINE
  5
185
330
1E
100
AcDbEntity
  8
0
100
AcDbLine
 10
152.5
 20
1079.0
 30
0.0
 11
153.0
 21
1078.5
 31
0.0
  0
LINE
  5
186
330
1E
100
AcDbEntity
  8
0
100
AcDbLine
 10
152.0999999999999
 20
1079.0
 30
0.0
 11
152.5
 21
1079.0
 31
0.0
  0
LINE
  5
187
330
1E
100
AcDbEntity
  8
0
100
AcDbLine
 10
140.0
 20
1079.0
 30
0.0
 11
142.5999999999999
 21
1078.799999999999
 31
0.0
  0
LINE
  5
188
330
1E
100
AcDbEntity
  8
0
100
AcDbLine
 10
140.0
 20
1079.0
 30
0.0
 11
143.3
 21
1079.0
 31
0.0
  0
LINE
  5
189
330
1E
100
AcDbEntity
  8
0
100
AcDbLine
 10
142.5999999999999
 20
1078.799999999999
 30
0.0
 11
145.0
 21
1078.3
 31
0.0
  0
LINE
  5
18A
330
1E
100
AcDbEntity
  8
0
100
AcDbLine
 10
137.4
 20
1078.799999999999
 30
0.0
 11
140.0
 21
1079.0
 31
0.0
  0
LINE
  5
18B
330
1E
100
AcDbEntity
  8
0
100
AcDbLine
 10
136.6999999999999
 20
1079.0
 30
0.0
 11
140.0
 21
1079.0
 31
0.0
  0
LINE
  5
18C
330
1E
100
AcDbEntity
  8
0
100
AcDbLine
 10
133.6999999999999
 20
1079.0
 30
0.0
 11
136.6999999999999
 21
1079.0
 31
0.0
  0
LINE
  5
18D
330
1E
100
AcDbEntity
  8
0
100
AcDbLine
 10
130.3259999999999
 20
1079.5
 30
0.0
 11
132.999
 21
1079.5
 31
0.0
  0
LINE
  5
18E
330
1E
100
AcDbEntity
  8
0
100
AcDbLine
 10
132.999
 20
1079.5
 30
0.0
 11
135.983
 21
1079.5
 31
0.0
  0
LINE
  5
18F
330
1E
100
AcDbEntity
  8
0
100
AcDbLine
 10
130.3259999999999
 20
1248.499999999999
 30
0.0
 11
132.999
 21
1248.499999999999
 31
0.0
  0
LINE
  5
190
330
1E
100
AcDbEntity
  8
0
100
AcDbLine
 10
130.277
 20
1249.0
 30
0.0
 11
132.6529999999999
 21
1249.0
 31
0.0
  0
LINE
  5
191
330
1E
100
AcDbEntity
  8
0
100
AcDbLine
 10
132.6529999999999
 20
1249.0
 30
0.0
 11
135.616
 21
1249.0
 31
0.0
  0
LINE
  5
192
330
1E
100
AcDbEntity
  8
0
100
AcDbLine
 10
129.0999999999999
 20
1931.0
 30
0.0
 11
131.0999999999999
 21
1931.0
 31
0.0
  0
LINE
  5
193
330
1E
100
AcDbEntity
  8
0
100
AcDbLine
 10
129.0999999999999
 20
1759.0
 30
0.0
 11
131.0999999999999
 21
1759.0
 31
0.0
  0
LINE
  5
194
330
1E
100
AcDbEntity
  8
0
100
AcDbLine
 10
129.1619999999999
 20
1589.5
 30
0.0
 11
131.262
 21
1589.5
 31
0.0
  0
LINE
  5
195
330
1E
100
AcDbEntity
  8
0
100
AcDbLine
 10
129.1619999999999
 20
1758.5
 30
0.0
 11
131.262
 21
1758.5
 31
0.0
  0
LINE
  5
196
330
1E
100
AcDbEntity
  8
0
100
AcDbLine
 10
129.483
 20
1588.499999999999
 30
0.0
 11
131.827
 21
1588.499999999999
 31
0.0
  0
LINE
  5
197
330
1E
100
AcDbEntity
  8
0
100
AcDbLine
 10
130.277
 20
1419.0
 30
0.0
 11
132.6529999999999
 21
1419.0
 31
0.0
  0
LINE
  5
198
330
1E
100
AcDbEntity
  8
0
100
AcDbLine
 10
129.902
 20
1418.5
 30
0.0
 11
132.359
 21
1418.5
 31
0.0
  0
LINE
  5
199
330
1E
100
AcDbEntity
  8
0
100
AcDbLine
 10
129.902
 20
1249.5
 30
0.0
 11
132.359
 21
1249.5
 31
0.0
  0
LINE
  5
19A
330
1E
100
AcDbEntity
  8
0
100
AcDbLine
 10
132.359
 20
1249.5
 30
0.0
 11
135.4029999999999
 21
1249.5
 31
0.0
  0
LINE
  5
19B
330
1E
100
AcDbEntity
  8
0
100
AcDbLine
 10
132.6529999999999
 20
1419.0
 30
0.0
 11
135.616
 21
1419.0
 31
0.0
  0
LINE
  5
19C
330
1E
100
AcDbEntity
  8
0
100
AcDbLine
 10
132.359
 20
1418.5
 30
0.0
 11
135.4029999999999
 21
1418.5
 31
0.0
  0
LINE
  5
19D
330
1E
100
AcDbEntity
  8
0
100
AcDbLine
 10
132.092
 20
1419.0
 30
0.0
 11
134.826
 21
1419.0
 31
0.0
  0
LINE
  5
19E
330
1E
100
AcDbEntity
  8
0
100
AcDbLine
 10
129.607
 20
1589.0
 30
0.0
 11
131.675
 21
1589.0
 31
0.0
  0
LINE
  5
19F
330
1E
100
AcDbEntity
  8
0
100
AcDbLine
 10
131.675
 20
1589.0
 30
0.0
 11
134.3809999999999
 21
1589.0
 31
0.0
  0
LINE
  5
1A0
330
1E
100
AcDbEntity
  8
0
100
AcDbLine
 10
131.0999999999999
 20
1759.0
 30
0.0
 11
133.6999999999999
 21
1759.0
 31
0.0
  0
LINE
  5
1A1
330
1E
100
AcDbEntity
  8
0
100
AcDbLine
 10
131.262
 20
1589.5
 30
0.0
 11
134.0929999999999
 21
1589.5
 31
0.0
  0
LINE
  5
1A2
330
1E
100
AcDbEntity
  8
0
100
AcDbLine
 10
130.8
 20
1930.5
 30
0.0
 11
133.4999999999999
 21
1930.5
 31
0.0
  0
LINE
  5
1A3
330
1E
100
AcDbEntity
  8
0
100
AcDbLine
 10
131.0999999999999
 20
1931.0
 30
0.0
 11
133.6999999999999
 21
1931.0
 31
0.0
  0
LINE
  5
1A4
330
1E
100
AcDbEntity
  8
0
100
AcDbLine
 10
130.8
 20
1759.5
 30
0.0
 11
133.4999999999999
 21
1759.5
 31
0.0
  0
LINE
  5
1A5
330
1E
100
AcDbEntity
  8
0
100
AcDbLine
 10
129.607
 20
1759.0
 30
0.0
 11
131.675
 21
1759.0
 31
0.0
  0
LINE
  5
1A6
330
1E
100
AcDbEntity
  8
0
100
AcDbLine
 10
131.675
 20
1759.0
 30
0.0
 11
134.3809999999999
 21
1759.0
 31
0.0
  0
LINE
  5
1A7
330
1E
100
AcDbEntity
  8
0
100
AcDbLine
 10
131.262
 20
1758.5
 30
0.0
 11
134.0929999999999
 21
1758.5
 31
0.0
  0
LINE
  5
1A8
330
1E
100
AcDbEntity
  8
0
100
AcDbLine
 10
129.8869999999999
 20
1589.0
 30
0.0
 11
132.092
 21
1589.0
 31
0.0
  0
LINE
  5
1A9
330
1E
100
AcDbEntity
  8
0
100
AcDbLine
 10
132.092
 20
1589.0
 30
0.0
 11
134.826
 21
1589.0
 31
0.0
  0
LINE
  5
1AA
330
1E
100
AcDbEntity
  8
0
100
AcDbLine
 10
131.827
 20
1588.499999999999
 30
0.0
 11
134.679
 21
1588.499999999999
 31
0.0
  0
LINE
  5
1AB
330
1E
100
AcDbEntity
  8
0
100
AcDbLine
 10
131.827
 20
1419.5
 30
0.0
 11
134.679
 21
1419.5
 31
0.0
  0
LINE
  5
1AC
330
1E
100
AcDbEntity
  8
0
100
AcDbLine
 10
129.8869999999999
 20
1419.0
 30
0.0
 11
132.092
 21
1419.0
 31
0.0
  0
LINE
  5
1AD
330
1E
100
AcDbEntity
  8
0
100
AcDbLine
 10
129.483
 20
1419.5
 30
0.0
 11
131.827
 21
1419.5
 31
0.0
  0
LINE
  5
1AE
330
1E
100
AcDbEntity
  8
0
100
AcDbLine
 10
130.735
 20
1249.0
 30
0.0
 11
133.2179999999999
 21
1249.0
 31
0.0
  0
LINE
  5
1AF
330
1E
100
AcDbEntity
  8
0
100
AcDbLine
 10
135.616
 20
1249.0
 30
0.0
 11
138.7489999999999
 21
1249.0
 31
0.0
  0
LINE
  5
1B0
330
1E
100
AcDbEntity
  8
0
100
AcDbLine
 10
135.4029999999999
 20
1249.5
 30
0.0
 11
138.617
 21
1249.5
 31
0.0
  0
LINE
  5
1B1
330
1E
100
AcDbEntity
  8
0
100
AcDbLine
 10
135.616
 20
1419.0
 30
0.0
 11
138.7489999999999
 21
1419.0
 31
0.0
  0
LINE
  5
1B2
330
1E
100
AcDbEntity
  8
0
100
AcDbLine
 10
135.4029999999999
 20
1418.5
 30
0.0
 11
138.617
 21
1418.5
 31
0.0
  0
LINE
  5
1B3
330
1E
100
AcDbEntity
  8
0
100
AcDbLine
 10
134.826
 20
1419.0
 30
0.0
 11
137.972
 21
1419.0
 31
0.0
  0
LINE
  5
1B4
330
1E
100
AcDbEntity
  8
0
100
AcDbLine
 10
134.3809999999999
 20
1589.0
 30
0.0
 11
137.472
 21
1589.0
 31
0.0
  0
LINE
  5
1B5
330
1E
100
AcDbEntity
  8
0
100
AcDbLine
 10
134.0929999999999
 20
1589.5
 30
0.0
 11
137.3099999999999
 21
1589.5
 31
0.0
  0
LINE
  5
1B6
330
1E
100
AcDbEntity
  8
0
100
AcDbLine
 10
133.6999999999999
 20
1759.0
 30
0.0
 11
136.6999999999999
 21
1759.0
 31
0.0
  0
LINE
  5
1B7
330
1E
100
AcDbEntity
  8
0
100
AcDbLine
 10
133.6999999999999
 20
1931.0
 30
0.0
 11
136.6999999999999
 21
1931.0
 31
0.0
  0
LINE
  5
1B8
330
1E
100
AcDbEntity
  8
0
100
AcDbLine
 10
133.4999999999999
 20
1930.5
 30
0.0
 11
136.5999999999999
 21
1930.5
 31
0.0
  0
LINE
  5
1B9
330
1E
100
AcDbEntity
  8
0
100
AcDbLine
 10
133.4999999999999
 20
1759.5
 30
0.0
 11
136.5999999999999
 21
1759.5
 31
0.0
  0
LINE
  5
1BA
330
1E
100
AcDbEntity
  8
0
100
AcDbLine
 10
134.3809999999999
 20
1759.0
 30
0.0
 11
137.472
 21
1759.0
 31
0.0
  0
LINE
  5
1BB
330
1E
100
AcDbEntity
  8
0
100
AcDbLine
 10
134.0929999999999
 20
1758.5
 30
0.0
 11
137.3099999999999
 21
1758.5
 31
0.0
  0
LINE
  5
1BC
330
1E
100
AcDbEntity
  8
0
100
AcDbLine
 10
134.826
 20
1589.0
 30
0.0
 11
137.972
 21
1589.0
 31
0.0
  0
LINE
  5
1BD
330
1E
100
AcDbEntity
  8
0
100
AcDbLine
 10
134.679
 20
1588.499999999999
 30
0.0
 11
137.965
 21
1588.499999999999
 31
0.0
  0
LINE
  5
1BE
330
1E
100
AcDbEntity
  8
0
100
AcDbLine
 10
134.679
 20
1419.5
 30
0.0
 11
137.965
 21
1419.5
 31
0.0
  0
LINE
  5
1BF
330
1E
100
AcDbEntity
  8
0
100
AcDbLine
 10
133.2179999999999
 20
1249.0
 30
0.0
 11
136.1369999999999
 21
1249.0
 31
0.0
  0
LINE
  5
1C0
330
1E
100
AcDbEntity
  8
0
100
AcDbLine
 10
132.999
 20
1248.499999999999
 30
0.0
 11
135.983
 21
1248.499999999999
 31
0.0
  0
LINE
  5
1C1
330
1E
100
AcDbEntity
  8
0
100
AcDbLine
 10
152.939
 20
1079.5
 30
0.0
 11
152.939
 21
1089.0
 31
0.0
  0
LINE
  5
1C2
330
1E
100
AcDbEntity
  8
0
100
AcDbLine
 10
152.364
 20
1079.5
 30
0.0
 11
152.939
 21
1079.5
 31
0.0
  0
LINE
  5
1C3
330
1E
100
AcDbEntity
  8
0
100
AcDbLine
 10
150.838
 20
1079.5
 30
0.0
 11
152.364
 21
1079.5
 31
0.0
  0
LINE
  5
1C4
330
1E
100
AcDbEntity
  8
0
100
AcDbLine
 10
148.7379999999999
 20
1079.5
 30
0.0
 11
150.838
 21
1079.5
 31
0.0
  0
LINE
  5
1C5
330
1E
100
AcDbEntity
  8
0
100
AcDbLine
 10
145.907
 20
1079.5
 30
0.0
 11
148.7379999999999
 21
1079.5
 31
0.0
  0
LINE
  5
1C6
330
1E
100
AcDbEntity
  8
0
100
AcDbLine
 10
142.69
 20
1079.5
 30
0.0
 11
145.907
 21
1079.5
 31
0.0
  0
LINE
  5
1C7
330
1E
100
AcDbEntity
  8
0
100
AcDbLine
 10
138.7489999999999
 20
1249.0
 30
0.0
 11
142.0279999999999
 21
1249.0
 31
0.0
  0
LINE
  5
1C8
330
1E
100
AcDbEntity
  8
0
100
AcDbLine
 10
142.0279999999999
 20
1249.0
 30
0.0
 11
145.174
 21
1249.0
 31
0.0
  0
LINE
  5
1C9
330
1E
100
AcDbEntity
  8
0
100
AcDbLine
 10
142.5279999999999
 20
1249.0
 30
0.0
 11
145.619
 21
1249.0
 31
0.0
  0
LINE
  5
1CA
330
1E
100
AcDbEntity
  8
0
100
AcDbLine
 10
161.5289999999999
 20
1124.9
 30
0.0
 11
170.122
 21
1139.599999999999
 31
0.0
  0
LINE
  5
1CB
330
1E
100
AcDbEntity
  8
0
100
AcDbLine
 10
155.792
 20
1108.0
 30
0.0
 11
161.5289999999999
 21
1124.9
 31
0.0
  0
LINE
  5
1CC
330
1E
100
AcDbEntity
  8
0
100
AcDbLine
 10
152.939
 20
1089.0
 30
0.0
 11
155.792
 21
1108.0
 31
0.0
  0
LINE
  5
1CD
330
1E
100
AcDbEntity
  8
0
100
AcDbLine
 10
152.939
 20
1089.0
 30
0.0
 11
152.939
 21
1079.5
 31
0.0
  0
LINE
  5
1CE
330
1E
100
AcDbEntity
  8
0
100
AcDbLine
 10
195.7079999999999
 20
1178.8
 30
0.0
 11
215.226
 21
1207.049999999999
 31
0.0
  0
LINE
  5
1CF
330
1E
100
AcDbEntity
  8
0
100
AcDbLine
 10
180.0769999999999
 20
1154.9
 30
0.0
 11
195.7079999999999
 21
1178.8
 31
0.0
  0
LINE
  5
1D0
330
1E
100
AcDbEntity
  8
0
100
AcDbLine
 10
170.122
 20
1139.599999999999
 30
0.0
 11
180.0769999999999
 21
1154.9
 31
0.0
  0
LINE
  5
1D1
330
1E
100
AcDbEntity
  8
0
100
AcDbLine
 10
167.0509999999999
 20
1186.539999999999
 30
0.0
 11
171.996888926506
 21
1188.41323096708
 31
0.0
  0
LINE
  5
1D2
330
1E
100
AcDbEntity
  8
0
100
AcDbLine
 10
162.1599999999999
 20
1186.979999999999
 30
0.0
 11
167.0509999999999
 21
1186.539999999999
 31
0.0
  0
LINE
  5
1D3
330
1E
100
AcDbEntity
  8
0
100
AcDbLine
 10
152.939
 20
1248.499999999999
 30
0.0
 11
152.939
 21
1205.0
 31
0.0
  0
LINE
  5
1D4
330
1E
100
AcDbEntity
  8
0
100
AcDbLine
 10
152.364
 20
1248.499999999999
 30
0.0
 11
152.939
 21
1248.499999999999
 31
0.0
  0
LINE
  5
1D5
330
1E
100
AcDbEntity
  8
0
100
AcDbLine
 10
155.333
 20
1193.599999999999
 30
0.0
 11
158.3060850349629
 21
1189.119602392419
 31
0.0
  0
LINE
  5
1D6
330
1E
100
AcDbEntity
  8
0
100
AcDbLine
 10
153.3429999999999
 20
1199.88
 30
0.0
 11
155.333
 21
1193.599999999999
 31
0.0
  0
LINE
  5
1D7
330
1E
100
AcDbEntity
  8
0
100
AcDbLine
 10
152.939
 20
1205.0
 30
0.0
 11
153.3429999999999
 21
1199.88
 31
0.0
  0
LINE
  5
1D8
330
1E
100
AcDbEntity
  8
0
100
AcDbLine
 10
152.939
 20
1205.0
 30
0.0
 11
152.939
 21
1248.499999999999
 31
0.0
  0
LINE
  5
1D9
330
1E
100
AcDbEntity
  8
0
100
AcDbLine
 10
176.907
 20
1192.309999999999
 30
0.0
 11
197.301
 21
1219.14
 31
0.0
  0
LINE
  5
1DA
330
1E
100
AcDbEntity
  8
0
100
AcDbLine
 10
215.226
 20
1207.049999999999
 30
0.0
 11
235.624
 21
1237.8
 31
0.0
  0
LINE
  5
1DB
330
1E
100
AcDbEntity
  8
0
100
AcDbLine
 10
219.009
 20
1248.3
 30
0.0
 11
219.5969999999999
 21
1247.4
 31
0.0
  0
LINE
  5
1DC
330
1E
100
AcDbEntity
  8
0
100
AcDbLine
 10
219.5969999999999
 20
1247.4
 30
0.0
 11
220.719
 21
1246.2
 31
0.0
  0
LINE
  5
1DD
330
1E
100
AcDbEntity
  8
0
100
AcDbLine
 10
222.1
 20
1248.3
 30
0.0
 11
223.985
 21
1247.4
 31
0.0
  0
LINE
  5
1DE
330
1E
100
AcDbEntity
  8
0
100
AcDbLine
 10
223.985
 20
1247.4
 30
0.0
 11
226.0959999999999
 21
1246.2
 31
0.0
  0
LINE
  5
1DF
330
1E
100
AcDbEntity
  8
0
100
AcDbLine
 10
220.719
 20
1246.2
 30
0.0
 11
222.343
 21
1244.8
 31
0.0
  0
LINE
  5
1E0
330
1E
100
AcDbEntity
  8
0
100
AcDbLine
 10
222.343
 20
1244.8
 30
0.0
 11
224.312
 21
1243.3
 31
0.0
  0
LINE
  5
1E2
330
1E
100
AcDbEntity
  8
0
100
AcDbLine
 10
197.301
 20
1219.14
 30
0.0
 11
218.99
 21
1248.8
 31
0.0
  0
LINE
  5
1E3
330
1E
100
AcDbEntity
  8
0
100
AcDbLine
 10
158.3060850349617
 20
1189.119602392421
 30
0.0
 11
162.1599999999999
 21
1186.979999999999
 31
0.0
  0
LINE
  5
1E4
330
1E
100
AcDbEntity
  8
0
100
AcDbLine
 10
235.1059999999999
 20
1237.6
 30
0.0
 11
235.624
 21
1237.8
 31
0.0
  0
LINE
  5
1E5
330
1E
100
AcDbEntity
  8
0
100
AcDbLine
 10
235.6049999999999
 20
1238.299999999999
 30
0.0
 11
235.624
 21
1237.8
 31
0.0
  0
LINE
  5
1E6
330
1E
100
AcDbEntity
  8
0
100
AcDbLine
 10
235.0169999999999
 20
1239.3
 30
0.0
 11
235.6049999999999
 21
1238.299999999999
 31
0.0
  0
LINE
  5
1E7
330
1E
100
AcDbEntity
  8
0
100
AcDbLine
 10
234.017
 20
1237.8
 30
0.0
 11
235.1059999999999
 21
1237.6
 31
0.0
  0
LINE
  5
1E8
330
1E
100
AcDbEntity
  8
0
100
AcDbLine
 10
232.514
 20
1238.299999999999
 30
0.0
 11
234.017
 21
1237.8
 31
0.0
  0
LINE
  5
1E9
330
1E
100
AcDbEntity
  8
0
100
AcDbLine
 10
233.895
 20
1240.5
 30
0.0
 11
235.0169999999999
 21
1239.3
 31
0.0
  0
LINE
  5
1EA
330
1E
100
AcDbEntity
  8
0
100
AcDbLine
 10
232.2709999999999
 20
1241.8
 30
0.0
 11
233.895
 21
1240.5
 31
0.0
  0
LINE
  5
1EB
330
1E
100
AcDbEntity
  8
0
100
AcDbLine
 10
230.629
 20
1239.3
 30
0.0
 11
232.514
 21
1238.299999999999
 31
0.0
  0
LINE
  5
1EC
330
1E
100
AcDbEntity
  8
0
100
AcDbLine
 10
228.5179999999999
 20
1240.5
 30
0.0
 11
230.629
 21
1239.3
 31
0.0
  0
LINE
  5
1ED
330
1E
100
AcDbEntity
  8
0
100
AcDbLine
 10
226.0959999999999
 20
1246.2
 30
0.0
 11
228.2759999999999
 21
1244.8
 31
0.0
  0
LINE
  5
1EE
330
1E
100
AcDbEntity
  8
0
100
AcDbLine
 10
228.2759999999999
 20
1244.8
 30
0.0
 11
230.492
 21
1243.3
 31
0.0
  0
LINE
  5
1EF
330
1E
100
AcDbEntity
  8
0
100
AcDbLine
 10
230.492
 20
1243.3
 30
0.0
 11
232.2709999999999
 21
1241.8
 31
0.0
  0
LINE
  5
1F0
330
1E
100
AcDbEntity
  8
0
100
AcDbLine
 10
226.338
 20
1241.8
 30
0.0
 11
228.5179999999999
 21
1240.5
 31
0.0
  0
LINE
  5
1F1
330
1E
100
AcDbEntity
  8
0
100
AcDbLine
 10
224.312
 20
1243.3
 30
0.0
 11
226.338
 21
1241.8
 31
0.0
  0
LINE
  5
1F2
330
1E
100
AcDbEntity
  8
0
100
AcDbLine
 10
150.838
 20
1248.499999999999
 30
0.0
 11
152.364
 21
1248.499999999999
 31
0.0
  0
LINE
  5
1F3
330
1E
100
AcDbEntity
  8
0
100
AcDbLine
 10
148.7379999999999
 20
1248.499999999999
 30
0.0
 11
150.838
 21
1248.499999999999
 31
0.0
  0
LINE
  5
1F4
330
1E
100
AcDbEntity
  8
0
100
AcDbLine
 10
145.174
 20
1249.0
 30
0.0
 11
147.9079999999999
 21
1249.0
 31
0.0
  0
LINE
  5
1F5
330
1E
100
AcDbEntity
  8
0
100
AcDbLine
 10
147.9079999999999
 20
1249.0
 30
0.0
 11
150.113
 21
1249.0
 31
0.0
  0
LINE
  5
1F6
330
1E
100
AcDbEntity
  8
0
100
AcDbLine
 10
150.113
 20
1249.0
 30
0.0
 11
151.6699999999999
 21
1249.0
 31
0.0
  0
LINE
  5
1F7
330
1E
100
AcDbEntity
  8
0
100
AcDbLine
 10
220.597
 20
1248.8
 30
0.0
 11
222.1
 21
1248.3
 31
0.0
  0
LINE
  5
1F8
330
1E
100
AcDbEntity
  8
0
100
AcDbLine
 10
151.6699999999999
 20
1249.0
 30
0.0
 11
152.4629999999999
 21
1249.0
 31
0.0
  0
LINE
  5
1F9
330
1E
100
AcDbEntity
  8
0
100
AcDbLine
 10
152.4629999999999
 20
1249.0
 30
0.0
 11
152.962
 21
1249.5
 31
0.0
  0
LINE
  5
1FA
330
1E
100
AcDbEntity
  8
0
100
AcDbLine
 10
151.888
 20
1249.0
 30
0.0
 11
152.432
 21
1249.0
 31
0.0
  0
LINE
  5
1FB
330
1E
100
AcDbEntity
  8
0
100
AcDbLine
 10
152.432
 20
1249.0
 30
0.0
 11
152.939
 21
1248.499999999999
 31
0.0
  0
LINE
  5
1FC
330
1E
100
AcDbEntity
  8
0
100
AcDbLine
 10
219.5079999999999
 20
1249.0
 30
0.0
 11
220.597
 21
1248.8
 31
0.0
  0
LINE
  5
1FD
330
1E
100
AcDbEntity
  8
0
100
AcDbLine
 10
218.99
 20
1248.8
 30
0.0
 11
219.009
 21
1248.3
 31
0.0
  0
LINE
  5
1FE
330
1E
100
AcDbEntity
  8
0
100
AcDbLine
 10
218.99
 20
1248.8
 30
0.0
 11
219.5079999999999
 21
1249.0
 31
0.0
  0
LINE
  5
1FF
330
1E
100
AcDbEntity
  8
0
100
AcDbLine
 10
150.3929999999999
 20
1249.0
 30
0.0
 11
151.888
 21
1249.0
 31
0.0
  0
LINE
  5
200
330
1E
100
AcDbEntity
  8
0
100
AcDbLine
 10
148.3249999999999
 20
1249.0
 30
0.0
 11
150.3929999999999
 21
1249.0
 31
0.0
  0
LINE
  5
201
330
1E
100
AcDbEntity
  8
0
100
AcDbLine
 10
145.619
 20
1249.0
 30
0.0
 11
148.3249999999999
 21
1249.0
 31
0.0
  0
LINE
  5
202
330
1E
100
AcDbEntity
  8
0
100
AcDbLine
 10
145.907
 20
1248.499999999999
 30
0.0
 11
148.7379999999999
 21
1248.499999999999
 31
0.0
  0
LINE
  5
203
330
1E
100
AcDbEntity
  8
0
100
AcDbLine
 10
142.69
 20
1248.499999999999
 30
0.0
 11
145.907
 21
1248.499999999999
 31
0.0
  0
LINE
  5
204
330
1E
100
AcDbEntity
  8
0
100
AcDbLine
 10
139.304
 20
1249.0
 30
0.0
 11
142.5279999999999
 21
1249.0
 31
0.0
  0
LINE
  5
205
330
1E
100
AcDbEntity
  8
0
100
AcDbLine
 10
139.276
 20
1248.499999999999
 30
0.0
 11
142.69
 21
1248.499999999999
 31
0.0
  0
LINE
  5
206
330
1E
100
AcDbEntity
  8
0
100
AcDbLine
 10
138.617
 20
1249.5
 30
0.0
 11
142.035
 21
1249.5
 31
0.0
  0
LINE
  5
207
330
1E
100
AcDbEntity
  8
0
100
AcDbLine
 10
142.035
 20
1249.5
 30
0.0
 11
145.321
 21
1249.5
 31
0.0
  0
LINE
  5
208
330
1E
100
AcDbEntity
  8
0
100
AcDbLine
 10
138.617
 20
1418.5
 30
0.0
 11
142.035
 21
1418.5
 31
0.0
  0
LINE
  5
209
330
1E
100
AcDbEntity
  8
0
100
AcDbLine
 10
138.7489999999999
 20
1419.0
 30
0.0
 11
142.0279999999999
 21
1419.0
 31
0.0
  0
LINE
  5
20A
330
1E
100
AcDbEntity
  8
0
100
AcDbLine
 10
142.0279999999999
 20
1419.0
 30
0.0
 11
145.174
 21
1419.0
 31
0.0
  0
LINE
  5
20B
330
1E
100
AcDbEntity
  8
0
100
AcDbLine
 10
142.035
 20
1418.5
 30
0.0
 11
145.321
 21
1418.5
 31
0.0
  0
LINE
  5
20C
330
1E
100
AcDbEntity
  8
0
100
AcDbLine
 10
145.321
 20
1249.5
 30
0.0
 11
148.1729999999999
 21
1249.5
 31
0.0
  0
LINE
  5
20D
330
1E
100
AcDbEntity
  8
0
100
AcDbLine
 10
145.174
 20
1419.0
 30
0.0
 11
147.9079999999999
 21
1419.0
 31
0.0
  0
LINE
  5
20E
330
1E
100
AcDbEntity
  8
0
100
AcDbLine
 10
145.321
 20
1418.5
 30
0.0
 11
148.1729999999999
 21
1418.5
 31
0.0
  0
LINE
  5
20F
330
1E
100
AcDbEntity
  8
0
100
AcDbLine
 10
144.3839999999999
 20
1419.0
 30
0.0
 11
147.347
 21
1419.0
 31
0.0
  0
LINE
  5
210
330
1E
100
AcDbEntity
  8
0
100
AcDbLine
 10
141.251
 20
1419.0
 30
0.0
 11
144.3839999999999
 21
1419.0
 31
0.0
  0
LINE
  5
211
330
1E
100
AcDbEntity
  8
0
100
AcDbLine
 10
137.972
 20
1419.0
 30
0.0
 11
141.251
 21
1419.0
 31
0.0
  0
LINE
  5
212
330
1E
100
AcDbEntity
  8
0
100
AcDbLine
 10
137.472
 20
1589.0
 30
0.0
 11
140.6959999999999
 21
1589.0
 31
0.0
  0
LINE
  5
213
330
1E
100
AcDbEntity
  8
0
100
AcDbLine
 10
144.597
 20
1419.5
 30
0.0
 11
147.641
 21
1419.5
 31
0.0
  0
LINE
  5
214
330
1E
100
AcDbEntity
  8
0
100
AcDbLine
 10
140.6959999999999
 20
1589.0
 30
0.0
 11
143.863
 21
1589.0
 31
0.0
  0
LINE
  5
215
330
1E
100
AcDbEntity
  8
0
100
AcDbLine
 10
141.251
 20
1589.0
 30
0.0
 11
144.3839999999999
 21
1589.0
 31
0.0
  0
LINE
  5
216
330
1E
100
AcDbEntity
  8
0
100
AcDbLine
 10
143.863
 20
1589.0
 30
0.0
 11
146.782
 21
1589.0
 31
0.0
  0
LINE
  5
217
330
1E
100
AcDbEntity
  8
0
100
AcDbLine
 10
146.782
 20
1589.0
 30
0.0
 11
149.2649999999999
 21
1589.0
 31
0.0
  0
LINE
  5
218
330
1E
100
AcDbEntity
  8
0
100
AcDbLine
 10
144.3839999999999
 20
1589.0
 30
0.0
 11
147.347
 21
1589.0
 31
0.0
  0
LINE
  5
219
330
1E
100
AcDbEntity
  8
0
100
AcDbLine
 10
144.597
 20
1588.499999999999
 30
0.0
 11
147.641
 21
1588.499999999999
 31
0.0
  0
LINE
  5
21A
330
1E
100
AcDbEntity
  8
0
100
AcDbLine
 10
141.3829999999999
 20
1588.499999999999
 30
0.0
 11
144.597
 21
1588.499999999999
 31
0.0
  0
LINE
  5
21B
330
1E
100
AcDbEntity
  8
0
100
AcDbLine
 10
137.972
 20
1589.0
 30
0.0
 11
141.251
 21
1589.0
 31
0.0
  0
LINE
  5
21C
330
1E
100
AcDbEntity
  8
0
100
AcDbLine
 10
137.965
 20
1588.499999999999
 30
0.0
 11
141.3829999999999
 21
1588.499999999999
 31
0.0
  0
LINE
  5
21D
330
1E
100
AcDbEntity
  8
0
100
AcDbLine
 10
141.3829999999999
 20
1419.5
 30
0.0
 11
144.597
 21
1419.5
 31
0.0
  0
LINE
  5
21E
330
1E
100
AcDbEntity
  8
0
100
AcDbLine
 10
137.965
 20
1419.5
 30
0.0
 11
141.3829999999999
 21
1419.5
 31
0.0
  0
LINE
  5
21F
330
1E
100
AcDbEntity
  8
0
100
AcDbLine
 10
147.347
 20
1419.0
 30
0.0
 11
149.7229999999999
 21
1419.0
 31
0.0
  0
LINE
  5
220
330
1E
100
AcDbEntity
  8
0
100
AcDbLine
 10
147.641
 20
1419.5
 30
0.0
 11
150.098
 21
1419.5
 31
0.0
  0
LINE
  5
221
330
1E
100
AcDbEntity
  8
0
100
AcDbLine
 10
147.347
 20
1589.0
 30
0.0
 11
149.7229999999999
 21
1589.0
 31
0.0
  0
LINE
  5
222
330
1E
100
AcDbEntity
  8
0
100
AcDbLine
 10
148.1729999999999
 20
1249.5
 30
0.0
 11
150.5169999999999
 21
1249.5
 31
0.0
  0
LINE
  5
223
330
1E
100
AcDbEntity
  8
0
100
AcDbLine
 10
147.9079999999999
 20
1419.0
 30
0.0
 11
150.113
 21
1419.0
 31
0.0
  0
LINE
  5
224
330
1E
100
AcDbEntity
  8
0
100
AcDbLine
 10
148.1729999999999
 20
1418.5
 30
0.0
 11
150.5169999999999
 21
1418.5
 31
0.0
  0
LINE
  5
225
330
1E
100
AcDbEntity
  8
0
100
AcDbLine
 10
149.7229999999999
 20
1419.0
 30
0.0
 11
151.445
 21
1419.0
 31
0.0
  0
LINE
  5
226
330
1E
100
AcDbEntity
  8
0
100
AcDbLine
 10
149.2649999999999
 20
1589.0
 30
0.0
 11
151.12
 21
1589.0
 31
0.0
  0
LINE
  5
227
330
1E
100
AcDbEntity
  8
0
100
AcDbLine
 10
150.098
 20
1419.5
 30
0.0
 11
151.901
 21
1419.5
 31
0.0
  0
LINE
  5
228
330
1E
100
AcDbEntity
  8
0
100
AcDbLine
 10
147.641
 20
1588.499999999999
 30
0.0
 11
150.098
 21
1588.499999999999
 31
0.0
  0
LINE
  5
229
330
1E
100
AcDbEntity
  8
0
100
AcDbLine
 10
149.7229999999999
 20
1589.0
 30
0.0
 11
151.445
 21
1589.0
 31
0.0
  0
LINE
  5
22A
330
1E
100
AcDbEntity
  8
0
100
AcDbLine
 10
150.113
 20
1419.0
 30
0.0
 11
151.6699999999999
 21
1419.0
 31
0.0
  0
LINE
  5
22B
330
1E
100
AcDbEntity
  8
0
100
AcDbLine
 10
150.5169999999999
 20
1418.5
 30
0.0
 11
152.052
 21
1418.5
 31
0.0
  0
LINE
  5
22C
330
1E
100
AcDbEntity
  8
0
100
AcDbLine
 10
150.5169999999999
 20
1249.5
 30
0.0
 11
152.052
 21
1249.5
 31
0.0
  0
LINE
  5
22D
330
1E
100
AcDbEntity
  8
0
100
AcDbLine
 10
151.6699999999999
 20
1419.0
 30
0.0
 11
152.4629999999999
 21
1419.0
 31
0.0
  0
LINE
  5
22E
330
1E
100
AcDbEntity
  8
0
100
AcDbLine
 10
151.445
 20
1419.0
 30
0.0
 11
152.373
 21
1419.0
 31
0.0
  0
LINE
  5
22F
330
1E
100
AcDbEntity
  8
0
100
AcDbLine
 10
151.12
 20
1589.0
 30
0.0
 11
152.2179999999999
 21
1589.0
 31
0.0
  0
LINE
  5
230
330
1E
100
AcDbEntity
  8
0
100
AcDbLine
 10
151.901
 20
1419.5
 30
0.0
 11
152.8509999999999
 21
1419.5
 31
0.0
  0
LINE
  5
231
330
1E
100
AcDbEntity
  8
0
100
AcDbLine
 10
150.098
 20
1588.499999999999
 30
0.0
 11
151.901
 21
1588.499999999999
 31
0.0
  0
LINE
  5
232
330
1E
100
AcDbEntity
  8
0
100
AcDbLine
 10
151.445
 20
1589.0
 30
0.0
 11
152.373
 21
1589.0
 31
0.0
  0
LINE
  5
233
330
1E
100
AcDbEntity
  8
0
100
AcDbLine
 10
152.052
 20
1418.5
 30
0.0
 11
152.962
 21
1418.5
 31
0.0
  0
LINE
  5
234
330
1E
100
AcDbEntity
  8
0
100
AcDbLine
 10
152.052
 20
1249.5
 30
0.0
 11
152.962
 21
1249.5
 31
0.0
  0
LINE
  5
235
330
1E
100
AcDbEntity
  8
0
100
AcDbLine
 10
152.2179999999999
 20
1589.0
 30
0.0
 11
152.432
 21
1589.0
 31
0.0
  0
LINE
  5
236
330
1E
100
AcDbEntity
  8
0
100
AcDbLine
 10
152.432
 20
1589.0
 30
0.0
 11
152.939
 21
1589.5
 31
0.0
  0
LINE
  5
237
330
1E
100
AcDbEntity
  8
0
100
AcDbLine
 10
152.4629999999999
 20
1419.0
 30
0.0
 11
152.962
 21
1419.5
 31
0.0
  0
LINE
  5
238
330
1E
100
AcDbEntity
  8
0
100
AcDbLine
 10
152.4629999999999
 20
1419.0
 30
0.0
 11
152.962
 21
1418.5
 31
0.0
  0
LINE
  5
239
330
1E
100
AcDbEntity
  8
0
100
AcDbLine
 10
151.901
 20
1588.499999999999
 30
0.0
 11
152.8509999999999
 21
1588.499999999999
 31
0.0
  0
LINE
  5
23A
330
1E
100
AcDbEntity
  8
0
100
AcDbLine
 10
137.3099999999999
 20
1589.5
 30
0.0
 11
140.7239999999999
 21
1589.5
 31
0.0
  0
LINE
  5
23B
330
1E
100
AcDbEntity
  8
0
100
AcDbLine
 10
140.7239999999999
 20
1589.5
 30
0.0
 11
144.0169999999999
 21
1589.5
 31
0.0
  0
LINE
  5
23C
330
1E
100
AcDbEntity
  8
0
100
AcDbLine
 10
137.3099999999999
 20
1758.5
 30
0.0
 11
140.7239999999999
 21
1758.5
 31
0.0
  0
LINE
  5
23D
330
1E
100
AcDbEntity
  8
0
100
AcDbLine
 10
140.0
 20
1759.0
 30
0.0
 11
143.3
 21
1759.0
 31
0.0
  0
LINE
  5
23E
330
1E
100
AcDbEntity
  8
0
100
AcDbLine
 10
136.6999999999999
 20
1759.0
 30
0.0
 11
140.0
 21
1759.0
 31
0.0
  0
LINE
  5
23F
330
1E
100
AcDbEntity
  8
0
100
AcDbLine
 10
140.0
 20
1930.5
 30
0.0
 11
143.4
 21
1930.5
 31
0.0
  0
LINE
  5
240
330
1E
100
AcDbEntity
  8
0
100
AcDbLine
 10
140.0
 20
1759.5
 30
0.0
 11
143.4
 21
1759.5
 31
0.0
  0
LINE
  5
241
330
1E
100
AcDbEntity
  8
0
100
AcDbLine
 10
140.0
 20
1931.0
 30
0.0
 11
143.3
 21
1931.0
 31
0.0
  0
LINE
  5
242
330
1E
100
AcDbEntity
  8
0
100
AcDbLine
 10
136.6999999999999
 20
1931.0
 30
0.0
 11
140.0
 21
1931.0
 31
0.0
  0
LINE
  5
243
330
1E
100
AcDbEntity
  8
0
100
AcDbLine
 10
136.5999999999999
 20
1930.5
 30
0.0
 11
140.0
 21
1930.5
 31
0.0
  0
LINE
  5
244
330
1E
100
AcDbEntity
  8
0
100
AcDbLine
 10
136.5999999999999
 20
1759.5
 30
0.0
 11
140.0
 21
1759.5
 31
0.0
  0
LINE
  5
245
330
1E
100
AcDbEntity
  8
0
100
AcDbLine
 10
137.472
 20
1759.0
 30
0.0
 11
140.6959999999999
 21
1759.0
 31
0.0
  0
LINE
  5
246
330
1E
100
AcDbEntity
  8
0
100
AcDbLine
 10
143.3
 20
1759.0
 30
0.0
 11
146.3
 21
1759.0
 31
0.0
  0
LINE
  5
247
330
1E
100
AcDbEntity
  8
0
100
AcDbLine
 10
143.3
 20
1931.0
 30
0.0
 11
146.3
 21
1931.0
 31
0.0
  0
LINE
  5
248
330
1E
100
AcDbEntity
  8
0
100
AcDbLine
 10
143.4
 20
1930.5
 30
0.0
 11
146.5
 21
1930.5
 31
0.0
  0
LINE
  5
249
330
1E
100
AcDbEntity
  8
0
100
AcDbLine
 10
143.4
 20
1759.5
 30
0.0
 11
146.5
 21
1759.5
 31
0.0
  0
LINE
  5
24A
330
1E
100
AcDbEntity
  8
0
100
AcDbLine
 10
143.863
 20
1759.0
 30
0.0
 11
146.782
 21
1759.0
 31
0.0
  0
LINE
  5
24B
330
1E
100
AcDbEntity
  8
0
100
AcDbLine
 10
140.6959999999999
 20
1759.0
 30
0.0
 11
143.863
 21
1759.0
 31
0.0
  0
LINE
  5
24C
330
1E
100
AcDbEntity
  8
0
100
AcDbLine
 10
140.7239999999999
 20
1758.5
 30
0.0
 11
144.0169999999999
 21
1758.5
 31
0.0
  0
LINE
  5
24D
330
1E
100
AcDbEntity
  8
0
100
AcDbLine
 10
151.5929999999999
 20
1589.5
 30
0.0
 11
152.756
 21
1589.5
 31
0.0
  0
LINE
  5
24E
330
1E
100
AcDbEntity
  8
0
100
AcDbLine
 10
149.674
 20
1589.5
 30
0.0
 11
151.5929999999999
 21
1589.5
 31
0.0
  0
LINE
  5
24F
330
1E
100
AcDbEntity
  8
0
100
AcDbLine
 10
151.5929999999999
 20
1758.5
 30
0.0
 11
152.756
 21
1758.5
 31
0.0
  0
LINE
  5
250
330
1E
100
AcDbEntity
  8
0
100
AcDbLine
 10
149.674
 20
1758.5
 30
0.0
 11
151.5929999999999
 21
1758.5
 31
0.0
  0
LINE
  5
251
330
1E
100
AcDbEntity
  8
0
100
AcDbLine
 10
146.3
 20
1759.0
 30
0.0
 11
148.9
 21
1759.0
 31
0.0
  0
LINE
  5
252
330
1E
100
AcDbEntity
  8
0
100
AcDbLine
 10
146.3
 20
1931.0
 30
0.0
 11
148.9
 21
1931.0
 31
0.0
  0
LINE
  5
253
330
1E
100
AcDbEntity
  8
0
100
AcDbLine
 10
146.5
 20
1930.5
 30
0.0
 11
149.1999999999999
 21
1930.5
 31
0.0
  0
LINE
  5
254
330
1E
100
AcDbEntity
  8
0
100
AcDbLine
 10
146.5
 20
1759.5
 30
0.0
 11
149.1999999999999
 21
1759.5
 31
0.0
  0
LINE
  5
255
330
1E
100
AcDbEntity
  8
0
100
AcDbLine
 10
148.9
 20
1759.0
 30
0.0
 11
150.9
 21
1759.0
 31
0.0
  0
LINE
  5
256
330
1E
100
AcDbEntity
  8
0
100
AcDbLine
 10
150.9
 20
1759.0
 30
0.0
 11
152.0999999999999
 21
1759.0
 31
0.0
  0
LINE
  5
257
330
1E
100
AcDbEntity
  8
0
100
AcDbLine
 10
152.0999999999999
 20
1759.0
 30
0.0
 11
152.5
 21
1759.0
 31
0.0
  0
LINE
  5
258
330
1E
100
AcDbEntity
  8
0
100
AcDbLine
 10
152.432
 20
1759.0
 30
0.0
 11
152.939
 21
1758.5
 31
0.0
  0
LINE
  5
259
330
1E
100
AcDbEntity
  8
0
100
AcDbLine
 10
152.2179999999999
 20
1759.0
 30
0.0
 11
152.432
 21
1759.0
 31
0.0
  0
LINE
  5
25A
330
1E
100
AcDbEntity
  8
0
100
AcDbLine
 10
152.2179999999999
 20
1759.0
 30
0.0
 11
152.5
 21
1759.0
 31
0.0
  0
LINE
  5
25B
330
1E
100
AcDbEntity
  8
0
100
AcDbLine
 10
151.12
 20
1759.0
 30
0.0
 11
152.2179999999999
 21
1759.0
 31
0.0
  0
LINE
  5
25C
330
1E
100
AcDbEntity
  8
0
100
AcDbLine
 10
148.9
 20
1931.0
 30
0.0
 11
150.9
 21
1931.0
 31
0.0
  0
LINE
  5
25D
330
1E
100
AcDbEntity
  8
0
100
AcDbLine
 10
150.9
 20
1931.0
 30
0.0
 11
152.0999999999999
 21
1931.0
 31
0.0
  0
LINE
  5
25E
330
1E
100
AcDbEntity
  8
0
100
AcDbLine
 10
149.1999999999999
 20
1930.5
 30
0.0
 11
151.3
 21
1930.5
 31
0.0
  0
LINE
  5
25F
330
1E
100
AcDbEntity
  8
0
100
AcDbLine
 10
151.3
 20
1930.5
 30
0.0
 11
152.5
 21
1930.5
 31
0.0
  0
LINE
  5
260
330
1E
100
AcDbEntity
  8
0
100
AcDbLine
 10
149.1999999999999
 20
1759.5
 30
0.0
 11
151.3
 21
1759.5
 31
0.0
  0
LINE
  5
261
330
1E
100
AcDbEntity
  8
0
100
AcDbLine
 10
152.0999999999999
 20
1931.0
 30
0.0
 11
152.5
 21
1931.0
 31
0.0
  0
LINE
  5
262
330
1E
100
AcDbEntity
  8
0
100
AcDbLine
 10
151.3
 20
1759.5
 30
0.0
 11
152.5
 21
1759.5
 31
0.0
  0
LINE
  5
263
330
1E
100
AcDbEntity
  8
0
100
AcDbLine
 10
149.2649999999999
 20
1759.0
 30
0.0
 11
151.12
 21
1759.0
 31
0.0
  0
LINE
  5
264
330
1E
100
AcDbEntity
  8
0
100
AcDbLine
 10
146.782
 20
1759.0
 30
0.0
 11
149.2649999999999
 21
1759.0
 31
0.0
  0
LINE
  5
265
330
1E
100
AcDbEntity
  8
0
100
AcDbLine
 10
147.001
 20
1758.5
 30
0.0
 11
149.674
 21
1758.5
 31
0.0
  0
LINE
  5
266
330
1E
100
AcDbEntity
  8
0
100
AcDbLine
 10
144.0169999999999
 20
1758.5
 30
0.0
 11
147.001
 21
1758.5
 31
0.0
  0
LINE
  5
267
330
1E
100
AcDbEntity
  8
0
100
AcDbLine
 10
147.001
 20
1589.5
 30
0.0
 11
149.674
 21
1589.5
 31
0.0
  0
LINE
  5
268
330
1E
100
AcDbEntity
  8
0
100
AcDbLine
 10
144.0169999999999
 20
1589.5
 30
0.0
 11
147.001
 21
1589.5
 31
0.0
  0
LINE
  5
269
330
1E
100
AcDbEntity
  8
0
100
AcDbLine
 10
152.373
 20
1589.0
 30
0.0
 11
152.4629999999999
 21
1589.0
 31
0.0
  0
LINE
  5
26A
330
1E
100
AcDbEntity
  8
0
100
AcDbLine
 10
152.373
 20
1589.0
 30
0.0
 11
152.432
 21
1589.0
 31
0.0
  0
LINE
  5
26B
330
1E
100
AcDbEntity
  8
0
100
AcDbLine
 10
152.962
 20
1418.5
 30
0.0
 11
152.962
 21
1375.0
 31
0.0
  0
LINE
  5
26C
330
1E
100
AcDbEntity
  8
0
100
AcDbLine
 10
152.962
 20
1375.0
 30
0.0
 11
152.962
 21
1418.5
 31
0.0
  0
LINE
  5
26D
330
1E
100
AcDbEntity
  8
0
100
AcDbLine
 10
152.962
 20
1375.0
 30
0.0
 11
153.3739999999999
 21
1367.7
 31
0.0
  0
LINE
  5
26E
330
1E
100
AcDbEntity
  8
0
100
AcDbLine
 10
152.962
 20
1259.0
 30
0.0
 11
152.962
 21
1249.5
 31
0.0
  0
LINE
  5
26F
330
1E
100
AcDbEntity
  8
0
100
AcDbLine
 10
152.962
 20
1249.5
 30
0.0
 11
152.962
 21
1259.0
 31
0.0
  0
LINE
  5
270
330
1E
100
AcDbEntity
  8
0
100
AcDbLine
 10
152.962
 20
1419.5
 30
0.0
 11
152.962
 21
1429.0
 31
0.0
  0
LINE
  5
271
330
1E
100
AcDbEntity
  8
0
100
AcDbLine
 10
152.962
 20
1429.0
 30
0.0
 11
152.962
 21
1419.5
 31
0.0
  0
LINE
  5
272
330
1E
100
AcDbEntity
  8
0
100
AcDbLine
 10
152.962
 20
1429.0
 30
0.0
 11
152.962
 21
1545.0
 31
0.0
  0
LINE
  5
273
330
1E
100
AcDbEntity
  8
0
100
AcDbLine
 10
152.8509999999999
 20
1419.5
 30
0.0
 11
152.962
 21
1419.5
 31
0.0
  0
LINE
  5
274
330
1E
100
AcDbEntity
  8
0
100
AcDbLine
 10
152.962
 20
1545.0
 30
0.0
 11
152.962
 21
1588.499999999999
 31
0.0
  0
LINE
  5
275
330
1E
100
AcDbEntity
  8
0
100
AcDbLine
 10
156.314791482576
 20
1358.02731679062
 30
0.0
 11
158.312216329116
 21
1360.17923858662
 31
0.0
  0
LINE
  5
277
330
1E
100
AcDbEntity
  8
0
100
AcDbLine
 10
155.5819999999999
 20
1359.68
 30
0.0
 11
156.314791482576
 21
1358.02731679062
 31
0.0
  0
LINE
  5
278
330
1E
100
AcDbEntity
  8
0
100
AcDbLine
 10
153.3739999999999
 20
1367.7
 30
0.0
 11
155.5819999999999
 21
1359.68
 31
0.0
  0
LINE
  5
279
330
1E
100
AcDbEntity
  8
0
100
AcDbLine
 10
158.312216329116
 20
1360.17923858662
 30
0.0
 11
171.12
 21
1387.65
 31
0.0
  0
LINE
  5
27B
330
1E
100
AcDbEntity
  8
0
100
AcDbLine
 10
171.12
 20
1387.65
 30
0.0
 11
184.8059999999999
 21
1417.4
 31
0.0
  0
LINE
  5
27C
330
1E
100
AcDbEntity
  8
0
100
AcDbLine
 10
185.74
 20
1418.3
 30
0.0
 11
187.212
 21
1418.8
 31
0.0
  0
LINE
  5
27D
330
1E
100
AcDbEntity
  8
0
100
AcDbLine
 10
184.8059999999999
 20
1417.4
 30
0.0
 11
185.74
 21
1418.3
 31
0.0
  0
LINE
  5
27E
330
1E
100
AcDbEntity
  8
0
100
AcDbLine
 10
187.212
 20
1418.8
 30
0.0
 11
189.139
 21
1419.0
 31
0.0
  0
LINE
  5
27F
330
1E
100
AcDbEntity
  8
0
100
AcDbLine
 10
189.139
 20
1419.0
 30
0.0
 11
191.4189999999999
 21
1418.8
 31
0.0
  0
LINE
  5
280
330
1E
100
AcDbEntity
  8
0
100
AcDbLine
 10
191.4189999999999
 20
1418.8
 30
0.0
 11
193.83
 21
1418.3
 31
0.0
  0
LINE
  5
281
330
1E
100
AcDbEntity
  8
0
100
AcDbLine
 10
193.83
 20
1418.3
 30
0.0
 11
196.294
 21
1417.4
 31
0.0
  0
LINE
  5
282
330
1E
100
AcDbEntity
  8
0
100
AcDbLine
 10
196.294
 20
1417.4
 30
0.0
 11
198.587
 21
1416.2
 31
0.0
  0
LINE
  5
283
330
1E
100
AcDbEntity
  8
0
100
AcDbLine
 10
198.587
 20
1416.2
 30
0.0
 11
200.4909999999999
 21
1414.8
 31
0.0
  0
LINE
  5
284
330
1E
100
AcDbEntity
  8
0
100
AcDbLine
 10
200.4909999999999
 20
1414.8
 30
0.0
 11
202.1079999999999
 21
1413.3
 31
0.0
  0
LINE
  5
285
330
1E
100
AcDbEntity
  8
0
100
AcDbLine
 10
190.487
 20
1379.05
 30
0.0
 11
203.112
 21
1409.299999999999
 31
0.0
  0
LINE
  5
286
330
1E
100
AcDbEntity
  8
0
100
AcDbLine
 10
203.112
 20
1409.299999999999
 30
0.0
 11
203.407
 21
1410.5
 31
0.0
  0
LINE
  5
287
330
1E
100
AcDbEntity
  8
0
100
AcDbLine
 10
202.96
 20
1411.8
 30
0.0
 11
203.407
 21
1410.5
 31
0.0
  0
LINE
  5
288
330
1E
100
AcDbEntity
  8
0
100
AcDbLine
 10
202.1079999999999
 20
1413.3
 30
0.0
 11
202.96
 21
1411.8
 31
0.0
  0
LINE
  5
289
330
1E
100
AcDbEntity
  8
0
100
AcDbLine
 10
178.972
 20
1350.57
 30
0.0
 11
190.487
 21
1379.05
 31
0.0
  0
LINE
  5
28A
330
1E
100
AcDbEntity
  8
0
100
AcDbLine
 10
168.9499999999999
 20
1326.74
 30
0.0
 11
178.972
 21
1350.57
 31
0.0
  0
LINE
  5
28B
330
1E
100
AcDbEntity
  8
0
100
AcDbLine
 10
162.78
 20
1310.92
 30
0.0
 11
168.9499999999999
 21
1326.74
 31
0.0
  0
LINE
  5
28C
330
1E
100
AcDbEntity
  8
0
100
AcDbLine
 10
157.8859999999999
 20
1295.84
 30
0.0
 11
162.78
 21
1310.92
 31
0.0
  0
LINE
  5
28D
330
1E
100
AcDbEntity
  8
0
100
AcDbLine
 10
154.2829999999999
 20
1278.2
 30
0.0
 11
157.8859999999999
 21
1295.84
 31
0.0
  0
LINE
  5
28E
330
1E
100
AcDbEntity
  8
0
100
AcDbLine
 10
152.962
 20
1588.499999999999
 30
0.0
 11
152.962
 21
1545.0
 31
0.0
  0
LINE
  5
28F
330
1E
100
AcDbEntity
  8
0
100
AcDbLine
 10
152.939
 20
1589.5
 30
0.0
 11
152.939
 21
1599.0
 31
0.0
  0
LINE
  5
290
330
1E
100
AcDbEntity
  8
0
100
AcDbLine
 10
152.756
 20
1589.5
 30
0.0
 11
152.939
 21
1589.5
 31
0.0
  0
LINE
  5
291
330
1E
100
AcDbEntity
  8
0
100
AcDbLine
 10
152.5
 20
1930.5
 30
0.0
 11
153.0
 21
1930.5
 31
0.0
  0
LINE
  5
292
330
1E
100
AcDbEntity
  8
0
100
AcDbLine
 10
152.5
 20
1759.5
 30
0.0
 11
153.0
 21
1759.5
 31
0.0
  0
LINE
  5
293
330
1E
100
AcDbEntity
  8
0
100
AcDbLine
 10
152.5
 20
1931.0
 30
0.0
 11
153.0
 21
1930.5
 31
0.0
  0
LINE
  5
294
330
1E
100
AcDbEntity
  8
0
100
AcDbLine
 10
152.5
 20
1759.0
 30
0.0
 11
153.0
 21
1759.5
 31
0.0
  0
LINE
  5
295
330
1E
100
AcDbEntity
  8
0
100
AcDbLine
 10
152.939
 20
1758.5
 30
0.0
 11
152.939
 21
1715.0
 31
0.0
  0
LINE
  5
296
330
1E
100
AcDbEntity
  8
0
100
AcDbLine
 10
152.756
 20
1758.5
 30
0.0
 11
152.939
 21
1758.5
 31
0.0
  0
LINE
  5
297
330
1E
100
AcDbEntity
  8
0
100
AcDbLine
 10
152.939
 20
1599.0
 30
0.0
 11
152.939
 21
1715.0
 31
0.0
  0
LINE
  5
298
330
1E
100
AcDbEntity
  8
0
100
AcDbLine
 10
152.939
 20
1599.0
 30
0.0
 11
152.939
 21
1589.5
 31
0.0
  0
LINE
  5
299
330
1E
100
AcDbEntity
  8
0
100
AcDbLine
 10
153.0
 20
1930.5
 30
0.0
 11
153.0
 21
1759.5
 31
0.0
  0
LINE
  5
29A
330
1E
100
AcDbEntity
  8
0
100
AcDbLine
 10
153.0
 20
1759.5
 30
0.0
 11
153.0
 21
1930.5
 31
0.0
  0
LINE
  5
29B
330
1E
100
AcDbEntity
  8
0
100
AcDbLine
 10
152.939
 20
1715.0
 30
0.0
 11
152.939
 21
1599.0
 31
0.0
  0
LINE
  5
29C
330
1E
100
AcDbEntity
  8
0
100
AcDbLine
 10
152.939
 20
1715.0
 30
0.0
 11
152.939
 21
1758.5
 31
0.0
  0
LINE
  5
29D
330
1E
100
AcDbEntity
  8
0
100
AcDbLine
 10
152.8509999999999
 20
1588.499999999999
 30
0.0
 11
152.962
 21
1588.499999999999
 31
0.0
  0
LINE
  5
29E
330
1E
100
AcDbEntity
  8
0
100
AcDbLine
 10
152.4629999999999
 20
1589.0
 30
0.0
 11
152.962
 21
1588.499999999999
 31
0.0
  0
LINE
  5
29F
330
1E
100
AcDbEntity
  8
0
100
AcDbLine
 10
136.1369999999999
 20
1249.0
 30
0.0
 11
139.304
 21
1249.0
 31
0.0
  0
LINE
  5
2A0
330
1E
100
AcDbEntity
  8
0
100
AcDbLine
 10
135.983
 20
1248.499999999999
 30
0.0
 11
139.276
 21
1248.499999999999
 31
0.0
  0
LINE
  5
2A1
330
1E
100
AcDbEntity
  8
0
100
AcDbLine
 10
139.276
 20
1079.5
 30
0.0
 11
142.69
 21
1079.5
 31
0.0
  0
LINE
  5
2A2
330
1E
100
AcDbEntity
  8
0
100
AcDbLine
 10
135.983
 20
1079.5
 30
0.0
 11
139.276
 21
1079.5
 31
0.0
  0
LINE
  5
2A3
330
1E
100
AcDbEntity
  8
0
100
AcDbLine
 10
131.0999999999999
 20
1079.0
 30
0.0
 11
133.6999999999999
 21
1079.0
 31
0.0
  0
LINE
  5
2A4
330
1E
100
AcDbEntity
  8
0
100
AcDbLine
 10
129.0999999999999
 20
1079.0
 30
0.0
 11
131.0999999999999
 21
1079.0
 31
0.0
  0
LINE
  5
2A5
330
1E
100
AcDbEntity
  8
0
100
AcDbLine
 10
128.6999999999999
 20
1078.5
 30
0.0
 11
130.8
 21
1078.5
 31
0.0
  0
LINE
  5
2A6
330
1E
100
AcDbEntity
  8
0
100
AcDbLine
 10
127.9
 20
1079.0
 30
0.0
 11
129.0999999999999
 21
1079.0
 31
0.0
  0
LINE
  5
2A7
330
1E
100
AcDbEntity
  8
0
100
AcDbLine
 10
128.6999999999999
 20
909.5
 30
0.0
 11
130.8
 21
909.5
 31
0.0
  0
LINE
  5
2A8
330
1E
100
AcDbEntity
  8
0
100
AcDbLine
 10
127.5
 20
909.5
 30
0.0
 11
128.6999999999999
 21
909.5
 31
0.0
  0
LINE
  5
2A9
330
1E
100
AcDbEntity
  8
0
100
AcDbLine
 10
127.5
 20
909.0
 30
0.0
 11
127.9
 21
909.0
 31
0.0
  0
LINE
  5
2AA
330
1E
100
AcDbEntity
  8
0
100
AcDbLine
 10
127.0
 20
909.5
 30
0.0
 11
127.5
 21
909.5
 31
0.0
  0
LINE
  5
2AB
330
1E
100
AcDbEntity
  8
0
100
AcDbLine
 10
127.0
 20
909.5
 30
0.0
 11
127.5
 21
909.0
 31
0.0
  0
LINE
  5
2AC
330
1E
100
AcDbEntity
  8
0
100
AcDbLine
 10
127.0
 20
909.5
 30
0.0
 11
127.0
 21
919.0
 31
0.0
  0
LINE
  5
2B1
330
1E
100
AcDbEntity
  8
0
100
AcDbLine
 10
108.003111073494
 20
1698.41323096708
 30
0.0
 11
103.0929999999999
 21
1702.309999999999
 31
0.0
  0
LINE
  5
2B2
330
1E
100
AcDbEntity
  8
0
100
AcDbLine
 10
154.2829999999999
 20
1278.2
 30
0.0
 11
152.962
 21
1259.0
 31
0.0
  0
LINE
  5
2B3
330
1E
100
AcDbEntity
  8
0
100
AcDbLine
 10
171.996888926506
 20
1188.41323096708
 30
0.0
 11
176.907
 21
1192.309999999999
 31
0.0
  0
ENDSEC
  0
SECTION
  2
OBJECTS
  0
DICTIONARY
  5
C
330
0
100
AcDbDictionary
281
     1
  3
ACAD_GROUP
350
D
  3
ACAD_LAYOUT
350
19
  3
ACAD_MLINESTYLE
350
16
  3
ACAD_PLOTSETTINGS
350
18
  3
ACAD_PLOTSTYLENAME
350
E
  3
AcDbVariableDictionary
350
2B4
  0
DICTIONARY
  5
D
102
{ACAD_REACTORS
330
C
102
}
330
C
100
AcDbDictionary
281
     1
  0
DICTIONARY
  5
19
102
{ACAD_REACTORS
330
C
102
}
330
C
100
AcDbDictionary
281
     1
  3
Layout1
350
1D
  3
Model
350
21
  0
DICTIONARY
  5
16
102
{ACAD_REACTORS
330
C
102
}
330
C
100
AcDbDictionary
281
     1
  3
Standard
350
17
  0
DICTIONARY
  5
18
102
{ACAD_REACTORS
330
C
102
}
330
C
100
AcDbDictionary
281
     1
  0
ACDBDICTIONARYWDFLT
  5
E
102
{ACAD_REACTORS
330
C
102
}
330
C
100
AcDbDictionary
281
     1
  3
Normal
350
F
100
AcDbDictionaryWithDefault
340
F
  0
DICTIONARY
  5
2B4
102
{ACAD_REACTORS
330
C
102
}
330
C
100
AcDbDictionary
281
     1
  3
DIMASSOC
350
2B5
  0
LAYOUT
  5
1D
102
{ACAD_REACTORS
330
19
102
}
330
19
100
AcDbPlotSettings
  1

  2
hp deskjet 980c series
  4

  6

 40
0.0
 41
0.0
 42
0.0
 43
0.0
 44
0.0
 45
0.0
 46
0.0
 47
0.0
 48
0.0
 49
0.0
140
0.0
141
0.0
142
1.0
143
1.0
 70
   688
 72
     0
 73
     0
 74
     5
  7

 75
    16
147
1.0
148
0.0
149
0.0
100
AcDbLayout
  1
Layout1
 70
     1
 71
     1
 10
0.0
 20
0.0
 11
12.0
 21
9.0
 12
0.0
 22
0.0
 32
0.0
 14
1.000000000000000E+20
 24
1.000000000000000E+20
 34
1.000000000000000E+20
 15
-1.000000000000000E+20
 25
-1.000000000000000E+20
 35
-1.000000000000000E+20
146
0.0
 13
0.0
 23
0.0
 33
0.0
 16
1.0
 26
0.0
 36
0.0
 17
0.0
 27
1.0
 37
0.0
 76
     0
330
1A
  0
LAYOUT
  5
21
102
{ACAD_REACTORS
330
19
102
}
330
19
100
AcDbPlotSettings
  1

  2
hp deskjet 980c series
  4

  6

 40
0.0
 41
0.0
 42
0.0
 43
0.0
 44
0.0
 45
0.0
 46
0.0
 47
0.0
 48
0.0
 49
0.0
140
0.0
141
0.0
142
1.0
143
1.0
 70
  1712
 72
     0
 73
     0
 74
     0
  7

 75
     0
147
1.0
148
0.0
149
0.0
100
AcDbLayout
  1
Model
 70
     1
 71
     0
 10
0.0
 20
0.0
 11
12.0
 21
9.0
 12
0.0
 22
0.0
 32
0.0
 14
0.0
 24
0.0
 34
0.0
 15
0.0
 25
0.0
 35
0.0
146
0.0
 13
0.0
 23
0.0
 33
0.0
 16
1.0
 26
0.0
 36
0.0
 17
0.0
 27
1.0
 37
0.0
 76
     0
330
1E
  0
MLINESTYLE
  5
17
102
{ACAD_REACTORS
330
16
102
}
330
16
100
AcDbMlineStyle
  2
STANDARD
 70
     0
  3

 62
   256
 51
90.0
 52
90.0
 71
     2
 49
0.5
 62
   256
  6
BYLAYER
 49
-0.5
 62
   256
  6
BYLAYER
  0
ACDBPLACEHOLDER
  5
F
102
{ACAD_REACTORS
330
E
102
}
330
E
  0
DICTIONARYVAR
  5
2B5
102
{ACAD_REACTORS
330
2B4
102
}
330
2B4
100
DictionaryVariables
280
     0
  1
1
  0
ENDSEC
  0
EOF
