  0
SECTION
  2
HEADER
  9
$ACADVER
  1
AC1015
  9
$ACADMAINTVER
 70
    13
  9
$DWGCODEPAGE
  3
ANSI_1252
  9
$INSBASE
 10
0.0
 20
0.0
 30
0.0
  9
$EXTMIN
 10
0.0000000000000052
 20
-0.0000000000000043
 30
0.0
  9
$EXTMAX
 10
374.0
 20
200.0
 30
0.0
  9
$LIMMIN
 10
0.0
 20
0.0
  9
$LIMMAX
 10
12.0
 20
9.0
  9
$ORTHOMODE
 70
     0
  9
$REGENMODE
 70
     1
  9
$FILLMODE
 70
     1
  9
$QTEXTMODE
 70
     0
  9
$MIRRTEXT
 70
     1
  9
$LTSCALE
 40
1.0
  9
$ATTMODE
 70
     1
  9
$TEXTSIZE
 40
0.2
  9
$TRACEWID
 40
0.05
  9
$TEXTSTYLE
  7
Standard
  9
$CLAYER
  8
0
  9
$CELTYPE
  6
Continuous
  9
$CECOLOR
 62
   256
  9
$CELTSCALE
 40
1.0
  9
$DISPSILH
 70
     0
  9
$DIMSCALE
 40
1.0
  9
$DIMASZ
 40
0.18
  9
$DIMEXO
 40
0.0625
  9
$DIMDLI
 40
0.38
  9
$DIMRND
 40
0.0
  9
$DIMDLE
 40
0.0
  9
$DIMEXE
 40
0.18
  9
$DIMTP
 40
0.0
  9
$DIMTM
 40
0.0
  9
$DIMTXT
 40
0.18
  9
$DIMCEN
 40
0.09
  9
$DIMTSZ
 40
0.0
  9
$DIMTOL
 70
     0
  9
$DIMLIM
 70
     0
  9
$DIMTIH
 70
     1
  9
$DIMTOH
 70
     1
  9
$DIMSE1
 70
     0
  9
$DIMSE2
 70
     0
  9
$DIMTAD
 70
     0
  9
$DIMZIN
 70
     0
  9
$DIMBLK
  1

  9
$DIMASO
 70
     1
  9
$DIMSHO
 70
     1
  9
$DIMPOST
  1

  9
$DIMAPOST
  1

  9
$DIMALT
 70
     0
  9
$DIMALTD
 70
     2
  9
$DIMALTF
 40
25.4
  9
$DIMLFAC
 40
1.0
  9
$DIMTOFL
 70
     0
  9
$DIMTVP
 40
0.0
  9
$DIMTIX
 70
     0
  9
$DIMSOXD
 70
     0
  9
$DIMSAH
 70
     0
  9
$DIMBLK1
  1

  9
$DIMBLK2
  1

  9
$DIMSTYLE
  2
Standard
  9
$DIMCLRD
 70
     0
  9
$DIMCLRE
 70
     0
  9
$DIMCLRT
 70
     0
  9
$DIMTFAC
 40
1.0
  9
$DIMGAP
 40
0.09
  9
$DIMJUST
 70
     0
  9
$DIMSD1
 70
     0
  9
$DIMSD2
 70
     0
  9
$DIMTOLJ
 70
     1
  9
$DIMTZIN
 70
     0
  9
$DIMALTZ
 70
     0
  9
$DIMALTTZ
 70
     0
  9
$DIMUPT
 70
     0
  9
$DIMDEC
 70
     4
  9
$DIMTDEC
 70
     4
  9
$DIMALTU
 70
     2
  9
$DIMALTTD
 70
     2
  9
$DIMTXSTY
  7
Standard
  9
$DIMAUNIT
 70
     0
  9
$DIMADEC
 70
     0
  9
$DIMALTRND
 40
0.0
  9
$DIMAZIN
 70
     0
  9
$DIMDSEP
 70
    46
  9
$DIMATFIT
 70
     3
  9
$DIMFRAC
 70
     0
  9
$DIMLDRBLK
  1

  9
$DIMLUNIT
 70
     2
  9
$DIMLWD
 70
    -2
  9
$DIMLWE
 70
    -2
  9
$DIMTMOVE
 70
     0
  9
$LUNITS
 70
     2
  9
$LUPREC
 70
     4
  9
$SKETCHINC
 40
0.1
  9
$FILLETRAD
 40
0.0
  9
$AUNITS
 70
     0
  9
$AUPREC
 70
     0
  9
$MENU
  1
.
  9
$ELEVATION
 40
0.0
  9
$PELEVATION
 40
0.0
  9
$THICKNESS
 40
0.0
  9
$LIMCHECK
 70
     0
  9
$CHAMFERA
 40
0.0
  9
$CHAMFERB
 40
0.0
  9
$CHAMFERC
 40
0.0
  9
$CHAMFERD
 40
0.0
  9
$SKPOLY
 70
     0
  9
$TDCREATE
 40
2454753.409572291
  9
$TDUCREATE
 40
2454753.326238958
  9
$TDUPDATE
 40
2454753.417821898
  9
$TDUUPDATE
 40
2454753.334488564
  9
$TDINDWG
 40
0.0082496065
  9
$TDUSRTIMER
 40
0.0082496065
  9
$USRTIMER
 70
     1
  9
$ANGBASE
 50
0.0
  9
$ANGDIR
 70
     0
  9
$PDMODE
 70
     0
  9
$PDSIZE
 40
0.0
  9
$PLINEWID
 40
0.0
  9
$SPLFRAME
 70
     0
  9
$SPLINETYPE
 70
     6
  9
$SPLINESEGS
 70
     8
  9
$HANDSEED
  5
458
  9
$SURFTAB1
 70
     6
  9
$SURFTAB2
 70
     6
  9
$SURFTYPE
 70
     6
  9
$SURFU
 70
     6
  9
$SURFV
 70
     6
  9
$UCSBASE
  2

  9
$UCSNAME
  2

  9
$UCSORG
 10
0.0
 20
0.0
 30
0.0
  9
$UCSXDIR
 10
1.0
 20
0.0
 30
0.0
  9
$UCSYDIR
 10
0.0
 20
1.0
 30
0.0
  9
$UCSORTHOREF
  2

  9
$UCSORTHOVIEW
 70
     1
  9
$UCSORGTOP
 10
0.0
 20
0.0
 30
0.0
  9
$UCSORGBOTTOM
 10
0.0
 20
0.0
 30
0.0
  9
$UCSORGLEFT
 10
0.0
 20
0.0
 30
0.0
  9
$UCSORGRIGHT
 10
0.0
 20
0.0
 30
0.0
  9
$UCSORGFRONT
 10
0.0
 20
0.0
 30
0.0
  9
$UCSORGBACK
 10
0.0
 20
0.0
 30
0.0
  9
$PUCSBASE
  2

  9
$PUCSNAME
  2

  9
$PUCSORG
 10
0.0
 20
0.0
 30
0.0
  9
$PUCSXDIR
 10
1.0
 20
0.0
 30
0.0
  9
$PUCSYDIR
 10
0.0
 20
1.0
 30
0.0
  9
$PUCSORTHOREF
  2

  9
$PUCSORTHOVIEW
 70
     0
  9
$PUCSORGTOP
 10
0.0
 20
0.0
 30
0.0
  9
$PUCSORGBOTTOM
 10
0.0
 20
0.0
 30
0.0
  9
$PUCSORGLEFT
 10
0.0
 20
0.0
 30
0.0
  9
$PUCSORGRIGHT
 10
0.0
 20
0.0
 30
0.0
  9
$PUCSORGFRONT
 10
0.0
 20
0.0
 30
0.0
  9
$PUCSORGBACK
 10
0.0
 20
0.0
 30
0.0
  9
$USERI1
 70
     0
  9
$USERI2
 70
     0
  9
$USERI3
 70
     0
  9
$USERI4
 70
     0
  9
$USERI5
 70
     0
  9
$USERR1
 40
0.0
  9
$USERR2
 40
0.0
  9
$USERR3
 40
0.0
  9
$USERR4
 40
0.0
  9
$USERR5
 40
0.0
  9
$WORLDVIEW
 70
     1
  9
$SHADEDGE
 70
     3
  9
$SHADEDIF
 70
    70
  9
$TILEMODE
 70
     1
  9
$MAXACTVP
 70
    64
  9
$PINSBASE
 10
0.0
 20
0.0
 30
0.0
  9
$PLIMCHECK
 70
     0
  9
$PEXTMIN
 10
1.000000000000000E+20
 20
1.000000000000000E+20
 30
1.000000000000000E+20
  9
$PEXTMAX
 10
-1.000000000000000E+20
 20
-1.000000000000000E+20
 30
-1.000000000000000E+20
  9
$PLIMMIN
 10
0.0
 20
0.0
  9
$PLIMMAX
 10
12.0
 20
9.0
  9
$UNITMODE
 70
     0
  9
$VISRETAIN
 70
     1
  9
$PLINEGEN
 70
     0
  9
$PSLTSCALE
 70
     1
  9
$TREEDEPTH
 70
  3020
  9
$CMLSTYLE
  2
Standard
  9
$CMLJUST
 70
     0
  9
$CMLSCALE
 40
1.0
  9
$PROXYGRAPHICS
 70
     1
  9
$MEASUREMENT
 70
     0
  9
$CELWEIGHT
370
    -1
  9
$ENDCAPS
280
     0
  9
$JOINSTYLE
280
     0
  9
$LWDISPLAY
290
     0
  9
$INSUNITS
 70
     0
  9
$HYPERLINKBASE
  1

  9
$STYLESHEET
  1

  9
$XEDIT
290
     1
  9
$CEPSNTYPE
380
     0
  9
$PSTYLEMODE
290
     1
  9
$FINGERPRINTGUID
  2
{BC53550E-4914-4634-B5C8-3A394D16AC90}
  9
$VERSIONGUID
  2
{A911A177-F555-4818-B91A-CBB0D3C844E6}
  9
$EXTNAMES
290
     1
  9
$PSVPSCALE
 40
0.0
  9
$OLESTARTUP
290
     0
  0
ENDSEC
  0
SECTION
  2
CLASSES
  0
CLASS
  1
ACDBDICTIONARYWDFLT
  2
AcDbDictionaryWithDefault
  3
AutoCAD 2000
 90
        0
280
     0
281
     0
  0
CLASS
  1
ACDBPLACEHOLDER
  2
AcDbPlaceHolder
  3
AutoCAD 2000
 90
        0
280
     0
281
     0
  0
CLASS
  1
LAYOUT
  2
AcDbLayout
  3
AutoCAD 2000
 90
        0
280
     0
281
     0
  0
CLASS
  1
DICTIONARYVAR
  2
AcDbDictionaryVar
  3
AutoCAD 2000
 90
        0
280
     0
281
     0
  0
ENDSEC
  0
SECTION
  2
TABLES
  0
TABLE
  2
VPORT
  5
8
330
0
100
AcDbSymbolTable
 70
     2
  0
VPORT
  5
457
330
8
100
AcDbSymbolTableRecord
100
AcDbViewportTableRecord
  2
*Active
 70
     0
 10
0.0
 20
0.0
 11
1.0
 21
1.0
 12
187.0
 22
100.0
 13
0.0
 23
0.0
 14
1.0
 24
1.0
 15
0.0
 25
0.0
 16
0.0
 26
0.0
 36
1.0
 17
0.0
 27
0.0
 37
0.0
 40
201.5345268542199
 41
2.078104993597951
 42
50.0
 43
0.0
 44
0.0
 50
0.0
 51
0.0
 71
     0
 72
   100
 73
     1
 74
     3
 75
     0
 76
     0
 77
     0
 78
     0
281
     0
 65
     1
110
0.0
120
0.0
130
0.0
111
1.0
121
0.0
131
0.0
112
0.0
122
1.0
132
0.0
 79
     1
146
0.0
  0
ENDTAB
  0
TABLE
  2
LTYPE
  5
5
330
0
100
AcDbSymbolTable
 70
     1
  0
LTYPE
  5
13
330
5
100
AcDbSymbolTableRecord
100
AcDbLinetypeTableRecord
  2
ByBlock
 70
     0
  3

 72
    65
 73
     0
 40
0.0
  0
LTYPE
  5
14
330
5
100
AcDbSymbolTableRecord
100
AcDbLinetypeTableRecord
  2
ByLayer
 70
     0
  3

 72
    65
 73
     0
 40
0.0
  0
LTYPE
  5
15
330
5
100
AcDbSymbolTableRecord
100
AcDbLinetypeTableRecord
  2
Continuous
 70
     0
  3
Solid line
 72
    65
 73
     0
 40
0.0
  0
ENDTAB
  0
TABLE
  2
LAYER
  5
2
330
0
100
AcDbSymbolTable
 70
     1
  0
LAYER
  5
10
330
2
100
AcDbSymbolTableRecord
100
AcDbLayerTableRecord
  2
0
 70
     0
 62
     7
  6
Continuous
370
    -3
390
F
  0
ENDTAB
  0
TABLE
  2
STYLE
  5
3
330
0
100
AcDbSymbolTable
 70
     1
  0
STYLE
  5
11
330
3
100
AcDbSymbolTableRecord
100
AcDbTextStyleTableRecord
  2
Standard
 70
     0
 40
0.0
 41
1.0
 50
0.0
 71
     0
 42
0.2
  3
txt
  4

  0
ENDTAB
  0
TABLE
  2
VIEW
  5
6
330
0
100
AcDbSymbolTable
 70
     0
  0
ENDTAB
  0
TABLE
  2
UCS
  5
7
330
0
100
AcDbSymbolTable
 70
     0
  0
ENDTAB
  0
TABLE
  2
APPID
  5
9
330
0
100
AcDbSymbolTable
 70
     1
  0
APPID
  5
12
330
9
100
AcDbSymbolTableRecord
100
AcDbRegAppTableRecord
  2
ACAD
 70
     0
  0
ENDTAB
  0
TABLE
  2
DIMSTYLE
  5
A
330
0
100
AcDbSymbolTable
 70
     1
100
AcDbDimStyleTable
 71
     0
  0
DIMSTYLE
105
44E
330
A
100
AcDbSymbolTableRecord
100
AcDbDimStyleTableRecord
  2
Standard
 70
     0
340
11
  0
ENDTAB
  0
TABLE
  2
BLOCK_RECORD
  5
1
330
0
100
AcDbSymbolTable
 70
     0
  0
BLOCK_RECORD
  5
1E
330
1
100
AcDbSymbolTableRecord
100
AcDbBlockTableRecord
  2
*Model_Space
340
21
  0
BLOCK_RECORD
  5
1A
330
1
100
AcDbSymbolTableRecord
100
AcDbBlockTableRecord
  2
*Paper_Space
340
1D
  0
ENDTAB
  0
ENDSEC
  0
SECTION
  2
BLOCKS
  0
BLOCK
  5
1F
330
1E
100
AcDbEntity
  8
0
100
AcDbBlockBegin
  2
*Model_Space
 70
     0
 10
0.0
 20
0.0
 30
0.0
  3
*Model_Space
  1

  0
ENDBLK
  5
20
330
1E
100
AcDbEntity
  8
0
100
AcDbBlockEnd
  0
BLOCK
  5
1B
330
1A
100
AcDbEntity
 67
     1
  8
0
100
AcDbBlockBegin
  2
*Paper_Space
 70
     0
 10
0.0
 20
0.0
 30
0.0
  3
*Paper_Space
  1

  0
ENDBLK
  5
1C
330
1A
100
AcDbEntity
 67
     1
  8
0
100
AcDbBlockEnd
  0
ENDSEC
  0
SECTION
  2
ENTITIES
  0
LINE
  5
22
330
1E
100
AcDbEntity
  8
0
100
AcDbLine
 10
22.29999999999999
 20
-0.0000000000000036
 30
0.0
 11
28.9
 21
-0.0000000000000038
 31
0.0
  0
LINE
  5
23
330
1E
100
AcDbEntity
  8
0
100
AcDbLine
 10
16.6
 20
-0.0000000000000033
 30
0.0
 11
22.29999999999999
 21
-0.0000000000000036
 31
0.0
  0
LINE
  5
24
330
1E
100
AcDbEntity
  8
0
100
AcDbLine
 10
12.19999999999999
 20
-0.000000000000003
 30
0.0
 11
16.6
 21
-0.0000000000000033
 31
0.0
  0
LINE
  5
25
330
1E
100
AcDbEntity
  8
0
100
AcDbLine
 10
9.500000000000008
 20
-0.0000000000000026
 30
0.0
 11
12.19999999999999
 21
-0.000000000000003
 31
0.0
  0
LINE
  5
26
330
1E
100
AcDbEntity
  8
0
100
AcDbLine
 10
6.500000000000009
 20
44.0
 30
0.0
 11
10.0
 21
43.5
 31
0.0
  0
LINE
  5
27
330
1E
100
AcDbEntity
  8
0
100
AcDbLine
 10
4.000000000000009
 20
45.0
 30
0.0
 11
6.500000000000009
 21
44.0
 31
0.0
  0
LINE
  5
28
330
1E
100
AcDbEntity
  8
0
100
AcDbLine
 10
2.00000000000001
 20
46.5
 30
0.0
 11
4.000000000000009
 21
45.0
 31
0.0
  0
LINE
  5
29
330
1E
100
AcDbEntity
  8
0
100
AcDbLine
 10
0.500000000000005
 20
48.5
 30
0.0
 11
2.00000000000001
 21
46.5
 31
0.0
  0
LINE
  5
2A
330
1E
100
AcDbEntity
  8
0
100
AcDbLine
 10
6.500000000000009
 20
58.0
 30
0.0
 11
10.0
 21
58.5
 31
0.0
  0
LINE
  5
2B
330
1E
100
AcDbEntity
  8
0
100
AcDbLine
 10
4.000000000000009
 20
57.0
 30
0.0
 11
6.500000000000009
 21
58.0
 31
0.0
  0
LINE
  5
2C
330
1E
100
AcDbEntity
  8
0
100
AcDbLine
 10
2.00000000000001
 20
55.5
 30
0.0
 11
4.000000000000009
 21
57.0
 31
0.0
  0
LINE
  5
2D
330
1E
100
AcDbEntity
  8
0
100
AcDbLine
 10
0.500000000000005
 20
53.5
 30
0.0
 11
2.00000000000001
 21
55.5
 31
0.0
  0
LINE
  5
2E
330
1E
100
AcDbEntity
  8
0
100
AcDbLine
 10
0.0000000000000052
 20
51.0
 30
0.0
 11
0.500000000000005
 21
53.5
 31
0.0
  0
LINE
  5
2F
330
1E
100
AcDbEntity
  8
0
100
AcDbLine
 10
0.0000000000000052
 20
51.0
 30
0.0
 11
0.500000000000005
 21
48.5
 31
0.0
  0
LINE
  5
30
330
1E
100
AcDbEntity
  8
0
100
AcDbLine
 10
10.0
 20
43.5
 30
0.0
 11
14.0
 21
43.79999999999999
 31
0.0
  0
LINE
  5
31
330
1E
100
AcDbEntity
  8
0
100
AcDbLine
 10
10.0
 20
58.5
 30
0.0
 11
14.0
 21
58.2
 31
0.0
  0
LINE
  5
32
330
1E
100
AcDbEntity
  8
0
100
AcDbLine
 10
12.0
 20
7.0
 30
0.0
 11
12.9
 21
7.0
 31
0.0
  0
LINE
  5
33
330
1E
100
AcDbEntity
  8
0
100
AcDbLine
 10
10.0
 20
5.0
 30
0.0
 11
12.0
 21
7.0
 31
0.0
  0
LINE
  5
34
330
1E
100
AcDbEntity
  8
0
100
AcDbLine
 10
9.000000000000008
 20
3.0
 30
0.0
 11
10.0
 21
5.0
 31
0.0
  0
LINE
  5
35
330
1E
100
AcDbEntity
  8
0
100
AcDbLine
 10
14.0
 20
9.5
 30
0.0
 11
14.0
 21
8.0
 31
0.0
  0
LINE
  5
37
330
1E
100
AcDbEntity
  8
0
100
AcDbLine
 10
14.0
 20
9.5
 30
0.0
 11
15.0
 21
10.5
 31
0.0
  0
LINE
  5
38
330
1E
100
AcDbEntity
  8
0
100
AcDbLine
 10
14.0
 20
8.0
 30
0.0
 11
15.0
 21
7.0
 31
0.0
  0
LINE
  5
3A
330
1E
100
AcDbEntity
  8
0
100
AcDbLine
 10
14.0
 20
8.0
 30
0.0
 11
14.0
 21
9.5
 31
0.0
  0
LINE
  5
3B
330
1E
100
AcDbEntity
  8
0
100
AcDbLine
 10
15.0
 20
10.5
 30
0.0
 11
15.8
 21
10.5
 31
0.0
  0
LINE
  5
3E
330
1E
100
AcDbEntity
  8
0
100
AcDbLine
 10
14.0
 20
43.79999999999999
 30
0.0
 11
17.0
 21
44.0
 31
0.0
  0
LINE
  5
3F
330
1E
100
AcDbEntity
  8
0
100
AcDbLine
 10
14.0
 20
58.2
 30
0.0
 11
17.0
 21
58.0
 31
0.0
  0
LINE
  5
40
330
1E
100
AcDbEntity
  8
0
100
AcDbLine
 10
15.8
 20
10.5
 30
0.0
 11
17.8
 21
10.5
 31
0.0
  0
LINE
  5
42
330
1E
100
AcDbEntity
  8
0
100
AcDbLine
 10
17.8
 20
10.5
 30
0.0
 11
21.2
 21
10.5
 31
0.0
  0
LINE
  5
43
330
1E
100
AcDbEntity
  8
0
100
AcDbLine
 10
21.2
 20
10.5
 30
0.0
 11
25.5
 21
10.5
 31
0.0
  0
LINE
  5
47
330
1E
100
AcDbEntity
  8
0
100
AcDbLine
 10
17.0
 20
44.0
 30
0.0
 11
21.0
 21
45.0
 31
0.0
  0
LINE
  5
48
330
1E
100
AcDbEntity
  8
0
100
AcDbLine
 10
17.0
 20
58.0
 30
0.0
 11
21.0
 21
57.0
 31
0.0
  0
LINE
  5
49
330
1E
100
AcDbEntity
  8
0
100
AcDbLine
 10
21.0
 20
45.0
 30
0.0
 11
24.0
 21
46.12499999999999
 31
0.0
  0
LINE
  5
4A
330
1E
100
AcDbEntity
  8
0
100
AcDbLine
 10
21.0
 20
57.0
 30
0.0
 11
23.9803921568628
 21
55.8823529411765
 31
0.0
  0
LINE
  5
4B
330
1E
100
AcDbEntity
  8
0
100
AcDbLine
 10
21.49999999999999
 20
29.0
 30
0.0
 11
24.0
 21
34.0
 31
0.0
  0
LINE
  5
4C
330
1E
100
AcDbEntity
  8
0
100
AcDbLine
 10
19.0
 20
23.0
 30
0.0
 11
21.49999999999999
 21
29.0
 31
0.0
  0
LINE
  5
4D
330
1E
100
AcDbEntity
  8
0
100
AcDbLine
 10
17.0
 20
16.5
 30
0.0
 11
19.0
 21
23.0
 31
0.0
  0
LINE
  5
4E
330
1E
100
AcDbEntity
  8
0
100
AcDbLine
 10
16.0
 20
10.5
 30
0.0
 11
17.0
 21
16.5
 31
0.0
  0
LINE
  5
4F
330
1E
100
AcDbEntity
  8
0
100
AcDbLine
 10
19.1
 20
7.0
 30
0.0
 11
24.0
 21
7.0
 31
0.0
  0
LINE
  5
50
330
1E
100
AcDbEntity
  8
0
100
AcDbLine
 10
15.2
 20
7.0
 30
0.0
 11
19.1
 21
7.0
 31
0.0
  0
LINE
  5
51
330
1E
100
AcDbEntity
  8
0
100
AcDbLine
 10
12.9
 20
7.0
 30
0.0
 11
15.2
 21
7.0
 31
0.0
  0
LINE
  5
52
330
1E
100
AcDbEntity
  8
0
100
AcDbLine
 10
23.9803921568628
 20
55.8823529411765
 30
0.0
 11
24.0
 21
56.0
 31
0.0
  0
LINE
  5
53
330
1E
100
AcDbEntity
  8
0
100
AcDbLine
 10
24.0
 20
56.0
 30
0.0
 11
25.0
 21
59.0
 31
0.0
  0
LINE
  5
54
330
1E
100
AcDbEntity
  8
0
100
AcDbLine
 10
23.9803921568628
 20
46.11764705882349
 30
0.0
 11
24.0
 21
46.0
 31
0.0
  0
LINE
  5
55
330
1E
100
AcDbEntity
  8
0
100
AcDbLine
 10
24.0
 20
46.0
 30
0.0
 11
25.0
 21
43.0
 31
0.0
  0
LINE
  5
5A
330
1E
100
AcDbEntity
  8
0
100
AcDbLine
 10
24.5
 20
60.5
 30
0.0
 11
24.5
 21
59.5
 31
0.0
  0
LINE
  5
5C
330
1E
100
AcDbEntity
  8
0
100
AcDbLine
 10
24.5
 20
60.5
 30
0.0
 11
25.0
 21
61.0
 31
0.0
  0
LINE
  5
5D
330
1E
100
AcDbEntity
  8
0
100
AcDbLine
 10
24.5
 20
59.5
 30
0.0
 11
25.0
 21
59.0
 31
0.0
  0
LINE
  5
5F
330
1E
100
AcDbEntity
  8
0
100
AcDbLine
 10
24.5
 20
59.5
 30
0.0
 11
24.5
 21
60.5
 31
0.0
  0
LINE
  5
60
330
1E
100
AcDbEntity
  8
0
100
AcDbLine
 10
25.4
 20
59.0
 30
0.0
 11
26.5
 21
59.0
 31
0.0
  0
LINE
  5
61
330
1E
100
AcDbEntity
  8
0
100
AcDbLine
 10
25.0
 20
59.0
 30
0.0
 11
25.4
 21
59.0
 31
0.0
  0
LINE
  5
62
330
1E
100
AcDbEntity
  8
0
100
AcDbLine
 10
25.0
 20
43.0
 30
0.0
 11
27.0
 21
40.0
 31
0.0
  0
LINE
  5
63
330
1E
100
AcDbEntity
  8
0
100
AcDbLine
 10
24.0
 20
34.0
 30
0.0
 11
27.0
 21
37.0
 31
0.0
  0
LINE
  5
64
330
1E
100
AcDbEntity
  8
0
100
AcDbLine
 10
24.0
 20
7.0
 30
0.0
 11
29.8
 21
7.0
 31
0.0
  0
LINE
  5
65
330
1E
100
AcDbEntity
  8
0
100
AcDbLine
 10
22.29999999999999
 20
-0.0000000000000007
 30
0.0
 11
28.9
 21
-0.0000000000000005
 31
0.0
  0
LINE
  5
66
330
1E
100
AcDbEntity
  8
0
100
AcDbLine
 10
16.6
 20
-0.000000000000001
 30
0.0
 11
22.29999999999999
 21
-0.0000000000000007
 31
0.0
  0
LINE
  5
67
330
1E
100
AcDbEntity
  8
0
100
AcDbLine
 10
12.19999999999999
 20
-0.0000000000000013
 30
0.0
 11
16.6
 21
-0.000000000000001
 31
0.0
  0
LINE
  5
68
330
1E
100
AcDbEntity
  8
0
100
AcDbLine
 10
9.500000000000008
 20
-0.0000000000000017
 30
0.0
 11
12.19999999999999
 21
-0.0000000000000013
 31
0.0
  0
LINE
  5
69
330
1E
100
AcDbEntity
  8
0
100
AcDbLine
 10
8.500000000000008
 20
-0.0000000000000021
 30
0.0
 11
9.000000000000008
 21
3.0
 31
0.0
  0
LINE
  5
6A
330
1E
100
AcDbEntity
  8
0
100
AcDbLine
 10
8.500000000000008
 20
-0.0000000000000021
 30
0.0
 11
9.500000000000008
 21
-0.0000000000000017
 31
0.0
  0
LINE
  5
6B
330
1E
100
AcDbEntity
  8
0
100
AcDbLine
 10
8.500000000000008
 20
-0.0000000000000021
 30
0.0
 11
9.500000000000008
 21
-0.0000000000000026
 31
0.0
  0
LINE
  5
6C
330
1E
100
AcDbEntity
  8
0
100
AcDbLine
 10
8.500000000000008
 20
-0.0000000000000021
 30
0.0
 11
9.000000000000008
 21
3.0
 31
0.0
  0
LINE
  5
6D
330
1E
100
AcDbEntity
  8
0
100
AcDbLine
 10
25.5
 20
10.5
 30
0.0
 11
30.6
 21
10.5
 31
0.0
  0
LINE
  5
6E
330
1E
100
AcDbEntity
  8
0
100
AcDbLine
 10
28.2
 20
37.0
 30
0.0
 11
29.6
 21
37.0
 31
0.0
  0
LINE
  5
6F
330
1E
100
AcDbEntity
  8
0
100
AcDbLine
 10
27.3
 20
37.0
 30
0.0
 11
28.2
 21
37.0
 31
0.0
  0
LINE
  5
70
330
1E
100
AcDbEntity
  8
0
100
AcDbLine
 10
26.0
 20
39.0
 30
0.0
 11
26.0
 21
38.0
 31
0.0
  0
LINE
  5
72
330
1E
100
AcDbEntity
  8
0
100
AcDbLine
 10
26.0
 20
39.0
 30
0.0
 11
27.0
 21
40.0
 31
0.0
  0
LINE
  5
75
330
1E
100
AcDbEntity
  8
0
100
AcDbLine
 10
26.0
 20
38.0
 30
0.0
 11
27.0
 21
37.0
 31
0.0
  0
LINE
  5
77
330
1E
100
AcDbEntity
  8
0
100
AcDbLine
 10
26.0
 20
38.0
 30
0.0
 11
26.0
 21
39.0
 31
0.0
  0
LINE
  5
7A
330
1E
100
AcDbEntity
  8
0
100
AcDbLine
 10
26.5
 20
59.0
 30
0.0
 11
28.2
 21
59.0
 31
0.0
  0
LINE
  5
7D
330
1E
100
AcDbEntity
  8
0
100
AcDbLine
 10
28.2
 20
40.0
 30
0.0
 11
29.6
 21
40.0
 31
0.0
  0
LINE
  5
80
330
1E
100
AcDbEntity
  8
0
100
AcDbLine
 10
28.2
 20
59.0
 30
0.0
 11
30.5
 21
59.0
 31
0.0
  0
LINE
  5
81
330
1E
100
AcDbEntity
  8
0
100
AcDbLine
 10
27.3
 20
40.0
 30
0.0
 11
28.2
 21
40.0
 31
0.0
  0
LINE
  5
82
330
1E
100
AcDbEntity
  8
0
100
AcDbLine
 10
27.0
 20
40.0
 30
0.0
 11
27.3
 21
40.0
 31
0.0
  0
LINE
  5
83
330
1E
100
AcDbEntity
  8
0
100
AcDbLine
 10
27.0
 20
37.0
 30
0.0
 11
27.3
 21
37.0
 31
0.0
  0
LINE
  5
84
330
1E
100
AcDbEntity
  8
0
100
AcDbLine
 10
28.9
 20
-0.0000000000000038
 30
0.0
 11
36.0
 21
-0.0000000000000038
 31
0.0
  0
LINE
  5
87
330
1E
100
AcDbEntity
  8
0
100
AcDbLine
 10
29.5
 20
47.2
 30
0.0
 11
30.7
 21
45.7
 31
0.0
  0
LINE
  5
88
330
1E
100
AcDbEntity
  8
0
100
AcDbLine
 10
28.8
 20
49.0
 30
0.0
 11
29.5
 21
47.2
 31
0.0
  0
LINE
  5
89
330
1E
100
AcDbEntity
  8
0
100
AcDbLine
 10
29.5
 20
54.8
 30
0.0
 11
30.7
 21
56.29999999999999
 31
0.0
  0
LINE
  5
8A
330
1E
100
AcDbEntity
  8
0
100
AcDbLine
 10
28.8
 20
53.0
 30
0.0
 11
29.5
 21
54.8
 31
0.0
  0
LINE
  5
8B
330
1E
100
AcDbEntity
  8
0
100
AcDbLine
 10
28.5
 20
51.0
 30
0.0
 11
28.8
 21
53.0
 31
0.0
  0
LINE
  5
8C
330
1E
100
AcDbEntity
  8
0
100
AcDbLine
 10
28.5
 20
51.0
 30
0.0
 11
28.8
 21
49.0
 31
0.0
  0
LINE
  5
8D
330
1E
100
AcDbEntity
  8
0
100
AcDbLine
 10
29.6
 20
40.0
 30
0.0
 11
31.5
 21
40.0
 31
0.0
  0
LINE
  5
8E
330
1E
100
AcDbEntity
  8
0
100
AcDbLine
 10
29.6
 20
37.0
 30
0.0
 11
31.5
 21
37.0
 31
0.0
  0
LINE
  5
90
330
1E
100
AcDbEntity
  8
0
100
AcDbLine
 10
30.6
 20
10.5
 30
0.0
 11
36.0
 21
10.5
 31
0.0
  0
LINE
  5
92
330
1E
100
AcDbEntity
  8
0
100
AcDbLine
 10
30.7
 20
45.7
 30
0.0
 11
32.2
 21
44.5
 31
0.0
  0
LINE
  5
95
330
1E
100
AcDbEntity
  8
0
100
AcDbLine
 10
30.7
 20
56.29999999999999
 30
0.0
 11
32.2
 21
57.5
 31
0.0
  0
LINE
  5
98
330
1E
100
AcDbEntity
  8
0
100
AcDbLine
 10
30.5
 20
59.0
 30
0.0
 11
33.2
 21
59.0
 31
0.0
  0
LINE
  5
99
330
1E
100
AcDbEntity
  8
0
100
AcDbLine
 10
32.2
 20
44.5
 30
0.0
 11
34.0
 21
43.79999999999999
 31
0.0
  0
LINE
  5
9A
330
1E
100
AcDbEntity
  8
0
100
AcDbLine
 10
32.2
 20
57.5
 30
0.0
 11
34.0
 21
58.2
 31
0.0
  0
LINE
  5
9D
330
1E
100
AcDbEntity
  8
0
100
AcDbLine
 10
33.2
 20
59.0
 30
0.0
 11
36.0
 21
59.0
 31
0.0
  0
LINE
  5
9E
330
1E
100
AcDbEntity
  8
0
100
AcDbLine
 10
31.5
 20
40.0
 30
0.0
 11
33.7
 21
40.0
 31
0.0
  0
LINE
  5
9F
330
1E
100
AcDbEntity
  8
0
100
AcDbLine
 10
31.5
 20
37.0
 30
0.0
 11
33.7
 21
37.0
 31
0.0
  0
LINE
  5
A0
330
1E
100
AcDbEntity
  8
0
100
AcDbLine
 10
29.8
 20
7.0
 30
0.0
 11
36.0
 21
7.0
 31
0.0
  0
LINE
  5
A1
330
1E
100
AcDbEntity
  8
0
100
AcDbLine
 10
28.9
 20
-0.0000000000000005
 30
0.0
 11
36.0
 21
-0.0000000000000005
 31
0.0
  0
LINE
  5
A2
330
1E
100
AcDbEntity
  8
0
100
AcDbLine
 10
36.0
 20
-0.0000000000000038
 30
0.0
 11
43.1
 21
-0.0000000000000038
 31
0.0
  0
LINE
  5
A3
330
1E
100
AcDbEntity
  8
0
100
AcDbLine
 10
36.0
 20
10.5
 30
0.0
 11
41.39999999999999
 21
10.5
 31
0.0
  0
LINE
  5
A6
330
1E
100
AcDbEntity
  8
0
100
AcDbLine
 10
36.0
 20
37.0
 30
0.0
 11
38.3
 21
37.0
 31
0.0
  0
LINE
  5
A7
330
1E
100
AcDbEntity
  8
0
100
AcDbLine
 10
36.0
 20
7.0
 30
0.0
 11
42.2
 21
7.0
 31
0.0
  0
LINE
  5
A8
330
1E
100
AcDbEntity
  8
0
100
AcDbLine
 10
36.0
 20
-0.0000000000000005
 30
0.0
 11
43.1
 21
-0.0000000000000005
 31
0.0
  0
LINE
  5
AD
330
1E
100
AcDbEntity
  8
0
100
AcDbLine
 10
34.0
 20
43.79999999999999
 30
0.0
 11
36.0
 21
43.5
 31
0.0
  0
LINE
  5
B0
330
1E
100
AcDbEntity
  8
0
100
AcDbLine
 10
34.0
 20
58.2
 30
0.0
 11
36.0
 21
58.5
 31
0.0
  0
LINE
  5
B1
330
1E
100
AcDbEntity
  8
0
100
AcDbLine
 10
36.0
 20
58.5
 30
0.0
 11
38.0
 21
58.2
 31
0.0
  0
LINE
  5
B2
330
1E
100
AcDbEntity
  8
0
100
AcDbLine
 10
36.0
 20
43.5
 30
0.0
 11
38.0
 21
43.79999999999999
 31
0.0
  0
LINE
  5
B3
330
1E
100
AcDbEntity
  8
0
100
AcDbLine
 10
36.0
 20
59.0
 30
0.0
 11
38.79999999999999
 21
59.0
 31
0.0
  0
LINE
  5
B4
330
1E
100
AcDbEntity
  8
0
100
AcDbLine
 10
36.0
 20
40.0
 30
0.0
 11
38.3
 21
40.0
 31
0.0
  0
LINE
  5
B5
330
1E
100
AcDbEntity
  8
0
100
AcDbLine
 10
33.7
 20
40.0
 30
0.0
 11
36.0
 21
40.0
 31
0.0
  0
LINE
  5
B6
330
1E
100
AcDbEntity
  8
0
100
AcDbLine
 10
33.7
 20
37.0
 30
0.0
 11
36.0
 21
37.0
 31
0.0
  0
LINE
  5
B7
330
1E
100
AcDbEntity
  8
0
100
AcDbLine
 10
41.39999999999999
 20
10.5
 30
0.0
 11
46.5
 21
10.5
 31
0.0
  0
LINE
  5
B8
330
1E
100
AcDbEntity
  8
0
100
AcDbLine
 10
38.3
 20
37.0
 30
0.0
 11
40.49999999999999
 21
37.0
 31
0.0
  0
LINE
  5
BB
330
1E
100
AcDbEntity
  8
0
100
AcDbLine
 10
38.0
 20
58.2
 30
0.0
 11
39.8
 21
57.5
 31
0.0
  0
LINE
  5
BC
330
1E
100
AcDbEntity
  8
0
100
AcDbLine
 10
38.0
 20
43.79999999999999
 30
0.0
 11
39.8
 21
44.5
 31
0.0
  0
LINE
  5
BF
330
1E
100
AcDbEntity
  8
0
100
AcDbLine
 10
39.8
 20
57.5
 30
0.0
 11
41.29999999999999
 21
56.29999999999999
 31
0.0
  0
LINE
  5
C0
330
1E
100
AcDbEntity
  8
0
100
AcDbLine
 10
39.8
 20
44.5
 30
0.0
 11
41.29999999999999
 21
45.7
 31
0.0
  0
LINE
  5
C1
330
1E
100
AcDbEntity
  8
0
100
AcDbLine
 10
38.79999999999999
 20
59.0
 30
0.0
 11
41.5
 21
59.0
 31
0.0
  0
LINE
  5
C2
330
1E
100
AcDbEntity
  8
0
100
AcDbLine
 10
38.3
 20
40.0
 30
0.0
 11
40.49999999999999
 21
40.0
 31
0.0
  0
LINE
  5
C5
330
1E
100
AcDbEntity
  8
0
100
AcDbLine
 10
41.29999999999999
 20
56.29999999999999
 30
0.0
 11
42.5
 21
54.8
 31
0.0
  0
LINE
  5
C6
330
1E
100
AcDbEntity
  8
0
100
AcDbLine
 10
41.29999999999999
 20
45.7
 30
0.0
 11
42.5
 21
47.2
 31
0.0
  0
LINE
  5
C7
330
1E
100
AcDbEntity
  8
0
100
AcDbLine
 10
41.5
 20
59.0
 30
0.0
 11
43.79999999999999
 21
59.0
 31
0.0
  0
LINE
  5
C8
330
1E
100
AcDbEntity
  8
0
100
AcDbLine
 10
40.49999999999999
 20
40.0
 30
0.0
 11
42.4
 21
40.0
 31
0.0
  0
LINE
  5
C9
330
1E
100
AcDbEntity
  8
0
100
AcDbLine
 10
40.49999999999999
 20
37.0
 30
0.0
 11
42.4
 21
37.0
 31
0.0
  0
LINE
  5
CA
330
1E
100
AcDbEntity
  8
0
100
AcDbLine
 10
36.0
 20
61.0
 30
0.0
 11
38.79999999999999
 21
61.0
 31
0.0
  0
LINE
  5
CB
330
1E
100
AcDbEntity
  8
0
100
AcDbLine
 10
38.79999999999999
 20
61.0
 30
0.0
 11
41.5
 21
61.0
 31
0.0
  0
LINE
  5
CC
330
1E
100
AcDbEntity
  8
0
100
AcDbLine
 10
43.1
 20
-0.0000000000000038
 30
0.0
 11
49.7
 21
-0.0000000000000036
 31
0.0
  0
LINE
  5
D1
330
1E
100
AcDbEntity
  8
0
100
AcDbLine
 10
42.4
 20
37.0
 30
0.0
 11
43.79999999999999
 21
37.0
 31
0.0
  0
LINE
  5
D2
330
1E
100
AcDbEntity
  8
0
100
AcDbLine
 10
43.79999999999999
 20
37.0
 30
0.0
 11
44.7
 21
37.0
 31
0.0
  0
LINE
  5
D3
330
1E
100
AcDbEntity
  8
0
100
AcDbLine
 10
44.7
 20
37.0
 30
0.0
 11
45.0
 21
37.0
 31
0.0
  0
LINE
  5
D6
330
1E
100
AcDbEntity
  8
0
100
AcDbLine
 10
42.4
 20
40.0
 30
0.0
 11
43.79999999999999
 21
40.0
 31
0.0
  0
LINE
  5
D9
330
1E
100
AcDbEntity
  8
0
100
AcDbLine
 10
43.79999999999999
 20
40.0
 30
0.0
 11
44.7
 21
40.0
 31
0.0
  0
LINE
  5
DA
330
1E
100
AcDbEntity
  8
0
100
AcDbLine
 10
42.5
 20
47.2
 30
0.0
 11
43.2
 21
49.0
 31
0.0
  0
LINE
  5
DB
330
1E
100
AcDbEntity
  8
0
100
AcDbLine
 10
42.5
 20
54.8
 30
0.0
 11
43.2
 21
53.0
 31
0.0
  0
LINE
  5
DC
330
1E
100
AcDbEntity
  8
0
100
AcDbLine
 10
43.2
 20
53.0
 30
0.0
 11
43.5
 21
51.0
 31
0.0
  0
LINE
  5
DD
330
1E
100
AcDbEntity
  8
0
100
AcDbLine
 10
43.2
 20
49.0
 30
0.0
 11
43.5
 21
51.0
 31
0.0
  0
LINE
  5
E0
330
1E
100
AcDbEntity
  8
0
100
AcDbLine
 10
43.79999999999999
 20
59.0
 30
0.0
 11
45.49999999999999
 21
59.0
 31
0.0
  0
LINE
  5
E1
330
1E
100
AcDbEntity
  8
0
100
AcDbLine
 10
44.7
 20
40.0
 30
0.0
 11
45.0
 21
40.0
 31
0.0
  0
LINE
  5
E2
330
1E
100
AcDbEntity
  8
0
100
AcDbLine
 10
45.49999999999999
 20
59.0
 30
0.0
 11
46.6
 21
59.0
 31
0.0
  0
LINE
  5
E3
330
1E
100
AcDbEntity
  8
0
100
AcDbLine
 10
45.0
 20
40.0
 30
0.0
 11
47.0
 21
43.0
 31
0.0
  0
LINE
  5
E4
330
1E
100
AcDbEntity
  8
0
100
AcDbLine
 10
45.0
 20
40.0
 30
0.0
 11
46.0
 21
39.0
 31
0.0
  0
LINE
  5
E5
330
1E
100
AcDbEntity
  8
0
100
AcDbLine
 10
45.0
 20
37.0
 30
0.0
 11
48.0
 21
34.0
 31
0.0
  0
LINE
  5
E6
330
1E
100
AcDbEntity
  8
0
100
AcDbLine
 10
45.0
 20
37.0
 30
0.0
 11
46.0
 21
38.0
 31
0.0
  0
LINE
  5
E7
330
1E
100
AcDbEntity
  8
0
100
AcDbLine
 10
42.2
 20
7.0
 30
0.0
 11
48.0
 21
7.0
 31
0.0
  0
LINE
  5
E8
330
1E
100
AcDbEntity
  8
0
100
AcDbLine
 10
43.1
 20
-0.0000000000000005
 30
0.0
 11
49.7
 21
-0.0000000000000007
 31
0.0
  0
LINE
  5
E9
330
1E
100
AcDbEntity
  8
0
100
AcDbLine
 10
41.5
 20
61.0
 30
0.0
 11
43.79999999999999
 21
61.0
 31
0.0
  0
LINE
  5
EA
330
1E
100
AcDbEntity
  8
0
100
AcDbLine
 10
43.79999999999999
 20
61.0
 30
0.0
 11
45.49999999999999
 21
61.0
 31
0.0
  0
LINE
  5
EB
330
1E
100
AcDbEntity
  8
0
100
AcDbLine
 10
49.7
 20
-0.0000000000000036
 30
0.0
 11
55.4
 21
-0.0000000000000033
 31
0.0
  0
LINE
  5
EC
330
1E
100
AcDbEntity
  8
0
100
AcDbLine
 10
55.4
 20
-0.0000000000000033
 30
0.0
 11
59.8
 21
-0.000000000000003
 31
0.0
  0
LINE
  5
ED
330
1E
100
AcDbEntity
  8
0
100
AcDbLine
 10
59.8
 20
-0.000000000000003
 30
0.0
 11
62.5
 21
-0.0000000000000026
 31
0.0
  0
LINE
  5
EE
330
1E
100
AcDbEntity
  8
0
100
AcDbLine
 10
62.5
 20
-0.0000000000000026
 30
0.0
 11
63.5
 21
-0.0000000000000021
 31
0.0
  0
LINE
  5
EF
330
1E
100
AcDbEntity
  8
0
100
AcDbLine
 10
49.7
 20
-0.0000000000000007
 30
0.0
 11
55.4
 21
-0.000000000000001
 31
0.0
  0
LINE
  5
F0
330
1E
100
AcDbEntity
  8
0
100
AcDbLine
 10
55.4
 20
-0.000000000000001
 30
0.0
 11
59.8
 21
-0.0000000000000013
 31
0.0
  0
LINE
  5
F1
330
1E
100
AcDbEntity
  8
0
100
AcDbLine
 10
59.8
 20
-0.0000000000000013
 30
0.0
 11
62.5
 21
-0.0000000000000017
 31
0.0
  0
LINE
  5
F2
330
1E
100
AcDbEntity
  8
0
100
AcDbLine
 10
145.3249999999999
 20
-0.0000000000000043
 30
0.0
 11
153.941
 21
-0.0000000000000041
 31
0.0
  0
LINE
  5
F3
330
1E
100
AcDbEntity
  8
0
100
AcDbLine
 10
136.0
 20
-0.0000000000000043
 30
0.0
 11
145.3249999999999
 21
-0.0000000000000043
 31
0.0
  0
LINE
  5
F4
330
1E
100
AcDbEntity
  8
0
100
AcDbLine
 10
153.941
 20
-0.0000000000000041
 30
0.0
 11
161.495
 21
-0.0000000000000037
 31
0.0
  0
LINE
  5
F5
330
1E
100
AcDbEntity
  8
0
100
AcDbLine
 10
126.6753999999999
 20
-0.0000000000000043
 30
0.0
 11
136.0
 21
-0.0000000000000043
 31
0.0
  0
LINE
  5
F6
330
1E
100
AcDbEntity
  8
0
100
AcDbLine
 10
167.279
 20
-0.0000000000000032
 30
0.0
 11
170.8199999999999
 21
-0.0000000000000027
 31
0.0
  0
LINE
  5
F7
330
1E
100
AcDbEntity
  8
0
100
AcDbLine
 10
161.495
 20
-0.0000000000000037
 30
0.0
 11
167.279
 21
-0.0000000000000032
 31
0.0
  0
LINE
  5
F8
330
1E
100
AcDbEntity
  8
0
100
AcDbLine
 10
118.059
 20
-0.0000000000000041
 30
0.0
 11
126.6753999999999
 21
-0.0000000000000043
 31
0.0
  0
LINE
  5
F9
330
1E
100
AcDbEntity
  8
0
100
AcDbLine
 10
110.5049
 20
-0.0000000000000037
 30
0.0
 11
118.059
 21
-0.0000000000000041
 31
0.0
  0
LINE
  5
FA
330
1E
100
AcDbEntity
  8
0
100
AcDbLine
 10
170.8199999999999
 20
-0.0000000000000027
 30
0.0
 11
172.0
 21
-0.0000000000000021
 31
0.0
  0
LINE
  5
FB
330
1E
100
AcDbEntity
  8
0
100
AcDbLine
 10
104.7212999999999
 20
-0.0000000000000032
 30
0.0
 11
110.5049
 21
-0.0000000000000037
 31
0.0
  0
LINE
  5
FC
330
1E
100
AcDbEntity
  8
0
100
AcDbLine
 10
101.1803
 20
-0.0000000000000027
 30
0.0
 11
104.7212999999999
 21
-0.0000000000000032
 31
0.0
  0
LINE
  5
FD
330
1E
100
AcDbEntity
  8
0
100
AcDbLine
 10
100.0
 20
-0.0000000000000021
 30
0.0
 11
101.1803
 21
-0.0000000000000027
 31
0.0
  0
LINE
  5
FE
330
1E
100
AcDbEntity
  8
0
100
AcDbLine
 10
100.0
 20
-0.0000000000000021
 30
0.0
 11
101.7705
 21
3.014629999999999
 31
0.0
  0
LINE
  5
FF
330
1E
100
AcDbEntity
  8
0
100
AcDbLine
 10
100.0
 20
-0.0000000000000021
 30
0.0
 11
101.1803
 21
-0.0000000000000016
 31
0.0
  0
LINE
  5
100
330
1E
100
AcDbEntity
  8
0
100
AcDbLine
 10
222.3
 20
-0.0000000000000036
 30
0.0
 11
228.9
 21
-0.0000000000000038
 31
0.0
  0
LINE
  5
101
330
1E
100
AcDbEntity
  8
0
100
AcDbLine
 10
216.5999999999999
 20
-0.0000000000000033
 30
0.0
 11
222.3
 21
-0.0000000000000036
 31
0.0
  0
LINE
  5
102
330
1E
100
AcDbEntity
  8
0
100
AcDbLine
 10
212.1999999999999
 20
-0.000000000000003
 30
0.0
 11
216.5999999999999
 21
-0.0000000000000033
 31
0.0
  0
LINE
  5
103
330
1E
100
AcDbEntity
  8
0
100
AcDbLine
 10
209.5
 20
-0.0000000000000026
 30
0.0
 11
212.1999999999999
 21
-0.000000000000003
 31
0.0
  0
LINE
  5
104
330
1E
100
AcDbEntity
  8
0
100
AcDbLine
 10
170.8199999999999
 20
-0.0000000000000016
 30
0.0
 11
172.0
 21
-0.0000000000000021
 31
0.0
  0
LINE
  5
105
330
1E
100
AcDbEntity
  8
0
100
AcDbLine
 10
167.279
 20
-0.000000000000001
 30
0.0
 11
170.8199999999999
 21
-0.0000000000000016
 31
0.0
  0
LINE
  5
106
330
1E
100
AcDbEntity
  8
0
100
AcDbLine
 10
153.941
 20
-0.0000000000000002
 30
0.0
 11
161.495
 21
-0.0000000000000006
 31
0.0
  0
LINE
  5
107
330
1E
100
AcDbEntity
  8
0
100
AcDbLine
 10
161.495
 20
-0.0000000000000006
 30
0.0
 11
167.279
 21
-0.000000000000001
 31
0.0
  0
LINE
  5
108
330
1E
100
AcDbEntity
  8
0
100
AcDbLine
 10
145.3249999999999
 20
0.0
 30
0.0
 11
153.941
 21
-0.0000000000000002
 31
0.0
  0
LINE
  5
109
330
1E
100
AcDbEntity
  8
0
100
AcDbLine
 10
136.0
 20
0.0000000000000001
 30
0.0
 11
145.3249999999999
 21
0.0
 31
0.0
  0
LINE
  5
10A
330
1E
100
AcDbEntity
  8
0
100
AcDbLine
 10
126.6753999999999
 20
0.0
 30
0.0
 11
136.0
 21
0.0000000000000001
 31
0.0
  0
LINE
  5
10B
330
1E
100
AcDbEntity
  8
0
100
AcDbLine
 10
118.059
 20
-0.0000000000000002
 30
0.0
 11
126.6753999999999
 21
0.0
 31
0.0
  0
LINE
  5
10C
330
1E
100
AcDbEntity
  8
0
100
AcDbLine
 10
110.5049
 20
-0.0000000000000006
 30
0.0
 11
118.059
 21
-0.0000000000000002
 31
0.0
  0
LINE
  5
10D
330
1E
100
AcDbEntity
  8
0
100
AcDbLine
 10
104.7212999999999
 20
-0.000000000000001
 30
0.0
 11
110.5049
 21
-0.0000000000000006
 31
0.0
  0
LINE
  5
10E
330
1E
100
AcDbEntity
  8
0
100
AcDbLine
 10
101.1803
 20
-0.0000000000000016
 30
0.0
 11
104.7212999999999
 21
-0.000000000000001
 31
0.0
  0
LINE
  5
10F
330
1E
100
AcDbEntity
  8
0
100
AcDbLine
 10
100.0
 20
-0.0000000000000021
 30
0.0
 11
101.7705
 21
3.014629999999999
 31
0.0
  0
LINE
  5
110
330
1E
100
AcDbEntity
  8
0
100
AcDbLine
 10
209.0
 20
3.0
 30
0.0
 11
210.0
 21
5.0
 31
0.0
  0
LINE
  5
111
330
1E
100
AcDbEntity
  8
0
100
AcDbLine
 10
222.3
 20
-0.0000000000000007
 30
0.0
 11
228.9
 21
-0.0000000000000005
 31
0.0
  0
LINE
  5
112
330
1E
100
AcDbEntity
  8
0
100
AcDbLine
 10
216.5999999999999
 20
-0.000000000000001
 30
0.0
 11
222.3
 21
-0.0000000000000007
 31
0.0
  0
LINE
  5
113
330
1E
100
AcDbEntity
  8
0
100
AcDbLine
 10
212.1999999999999
 20
-0.0000000000000013
 30
0.0
 11
216.5999999999999
 21
-0.000000000000001
 31
0.0
  0
LINE
  5
114
330
1E
100
AcDbEntity
  8
0
100
AcDbLine
 10
209.5
 20
-0.0000000000000017
 30
0.0
 11
212.1999999999999
 21
-0.0000000000000013
 31
0.0
  0
LINE
  5
115
330
1E
100
AcDbEntity
  8
0
100
AcDbLine
 10
208.4999999999999
 20
-0.0000000000000021
 30
0.0
 11
209.0
 21
3.0
 31
0.0
  0
LINE
  5
116
330
1E
100
AcDbEntity
  8
0
100
AcDbLine
 10
208.4999999999999
 20
-0.0000000000000021
 30
0.0
 11
209.5
 21
-0.0000000000000017
 31
0.0
  0
LINE
  5
117
330
1E
100
AcDbEntity
  8
0
100
AcDbLine
 10
208.4999999999999
 20
-0.0000000000000021
 30
0.0
 11
209.5
 21
-0.0000000000000026
 31
0.0
  0
LINE
  5
118
330
1E
100
AcDbEntity
  8
0
100
AcDbLine
 10
208.4999999999999
 20
-0.0000000000000021
 30
0.0
 11
209.0
 21
3.0
 31
0.0
  0
LINE
  5
119
330
1E
100
AcDbEntity
  8
0
100
AcDbLine
 10
62.5
 20
-0.0000000000000017
 30
0.0
 11
63.5
 21
-0.0000000000000021
 31
0.0
  0
LINE
  5
11A
330
1E
100
AcDbEntity
  8
0
100
AcDbLine
 10
59.1
 20
7.0
 30
0.0
 11
60.0
 21
7.0
 31
0.0
  0
LINE
  5
11B
330
1E
100
AcDbEntity
  8
0
100
AcDbLine
 10
48.0
 20
7.0
 30
0.0
 11
52.9
 21
7.0
 31
0.0
  0
LINE
  5
11C
330
1E
100
AcDbEntity
  8
0
100
AcDbLine
 10
46.5
 20
10.5
 30
0.0
 11
50.8
 21
10.5
 31
0.0
  0
LINE
  5
120
330
1E
100
AcDbEntity
  8
0
100
AcDbLine
 10
54.2
 20
10.5
 30
0.0
 11
56.2
 21
10.5
 31
0.0
  0
LINE
  5
123
330
1E
100
AcDbEntity
  8
0
100
AcDbLine
 10
46.0
 20
39.0
 30
0.0
 11
46.0
 21
38.0
 31
0.0
  0
LINE
  5
124
330
1E
100
AcDbEntity
  8
0
100
AcDbLine
 10
46.0
 20
38.0
 30
0.0
 11
46.0
 21
39.0
 31
0.0
  0
LINE
  5
126
330
1E
100
AcDbEntity
  8
0
100
AcDbLine
 10
48.0
 20
55.875
 30
0.0
 11
51.0
 21
57.0
 31
0.0
  0
LINE
  5
128
330
1E
100
AcDbEntity
  8
0
100
AcDbLine
 10
47.0
 20
61.0
 30
0.0
 11
47.5
 21
60.5
 31
0.0
  0
LINE
  5
12A
330
1E
100
AcDbEntity
  8
0
100
AcDbLine
 10
46.6
 20
59.0
 30
0.0
 11
47.0
 21
59.0
 31
0.0
  0
LINE
  5
12B
330
1E
100
AcDbEntity
  8
0
100
AcDbLine
 10
47.5
 20
59.5
 30
0.0
 11
47.5
 21
60.5
 31
0.0
  0
LINE
  5
12C
330
1E
100
AcDbEntity
  8
0
100
AcDbLine
 10
47.5
 20
60.5
 30
0.0
 11
47.5
 21
59.5
 31
0.0
  0
LINE
  5
12F
330
1E
100
AcDbEntity
  8
0
100
AcDbLine
 10
47.0
 20
59.0
 30
0.0
 11
48.0
 21
56.0
 31
0.0
  0
LINE
  5
130
330
1E
100
AcDbEntity
  8
0
100
AcDbLine
 10
47.0
 20
59.0
 30
0.0
 11
47.5
 21
59.5
 31
0.0
  0
LINE
  5
131
330
1E
100
AcDbEntity
  8
0
100
AcDbLine
 10
48.0
 20
56.0
 30
0.0
 11
48.01960784313729
 21
55.8823529411765
 31
0.0
  0
LINE
  5
132
330
1E
100
AcDbEntity
  8
0
100
AcDbLine
 10
48.0
 20
46.0
 30
0.0
 11
48.01960784313729
 21
46.11764705882349
 31
0.0
  0
LINE
  5
133
330
1E
100
AcDbEntity
  8
0
100
AcDbLine
 10
47.0
 20
43.0
 30
0.0
 11
48.0
 21
46.0
 31
0.0
  0
LINE
  5
134
330
1E
100
AcDbEntity
  8
0
100
AcDbLine
 10
51.0
 20
57.0
 30
0.0
 11
55.0
 21
58.0
 31
0.0
  0
LINE
  5
135
330
1E
100
AcDbEntity
  8
0
100
AcDbLine
 10
48.01960784313729
 20
46.11764705882349
 30
0.0
 11
51.0
 21
45.0
 31
0.0
  0
LINE
  5
136
330
1E
100
AcDbEntity
  8
0
100
AcDbLine
 10
51.0
 20
45.0
 30
0.0
 11
55.0
 21
44.0
 31
0.0
  0
LINE
  5
137
330
1E
100
AcDbEntity
  8
0
100
AcDbLine
 10
48.0
 20
34.0
 30
0.0
 11
50.5
 21
29.0
 31
0.0
  0
LINE
  5
138
330
1E
100
AcDbEntity
  8
0
100
AcDbLine
 10
50.5
 20
29.0
 30
0.0
 11
53.0
 21
23.0
 31
0.0
  0
LINE
  5
139
330
1E
100
AcDbEntity
  8
0
100
AcDbLine
 10
55.0
 20
58.0
 30
0.0
 11
58.0
 21
58.2
 31
0.0
  0
LINE
  5
13A
330
1E
100
AcDbEntity
  8
0
100
AcDbLine
 10
55.0
 20
44.0
 30
0.0
 11
58.0
 21
43.79999999999999
 31
0.0
  0
LINE
  5
13B
330
1E
100
AcDbEntity
  8
0
100
AcDbLine
 10
53.0
 20
23.0
 30
0.0
 11
55.0
 21
16.5
 31
0.0
  0
LINE
  5
13C
330
1E
100
AcDbEntity
  8
0
100
AcDbLine
 10
50.8
 20
10.5
 30
0.0
 11
54.2
 21
10.5
 31
0.0
  0
LINE
  5
13D
330
1E
100
AcDbEntity
  8
0
100
AcDbLine
 10
56.2
 20
10.5
 30
0.0
 11
57.0
 21
10.5
 31
0.0
  0
LINE
  5
140
330
1E
100
AcDbEntity
  8
0
100
AcDbLine
 10
55.0
 20
16.5
 30
0.0
 11
56.0
 21
10.5
 31
0.0
  0
LINE
  5
141
330
1E
100
AcDbEntity
  8
0
100
AcDbLine
 10
52.9
 20
7.0
 30
0.0
 11
56.79999999999999
 21
7.0
 31
0.0
  0
LINE
  5
142
330
1E
100
AcDbEntity
  8
0
100
AcDbLine
 10
57.0
 20
10.5
 30
0.0
 11
58.0
 21
9.5
 31
0.0
  0
LINE
  5
143
330
1E
100
AcDbEntity
  8
0
100
AcDbLine
 10
58.0
 20
8.0
 30
0.0
 11
58.0
 21
9.5
 31
0.0
  0
LINE
  5
144
330
1E
100
AcDbEntity
  8
0
100
AcDbLine
 10
58.0
 20
9.5
 30
0.0
 11
58.0
 21
8.0
 31
0.0
  0
LINE
  5
147
330
1E
100
AcDbEntity
  8
0
100
AcDbLine
 10
57.0
 20
7.0
 30
0.0
 11
58.0
 21
8.0
 31
0.0
  0
LINE
  5
148
330
1E
100
AcDbEntity
  8
0
100
AcDbLine
 10
58.0
 20
58.2
 30
0.0
 11
62.0
 21
58.5
 31
0.0
  0
LINE
  5
149
330
1E
100
AcDbEntity
  8
0
100
AcDbLine
 10
62.0
 20
58.5
 30
0.0
 11
65.5
 21
58.0
 31
0.0
  0
LINE
  5
14A
330
1E
100
AcDbEntity
  8
0
100
AcDbLine
 10
58.0
 20
43.79999999999999
 30
0.0
 11
62.0
 21
43.5
 31
0.0
  0
LINE
  5
14B
330
1E
100
AcDbEntity
  8
0
100
AcDbLine
 10
62.0
 20
43.5
 30
0.0
 11
65.5
 21
44.0
 31
0.0
  0
LINE
  5
14C
330
1E
100
AcDbEntity
  8
0
100
AcDbLine
 10
56.79999999999999
 20
7.0
 30
0.0
 11
59.1
 21
7.0
 31
0.0
  0
LINE
  5
14D
330
1E
100
AcDbEntity
  8
0
100
AcDbLine
 10
60.0
 20
7.0
 30
0.0
 11
62.0
 21
5.0
 31
0.0
  0
LINE
  5
14E
330
1E
100
AcDbEntity
  8
0
100
AcDbLine
 10
65.5
 20
44.0
 30
0.0
 11
68.0
 21
45.0
 31
0.0
  0
LINE
  5
14F
330
1E
100
AcDbEntity
  8
0
100
AcDbLine
 10
68.0
 20
45.0
 30
0.0
 11
70.0
 21
46.5
 31
0.0
  0
LINE
  5
150
330
1E
100
AcDbEntity
  8
0
100
AcDbLine
 10
170.2299999999999
 20
3.014629999999999
 30
0.0
 11
172.0
 21
-0.0000000000000021
 31
0.0
  0
LINE
  5
151
330
1E
100
AcDbEntity
  8
0
100
AcDbLine
 10
170.2299999999999
 20
3.014629999999999
 30
0.0
 11
172.0
 21
-0.0000000000000021
 31
0.0
  0
LINE
  5
152
330
1E
100
AcDbEntity
  8
0
100
AcDbLine
 10
101.7705
 20
3.014629999999999
 30
0.0
 11
104.1311
 21
5.52683
 31
0.0
  0
LINE
  5
155
330
1E
100
AcDbEntity
  8
0
100
AcDbLine
 10
107.6721
 20
9.546339999999998
 30
0.0
 11
108.8525
 21
10.5512
 31
0.0
  0
LINE
  5
156
330
1E
100
AcDbEntity
  8
0
100
AcDbLine
 10
107.6721
 20
9.546339999999998
 30
0.0
 11
107.6721
 21
8.039019999999998
 31
0.0
  0
LINE
  5
158
330
1E
100
AcDbEntity
  8
0
100
AcDbLine
 10
107.6721
 20
8.039019999999998
 30
0.0
 11
108.8525
 21
7.03415
 31
0.0
  0
LINE
  5
159
330
1E
100
AcDbEntity
  8
0
100
AcDbLine
 10
107.6721
 20
8.039019999999998
 30
0.0
 11
107.6721
 21
9.546339999999998
 31
0.0
  0
LINE
  5
15B
330
1E
100
AcDbEntity
  8
0
100
AcDbLine
 10
109.7967
 20
10.5512
 30
0.0
 11
112.3933999999999
 21
10.5512
 31
0.0
  0
LINE
  5
15C
330
1E
100
AcDbEntity
  8
0
100
AcDbLine
 10
108.8525
 20
10.5512
 30
0.0
 11
109.7967
 21
10.5512
 31
0.0
  0
LINE
  5
15D
330
1E
100
AcDbEntity
  8
0
100
AcDbLine
 10
107.082
 20
7.03415
 30
0.0
 11
108.0262
 21
7.03415
 31
0.0
  0
LINE
  5
160
330
1E
100
AcDbEntity
  8
0
100
AcDbLine
 10
112.3933999999999
 20
10.5512
 30
0.0
 11
116.7607
 21
10.5512
 31
0.0
  0
LINE
  5
161
330
1E
100
AcDbEntity
  8
0
100
AcDbLine
 10
108.0262
 20
7.03415
 30
0.0
 11
115.5802999999999
 21
7.03415
 31
0.0
  0
LINE
  5
162
330
1E
100
AcDbEntity
  8
0
100
AcDbLine
 10
104.1311
 20
5.52683
 30
0.0
 11
107.082
 21
7.03415
 31
0.0
  0
LINE
  5
167
330
1E
100
AcDbEntity
  8
0
100
AcDbLine
 10
121.5999999999999
 20
7.03415
 30
0.0
 11
128.4459
 21
7.03415
 31
0.0
  0
LINE
  5
168
330
1E
100
AcDbEntity
  8
0
100
AcDbLine
 10
115.5802999999999
 20
7.03415
 30
0.0
 11
121.5999999999999
 21
7.03415
 31
0.0
  0
LINE
  5
169
330
1E
100
AcDbEntity
  8
0
100
AcDbLine
 10
167.869
 20
5.52683
 30
0.0
 11
170.2299999999999
 21
3.014629999999999
 31
0.0
  0
LINE
  5
16A
330
1E
100
AcDbEntity
  8
0
100
AcDbLine
 10
163.147
 20
7.03415
 30
0.0
 11
164.328
 21
8.039019999999998
 31
0.0
  0
LINE
  5
16B
330
1E
100
AcDbEntity
  8
0
100
AcDbLine
 10
164.918
 20
7.03415
 30
0.0
 11
167.869
 21
5.52683
 31
0.0
  0
LINE
  5
16C
330
1E
100
AcDbEntity
  8
0
100
AcDbLine
 10
163.974
 20
7.03415
 30
0.0
 11
164.918
 21
7.03415
 31
0.0
  0
LINE
  5
16D
330
1E
100
AcDbEntity
  8
0
100
AcDbLine
 10
143.554
 20
7.03415
 30
0.0
 11
156.4199999999999
 21
7.03415
 31
0.0
  0
LINE
  5
16E
330
1E
100
AcDbEntity
  8
0
100
AcDbLine
 10
136.0
 20
7.03415
 30
0.0
 11
143.554
 21
7.03415
 31
0.0
  0
LINE
  5
17B
330
1E
100
AcDbEntity
  8
0
100
AcDbLine
 10
156.4199999999999
 20
7.03415
 30
0.0
 11
161.141
 21
7.03415
 31
0.0
  0
LINE
  5
17C
330
1E
100
AcDbEntity
  8
0
100
AcDbLine
 10
164.328
 20
8.039019999999998
 30
0.0
 11
164.328
 21
9.546339999999998
 31
0.0
  0
LINE
  5
17D
330
1E
100
AcDbEntity
  8
0
100
AcDbLine
 10
164.328
 20
9.546339999999998
 30
0.0
 11
164.328
 21
8.039019999999998
 31
0.0
  0
LINE
  5
180
330
1E
100
AcDbEntity
  8
0
100
AcDbLine
 10
161.141
 20
7.03415
 30
0.0
 11
163.974
 21
7.03415
 31
0.0
  0
LINE
  5
181
330
1E
100
AcDbEntity
  8
0
100
AcDbLine
 10
128.4459
 20
7.03415
 30
0.0
 11
136.0
 21
7.03415
 31
0.0
  0
LINE
  5
182
330
1E
100
AcDbEntity
  8
0
100
AcDbLine
 10
159.607
 20
10.5512
 30
0.0
 11
162.203
 21
10.5512
 31
0.0
  0
LINE
  5
183
330
1E
100
AcDbEntity
  8
0
100
AcDbLine
 10
163.147
 20
10.5512
 30
0.0
 11
164.328
 21
9.546339999999998
 31
0.0
  0
LINE
  5
184
330
1E
100
AcDbEntity
  8
0
100
AcDbLine
 10
162.203
 20
10.5512
 30
0.0
 11
163.147
 21
10.5512
 31
0.0
  0
LINE
  5
185
330
1E
100
AcDbEntity
  8
0
100
AcDbLine
 10
161.967
 20
10.5512
 30
0.0
 11
161.967
 21
65.3171
 31
0.0
  0
LINE
  5
186
330
1E
100
AcDbEntity
  8
0
100
AcDbLine
 10
136.0
 20
10.5512
 30
0.0
 11
143.0819999999999
 21
10.5512
 31
0.0
  0
LINE
  5
187
330
1E
100
AcDbEntity
  8
0
100
AcDbLine
 10
143.0819999999999
 20
10.5512
 30
0.0
 11
149.5739999999999
 21
10.5512
 31
0.0
  0
LINE
  5
188
330
1E
100
AcDbEntity
  8
0
100
AcDbLine
 10
149.5739999999999
 20
10.5512
 30
0.0
 11
155.239
 21
10.5512
 31
0.0
  0
LINE
  5
189
330
1E
100
AcDbEntity
  8
0
100
AcDbLine
 10
155.239
 20
10.5512
 30
0.0
 11
159.607
 21
10.5512
 31
0.0
  0
LINE
  5
18A
330
1E
100
AcDbEntity
  8
0
100
AcDbLine
 10
128.9179999999999
 20
10.5512
 30
0.0
 11
136.0
 21
10.5512
 31
0.0
  0
LINE
  5
18B
330
1E
100
AcDbEntity
  8
0
100
AcDbLine
 10
122.4261999999999
 20
10.5512
 30
0.0
 11
128.9179999999999
 21
10.5512
 31
0.0
  0
LINE
  5
18C
330
1E
100
AcDbEntity
  8
0
100
AcDbLine
 10
116.7607
 20
10.5512
 30
0.0
 11
122.4261999999999
 21
10.5512
 31
0.0
  0
LINE
  5
18D
330
1E
100
AcDbEntity
  8
0
100
AcDbLine
 10
110.0327999999999
 20
10.5512
 30
0.0
 11
110.0327999999999
 21
65.3171
 31
0.0
  0
LINE
  5
18E
330
1E
100
AcDbEntity
  8
0
100
AcDbLine
 10
210.0
 20
43.5
 30
0.0
 11
214.0
 21
43.79999999999999
 31
0.0
  0
LINE
  5
18F
330
1E
100
AcDbEntity
  8
0
100
AcDbLine
 10
206.4999999999999
 20
44.0
 30
0.0
 11
210.0
 21
43.5
 31
0.0
  0
LINE
  5
190
330
1E
100
AcDbEntity
  8
0
100
AcDbLine
 10
204.0
 20
45.0
 30
0.0
 11
206.4999999999999
 21
44.0
 31
0.0
  0
LINE
  5
191
330
1E
100
AcDbEntity
  8
0
100
AcDbLine
 10
202.0
 20
46.5
 30
0.0
 11
204.0
 21
45.0
 31
0.0
  0
LINE
  5
192
330
1E
100
AcDbEntity
  8
0
100
AcDbLine
 10
200.4999999999999
 20
48.5
 30
0.0
 11
202.0
 21
46.5
 31
0.0
  0
LINE
  5
193
330
1E
100
AcDbEntity
  8
0
100
AcDbLine
 10
214.0
 20
9.5
 30
0.0
 11
214.0
 21
8.0
 31
0.0
  0
LINE
  5
195
330
1E
100
AcDbEntity
  8
0
100
AcDbLine
 10
214.0
 20
9.5
 30
0.0
 11
215.0
 21
10.5
 31
0.0
  0
LINE
  5
196
330
1E
100
AcDbEntity
  8
0
100
AcDbLine
 10
215.0
 20
10.5
 30
0.0
 11
215.8
 21
10.5
 31
0.0
  0
LINE
  5
199
330
1E
100
AcDbEntity
  8
0
100
AcDbLine
 10
214.0
 20
8.0
 30
0.0
 11
215.0
 21
7.0
 31
0.0
  0
LINE
  5
19B
330
1E
100
AcDbEntity
  8
0
100
AcDbLine
 10
214.0
 20
8.0
 30
0.0
 11
214.0
 21
9.5
 31
0.0
  0
LINE
  5
19C
330
1E
100
AcDbEntity
  8
0
100
AcDbLine
 10
214.0
 20
43.79999999999999
 30
0.0
 11
217.0
 21
44.0
 31
0.0
  0
LINE
  5
19D
330
1E
100
AcDbEntity
  8
0
100
AcDbLine
 10
224.0
 20
7.0
 30
0.0
 11
229.8
 21
7.0
 31
0.0
  0
LINE
  5
19E
330
1E
100
AcDbEntity
  8
0
100
AcDbLine
 10
215.8
 20
10.5
 30
0.0
 11
217.8
 21
10.5
 31
0.0
  0
LINE
  5
19F
330
1E
100
AcDbEntity
  8
0
100
AcDbLine
 10
217.8
 20
10.5
 30
0.0
 11
221.1999999999999
 21
10.5
 31
0.0
  0
LINE
  5
1A6
330
1E
100
AcDbEntity
  8
0
100
AcDbLine
 10
217.0
 20
44.0
 30
0.0
 11
221.0
 21
45.0
 31
0.0
  0
LINE
  5
1A7
330
1E
100
AcDbEntity
  8
0
100
AcDbLine
 10
221.0
 20
45.0
 30
0.0
 11
224.0
 21
46.12499999999999
 31
0.0
  0
LINE
  5
1A8
330
1E
100
AcDbEntity
  8
0
100
AcDbLine
 10
223.980392156863
 20
46.11764705882349
 30
0.0
 11
224.0
 21
46.0
 31
0.0
  0
LINE
  5
1A9
330
1E
100
AcDbEntity
  8
0
100
AcDbLine
 10
224.0
 20
46.0
 30
0.0
 11
225.0
 21
43.0
 31
0.0
  0
LINE
  5
1AA
330
1E
100
AcDbEntity
  8
0
100
AcDbLine
 10
225.0
 20
43.0
 30
0.0
 11
227.0
 21
40.0
 31
0.0
  0
LINE
  5
1AB
330
1E
100
AcDbEntity
  8
0
100
AcDbLine
 10
224.0
 20
34.0
 30
0.0
 11
227.0
 21
37.0
 31
0.0
  0
LINE
  5
1AC
330
1E
100
AcDbEntity
  8
0
100
AcDbLine
 10
221.4999999999999
 20
29.0
 30
0.0
 11
224.0
 21
34.0
 31
0.0
  0
LINE
  5
1AD
330
1E
100
AcDbEntity
  8
0
100
AcDbLine
 10
219.0
 20
23.0
 30
0.0
 11
221.4999999999999
 21
29.0
 31
0.0
  0
LINE
  5
1AE
330
1E
100
AcDbEntity
  8
0
100
AcDbLine
 10
217.0
 20
16.5
 30
0.0
 11
219.0
 21
23.0
 31
0.0
  0
LINE
  5
1AF
330
1E
100
AcDbEntity
  8
0
100
AcDbLine
 10
221.1999999999999
 20
10.5
 30
0.0
 11
225.4999999999999
 21
10.5
 31
0.0
  0
LINE
  5
1B0
330
1E
100
AcDbEntity
  8
0
100
AcDbLine
 10
216.0
 20
10.5
 30
0.0
 11
217.0
 21
16.5
 31
0.0
  0
LINE
  5
1B1
330
1E
100
AcDbEntity
  8
0
100
AcDbLine
 10
219.0999999999999
 20
7.0
 30
0.0
 11
224.0
 21
7.0
 31
0.0
  0
LINE
  5
1B2
330
1E
100
AcDbEntity
  8
0
100
AcDbLine
 10
215.2
 20
7.0
 30
0.0
 11
219.0999999999999
 21
7.0
 31
0.0
  0
LINE
  5
1B3
330
1E
100
AcDbEntity
  8
0
100
AcDbLine
 10
212.9
 20
7.0
 30
0.0
 11
215.2
 21
7.0
 31
0.0
  0
LINE
  5
1B4
330
1E
100
AcDbEntity
  8
0
100
AcDbLine
 10
212.0
 20
7.0
 30
0.0
 11
212.9
 21
7.0
 31
0.0
  0
LINE
  5
1B5
330
1E
100
AcDbEntity
  8
0
100
AcDbLine
 10
210.0
 20
5.0
 30
0.0
 11
212.0
 21
7.0
 31
0.0
  0
LINE
  5
1B6
330
1E
100
AcDbEntity
  8
0
100
AcDbLine
 10
70.0
 20
46.5
 30
0.0
 11
71.5
 21
48.5
 31
0.0
  0
LINE
  5
1B7
330
1E
100
AcDbEntity
  8
0
100
AcDbLine
 10
65.5
 20
58.0
 30
0.0
 11
68.0
 21
57.0
 31
0.0
  0
LINE
  5
1B8
330
1E
100
AcDbEntity
  8
0
100
AcDbLine
 10
68.0
 20
57.0
 30
0.0
 11
70.0
 21
55.5
 31
0.0
  0
LINE
  5
1B9
330
1E
100
AcDbEntity
  8
0
100
AcDbLine
 10
70.0
 20
55.5
 30
0.0
 11
71.5
 21
53.5
 31
0.0
  0
LINE
  5
1BA
330
1E
100
AcDbEntity
  8
0
100
AcDbLine
 10
202.0
 20
55.5
 30
0.0
 11
204.0
 21
57.0
 31
0.0
  0
LINE
  5
1BB
330
1E
100
AcDbEntity
  8
0
100
AcDbLine
 10
200.4999999999999
 20
53.5
 30
0.0
 11
202.0
 21
55.5
 31
0.0
  0
LINE
  5
1BC
330
1E
100
AcDbEntity
  8
0
100
AcDbLine
 10
200.0
 20
51.0
 30
0.0
 11
200.4999999999999
 21
53.5
 31
0.0
  0
LINE
  5
1BD
330
1E
100
AcDbEntity
  8
0
100
AcDbLine
 10
200.0
 20
51.0
 30
0.0
 11
200.4999999999999
 21
48.5
 31
0.0
  0
LINE
  5
1BE
330
1E
100
AcDbEntity
  8
0
100
AcDbLine
 10
221.0
 20
57.0
 30
0.0
 11
223.980392156863
 21
55.8823529411765
 31
0.0
  0
LINE
  5
1BF
330
1E
100
AcDbEntity
  8
0
100
AcDbLine
 10
217.0
 20
58.0
 30
0.0
 11
221.0
 21
57.0
 31
0.0
  0
LINE
  5
1C0
330
1E
100
AcDbEntity
  8
0
100
AcDbLine
 10
214.0
 20
58.2
 30
0.0
 11
217.0
 21
58.0
 31
0.0
  0
LINE
  5
1C1
330
1E
100
AcDbEntity
  8
0
100
AcDbLine
 10
210.0
 20
58.5
 30
0.0
 11
214.0
 21
58.2
 31
0.0
  0
LINE
  5
1C2
330
1E
100
AcDbEntity
  8
0
100
AcDbLine
 10
206.4999999999999
 20
58.0
 30
0.0
 11
210.0
 21
58.5
 31
0.0
  0
LINE
  5
1C3
330
1E
100
AcDbEntity
  8
0
100
AcDbLine
 10
204.0
 20
57.0
 30
0.0
 11
206.4999999999999
 21
58.0
 31
0.0
  0
LINE
  5
1C4
330
1E
100
AcDbEntity
  8
0
100
AcDbLine
 10
225.4
 20
59.0
 30
0.0
 11
226.5
 21
59.0
 31
0.0
  0
LINE
  5
1C5
330
1E
100
AcDbEntity
  8
0
100
AcDbLine
 10
224.5
 20
60.5
 30
0.0
 11
224.5
 21
59.5
 31
0.0
  0
LINE
  5
1C7
330
1E
100
AcDbEntity
  8
0
100
AcDbLine
 10
224.5
 20
60.5
 30
0.0
 11
225.0
 21
61.0
 31
0.0
  0
LINE
  5
1CA
330
1E
100
AcDbEntity
  8
0
100
AcDbLine
 10
224.5
 20
59.5
 30
0.0
 11
225.0
 21
59.0
 31
0.0
  0
LINE
  5
1CC
330
1E
100
AcDbEntity
  8
0
100
AcDbLine
 10
224.5
 20
59.5
 30
0.0
 11
224.5
 21
60.5
 31
0.0
  0
LINE
  5
1CD
330
1E
100
AcDbEntity
  8
0
100
AcDbLine
 10
225.0
 20
59.0
 30
0.0
 11
225.4
 21
59.0
 31
0.0
  0
LINE
  5
1CE
330
1E
100
AcDbEntity
  8
0
100
AcDbLine
 10
224.0
 20
56.0
 30
0.0
 11
225.0
 21
59.0
 31
0.0
  0
LINE
  5
1CF
330
1E
100
AcDbEntity
  8
0
100
AcDbLine
 10
223.980392156863
 20
55.8823529411765
 30
0.0
 11
224.0
 21
56.0
 31
0.0
  0
LINE
  5
1D0
330
1E
100
AcDbEntity
  8
0
100
AcDbLine
 10
71.5
 20
53.5
 30
0.0
 11
72.0
 21
51.0
 31
0.0
  0
LINE
  5
1D1
330
1E
100
AcDbEntity
  8
0
100
AcDbLine
 10
71.5
 20
48.5
 30
0.0
 11
72.0
 21
51.0
 31
0.0
  0
LINE
  5
1D2
330
1E
100
AcDbEntity
  8
0
100
AcDbLine
 10
62.0
 20
5.0
 30
0.0
 11
63.0
 21
3.0
 31
0.0
  0
LINE
  5
1D3
330
1E
100
AcDbEntity
  8
0
100
AcDbLine
 10
63.0
 20
3.0
 30
0.0
 11
63.5
 21
-0.0000000000000021
 31
0.0
  0
LINE
  5
1D4
330
1E
100
AcDbEntity
  8
0
100
AcDbLine
 10
63.0
 20
3.0
 30
0.0
 11
63.5
 21
-0.0000000000000021
 31
0.0
  0
LINE
  5
1D5
330
1E
100
AcDbEntity
  8
0
100
AcDbLine
 10
225.4999999999999
 20
10.5
 30
0.0
 11
230.6
 21
10.5
 31
0.0
  0
LINE
  5
1D6
330
1E
100
AcDbEntity
  8
0
100
AcDbLine
 10
228.2
 20
37.0
 30
0.0
 11
229.5999999999999
 21
37.0
 31
0.0
  0
LINE
  5
1D7
330
1E
100
AcDbEntity
  8
0
100
AcDbLine
 10
227.3
 20
37.0
 30
0.0
 11
228.2
 21
37.0
 31
0.0
  0
LINE
  5
1D8
330
1E
100
AcDbEntity
  8
0
100
AcDbLine
 10
226.0
 20
39.0
 30
0.0
 11
226.0
 21
38.0
 31
0.0
  0
LINE
  5
1DA
330
1E
100
AcDbEntity
  8
0
100
AcDbLine
 10
226.0
 20
39.0
 30
0.0
 11
227.0
 21
40.0
 31
0.0
  0
LINE
  5
1DD
330
1E
100
AcDbEntity
  8
0
100
AcDbLine
 10
226.0
 20
38.0
 30
0.0
 11
227.0
 21
37.0
 31
0.0
  0
LINE
  5
1DF
330
1E
100
AcDbEntity
  8
0
100
AcDbLine
 10
226.0
 20
38.0
 30
0.0
 11
226.0
 21
39.0
 31
0.0
  0
LINE
  5
1E2
330
1E
100
AcDbEntity
  8
0
100
AcDbLine
 10
226.5
 20
59.0
 30
0.0
 11
228.2
 21
59.0
 31
0.0
  0
LINE
  5
1E5
330
1E
100
AcDbEntity
  8
0
100
AcDbLine
 10
228.2
 20
40.0
 30
0.0
 11
229.5999999999999
 21
40.0
 31
0.0
  0
LINE
  5
1E8
330
1E
100
AcDbEntity
  8
0
100
AcDbLine
 10
228.2
 20
59.0
 30
0.0
 11
230.5
 21
59.0
 31
0.0
  0
LINE
  5
1E9
330
1E
100
AcDbEntity
  8
0
100
AcDbLine
 10
227.3
 20
40.0
 30
0.0
 11
228.2
 21
40.0
 31
0.0
  0
LINE
  5
1EA
330
1E
100
AcDbEntity
  8
0
100
AcDbLine
 10
227.0
 20
40.0
 30
0.0
 11
227.3
 21
40.0
 31
0.0
  0
LINE
  5
1EB
330
1E
100
AcDbEntity
  8
0
100
AcDbLine
 10
227.0
 20
37.0
 30
0.0
 11
227.3
 21
37.0
 31
0.0
  0
LINE
  5
1EC
330
1E
100
AcDbEntity
  8
0
100
AcDbLine
 10
228.9
 20
-0.0000000000000038
 30
0.0
 11
236.0
 21
-0.0000000000000038
 31
0.0
  0
LINE
  5
1EF
330
1E
100
AcDbEntity
  8
0
100
AcDbLine
 10
229.4999999999999
 20
47.2
 30
0.0
 11
230.6999999999999
 21
45.7
 31
0.0
  0
LINE
  5
1F0
330
1E
100
AcDbEntity
  8
0
100
AcDbLine
 10
228.8
 20
49.0
 30
0.0
 11
229.4999999999999
 21
47.2
 31
0.0
  0
LINE
  5
1F1
330
1E
100
AcDbEntity
  8
0
100
AcDbLine
 10
229.4999999999999
 20
54.8
 30
0.0
 11
230.6999999999999
 21
56.29999999999999
 31
0.0
  0
LINE
  5
1F2
330
1E
100
AcDbEntity
  8
0
100
AcDbLine
 10
228.8
 20
53.0
 30
0.0
 11
229.4999999999999
 21
54.8
 31
0.0
  0
LINE
  5
1F3
330
1E
100
AcDbEntity
  8
0
100
AcDbLine
 10
228.5
 20
51.0
 30
0.0
 11
228.8
 21
53.0
 31
0.0
  0
LINE
  5
1F4
330
1E
100
AcDbEntity
  8
0
100
AcDbLine
 10
228.5
 20
51.0
 30
0.0
 11
228.8
 21
49.0
 31
0.0
  0
LINE
  5
1F5
330
1E
100
AcDbEntity
  8
0
100
AcDbLine
 10
229.5999999999999
 20
40.0
 30
0.0
 11
231.4999999999999
 21
40.0
 31
0.0
  0
LINE
  5
1F6
330
1E
100
AcDbEntity
  8
0
100
AcDbLine
 10
229.5999999999999
 20
37.0
 30
0.0
 11
231.4999999999999
 21
37.0
 31
0.0
  0
LINE
  5
1F8
330
1E
100
AcDbEntity
  8
0
100
AcDbLine
 10
230.6
 20
10.5
 30
0.0
 11
236.0
 21
10.5
 31
0.0
  0
LINE
  5
1FA
330
1E
100
AcDbEntity
  8
0
100
AcDbLine
 10
230.6999999999999
 20
45.7
 30
0.0
 11
232.2
 21
44.5
 31
0.0
  0
LINE
  5
1FD
330
1E
100
AcDbEntity
  8
0
100
AcDbLine
 10
230.6999999999999
 20
56.29999999999999
 30
0.0
 11
232.2
 21
57.5
 31
0.0
  0
LINE
  5
200
330
1E
100
AcDbEntity
  8
0
100
AcDbLine
 10
230.5
 20
59.0
 30
0.0
 11
233.1999999999999
 21
59.0
 31
0.0
  0
LINE
  5
201
330
1E
100
AcDbEntity
  8
0
100
AcDbLine
 10
232.2
 20
44.5
 30
0.0
 11
234.0
 21
43.79999999999999
 31
0.0
  0
LINE
  5
202
330
1E
100
AcDbEntity
  8
0
100
AcDbLine
 10
232.2
 20
57.5
 30
0.0
 11
234.0
 21
58.2
 31
0.0
  0
LINE
  5
205
330
1E
100
AcDbEntity
  8
0
100
AcDbLine
 10
233.1999999999999
 20
59.0
 30
0.0
 11
236.0
 21
59.0
 31
0.0
  0
LINE
  5
206
330
1E
100
AcDbEntity
  8
0
100
AcDbLine
 10
231.4999999999999
 20
40.0
 30
0.0
 11
233.6999999999999
 21
40.0
 31
0.0
  0
LINE
  5
207
330
1E
100
AcDbEntity
  8
0
100
AcDbLine
 10
231.4999999999999
 20
37.0
 30
0.0
 11
233.6999999999999
 21
37.0
 31
0.0
  0
LINE
  5
208
330
1E
100
AcDbEntity
  8
0
100
AcDbLine
 10
229.8
 20
7.0
 30
0.0
 11
236.0
 21
7.0
 31
0.0
  0
LINE
  5
209
330
1E
100
AcDbEntity
  8
0
100
AcDbLine
 10
228.9
 20
-0.0000000000000005
 30
0.0
 11
236.0
 21
-0.0000000000000005
 31
0.0
  0
LINE
  5
20A
330
1E
100
AcDbEntity
  8
0
100
AcDbLine
 10
236.0
 20
-0.0000000000000038
 30
0.0
 11
243.1
 21
-0.0000000000000038
 31
0.0
  0
LINE
  5
20D
330
1E
100
AcDbEntity
  8
0
100
AcDbLine
 10
236.0
 20
10.5
 30
0.0
 11
241.4
 21
10.5
 31
0.0
  0
LINE
  5
20E
330
1E
100
AcDbEntity
  8
0
100
AcDbLine
 10
236.0
 20
37.0
 30
0.0
 11
238.3
 21
37.0
 31
0.0
  0
LINE
  5
20F
330
1E
100
AcDbEntity
  8
0
100
AcDbLine
 10
236.0
 20
7.0
 30
0.0
 11
242.2
 21
7.0
 31
0.0
  0
LINE
  5
210
330
1E
100
AcDbEntity
  8
0
100
AcDbLine
 10
236.0
 20
-0.0000000000000005
 30
0.0
 11
243.1
 21
-0.0000000000000005
 31
0.0
  0
LINE
  5
215
330
1E
100
AcDbEntity
  8
0
100
AcDbLine
 10
234.0
 20
43.79999999999999
 30
0.0
 11
236.0
 21
43.5
 31
0.0
  0
LINE
  5
218
330
1E
100
AcDbEntity
  8
0
100
AcDbLine
 10
234.0
 20
58.2
 30
0.0
 11
236.0
 21
58.5
 31
0.0
  0
LINE
  5
219
330
1E
100
AcDbEntity
  8
0
100
AcDbLine
 10
236.0
 20
58.5
 30
0.0
 11
238.0
 21
58.2
 31
0.0
  0
LINE
  5
21A
330
1E
100
AcDbEntity
  8
0
100
AcDbLine
 10
236.0
 20
43.5
 30
0.0
 11
238.0
 21
43.79999999999999
 31
0.0
  0
LINE
  5
21B
330
1E
100
AcDbEntity
  8
0
100
AcDbLine
 10
236.0
 20
59.0
 30
0.0
 11
238.8
 21
59.0
 31
0.0
  0
LINE
  5
21C
330
1E
100
AcDbEntity
  8
0
100
AcDbLine
 10
236.0
 20
40.0
 30
0.0
 11
238.3
 21
40.0
 31
0.0
  0
LINE
  5
21D
330
1E
100
AcDbEntity
  8
0
100
AcDbLine
 10
233.6999999999999
 20
40.0
 30
0.0
 11
236.0
 21
40.0
 31
0.0
  0
LINE
  5
21E
330
1E
100
AcDbEntity
  8
0
100
AcDbLine
 10
233.6999999999999
 20
37.0
 30
0.0
 11
236.0
 21
37.0
 31
0.0
  0
LINE
  5
21F
330
1E
100
AcDbEntity
  8
0
100
AcDbLine
 10
233.1999999999999
 20
61.0
 30
0.0
 11
236.0
 21
61.0
 31
0.0
  0
LINE
  5
220
330
1E
100
AcDbEntity
  8
0
100
AcDbLine
 10
230.5
 20
61.0
 30
0.0
 11
233.1999999999999
 21
61.0
 31
0.0
  0
LINE
  5
221
330
1E
100
AcDbEntity
  8
0
100
AcDbLine
 10
228.2
 20
61.0
 30
0.0
 11
230.5
 21
61.0
 31
0.0
  0
LINE
  5
222
330
1E
100
AcDbEntity
  8
0
100
AcDbLine
 10
226.5
 20
61.0
 30
0.0
 11
228.2
 21
61.0
 31
0.0
  0
LINE
  5
223
330
1E
100
AcDbEntity
  8
0
100
AcDbLine
 10
225.4
 20
61.0
 30
0.0
 11
226.5
 21
61.0
 31
0.0
  0
LINE
  5
224
330
1E
100
AcDbEntity
  8
0
100
AcDbLine
 10
225.0
 20
61.0
 30
0.0
 11
228.8
 21
63.5
 31
0.0
  0
LINE
  5
225
330
1E
100
AcDbEntity
  8
0
100
AcDbLine
 10
225.0
 20
61.0
 30
0.0
 11
225.4
 21
61.0
 31
0.0
  0
LINE
  5
226
330
1E
100
AcDbEntity
  8
0
100
AcDbLine
 10
241.4
 20
10.5
 30
0.0
 11
246.4999999999999
 21
10.5
 31
0.0
  0
LINE
  5
227
330
1E
100
AcDbEntity
  8
0
100
AcDbLine
 10
238.3
 20
37.0
 30
0.0
 11
240.5
 21
37.0
 31
0.0
  0
LINE
  5
22A
330
1E
100
AcDbEntity
  8
0
100
AcDbLine
 10
238.0
 20
58.2
 30
0.0
 11
239.8
 21
57.5
 31
0.0
  0
LINE
  5
22B
330
1E
100
AcDbEntity
  8
0
100
AcDbLine
 10
238.0
 20
43.79999999999999
 30
0.0
 11
239.8
 21
44.5
 31
0.0
  0
LINE
  5
22E
330
1E
100
AcDbEntity
  8
0
100
AcDbLine
 10
239.8
 20
57.5
 30
0.0
 11
241.3
 21
56.29999999999999
 31
0.0
  0
LINE
  5
22F
330
1E
100
AcDbEntity
  8
0
100
AcDbLine
 10
239.8
 20
44.5
 30
0.0
 11
241.3
 21
45.7
 31
0.0
  0
LINE
  5
230
330
1E
100
AcDbEntity
  8
0
100
AcDbLine
 10
238.8
 20
59.0
 30
0.0
 11
241.5
 21
59.0
 31
0.0
  0
LINE
  5
231
330
1E
100
AcDbEntity
  8
0
100
AcDbLine
 10
238.3
 20
40.0
 30
0.0
 11
240.5
 21
40.0
 31
0.0
  0
LINE
  5
234
330
1E
100
AcDbEntity
  8
0
100
AcDbLine
 10
241.3
 20
56.29999999999999
 30
0.0
 11
242.5
 21
54.8
 31
0.0
  0
LINE
  5
235
330
1E
100
AcDbEntity
  8
0
100
AcDbLine
 10
241.3
 20
45.7
 30
0.0
 11
242.5
 21
47.2
 31
0.0
  0
LINE
  5
236
330
1E
100
AcDbEntity
  8
0
100
AcDbLine
 10
241.5
 20
59.0
 30
0.0
 11
243.8
 21
59.0
 31
0.0
  0
LINE
  5
237
330
1E
100
AcDbEntity
  8
0
100
AcDbLine
 10
240.5
 20
40.0
 30
0.0
 11
242.3999999999999
 21
40.0
 31
0.0
  0
LINE
  5
238
330
1E
100
AcDbEntity
  8
0
100
AcDbLine
 10
240.5
 20
37.0
 30
0.0
 11
242.3999999999999
 21
37.0
 31
0.0
  0
LINE
  5
239
330
1E
100
AcDbEntity
  8
0
100
AcDbLine
 10
236.0
 20
61.0
 30
0.0
 11
238.8
 21
61.0
 31
0.0
  0
LINE
  5
23A
330
1E
100
AcDbEntity
  8
0
100
AcDbLine
 10
238.8
 20
61.0
 30
0.0
 11
241.5
 21
61.0
 31
0.0
  0
LINE
  5
23B
330
1E
100
AcDbEntity
  8
0
100
AcDbLine
 10
243.1
 20
-0.0000000000000038
 30
0.0
 11
249.6999999999999
 21
-0.0000000000000036
 31
0.0
  0
LINE
  5
240
330
1E
100
AcDbEntity
  8
0
100
AcDbLine
 10
242.3999999999999
 20
37.0
 30
0.0
 11
243.8
 21
37.0
 31
0.0
  0
LINE
  5
241
330
1E
100
AcDbEntity
  8
0
100
AcDbLine
 10
243.8
 20
37.0
 30
0.0
 11
244.7
 21
37.0
 31
0.0
  0
LINE
  5
242
330
1E
100
AcDbEntity
  8
0
100
AcDbLine
 10
244.7
 20
37.0
 30
0.0
 11
245.0
 21
37.0
 31
0.0
  0
LINE
  5
245
330
1E
100
AcDbEntity
  8
0
100
AcDbLine
 10
242.3999999999999
 20
40.0
 30
0.0
 11
243.8
 21
40.0
 31
0.0
  0
LINE
  5
248
330
1E
100
AcDbEntity
  8
0
100
AcDbLine
 10
243.8
 20
40.0
 30
0.0
 11
244.7
 21
40.0
 31
0.0
  0
LINE
  5
249
330
1E
100
AcDbEntity
  8
0
100
AcDbLine
 10
242.5
 20
47.2
 30
0.0
 11
243.1999999999999
 21
49.0
 31
0.0
  0
LINE
  5
24A
330
1E
100
AcDbEntity
  8
0
100
AcDbLine
 10
242.5
 20
54.8
 30
0.0
 11
243.1999999999999
 21
53.0
 31
0.0
  0
LINE
  5
24B
330
1E
100
AcDbEntity
  8
0
100
AcDbLine
 10
243.1999999999999
 20
53.0
 30
0.0
 11
243.5
 21
51.0
 31
0.0
  0
LINE
  5
24C
330
1E
100
AcDbEntity
  8
0
100
AcDbLine
 10
243.1999999999999
 20
49.0
 30
0.0
 11
243.5
 21
51.0
 31
0.0
  0
LINE
  5
24F
330
1E
100
AcDbEntity
  8
0
100
AcDbLine
 10
243.8
 20
59.0
 30
0.0
 11
245.5
 21
59.0
 31
0.0
  0
LINE
  5
250
330
1E
100
AcDbEntity
  8
0
100
AcDbLine
 10
244.7
 20
40.0
 30
0.0
 11
245.0
 21
40.0
 31
0.0
  0
LINE
  5
251
330
1E
100
AcDbEntity
  8
0
100
AcDbLine
 10
245.5
 20
59.0
 30
0.0
 11
246.6
 21
59.0
 31
0.0
  0
LINE
  5
252
330
1E
100
AcDbEntity
  8
0
100
AcDbLine
 10
245.0
 20
40.0
 30
0.0
 11
247.0
 21
43.0
 31
0.0
  0
LINE
  5
253
330
1E
100
AcDbEntity
  8
0
100
AcDbLine
 10
245.0
 20
40.0
 30
0.0
 11
246.0
 21
39.0
 31
0.0
  0
LINE
  5
254
330
1E
100
AcDbEntity
  8
0
100
AcDbLine
 10
245.0
 20
37.0
 30
0.0
 11
248.0
 21
34.0
 31
0.0
  0
LINE
  5
255
330
1E
100
AcDbEntity
  8
0
100
AcDbLine
 10
245.0
 20
37.0
 30
0.0
 11
246.0
 21
38.0
 31
0.0
  0
LINE
  5
256
330
1E
100
AcDbEntity
  8
0
100
AcDbLine
 10
242.2
 20
7.0
 30
0.0
 11
248.0
 21
7.0
 31
0.0
  0
LINE
  5
257
330
1E
100
AcDbEntity
  8
0
100
AcDbLine
 10
243.1
 20
-0.0000000000000005
 30
0.0
 11
249.6999999999999
 21
-0.0000000000000007
 31
0.0
  0
LINE
  5
258
330
1E
100
AcDbEntity
  8
0
100
AcDbLine
 10
241.5
 20
61.0
 30
0.0
 11
243.8
 21
61.0
 31
0.0
  0
LINE
  5
259
330
1E
100
AcDbEntity
  8
0
100
AcDbLine
 10
243.8
 20
61.0
 30
0.0
 11
245.5
 21
61.0
 31
0.0
  0
LINE
  5
25A
330
1E
100
AcDbEntity
  8
0
100
AcDbLine
 10
249.6999999999999
 20
-0.0000000000000036
 30
0.0
 11
255.4
 21
-0.0000000000000033
 31
0.0
  0
LINE
  5
25B
330
1E
100
AcDbEntity
  8
0
100
AcDbLine
 10
255.4
 20
-0.0000000000000033
 30
0.0
 11
259.8
 21
-0.000000000000003
 31
0.0
  0
LINE
  5
25C
330
1E
100
AcDbEntity
  8
0
100
AcDbLine
 10
259.8
 20
-0.000000000000003
 30
0.0
 11
262.5
 21
-0.0000000000000026
 31
0.0
  0
LINE
  5
25D
330
1E
100
AcDbEntity
  8
0
100
AcDbLine
 10
262.5
 20
-0.0000000000000026
 30
0.0
 11
263.5
 21
-0.0000000000000021
 31
0.0
  0
LINE
  5
25E
330
1E
100
AcDbEntity
  8
0
100
AcDbLine
 10
249.6999999999999
 20
-0.0000000000000007
 30
0.0
 11
255.4
 21
-0.000000000000001
 31
0.0
  0
LINE
  5
25F
330
1E
100
AcDbEntity
  8
0
100
AcDbLine
 10
255.4
 20
-0.000000000000001
 30
0.0
 11
259.8
 21
-0.0000000000000013
 31
0.0
  0
LINE
  5
260
330
1E
100
AcDbEntity
  8
0
100
AcDbLine
 10
259.8
 20
-0.0000000000000013
 30
0.0
 11
262.5
 21
-0.0000000000000017
 31
0.0
  0
LINE
  5
261
330
1E
100
AcDbEntity
  8
0
100
AcDbLine
 10
262.5
 20
-0.0000000000000017
 30
0.0
 11
263.5
 21
-0.0000000000000021
 31
0.0
  0
LINE
  5
262
330
1E
100
AcDbEntity
  8
0
100
AcDbLine
 10
259.1
 20
7.0
 30
0.0
 11
260.0
 21
7.0
 31
0.0
  0
LINE
  5
263
330
1E
100
AcDbEntity
  8
0
100
AcDbLine
 10
248.0
 20
7.0
 30
0.0
 11
252.8999999999999
 21
7.0
 31
0.0
  0
LINE
  5
264
330
1E
100
AcDbEntity
  8
0
100
AcDbLine
 10
246.4999999999999
 20
10.5
 30
0.0
 11
250.8
 21
10.5
 31
0.0
  0
LINE
  5
268
330
1E
100
AcDbEntity
  8
0
100
AcDbLine
 10
254.1999999999999
 20
10.5
 30
0.0
 11
256.1999999999999
 21
10.5
 31
0.0
  0
LINE
  5
26B
330
1E
100
AcDbEntity
  8
0
100
AcDbLine
 10
246.0
 20
39.0
 30
0.0
 11
246.0
 21
38.0
 31
0.0
  0
LINE
  5
26C
330
1E
100
AcDbEntity
  8
0
100
AcDbLine
 10
246.0
 20
38.0
 30
0.0
 11
246.0
 21
39.0
 31
0.0
  0
LINE
  5
26E
330
1E
100
AcDbEntity
  8
0
100
AcDbLine
 10
248.0
 20
55.875
 30
0.0
 11
251.0
 21
57.0
 31
0.0
  0
LINE
  5
270
330
1E
100
AcDbEntity
  8
0
100
AcDbLine
 10
247.0
 20
61.0
 30
0.0
 11
247.5
 21
60.5
 31
0.0
  0
LINE
  5
272
330
1E
100
AcDbEntity
  8
0
100
AcDbLine
 10
246.6
 20
59.0
 30
0.0
 11
247.0
 21
59.0
 31
0.0
  0
LINE
  5
273
330
1E
100
AcDbEntity
  8
0
100
AcDbLine
 10
247.5
 20
59.5
 30
0.0
 11
247.5
 21
60.5
 31
0.0
  0
LINE
  5
274
330
1E
100
AcDbEntity
  8
0
100
AcDbLine
 10
247.5
 20
60.5
 30
0.0
 11
247.5
 21
59.5
 31
0.0
  0
LINE
  5
277
330
1E
100
AcDbEntity
  8
0
100
AcDbLine
 10
247.0
 20
59.0
 30
0.0
 11
248.0
 21
56.0
 31
0.0
  0
LINE
  5
278
330
1E
100
AcDbEntity
  8
0
100
AcDbLine
 10
247.0
 20
59.0
 30
0.0
 11
247.5
 21
59.5
 31
0.0
  0
LINE
  5
279
330
1E
100
AcDbEntity
  8
0
100
AcDbLine
 10
248.0
 20
56.0
 30
0.0
 11
248.019607843137
 21
55.8823529411765
 31
0.0
  0
LINE
  5
27A
330
1E
100
AcDbEntity
  8
0
100
AcDbLine
 10
248.0
 20
46.0
 30
0.0
 11
248.019607843137
 21
46.11764705882349
 31
0.0
  0
LINE
  5
27B
330
1E
100
AcDbEntity
  8
0
100
AcDbLine
 10
247.0
 20
43.0
 30
0.0
 11
248.0
 21
46.0
 31
0.0
  0
LINE
  5
27C
330
1E
100
AcDbEntity
  8
0
100
AcDbLine
 10
251.0
 20
57.0
 30
0.0
 11
255.0
 21
58.0
 31
0.0
  0
LINE
  5
27D
330
1E
100
AcDbEntity
  8
0
100
AcDbLine
 10
248.019607843137
 20
46.11764705882349
 30
0.0
 11
251.0
 21
45.0
 31
0.0
  0
LINE
  5
27E
330
1E
100
AcDbEntity
  8
0
100
AcDbLine
 10
251.0
 20
45.0
 30
0.0
 11
255.0
 21
44.0
 31
0.0
  0
LINE
  5
27F
330
1E
100
AcDbEntity
  8
0
100
AcDbLine
 10
248.0
 20
34.0
 30
0.0
 11
250.4999999999999
 21
29.0
 31
0.0
  0
LINE
  5
280
330
1E
100
AcDbEntity
  8
0
100
AcDbLine
 10
250.4999999999999
 20
29.0
 30
0.0
 11
253.0
 21
23.0
 31
0.0
  0
LINE
  5
281
330
1E
100
AcDbEntity
  8
0
100
AcDbLine
 10
255.0
 20
58.0
 30
0.0
 11
258.0
 21
58.2
 31
0.0
  0
LINE
  5
282
330
1E
100
AcDbEntity
  8
0
100
AcDbLine
 10
255.0
 20
44.0
 30
0.0
 11
258.0
 21
43.79999999999999
 31
0.0
  0
LINE
  5
283
330
1E
100
AcDbEntity
  8
0
100
AcDbLine
 10
253.0
 20
23.0
 30
0.0
 11
255.0
 21
16.5
 31
0.0
  0
LINE
  5
284
330
1E
100
AcDbEntity
  8
0
100
AcDbLine
 10
250.8
 20
10.5
 30
0.0
 11
254.1999999999999
 21
10.5
 31
0.0
  0
LINE
  5
285
330
1E
100
AcDbEntity
  8
0
100
AcDbLine
 10
256.1999999999999
 20
10.5
 30
0.0
 11
257.0
 21
10.5
 31
0.0
  0
LINE
  5
288
330
1E
100
AcDbEntity
  8
0
100
AcDbLine
 10
255.0
 20
16.5
 30
0.0
 11
256.0
 21
10.5
 31
0.0
  0
LINE
  5
289
330
1E
100
AcDbEntity
  8
0
100
AcDbLine
 10
252.8999999999999
 20
7.0
 30
0.0
 11
256.8
 21
7.0
 31
0.0
  0
LINE
  5
28A
330
1E
100
AcDbEntity
  8
0
100
AcDbLine
 10
257.0
 20
10.5
 30
0.0
 11
258.0
 21
9.5
 31
0.0
  0
LINE
  5
28B
330
1E
100
AcDbEntity
  8
0
100
AcDbLine
 10
258.0
 20
8.0
 30
0.0
 11
258.0
 21
9.5
 31
0.0
  0
LINE
  5
28C
330
1E
100
AcDbEntity
  8
0
100
AcDbLine
 10
258.0
 20
9.5
 30
0.0
 11
258.0
 21
8.0
 31
0.0
  0
LINE
  5
28F
330
1E
100
AcDbEntity
  8
0
100
AcDbLine
 10
257.0
 20
7.0
 30
0.0
 11
258.0
 21
8.0
 31
0.0
  0
LINE
  5
290
330
1E
100
AcDbEntity
  8
0
100
AcDbLine
 10
258.0
 20
58.2
 30
0.0
 11
262.0
 21
58.5
 31
0.0
  0
LINE
  5
291
330
1E
100
AcDbEntity
  8
0
100
AcDbLine
 10
262.0
 20
58.5
 30
0.0
 11
265.5
 21
58.0
 31
0.0
  0
LINE
  5
292
330
1E
100
AcDbEntity
  8
0
100
AcDbLine
 10
258.0
 20
43.79999999999999
 30
0.0
 11
262.0
 21
43.5
 31
0.0
  0
LINE
  5
293
330
1E
100
AcDbEntity
  8
0
100
AcDbLine
 10
262.0
 20
43.5
 30
0.0
 11
265.5
 21
44.0
 31
0.0
  0
LINE
  5
294
330
1E
100
AcDbEntity
  8
0
100
AcDbLine
 10
256.8
 20
7.0
 30
0.0
 11
259.1
 21
7.0
 31
0.0
  0
LINE
  5
295
330
1E
100
AcDbEntity
  8
0
100
AcDbLine
 10
260.0
 20
7.0
 30
0.0
 11
262.0
 21
5.0
 31
0.0
  0
LINE
  5
296
330
1E
100
AcDbEntity
  8
0
100
AcDbLine
 10
265.5
 20
44.0
 30
0.0
 11
268.0
 21
45.0
 31
0.0
  0
LINE
  5
297
330
1E
100
AcDbEntity
  8
0
100
AcDbLine
 10
268.0
 20
45.0
 30
0.0
 11
270.0
 21
46.5
 31
0.0
  0
LINE
  5
298
330
1E
100
AcDbEntity
  8
0
100
AcDbLine
 10
270.0
 20
46.5
 30
0.0
 11
271.4999999999999
 21
48.5
 31
0.0
  0
LINE
  5
299
330
1E
100
AcDbEntity
  8
0
100
AcDbLine
 10
265.5
 20
58.0
 30
0.0
 11
268.0
 21
57.0
 31
0.0
  0
LINE
  5
29A
330
1E
100
AcDbEntity
  8
0
100
AcDbLine
 10
268.0
 20
57.0
 30
0.0
 11
270.0
 21
55.5
 31
0.0
  0
LINE
  5
29B
330
1E
100
AcDbEntity
  8
0
100
AcDbLine
 10
270.0
 20
55.5
 30
0.0
 11
271.4999999999999
 21
53.5
 31
0.0
  0
LINE
  5
29C
330
1E
100
AcDbEntity
  8
0
100
AcDbLine
 10
271.4999999999999
 20
53.5
 30
0.0
 11
272.0
 21
51.0
 31
0.0
  0
LINE
  5
29D
330
1E
100
AcDbEntity
  8
0
100
AcDbLine
 10
271.4999999999999
 20
48.5
 30
0.0
 11
272.0
 21
51.0
 31
0.0
  0
LINE
  5
29E
330
1E
100
AcDbEntity
  8
0
100
AcDbLine
 10
262.0
 20
5.0
 30
0.0
 11
263.0
 21
3.0
 31
0.0
  0
LINE
  5
29F
330
1E
100
AcDbEntity
  8
0
100
AcDbLine
 10
263.0
 20
3.0
 30
0.0
 11
263.5
 21
-0.0000000000000021
 31
0.0
  0
LINE
  5
2A0
330
1E
100
AcDbEntity
  8
0
100
AcDbLine
 10
263.0
 20
3.0
 30
0.0
 11
263.5
 21
-0.0000000000000021
 31
0.0
  0
LINE
  5
2A1
330
1E
100
AcDbEntity
  8
0
100
AcDbLine
 10
245.5
 20
61.0
 30
0.0
 11
246.6
 21
61.0
 31
0.0
  0
LINE
  5
2A2
330
1E
100
AcDbEntity
  8
0
100
AcDbLine
 10
246.6
 20
61.0
 30
0.0
 11
247.0
 21
61.0
 31
0.0
  0
LINE
  5
2A3
330
1E
100
AcDbEntity
  8
0
100
AcDbLine
 10
45.49999999999999
 20
61.0
 30
0.0
 11
46.6
 21
61.0
 31
0.0
  0
LINE
  5
2A4
330
1E
100
AcDbEntity
  8
0
100
AcDbLine
 10
46.6
 20
61.0
 30
0.0
 11
47.0
 21
61.0
 31
0.0
  0
LINE
  5
2A5
330
1E
100
AcDbEntity
  8
0
100
AcDbLine
 10
33.2
 20
61.0
 30
0.0
 11
36.0
 21
61.0
 31
0.0
  0
LINE
  5
2A6
330
1E
100
AcDbEntity
  8
0
100
AcDbLine
 10
30.5
 20
61.0
 30
0.0
 11
33.2
 21
61.0
 31
0.0
  0
LINE
  5
2A7
330
1E
100
AcDbEntity
  8
0
100
AcDbLine
 10
28.2
 20
61.0
 30
0.0
 11
30.5
 21
61.0
 31
0.0
  0
LINE
  5
2A8
330
1E
100
AcDbEntity
  8
0
100
AcDbLine
 10
26.5
 20
61.0
 30
0.0
 11
28.2
 21
61.0
 31
0.0
  0
LINE
  5
2A9
330
1E
100
AcDbEntity
  8
0
100
AcDbLine
 10
25.4
 20
61.0
 30
0.0
 11
26.5
 21
61.0
 31
0.0
  0
LINE
  5
2AA
330
1E
100
AcDbEntity
  8
0
100
AcDbLine
 10
39.29999999999999
 20
64.8
 30
0.0
 11
43.2
 21
63.5
 31
0.0
  0
LINE
  5
2AC
330
1E
100
AcDbEntity
  8
0
100
AcDbLine
 10
228.8
 20
63.5
 30
0.0
 11
232.6999999999999
 21
64.8
 31
0.0
  0
LINE
  5
2AD
330
1E
100
AcDbEntity
  8
0
100
AcDbLine
 10
232.6999999999999
 20
64.8
 30
0.0
 11
236.0
 21
65.0
 31
0.0
  0
LINE
  5
2AE
330
1E
100
AcDbEntity
  8
0
100
AcDbLine
 10
239.3
 20
64.8
 30
0.0
 11
243.1999999999999
 21
63.5
 31
0.0
  0
LINE
  5
2AF
330
1E
100
AcDbEntity
  8
0
100
AcDbLine
 10
243.1999999999999
 20
63.5
 30
0.0
 11
247.0
 21
61.0
 31
0.0
  0
LINE
  5
2B0
330
1E
100
AcDbEntity
  8
0
100
AcDbLine
 10
43.2
 20
63.5
 30
0.0
 11
47.0
 21
61.0
 31
0.0
  0
LINE
  5
2B1
330
1E
100
AcDbEntity
  8
0
100
AcDbLine
 10
110.977
 20
70.9444
 30
0.0
 11
113.5738
 21
76.2702
 31
0.0
  0
LINE
  5
2B2
330
1E
100
AcDbEntity
  8
0
100
AcDbLine
 10
110.0327999999999
 20
65.3171
 30
0.0
 11
110.977
 21
70.9444
 31
0.0
  0
LINE
  5
2B3
330
1E
100
AcDbEntity
  8
0
100
AcDbLine
 10
110.0327999999999
 20
65.3171
 30
0.0
 11
110.0327999999999
 21
10.5512
 31
0.0
  0
LINE
  5
2B4
330
1E
100
AcDbEntity
  8
0
100
AcDbLine
 10
161.967
 20
65.3171
 30
0.0
 11
161.967
 21
10.5512
 31
0.0
  0
LINE
  5
2B5
330
1E
100
AcDbEntity
  8
0
100
AcDbLine
 10
161.023
 20
70.9444
 30
0.0
 11
161.967
 21
65.3171
 31
0.0
  0
LINE
  5
2B6
330
1E
100
AcDbEntity
  8
0
100
AcDbLine
 10
154.0
 20
71.6
 30
0.0
 11
154.0
 21
86.2114
 31
0.0
  0
LINE
  5
2B9
330
1E
100
AcDbEntity
  8
0
100
AcDbLine
 10
117.7049
 20
80.8927
 30
0.0
 11
118.0
 21
81.08385870890499
 31
0.0
  0
LINE
  5
2BA
330
1E
100
AcDbEntity
  8
0
100
AcDbLine
 10
113.5738
 20
76.2702
 30
0.0
 11
117.7049
 21
80.8927
 31
0.0
  0
LINE
  5
2BB
330
1E
100
AcDbEntity
  8
0
100
AcDbLine
 10
118.0
 20
86.2114
 30
0.0
 11
118.0
 21
109.421
 31
0.0
  0
LINE
  5
2BC
330
1E
100
AcDbEntity
  8
0
100
AcDbLine
 10
118.0
 20
86.2114
 30
0.0
 11
118.0
 21
71.6
 31
0.0
  0
LINE
  5
2BD
330
1E
100
AcDbEntity
  8
0
100
AcDbLine
 10
118.0
 20
109.421
 30
0.0
 11
118.0
 21
134.911
 31
0.0
  0
LINE
  5
2BE
330
1E
100
AcDbEntity
  8
0
100
AcDbLine
 10
118.0
 20
109.421
 30
0.0
 11
118.0
 21
86.2114
 31
0.0
  0
LINE
  5
2BF
330
1E
100
AcDbEntity
  8
0
100
AcDbLine
 10
118.0
 20
134.911
 30
0.0
 11
118.0
 21
158.077
 31
0.0
  0
LINE
  5
2C0
330
1E
100
AcDbEntity
  8
0
100
AcDbLine
 10
118.0
 20
134.911
 30
0.0
 11
118.0
 21
109.421
 31
0.0
  0
LINE
  5
2C1
330
1E
100
AcDbEntity
  8
0
100
AcDbLine
 10
118.0
 20
158.077
 30
0.0
 11
118.0
 21
171.798
 31
0.0
  0
LINE
  5
2C2
330
1E
100
AcDbEntity
  8
0
100
AcDbLine
 10
118.0
 20
158.077
 30
0.0
 11
118.0
 21
134.911
 31
0.0
  0
LINE
  5
2C3
330
1E
100
AcDbEntity
  8
0
100
AcDbLine
 10
118.0
 20
164.1659999999999
 30
0.0
 11
118.0
 21
171.798
 31
0.0
  0
LINE
  5
2C4
330
1E
100
AcDbEntity
  8
0
100
AcDbLine
 10
118.0
 20
164.1659999999999
 30
0.0
 11
118.0
 21
155.8859999999999
 31
0.0
  0
LINE
  5
2C5
330
1E
100
AcDbEntity
  8
0
100
AcDbLine
 10
118.0
 20
176.7549999999999
 30
0.0
 11
118.0
 21
171.798
 31
0.0
  0
LINE
  5
2C6
330
1E
100
AcDbEntity
  8
0
100
AcDbLine
 10
118.0
 20
176.7549999999999
 30
0.0
 11
118.0
 21
180.272
 31
0.0
  0
LINE
  5
2C7
330
1E
100
AcDbEntity
  8
0
100
AcDbLine
 10
118.0
 20
171.798
 30
0.0
 11
118.0
 21
176.7549999999999
 31
0.0
  0
LINE
  5
2C8
330
1E
100
AcDbEntity
  8
0
100
AcDbLine
 10
118.0
 20
171.798
 30
0.0
 11
118.0
 21
164.1659999999999
 31
0.0
  0
LINE
  5
2C9
330
1E
100
AcDbEntity
  8
0
100
AcDbLine
 10
118.0
 20
171.798
 30
0.0
 11
118.0
 21
158.077
 31
0.0
  0
LINE
  5
2CA
330
1E
100
AcDbEntity
  8
0
100
AcDbLine
 10
118.0
 20
171.798
 30
0.0
 11
118.0
 21
176.7549999999999
 31
0.0
  0
LINE
  5
2CB
330
1E
100
AcDbEntity
  8
0
100
AcDbLine
 10
118.0
 20
176.7549999999999
 30
0.0
 11
118.0
 21
180.272
 31
0.0
  0
LINE
  5
2CC
330
1E
100
AcDbEntity
  8
0
100
AcDbLine
 10
118.0
 20
176.7549999999999
 30
0.0
 11
118.0
 21
171.798
 31
0.0
  0
LINE
  5
2CD
330
1E
100
AcDbEntity
  8
0
100
AcDbLine
 10
118.5999999999999
 20
186.5999999999999
 30
0.0
 11
120.4
 21
191.0
 31
0.0
  0
LINE
  5
2CE
330
1E
100
AcDbEntity
  8
0
100
AcDbLine
 10
118.0
 20
182.0
 30
0.0
 11
118.0
 21
180.272
 31
0.0
  0
LINE
  5
2CF
330
1E
100
AcDbEntity
  8
0
100
AcDbLine
 10
118.0
 20
182.0
 30
0.0
 11
118.5999999999999
 21
186.5999999999999
 31
0.0
  0
LINE
  5
2D0
330
1E
100
AcDbEntity
  8
0
100
AcDbLine
 10
118.0
 20
180.272
 30
0.0
 11
118.0
 21
182.0
 31
0.0
  0
LINE
  5
2D1
330
1E
100
AcDbEntity
  8
0
100
AcDbLine
 10
118.0
 20
180.272
 30
0.0
 11
118.0
 21
176.7549999999999
 31
0.0
  0
LINE
  5
2D2
330
1E
100
AcDbEntity
  8
0
100
AcDbLine
 10
118.0
 20
180.272
 30
0.0
 11
118.0
 21
176.7549999999999
 31
0.0
  0
LINE
  5
2D3
330
1E
100
AcDbEntity
  8
0
100
AcDbLine
 10
118.5999999999999
 20
158.1859999999999
 30
0.0
 11
120.4
 21
160.386
 31
0.0
  0
LINE
  5
2D4
330
1E
100
AcDbEntity
  8
0
100
AcDbLine
 10
118.0
 20
155.8859999999999
 30
0.0
 11
118.5999999999999
 21
153.686
 31
0.0
  0
LINE
  5
2D5
330
1E
100
AcDbEntity
  8
0
100
AcDbLine
 10
118.0
 20
155.8859999999999
 30
0.0
 11
118.5999999999999
 21
158.1859999999999
 31
0.0
  0
LINE
  5
2D6
330
1E
100
AcDbEntity
  8
0
100
AcDbLine
 10
118.0
 20
155.8859999999999
 30
0.0
 11
118.0
 21
164.1659999999999
 31
0.0
  0
LINE
  5
2D7
330
1E
100
AcDbEntity
  8
0
100
AcDbLine
 10
120.4
 20
191.0
 30
0.0
 11
123.3
 21
194.6999999999999
 31
0.0
  0
LINE
  5
2D8
330
1E
100
AcDbEntity
  8
0
100
AcDbLine
 10
120.4
 20
160.386
 30
0.0
 11
123.3
 21
162.286
 31
0.0
  0
LINE
  5
2D9
330
1E
100
AcDbEntity
  8
0
100
AcDbLine
 10
120.5999999999999
 20
156.186
 30
0.0
 11
122.0999999999999
 21
158.1859999999999
 31
0.0
  0
LINE
  5
2DA
330
1E
100
AcDbEntity
  8
0
100
AcDbLine
 10
120.0
 20
154.1859999999999
 30
0.0
 11
120.5999999999999
 21
152.086
 31
0.0
  0
LINE
  5
2DB
330
1E
100
AcDbEntity
  8
0
100
AcDbLine
 10
120.0
 20
154.1859999999999
 30
0.0
 11
120.5999999999999
 21
156.186
 31
0.0
  0
LINE
  5
2DC
330
1E
100
AcDbEntity
  8
0
100
AcDbLine
 10
118.5999999999999
 20
153.686
 30
0.0
 11
120.4
 21
151.386
 31
0.0
  0
LINE
  5
2DD
330
1E
100
AcDbEntity
  8
0
100
AcDbLine
 10
122.0999999999999
 20
158.1859999999999
 30
0.0
 11
124.7
 21
159.786
 31
0.0
  0
LINE
  5
2DE
330
1E
100
AcDbEntity
  8
0
100
AcDbLine
 10
120.5999999999999
 20
152.086
 30
0.0
 11
122.0999999999999
 21
150.186
 31
0.0
  0
LINE
  5
2DF
330
1E
100
AcDbEntity
  8
0
100
AcDbLine
 10
120.4
 20
151.386
 30
0.0
 11
122.0999999999999
 21
150.186
 31
0.0
  0
LINE
  5
2E0
330
1E
100
AcDbEntity
  8
0
100
AcDbLine
 10
123.5
 20
149.8879999999999
 30
0.0
 11
124.7
 21
148.3379999999999
 31
0.0
  0
LINE
  5
2E1
330
1E
100
AcDbEntity
  8
0
100
AcDbLine
 10
124.7
 20
148.3379999999999
 30
0.0
 11
126.5
 21
147.106
 31
0.0
  0
LINE
  5
2E5
330
1E
100
AcDbEntity
  8
0
100
AcDbLine
 10
124.7
 20
154.8379999999999
 30
0.0
 11
126.8
 21
156.1879999999999
 31
0.0
  0
LINE
  5
2E6
330
1E
100
AcDbEntity
  8
0
100
AcDbLine
 10
123.5
 20
153.2879999999999
 30
0.0
 11
124.7
 21
154.8379999999999
 31
0.0
  0
LINE
  5
2E7
330
1E
100
AcDbEntity
  8
0
100
AcDbLine
 10
123.0
 20
151.5879999999999
 30
0.0
 11
123.5
 21
153.2879999999999
 31
0.0
  0
LINE
  5
2E8
330
1E
100
AcDbEntity
  8
0
100
AcDbLine
 10
123.0
 20
151.5879999999999
 30
0.0
 11
123.5
 21
149.8879999999999
 31
0.0
  0
LINE
  5
2EA
330
1E
100
AcDbEntity
  8
0
100
AcDbLine
 10
154.0
 20
81.0838115306686
 30
0.0
 11
154.2949999999999
 21
80.8927
 31
0.0
  0
LINE
  5
2EB
330
1E
100
AcDbEntity
  8
0
100
AcDbLine
 10
154.0
 20
86.2114
 30
0.0
 11
154.0
 21
109.421
 31
0.0
  0
LINE
  5
2EC
330
1E
100
AcDbEntity
  8
0
100
AcDbLine
 10
154.0
 20
86.2114
 30
0.0
 11
154.0
 21
71.6
 31
0.0
  0
LINE
  5
2ED
330
1E
100
AcDbEntity
  8
0
100
AcDbLine
 10
136.0
 20
144.3559999999999
 30
0.0
 11
138.8
 21
144.556
 31
0.0
  0
LINE
  5
2EE
330
1E
100
AcDbEntity
  8
0
100
AcDbLine
 10
138.8
 20
144.556
 30
0.0
 11
141.5
 21
145.106
 31
0.0
  0
LINE
  5
2EF
330
1E
100
AcDbEntity
  8
0
100
AcDbLine
 10
141.5
 20
145.106
 30
0.0
 11
143.8
 21
145.956
 31
0.0
  0
LINE
  5
2F0
330
1E
100
AcDbEntity
  8
0
100
AcDbLine
 10
133.1999999999999
 20
144.556
 30
0.0
 11
136.0
 21
144.3559999999999
 31
0.0
  0
LINE
  5
2F1
330
1E
100
AcDbEntity
  8
0
100
AcDbLine
 10
143.8
 20
145.956
 30
0.0
 11
145.5
 21
147.106
 31
0.0
  0
LINE
  5
2F2
330
1E
100
AcDbEntity
  8
0
100
AcDbLine
 10
145.5
 20
147.106
 30
0.0
 11
146.6
 21
148.456
 31
0.0
  0
LINE
  5
2F3
330
1E
100
AcDbEntity
  8
0
100
AcDbLine
 10
145.5
 20
147.106
 30
0.0
 11
147.3
 21
148.3379999999999
 31
0.0
  0
LINE
  5
2F4
330
1E
100
AcDbEntity
  8
0
100
AcDbLine
 10
130.4999999999999
 20
145.106
 30
0.0
 11
133.1999999999999
 21
144.556
 31
0.0
  0
LINE
  5
2F5
330
1E
100
AcDbEntity
  8
0
100
AcDbLine
 10
128.1999999999999
 20
145.956
 30
0.0
 11
130.4999999999999
 21
145.106
 31
0.0
  0
LINE
  5
2F6
330
1E
100
AcDbEntity
  8
0
100
AcDbLine
 10
147.3
 20
148.3379999999999
 30
0.0
 11
148.5
 21
149.8879999999999
 31
0.0
  0
LINE
  5
2F7
330
1E
100
AcDbEntity
  8
0
100
AcDbLine
 10
146.6
 20
148.456
 30
0.0
 11
147.0
 21
149.8559999999999
 31
0.0
  0
LINE
  5
2F8
330
1E
100
AcDbEntity
  8
0
100
AcDbLine
 10
126.5
 20
147.106
 30
0.0
 11
128.1999999999999
 21
145.956
 31
0.0
  0
LINE
  5
2F9
330
1E
100
AcDbEntity
  8
0
100
AcDbLine
 10
125.4
 20
148.456
 30
0.0
 11
126.5
 21
147.106
 31
0.0
  0
LINE
  5
2FA
330
1E
100
AcDbEntity
  8
0
100
AcDbLine
 10
126.8
 20
156.1879999999999
 30
0.0
 11
129.4999999999999
 21
157.238
 31
0.0
  0
LINE
  5
2FB
330
1E
100
AcDbEntity
  8
0
100
AcDbLine
 10
141.5
 20
154.6059999999999
 30
0.0
 11
143.8
 21
153.756
 31
0.0
  0
LINE
  5
2FC
330
1E
100
AcDbEntity
  8
0
100
AcDbLine
 10
143.8
 20
153.756
 30
0.0
 11
145.5
 21
152.606
 31
0.0
  0
LINE
  5
2FE
330
1E
100
AcDbEntity
  8
0
100
AcDbLine
 10
132.6
 20
157.8379999999999
 30
0.0
 11
136.0
 21
158.088
 31
0.0
  0
LINE
  5
2FF
330
1E
100
AcDbEntity
  8
0
100
AcDbLine
 10
129.4999999999999
 20
157.238
 30
0.0
 11
132.6
 21
157.8379999999999
 31
0.0
  0
LINE
  5
301
330
1E
100
AcDbEntity
  8
0
100
AcDbLine
 10
136.0
 20
158.088
 30
0.0
 11
139.4
 21
157.8379999999999
 31
0.0
  0
LINE
  5
302
330
1E
100
AcDbEntity
  8
0
100
AcDbLine
 10
139.4
 20
157.8379999999999
 30
0.0
 11
142.5
 21
157.238
 31
0.0
  0
LINE
  5
303
330
1E
100
AcDbEntity
  8
0
100
AcDbLine
 10
142.5
 20
157.238
 30
0.0
 11
145.1999999999999
 21
156.1879999999999
 31
0.0
  0
LINE
  5
304
330
1E
100
AcDbEntity
  8
0
100
AcDbLine
 10
136.0
 20
155.356
 30
0.0
 11
138.8
 21
155.156
 31
0.0
  0
LINE
  5
305
330
1E
100
AcDbEntity
  8
0
100
AcDbLine
 10
138.8
 20
155.156
 30
0.0
 11
141.5
 21
154.6059999999999
 31
0.0
  0
LINE
  5
306
330
1E
100
AcDbEntity
  8
0
100
AcDbLine
 10
133.1999999999999
 20
155.156
 30
0.0
 11
136.0
 21
155.356
 31
0.0
  0
LINE
  5
307
330
1E
100
AcDbEntity
  8
0
100
AcDbLine
 10
130.4999999999999
 20
154.6059999999999
 30
0.0
 11
133.1999999999999
 21
155.156
 31
0.0
  0
LINE
  5
308
330
1E
100
AcDbEntity
  8
0
100
AcDbLine
 10
128.1999999999999
 20
153.756
 30
0.0
 11
130.4999999999999
 21
154.6059999999999
 31
0.0
  0
LINE
  5
309
330
1E
100
AcDbEntity
  8
0
100
AcDbLine
 10
126.5
 20
152.606
 30
0.0
 11
128.1999999999999
 21
153.756
 31
0.0
  0
LINE
  5
30A
330
1E
100
AcDbEntity
  8
0
100
AcDbLine
 10
125.4
 20
151.256
 30
0.0
 11
126.5
 21
152.606
 31
0.0
  0
LINE
  5
30B
330
1E
100
AcDbEntity
  8
0
100
AcDbLine
 10
125.0
 20
149.8559999999999
 30
0.0
 11
125.4
 21
151.256
 31
0.0
  0
LINE
  5
30C
330
1E
100
AcDbEntity
  8
0
100
AcDbLine
 10
125.0
 20
149.8559999999999
 30
0.0
 11
125.4
 21
148.456
 31
0.0
  0
LINE
  5
30D
330
1E
100
AcDbEntity
  8
0
100
AcDbLine
 10
148.5
 20
149.8879999999999
 30
0.0
 11
149.0
 21
151.5879999999999
 31
0.0
  0
LINE
  5
30E
330
1E
100
AcDbEntity
  8
0
100
AcDbLine
 10
145.5
 20
152.606
 30
0.0
 11
146.6
 21
151.256
 31
0.0
  0
LINE
  5
310
330
1E
100
AcDbEntity
  8
0
100
AcDbLine
 10
148.5
 20
153.2879999999999
 30
0.0
 11
149.0
 21
151.5879999999999
 31
0.0
  0
LINE
  5
311
330
1E
100
AcDbEntity
  8
0
100
AcDbLine
 10
146.6
 20
151.256
 30
0.0
 11
147.0
 21
149.8559999999999
 31
0.0
  0
LINE
  5
314
330
1E
100
AcDbEntity
  8
0
100
AcDbLine
 10
145.1999999999999
 20
156.1879999999999
 30
0.0
 11
147.3
 21
154.8379999999999
 31
0.0
  0
LINE
  5
315
330
1E
100
AcDbEntity
  8
0
100
AcDbLine
 10
147.3
 20
154.8379999999999
 30
0.0
 11
148.5
 21
153.2879999999999
 31
0.0
  0
LINE
  5
317
330
1E
100
AcDbEntity
  8
0
100
AcDbLine
 10
151.4
 20
156.186
 30
0.0
 11
152.0
 21
154.1859999999999
 31
0.0
  0
LINE
  5
318
330
1E
100
AcDbEntity
  8
0
100
AcDbLine
 10
149.9
 20
158.1859999999999
 30
0.0
 11
151.4
 21
156.186
 31
0.0
  0
LINE
  5
319
330
1E
100
AcDbEntity
  8
0
100
AcDbLine
 10
149.9
 20
150.186
 30
0.0
 11
151.4
 21
152.086
 31
0.0
  0
LINE
  5
31A
330
1E
100
AcDbEntity
  8
0
100
AcDbLine
 10
149.9
 20
150.186
 30
0.0
 11
151.6
 21
151.386
 31
0.0
  0
LINE
  5
31B
330
1E
100
AcDbEntity
  8
0
100
AcDbLine
 10
153.3999999999999
 20
158.1859999999999
 30
0.0
 11
154.0
 21
155.8859999999999
 31
0.0
  0
LINE
  5
31C
330
1E
100
AcDbEntity
  8
0
100
AcDbLine
 10
153.3999999999999
 20
153.686
 30
0.0
 11
154.0
 21
155.8859999999999
 31
0.0
  0
LINE
  5
31D
330
1E
100
AcDbEntity
  8
0
100
AcDbLine
 10
151.6
 20
151.386
 30
0.0
 11
153.3999999999999
 21
153.686
 31
0.0
  0
LINE
  5
31E
330
1E
100
AcDbEntity
  8
0
100
AcDbLine
 10
151.4
 20
152.086
 30
0.0
 11
152.0
 21
154.1859999999999
 31
0.0
  0
LINE
  5
31F
330
1E
100
AcDbEntity
  8
0
100
AcDbLine
 10
151.6
 20
160.386
 30
0.0
 11
153.3999999999999
 21
158.1859999999999
 31
0.0
  0
LINE
  5
320
330
1E
100
AcDbEntity
  8
0
100
AcDbLine
 10
147.3
 20
159.786
 30
0.0
 11
149.9
 21
158.1859999999999
 31
0.0
  0
LINE
  5
321
330
1E
100
AcDbEntity
  8
0
100
AcDbLine
 10
144.0
 20
161.086
 30
0.0
 11
147.3
 21
159.786
 31
0.0
  0
LINE
  5
322
330
1E
100
AcDbEntity
  8
0
100
AcDbLine
 10
147.532040201005
 20
148.6377185929649
 30
0.0
 11
149.9
 21
150.186
 31
0.0
  0
LINE
  5
323
330
1E
100
AcDbEntity
  8
0
100
AcDbLine
 10
154.0
 20
155.8859999999999
 30
0.0
 11
154.0
 21
134.911
 31
0.0
  0
LINE
  5
324
330
1E
100
AcDbEntity
  8
0
100
AcDbLine
 10
154.0
 20
155.8859999999999
 30
0.0
 11
154.0
 21
164.1659999999999
 31
0.0
  0
LINE
  5
325
330
1E
100
AcDbEntity
  8
0
100
AcDbLine
 10
154.0
 20
134.911
 30
0.0
 11
154.0
 21
109.421
 31
0.0
  0
LINE
  5
326
330
1E
100
AcDbEntity
  8
0
100
AcDbLine
 10
154.0
 20
134.911
 30
0.0
 11
154.0
 21
155.8859999999999
 31
0.0
  0
LINE
  5
327
330
1E
100
AcDbEntity
  8
0
100
AcDbLine
 10
298.0
 20
128.6
 30
0.0
 11
301.3999999999999
 21
130.764
 31
0.0
  0
LINE
  5
328
330
1E
100
AcDbEntity
  8
0
100
AcDbLine
 10
298.0
 20
124.614
 30
0.0
 11
298.0
 21
129.37
 31
0.0
  0
LINE
  5
329
330
1E
100
AcDbEntity
  8
0
100
AcDbLine
 10
298.0
 20
124.614
 30
0.0
 11
298.0
 21
120.6279999999999
 31
0.0
  0
LINE
  5
32A
330
1E
100
AcDbEntity
  8
0
100
AcDbLine
 10
298.0
 20
120.6279999999999
 30
0.0
 11
298.0
 21
124.614
 31
0.0
  0
LINE
  5
32B
330
1E
100
AcDbEntity
  8
0
100
AcDbLine
 10
298.0
 20
120.6279999999999
 30
0.0
 11
300.3
 21
116.892
 31
0.0
  0
LINE
  5
32C
330
1E
100
AcDbEntity
  8
0
100
AcDbLine
 10
154.2949999999999
 20
80.8927
 30
0.0
 11
158.426
 21
76.2702
 31
0.0
  0
LINE
  5
32D
330
1E
100
AcDbEntity
  8
0
100
AcDbLine
 10
158.426
 20
76.2702
 30
0.0
 11
161.023
 21
70.9444
 31
0.0
  0
LINE
  5
32E
330
1E
100
AcDbEntity
  8
0
100
AcDbLine
 10
154.0
 20
109.421
 30
0.0
 11
154.0
 21
134.911
 31
0.0
  0
LINE
  5
32F
330
1E
100
AcDbEntity
  8
0
100
AcDbLine
 10
154.0
 20
109.421
 30
0.0
 11
154.0
 21
86.2114
 31
0.0
  0
LINE
  5
330
330
1E
100
AcDbEntity
  8
0
100
AcDbLine
 10
136.0
 20
162.186
 30
0.0
 11
140.0999999999999
 21
161.8859999999999
 31
0.0
  0
LINE
  5
331
330
1E
100
AcDbEntity
  8
0
100
AcDbLine
 10
148.6999999999999
 20
162.286
 30
0.0
 11
151.6
 21
160.386
 31
0.0
  0
LINE
  5
332
330
1E
100
AcDbEntity
  8
0
100
AcDbLine
 10
140.0999999999999
 20
161.8859999999999
 30
0.0
 11
144.0
 21
161.086
 31
0.0
  0
LINE
  5
333
330
1E
100
AcDbEntity
  8
0
100
AcDbLine
 10
131.9
 20
161.8859999999999
 30
0.0
 11
136.0
 21
162.186
 31
0.0
  0
LINE
  5
334
330
1E
100
AcDbEntity
  8
0
100
AcDbLine
 10
128.0
 20
161.086
 30
0.0
 11
131.9
 21
161.8859999999999
 31
0.0
  0
LINE
  5
335
330
1E
100
AcDbEntity
  8
0
100
AcDbLine
 10
124.7
 20
159.786
 30
0.0
 11
128.0
 21
161.086
 31
0.0
  0
LINE
  5
336
330
1E
100
AcDbEntity
  8
0
100
AcDbLine
 10
127.0
 20
197.5999999999999
 30
0.0
 11
131.3
 21
199.3
 31
0.0
  0
LINE
  5
337
330
1E
100
AcDbEntity
  8
0
100
AcDbLine
 10
123.3
 20
194.6999999999999
 30
0.0
 11
127.0
 21
197.5999999999999
 31
0.0
  0
LINE
  5
338
330
1E
100
AcDbEntity
  8
0
100
AcDbLine
 10
154.0
 20
164.1659999999999
 30
0.0
 11
154.0
 21
171.798
 31
0.0
  0
LINE
  5
339
330
1E
100
AcDbEntity
  8
0
100
AcDbLine
 10
154.0
 20
164.1659999999999
 30
0.0
 11
154.0
 21
155.8859999999999
 31
0.0
  0
LINE
  5
33A
330
1E
100
AcDbEntity
  8
0
100
AcDbLine
 10
145.0
 20
163.686
 30
0.0
 11
148.6999999999999
 21
162.286
 31
0.0
  0
LINE
  5
33B
330
1E
100
AcDbEntity
  8
0
100
AcDbLine
 10
140.6999999999999
 20
164.5859999999999
 30
0.0
 11
145.0
 21
163.686
 31
0.0
  0
LINE
  5
33C
330
1E
100
AcDbEntity
  8
0
100
AcDbLine
 10
136.0
 20
164.8859999999999
 30
0.0
 11
140.6999999999999
 21
164.5859999999999
 31
0.0
  0
LINE
  5
33D
330
1E
100
AcDbEntity
  8
0
100
AcDbLine
 10
154.0
 20
176.7549999999999
 30
0.0
 11
154.0
 21
171.798
 31
0.0
  0
LINE
  5
33E
330
1E
100
AcDbEntity
  8
0
100
AcDbLine
 10
154.0
 20
176.7549999999999
 30
0.0
 11
154.0
 21
180.272
 31
0.0
  0
LINE
  5
33F
330
1E
100
AcDbEntity
  8
0
100
AcDbLine
 10
154.0
 20
171.798
 30
0.0
 11
154.0
 21
164.1659999999999
 31
0.0
  0
LINE
  5
340
330
1E
100
AcDbEntity
  8
0
100
AcDbLine
 10
154.0
 20
171.798
 30
0.0
 11
154.0
 21
176.7549999999999
 31
0.0
  0
LINE
  5
341
330
1E
100
AcDbEntity
  8
0
100
AcDbLine
 10
154.0
 20
180.272
 30
0.0
 11
154.0
 21
182.0
 31
0.0
  0
LINE
  5
342
330
1E
100
AcDbEntity
  8
0
100
AcDbLine
 10
154.0
 20
180.272
 30
0.0
 11
154.0
 21
176.7549999999999
 31
0.0
  0
LINE
  5
343
330
1E
100
AcDbEntity
  8
0
100
AcDbLine
 10
136.0
 20
200.0
 30
0.0
 11
140.6999999999999
 21
199.3
 31
0.0
  0
LINE
  5
344
330
1E
100
AcDbEntity
  8
0
100
AcDbLine
 10
140.6999999999999
 20
199.3
 30
0.0
 11
145.0
 21
197.5999999999999
 31
0.0
  0
LINE
  5
345
330
1E
100
AcDbEntity
  8
0
100
AcDbLine
 10
145.0
 20
197.5999999999999
 30
0.0
 11
148.6999999999999
 21
194.6999999999999
 31
0.0
  0
LINE
  5
346
330
1E
100
AcDbEntity
  8
0
100
AcDbLine
 10
148.6999999999999
 20
194.6999999999999
 30
0.0
 11
151.6
 21
191.0
 31
0.0
  0
LINE
  5
347
330
1E
100
AcDbEntity
  8
0
100
AcDbLine
 10
151.6
 20
191.0
 30
0.0
 11
153.3999999999999
 21
186.5999999999999
 31
0.0
  0
LINE
  5
348
330
1E
100
AcDbEntity
  8
0
100
AcDbLine
 10
153.3999999999999
 20
186.5999999999999
 30
0.0
 11
154.0
 21
182.0
 31
0.0
  0
LINE
  5
349
330
1E
100
AcDbEntity
  8
0
100
AcDbLine
 10
154.0
 20
182.0
 30
0.0
 11
154.0
 21
180.272
 31
0.0
  0
LINE
  5
34A
330
1E
100
AcDbEntity
  8
0
100
AcDbLine
 10
131.3
 20
199.3
 30
0.0
 11
136.0
 21
200.0
 31
0.0
  0
LINE
  5
34B
330
1E
100
AcDbEntity
  8
0
100
AcDbLine
 10
131.3
 20
164.5859999999999
 30
0.0
 11
136.0
 21
164.8859999999999
 31
0.0
  0
LINE
  5
34C
330
1E
100
AcDbEntity
  8
0
100
AcDbLine
 10
127.0
 20
163.686
 30
0.0
 11
131.3
 21
164.5859999999999
 31
0.0
  0
LINE
  5
34D
330
1E
100
AcDbEntity
  8
0
100
AcDbLine
 10
123.3
 20
162.286
 30
0.0
 11
127.0
 21
163.686
 31
0.0
  0
LINE
  5
34E
330
1E
100
AcDbEntity
  8
0
100
AcDbLine
 10
122.0999999999999
 20
150.186
 30
0.0
 11
124.467959798995
 21
148.6377185929649
 31
0.0
  0
LINE
  5
350
330
1E
100
AcDbEntity
  8
0
100
AcDbLine
 10
118.0
 20
71.6
 30
0.0
 11
118.0
 21
86.2114
 31
0.0
  0
LINE
  5
351
330
1E
100
AcDbEntity
  8
0
100
AcDbLine
 10
298.0
 20
129.37
 30
0.0
 11
299.3999999999999
 21
132.3979999999999
 31
0.0
  0
LINE
  5
352
330
1E
100
AcDbEntity
  8
0
100
AcDbLine
 10
298.0
 20
129.37
 30
0.0
 11
298.0
 21
124.614
 31
0.0
  0
LINE
  5
353
330
1E
100
AcDbEntity
  8
0
100
AcDbLine
 10
236.0
 20
65.0
 30
0.0
 11
239.3
 21
64.8
 31
0.0
  0
LINE
  5
354
330
1E
100
AcDbEntity
  8
0
100
AcDbLine
 10
36.0
 20
65.0
 30
0.0
 11
39.29999999999999
 21
64.8
 31
0.0
  0
LINE
  5
355
330
1E
100
AcDbEntity
  8
0
100
AcDbLine
 10
32.7
 20
64.8
 30
0.0
 11
36.0
 21
65.0
 31
0.0
  0
LINE
  5
356
330
1E
100
AcDbEntity
  8
0
100
AcDbLine
 10
28.8
 20
63.5
 30
0.0
 11
32.7
 21
64.8
 31
0.0
  0
LINE
  5
357
330
1E
100
AcDbEntity
  8
0
100
AcDbLine
 10
25.0
 20
61.0
 30
0.0
 11
25.4
 21
61.0
 31
0.0
  0
LINE
  5
358
330
1E
100
AcDbEntity
  8
0
100
AcDbLine
 10
25.0
 20
61.0
 30
0.0
 11
28.8
 21
63.5
 31
0.0
  0
LINE
  5
359
330
1E
100
AcDbEntity
  8
0
100
AcDbLine
 10
304.752
 20
-0.0000000000000032
 30
0.0
 11
310.5119999999999
 21
-0.0000000000000037
 31
0.0
  0
LINE
  5
35A
330
1E
100
AcDbEntity
  8
0
100
AcDbLine
 10
301.296
 20
-0.0000000000000027
 30
0.0
 11
304.752
 21
-0.0000000000000032
 31
0.0
  0
LINE
  5
35B
330
1E
100
AcDbEntity
  8
0
100
AcDbLine
 10
304.752
 20
-0.000000000000001
 30
0.0
 11
310.5119999999999
 21
-0.0000000000000006
 31
0.0
  0
LINE
  5
35C
330
1E
100
AcDbEntity
  8
0
100
AcDbLine
 10
301.296
 20
-0.0000000000000016
 30
0.0
 11
304.752
 21
-0.000000000000001
 31
0.0
  0
LINE
  5
35D
330
1E
100
AcDbEntity
  8
0
100
AcDbLine
 10
300.0
 20
-0.0000000000000021
 30
0.0
 11
301.296
 21
-0.0000000000000016
 31
0.0
  0
LINE
  5
35E
330
1E
100
AcDbEntity
  8
0
100
AcDbLine
 10
300.0
 20
-0.0000000000000021
 30
0.0
 11
301.296
 21
-0.0000000000000027
 31
0.0
  0
LINE
  5
35F
330
1E
100
AcDbEntity
  8
0
100
AcDbLine
 10
300.0
 20
-0.0000000000000021
 30
0.0
 11
300.0
 21
0.9999999999999978
 31
0.0
  0
LINE
  5
360
330
1E
100
AcDbEntity
  8
0
100
AcDbLine
 10
310.5119999999999
 20
-0.0000000000000037
 30
0.0
 11
318.144
 21
-0.0000000000000041
 31
0.0
  0
LINE
  5
361
330
1E
100
AcDbEntity
  8
0
100
AcDbLine
 10
310.5119999999999
 20
-0.0000000000000006
 30
0.0
 11
318.144
 21
-0.0000000000000002
 31
0.0
  0
LINE
  5
362
330
1E
100
AcDbEntity
  8
0
100
AcDbLine
 10
300.0
 20
0.9999999999999978
 30
0.0
 11
300.0
 21
-0.0000000000000021
 31
0.0
  0
LINE
  5
363
330
1E
100
AcDbEntity
  8
0
100
AcDbLine
 10
300.0
 20
0.9999999999999978
 30
0.0
 11
301.296
 21
0.9999999999999978
 31
0.0
  0
LINE
  5
364
330
1E
100
AcDbEntity
  8
0
100
AcDbLine
 10
301.0
 20
0.9999999999999978
 30
0.0
 11
301.0
 21
9.0
 31
0.0
  0
LINE
  5
365
330
1E
100
AcDbEntity
  8
0
100
AcDbLine
 10
310.5119999999999
 20
1.0
 30
0.0
 11
318.144
 21
1.0
 31
0.0
  0
LINE
  5
366
330
1E
100
AcDbEntity
  8
0
100
AcDbLine
 10
304.752
 20
0.9999999999999989
 30
0.0
 11
310.5119999999999
 21
1.0
 31
0.0
  0
LINE
  5
367
330
1E
100
AcDbEntity
  8
0
100
AcDbLine
 10
301.296
 20
0.9999999999999978
 30
0.0
 11
304.752
 21
0.9999999999999989
 31
0.0
  0
LINE
  5
368
330
1E
100
AcDbEntity
  8
0
100
AcDbLine
 10
311.2999999999999
 20
9.0
 30
0.0
 11
318.6
 21
9.0
 31
0.0
  0
LINE
  5
369
330
1E
100
AcDbEntity
  8
0
100
AcDbLine
 10
309.0
 20
11.0
 30
0.0
 11
311.0
 21
16.0
 31
0.0
  0
LINE
  5
36A
330
1E
100
AcDbEntity
  8
0
100
AcDbLine
 10
307.3999999999999
 20
11.0
 30
0.0
 11
312.6999999999999
 21
11.0
 31
0.0
  0
LINE
  5
36B
330
1E
100
AcDbEntity
  8
0
100
AcDbLine
 10
311.0
 20
16.0
 30
0.0
 11
317.0
 21
22.0
 31
0.0
  0
LINE
  5
36C
330
1E
100
AcDbEntity
  8
0
100
AcDbLine
 10
304.1999999999999
 20
11.0
 30
0.0
 11
307.3999999999999
 21
11.0
 31
0.0
  0
LINE
  5
36D
330
1E
100
AcDbEntity
  8
0
100
AcDbLine
 10
303.0
 20
11.0
 30
0.0
 11
304.1999999999999
 21
11.0
 31
0.0
  0
LINE
  5
36E
330
1E
100
AcDbEntity
  8
0
100
AcDbLine
 10
305.6999999999999
 20
9.0
 30
0.0
 11
311.2999999999999
 21
9.0
 31
0.0
  0
LINE
  5
36F
330
1E
100
AcDbEntity
  8
0
100
AcDbLine
 10
302.3
 20
9.0
 30
0.0
 11
305.6999999999999
 21
9.0
 31
0.0
  0
LINE
  5
370
330
1E
100
AcDbEntity
  8
0
100
AcDbLine
 10
301.0
 20
9.0
 30
0.0
 11
301.0
 21
0.9999999999999978
 31
0.0
  0
LINE
  5
371
330
1E
100
AcDbEntity
  8
0
100
AcDbLine
 10
301.0
 20
9.0
 30
0.0
 11
303.0
 21
11.0
 31
0.0
  0
LINE
  5
372
330
1E
100
AcDbEntity
  8
0
100
AcDbLine
 10
301.0
 20
9.0
 30
0.0
 11
302.3
 21
9.0
 31
0.0
  0
LINE
  5
373
330
1E
100
AcDbEntity
  8
0
100
AcDbLine
 10
318.144
 20
-0.0000000000000041
 30
0.0
 11
326.784
 21
-0.0000000000000043
 31
0.0
  0
LINE
  5
374
330
1E
100
AcDbEntity
  8
0
100
AcDbLine
 10
318.144
 20
-0.0000000000000002
 30
0.0
 11
326.784
 21
0.0
 31
0.0
  0
LINE
  5
375
330
1E
100
AcDbEntity
  8
0
100
AcDbLine
 10
318.144
 20
-0.0000000000000002
 30
0.0
 11
326.784
 21
0.0
 31
0.0
  0
LINE
  5
376
330
1E
100
AcDbEntity
  8
0
100
AcDbLine
 10
318.144
 20
1.0
 30
0.0
 11
326.784
 21
1.0
 31
0.0
  0
LINE
  5
377
330
1E
100
AcDbEntity
  8
0
100
AcDbLine
 10
317.0
 20
22.0
 30
0.0
 11
324.0
 21
24.5609756097561
 31
0.0
  0
LINE
  5
378
330
1E
100
AcDbEntity
  8
0
100
AcDbLine
 10
312.6999999999999
 20
11.0
 30
0.0
 11
319.6
 21
11.0
 31
0.0
  0
LINE
  5
37A
330
1E
100
AcDbEntity
  8
0
100
AcDbLine
 10
324.0
 20
48.1918
 30
0.0
 11
324.3999999999999
 21
46.6529
 31
0.0
  0
LINE
  5
37B
330
1E
100
AcDbEntity
  8
0
100
AcDbLine
 10
324.0
 20
48.1918
 30
0.0
 11
324.0
 21
49.02519999999999
 31
0.0
  0
LINE
  5
37C
330
1E
100
AcDbEntity
  8
0
100
AcDbLine
 10
324.0
 20
49.02519999999999
 30
0.0
 11
324.3999999999999
 21
47.4434
 31
0.0
  0
LINE
  5
37D
330
1E
100
AcDbEntity
  8
0
100
AcDbLine
 10
324.0
 20
49.02519999999999
 30
0.0
 11
324.3999999999999
 21
50.4725
 31
0.0
  0
LINE
  5
37E
330
1E
100
AcDbEntity
  8
0
100
AcDbLine
 10
324.0
 20
49.02519999999999
 30
0.0
 11
324.0
 21
48.1918
 31
0.0
  0
LINE
  5
37F
330
1E
100
AcDbEntity
  8
0
100
AcDbLine
 10
324.0
 20
48.3
 30
0.0
 11
324.0
 21
22.2
 31
0.0
  0
LINE
  5
380
330
1E
100
AcDbEntity
  8
0
100
AcDbLine
 10
324.0
 20
22.2
 30
0.0
 11
324.3999999999999
 21
20.69999999999999
 31
0.0
  0
LINE
  5
381
330
1E
100
AcDbEntity
  8
0
100
AcDbLine
 10
324.0
 20
22.2
 30
0.0
 11
324.0
 21
48.3
 31
0.0
  0
LINE
  5
382
330
1E
100
AcDbEntity
  8
0
100
AcDbLine
 10
319.6
 20
11.0
 30
0.0
 11
327.4999999999999
 21
11.0
 31
0.0
  0
LINE
  5
383
330
1E
100
AcDbEntity
  8
0
100
AcDbLine
 10
318.6
 20
9.0
 30
0.0
 11
327.0
 21
9.0
 31
0.0
  0
LINE
  5
384
330
1E
100
AcDbEntity
  8
0
100
AcDbLine
 10
324.3999999999999
 20
46.6529
 30
0.0
 11
325.6
 21
45.3448
 31
0.0
  0
LINE
  5
385
330
1E
100
AcDbEntity
  8
0
100
AcDbLine
 10
324.3999999999999
 20
47.4434
 30
0.0
 11
325.6
 21
46.13529999999999
 31
0.0
  0
LINE
  5
386
330
1E
100
AcDbEntity
  8
0
100
AcDbLine
 10
324.3999999999999
 20
50.4725
 30
0.0
 11
325.0
 21
51.17235
 31
0.0
  0
LINE
  5
387
330
1E
100
AcDbEntity
  8
0
100
AcDbLine
 10
324.0938625027109
 20
47.8306874864455
 30
0.0
 11
324.3999999999999
 21
46.29999999999999
 31
0.0
  0
LINE
  5
388
330
1E
100
AcDbEntity
  8
0
100
AcDbLine
 10
324.3999999999999
 20
46.29999999999999
 30
0.0
 11
325.6
 21
44.4
 31
0.0
  0
LINE
  5
389
330
1E
100
AcDbEntity
  8
0
100
AcDbLine
 10
324.3999999999999
 20
20.69999999999999
 30
0.0
 11
325.6
 21
19.3
 31
0.0
  0
LINE
  5
38A
330
1E
100
AcDbEntity
  8
0
100
AcDbLine
 10
324.9171121658759
 20
51.0756682488134
 30
0.0
 11
325.0
 21
51.2
 31
0.0
  0
LINE
  5
38B
330
1E
100
AcDbEntity
  8
0
100
AcDbLine
 10
325.0
 20
49.8147
 30
0.0
 11
325.0
 21
51.5944
 31
0.0
  0
LINE
  5
38C
330
1E
100
AcDbEntity
  8
0
100
AcDbLine
 10
325.0
 20
51.5944
 30
0.0
 11
325.0
 21
49.8147
 31
0.0
  0
LINE
  5
38D
330
1E
100
AcDbEntity
  8
0
100
AcDbLine
 10
324.8
 20
56.5054
 30
0.0
 11
324.8
 21
62.2052
 31
0.0
  0
LINE
  5
38E
330
1E
100
AcDbEntity
  8
0
100
AcDbLine
 10
324.8
 20
56.5054
 30
0.0
 11
325.0
 21
51.5944
 31
0.0
  0
LINE
  5
38F
330
1E
100
AcDbEntity
  8
0
100
AcDbLine
 10
324.8
 20
62.2052
 30
0.0
 11
325.0
 21
67.68550000000001
 31
0.0
  0
LINE
  5
390
330
1E
100
AcDbEntity
  8
0
100
AcDbLine
 10
324.8
 20
62.2052
 30
0.0
 11
324.8
 21
56.5054
 31
0.0
  0
LINE
  5
391
330
1E
100
AcDbEntity
  8
0
100
AcDbLine
 10
325.6
 20
45.3448
 30
0.0
 11
327.4999999999999
 21
44.13289999999999
 31
0.0
  0
LINE
  5
392
330
1E
100
AcDbEntity
  8
0
100
AcDbLine
 10
325.6
 20
46.13529999999999
 30
0.0
 11
327.4999999999999
 21
44.9652
 31
0.0
  0
LINE
  5
393
330
1E
100
AcDbEntity
  8
0
100
AcDbLine
 10
325.6
 20
44.4
 30
0.0
 11
327.4999999999999
 21
42.8
 31
0.0
  0
LINE
  5
394
330
1E
100
AcDbEntity
  8
0
100
AcDbLine
 10
325.6
 20
19.3
 30
0.0
 11
327.4999999999999
 21
18.1
 31
0.0
  0
LINE
  5
395
330
1E
100
AcDbEntity
  8
0
100
AcDbLine
 10
325.0
 20
67.68550000000001
 30
0.0
 11
325.1999999999999
 21
73.6866
 31
0.0
  0
LINE
  5
396
330
1E
100
AcDbEntity
  8
0
100
AcDbLine
 10
325.1999999999999
 20
73.6866
 30
0.0
 11
325.7
 21
80.20650000000001
 31
0.0
  0
LINE
  5
397
330
1E
100
AcDbEntity
  8
0
100
AcDbLine
 10
326.784
 20
-0.0000000000000043
 30
0.0
 11
336.0
 21
-0.0000000000000043
 31
0.0
  0
LINE
  5
398
330
1E
100
AcDbEntity
  8
0
100
AcDbLine
 10
326.784
 20
0.0
 30
0.0
 11
336.0
 21
0.0000000000000001
 31
0.0
  0
LINE
  5
399
330
1E
100
AcDbEntity
  8
0
100
AcDbLine
 10
326.784
 20
0.0
 30
0.0
 11
336.0
 21
0.0000000000000001
 31
0.0
  0
LINE
  5
39A
330
1E
100
AcDbEntity
  8
0
100
AcDbLine
 10
326.784
 20
1.0
 30
0.0
 11
336.0
 21
1.0
 31
0.0
  0
LINE
  5
39C
330
1E
100
AcDbEntity
  8
0
100
AcDbLine
 10
327.0
 20
9.0
 30
0.0
 11
336.0
 21
9.0
 31
0.0
  0
LINE
  5
39D
330
1E
100
AcDbEntity
  8
0
100
AcDbLine
 10
325.7
 20
80.20650000000001
 30
0.0
 11
326.3
 21
86.97459999999999
 31
0.0
  0
LINE
  5
39E
330
1E
100
AcDbEntity
  8
0
100
AcDbLine
 10
326.3
 20
86.97459999999999
 30
0.0
 11
327.0
 21
93.09639999999999
 31
0.0
  0
LINE
  5
39F
330
1E
100
AcDbEntity
  8
0
100
AcDbLine
 10
327.4999999999999
 20
18.1
 30
0.0
 11
330.0
 21
17.19999999999999
 31
0.0
  0
LINE
  5
3A0
330
1E
100
AcDbEntity
  8
0
100
AcDbLine
 10
327.4999999999999
 20
44.13289999999999
 30
0.0
 11
330.0
 21
43.1995
 31
0.0
  0
LINE
  5
3A1
330
1E
100
AcDbEntity
  8
0
100
AcDbLine
 10
327.4999999999999
 20
44.9652
 30
0.0
 11
330.0
 21
44.03179999999999
 31
0.0
  0
LINE
  5
3A3
330
1E
100
AcDbEntity
  8
0
100
AcDbLine
 10
330.0
 20
43.1995
 30
0.0
 11
332.8999999999999
 21
42.59399999999999
 31
0.0
  0
LINE
  5
3A4
330
1E
100
AcDbEntity
  8
0
100
AcDbLine
 10
330.0
 20
44.03179999999999
 30
0.0
 11
332.8999999999999
 21
43.4264
 31
0.0
  0
LINE
  5
3A5
330
1E
100
AcDbEntity
  8
0
100
AcDbLine
 10
327.4999999999999
 20
42.8
 30
0.0
 11
330.0
 21
41.6
 31
0.0
  0
LINE
  5
3A6
330
1E
100
AcDbEntity
  8
0
100
AcDbLine
 10
330.0
 20
41.6
 30
0.0
 11
332.8999999999999
 21
40.89999999999999
 31
0.0
  0
LINE
  5
3A8
330
1E
100
AcDbEntity
  8
0
100
AcDbLine
 10
330.0
 20
17.19999999999999
 30
0.0
 11
332.8999999999999
 21
16.6
 31
0.0
  0
LINE
  5
3A9
330
1E
100
AcDbEntity
  8
0
100
AcDbLine
 10
327.4999999999999
 20
11.0
 30
0.0
 11
336.0
 21
11.0
 31
0.0
  0
LINE
  5
3AA
330
1E
100
AcDbEntity
  8
0
100
AcDbLine
 10
327.0
 20
93.09639999999999
 30
0.0
 11
327.4999999999999
 21
100.0049999999999
 31
0.0
  0
LINE
  5
3AB
330
1E
100
AcDbEntity
  8
0
100
AcDbLine
 10
327.4999999999999
 20
100.0049999999999
 30
0.0
 11
327.842270366399
 21
104.336089216408
 31
0.0
  0
LINE
  5
3AC
330
1E
100
AcDbEntity
  8
0
100
AcDbLine
 10
336.0
 20
-0.0000000000000043
 30
0.0
 11
345.216
 21
-0.0000000000000043
 31
0.0
  0
LINE
  5
3AD
330
1E
100
AcDbEntity
  8
0
100
AcDbLine
 10
336.0
 20
0.0000000000000001
 30
0.0
 11
345.216
 21
0.0
 31
0.0
  0
LINE
  5
3AE
330
1E
100
AcDbEntity
  8
0
100
AcDbLine
 10
336.0
 20
0.0000000000000001
 30
0.0
 11
345.216
 21
0.0
 31
0.0
  0
LINE
  5
3AF
330
1E
100
AcDbEntity
  8
0
100
AcDbLine
 10
336.0
 20
1.0
 30
0.0
 11
345.216
 21
1.0
 31
0.0
  0
LINE
  5
3B0
330
1E
100
AcDbEntity
  8
0
100
AcDbLine
 10
332.8999999999999
 20
42.59399999999999
 30
0.0
 11
336.0
 21
42.40619999999999
 31
0.0
  0
LINE
  5
3B1
330
1E
100
AcDbEntity
  8
0
100
AcDbLine
 10
332.8999999999999
 20
43.4264
 30
0.0
 11
336.0
 21
43.1967
 31
0.0
  0
LINE
  5
3B2
330
1E
100
AcDbEntity
  8
0
100
AcDbLine
 10
332.8999999999999
 20
40.89999999999999
 30
0.0
 11
336.0
 21
40.6
 31
0.0
  0
LINE
  5
3B4
330
1E
100
AcDbEntity
  8
0
100
AcDbLine
 10
336.0
 20
42.40619999999999
 30
0.0
 11
339.1
 21
42.59399999999999
 31
0.0
  0
LINE
  5
3B5
330
1E
100
AcDbEntity
  8
0
100
AcDbLine
 10
336.0
 20
43.1967
 30
0.0
 11
339.1
 21
43.4264
 31
0.0
  0
LINE
  5
3B7
330
1E
100
AcDbEntity
  8
0
100
AcDbLine
 10
336.0
 20
40.6
 30
0.0
 11
339.1
 21
40.89999999999999
 31
0.0
  0
LINE
  5
3B8
330
1E
100
AcDbEntity
  8
0
100
AcDbLine
 10
336.0
 20
16.39999999999999
 30
0.0
 11
339.1
 21
16.6
 31
0.0
  0
LINE
  5
3B9
330
1E
100
AcDbEntity
  8
0
100
AcDbLine
 10
332.8999999999999
 20
16.6
 30
0.0
 11
336.0
 21
16.39999999999999
 31
0.0
  0
LINE
  5
3BA
330
1E
100
AcDbEntity
  8
0
100
AcDbLine
 10
336.0
 20
11.0
 30
0.0
 11
344.5
 21
11.0
 31
0.0
  0
LINE
  5
3BB
330
1E
100
AcDbEntity
  8
0
100
AcDbLine
 10
336.0
 20
9.0
 30
0.0
 11
345.0
 21
9.0
 31
0.0
  0
LINE
  5
3BF
330
1E
100
AcDbEntity
  8
0
100
AcDbLine
 10
339.1
 20
42.59399999999999
 30
0.0
 11
342.0
 21
43.1995
 31
0.0
  0
LINE
  5
3C0
330
1E
100
AcDbEntity
  8
0
100
AcDbLine
 10
339.1
 20
43.4264
 30
0.0
 11
342.0
 21
44.03179999999999
 31
0.0
  0
LINE
  5
3C1
330
1E
100
AcDbEntity
  8
0
100
AcDbLine
 10
339.1
 20
40.89999999999999
 30
0.0
 11
342.0
 21
41.6
 31
0.0
  0
LINE
  5
3C2
330
1E
100
AcDbEntity
  8
0
100
AcDbLine
 10
339.1
 20
16.6
 30
0.0
 11
342.0
 21
17.19999999999999
 31
0.0
  0
LINE
  5
3C4
330
1E
100
AcDbEntity
  8
0
100
AcDbLine
 10
336.0
 20
103.668
 30
0.0
 11
340.3999999999999
 21
103.854
 31
0.0
  0
LINE
  5
3C7
330
1E
100
AcDbEntity
  8
0
100
AcDbLine
 10
342.0
 20
43.1995
 30
0.0
 11
344.5
 21
44.13289999999999
 31
0.0
  0
LINE
  5
3C8
330
1E
100
AcDbEntity
  8
0
100
AcDbLine
 10
342.0
 20
44.03179999999999
 30
0.0
 11
344.5
 21
44.9652
 31
0.0
  0
LINE
  5
3C9
330
1E
100
AcDbEntity
  8
0
100
AcDbLine
 10
342.0
 20
41.6
 30
0.0
 11
344.5
 21
42.8
 31
0.0
  0
LINE
  5
3CB
330
1E
100
AcDbEntity
  8
0
100
AcDbLine
 10
344.5
 20
44.13289999999999
 30
0.0
 11
346.3999999999999
 21
45.3448
 31
0.0
  0
LINE
  5
3CC
330
1E
100
AcDbEntity
  8
0
100
AcDbLine
 10
344.5
 20
44.9652
 30
0.0
 11
346.3999999999999
 21
46.13529999999999
 31
0.0
  0
LINE
  5
3CD
330
1E
100
AcDbEntity
  8
0
100
AcDbLine
 10
344.5
 20
42.8
 30
0.0
 11
346.3999999999999
 21
44.4
 31
0.0
  0
LINE
  5
3CE
330
1E
100
AcDbEntity
  8
0
100
AcDbLine
 10
344.5
 20
18.1
 30
0.0
 11
346.3999999999999
 21
19.3
 31
0.0
  0
LINE
  5
3CF
330
1E
100
AcDbEntity
  8
0
100
AcDbLine
 10
342.0
 20
17.19999999999999
 30
0.0
 11
344.5
 21
18.1
 31
0.0
  0
LINE
  5
3D0
330
1E
100
AcDbEntity
  8
0
100
AcDbLine
 10
344.5
 20
11.0
 30
0.0
 11
352.4
 21
11.0
 31
0.0
  0
LINE
  5
3D1
330
1E
100
AcDbEntity
  8
0
100
AcDbLine
 10
345.216
 20
-0.0000000000000043
 30
0.0
 11
353.8559999999999
 21
-0.0000000000000041
 31
0.0
  0
LINE
  5
3D2
330
1E
100
AcDbEntity
  8
0
100
AcDbLine
 10
345.216
 20
0.0
 30
0.0
 11
353.8559999999999
 21
-0.0000000000000002
 31
0.0
  0
LINE
  5
3D3
330
1E
100
AcDbEntity
  8
0
100
AcDbLine
 10
345.216
 20
0.0
 30
0.0
 11
353.8559999999999
 21
-0.0000000000000002
 31
0.0
  0
LINE
  5
3D4
330
1E
100
AcDbEntity
  8
0
100
AcDbLine
 10
345.216
 20
1.0
 30
0.0
 11
353.8559999999999
 21
1.0
 31
0.0
  0
LINE
  5
3D5
330
1E
100
AcDbEntity
  8
0
100
AcDbLine
 10
345.0
 20
9.0
 30
0.0
 11
353.3999999999999
 21
9.0
 31
0.0
  0
LINE
  5
3D6
330
1E
100
AcDbEntity
  8
0
100
AcDbLine
 10
346.3999999999999
 20
45.3448
 30
0.0
 11
347.6
 21
46.6529
 31
0.0
  0
LINE
  5
3D7
330
1E
100
AcDbEntity
  8
0
100
AcDbLine
 10
346.3999999999999
 20
46.13529999999999
 30
0.0
 11
347.6
 21
47.4434
 31
0.0
  0
LINE
  5
3D8
330
1E
100
AcDbEntity
  8
0
100
AcDbLine
 10
346.3999999999999
 20
44.4
 30
0.0
 11
347.6
 21
46.29999999999999
 31
0.0
  0
LINE
  5
3D9
330
1E
100
AcDbEntity
  8
0
100
AcDbLine
 10
346.3999999999999
 20
19.3
 30
0.0
 11
347.6
 21
20.69999999999999
 31
0.0
  0
LINE
  5
3DA
330
1E
100
AcDbEntity
  8
0
100
AcDbLine
 10
347.0
 20
51.17235
 30
0.0
 11
347.6
 21
50.4725
 31
0.0
  0
LINE
  5
3DB
330
1E
100
AcDbEntity
  8
0
100
AcDbLine
 10
347.0
 20
51.2
 30
0.0
 11
347.082887834124
 21
51.0756682488134
 31
0.0
  0
LINE
  5
3DC
330
1E
100
AcDbEntity
  8
0
100
AcDbLine
 10
347.0
 20
49.8147
 30
0.0
 11
347.0
 21
51.5944
 31
0.0
  0
LINE
  5
3DD
330
1E
100
AcDbEntity
  8
0
100
AcDbLine
 10
347.0
 20
51.5944
 30
0.0
 11
347.1999999999999
 21
56.5054
 31
0.0
  0
LINE
  5
3DE
330
1E
100
AcDbEntity
  8
0
100
AcDbLine
 10
347.0
 20
51.5944
 30
0.0
 11
347.0
 21
49.8147
 31
0.0
  0
LINE
  5
3DF
330
1E
100
AcDbEntity
  8
0
100
AcDbLine
 10
347.1999999999999
 20
62.2052
 30
0.0
 11
347.1999999999999
 21
56.5054
 31
0.0
  0
LINE
  5
3E0
330
1E
100
AcDbEntity
  8
0
100
AcDbLine
 10
353.8559999999999
 20
-0.0000000000000041
 30
0.0
 11
361.488
 21
-0.0000000000000037
 31
0.0
  0
LINE
  5
3E1
330
1E
100
AcDbEntity
  8
0
100
AcDbLine
 10
353.8559999999999
 20
-0.0000000000000002
 30
0.0
 11
361.488
 21
-0.0000000000000006
 31
0.0
  0
LINE
  5
3E2
330
1E
100
AcDbEntity
  8
0
100
AcDbLine
 10
361.488
 20
-0.0000000000000037
 30
0.0
 11
367.248
 21
-0.0000000000000032
 31
0.0
  0
LINE
  5
3E3
330
1E
100
AcDbEntity
  8
0
100
AcDbLine
 10
367.248
 20
-0.0000000000000032
 30
0.0
 11
370.704
 21
-0.0000000000000027
 31
0.0
  0
LINE
  5
3E4
330
1E
100
AcDbEntity
  8
0
100
AcDbLine
 10
370.704
 20
-0.0000000000000027
 30
0.0
 11
372.0
 21
-0.0000000000000021
 31
0.0
  0
LINE
  5
3E5
330
1E
100
AcDbEntity
  8
0
100
AcDbLine
 10
372.0
 20
-0.0000000000000021
 30
0.0
 11
372.0
 21
0.9999999999999978
 31
0.0
  0
LINE
  5
3E6
330
1E
100
AcDbEntity
  8
0
100
AcDbLine
 10
361.488
 20
-0.0000000000000006
 30
0.0
 11
367.248
 21
-0.000000000000001
 31
0.0
  0
LINE
  5
3E7
330
1E
100
AcDbEntity
  8
0
100
AcDbLine
 10
372.0
 20
0.9999999999999978
 30
0.0
 11
372.0
 21
-0.0000000000000021
 31
0.0
  0
LINE
  5
3E8
330
1E
100
AcDbEntity
  8
0
100
AcDbLine
 10
367.248
 20
-0.000000000000001
 30
0.0
 11
370.704
 21
-0.0000000000000016
 31
0.0
  0
LINE
  5
3E9
330
1E
100
AcDbEntity
  8
0
100
AcDbLine
 10
370.704
 20
-0.0000000000000016
 30
0.0
 11
372.0
 21
-0.0000000000000021
 31
0.0
  0
LINE
  5
3EA
330
1E
100
AcDbEntity
  8
0
100
AcDbLine
 10
353.8559999999999
 20
1.0
 30
0.0
 11
361.488
 21
1.0
 31
0.0
  0
LINE
  5
3EB
330
1E
100
AcDbEntity
  8
0
100
AcDbLine
 10
353.3999999999999
 20
9.0
 30
0.0
 11
360.6999999999999
 21
9.0
 31
0.0
  0
LINE
  5
3EC
330
1E
100
AcDbEntity
  8
0
100
AcDbLine
 10
361.488
 20
1.0
 30
0.0
 11
367.248
 21
0.9999999999999989
 31
0.0
  0
LINE
  5
3ED
330
1E
100
AcDbEntity
  8
0
100
AcDbLine
 10
367.248
 20
0.9999999999999989
 30
0.0
 11
370.704
 21
0.9999999999999978
 31
0.0
  0
LINE
  5
3EE
330
1E
100
AcDbEntity
  8
0
100
AcDbLine
 10
360.6999999999999
 20
9.0
 30
0.0
 11
366.3
 21
9.0
 31
0.0
  0
LINE
  5
3EF
330
1E
100
AcDbEntity
  8
0
100
AcDbLine
 10
366.3
 20
9.0
 30
0.0
 11
369.7
 21
9.0
 31
0.0
  0
LINE
  5
3F0
330
1E
100
AcDbEntity
  8
0
100
AcDbLine
 10
348.0
 20
22.2
 30
0.0
 11
348.0
 21
48.1918
 31
0.0
  0
LINE
  5
3F1
330
1E
100
AcDbEntity
  8
0
100
AcDbLine
 10
347.6
 20
20.69999999999999
 30
0.0
 11
348.0
 21
22.2
 31
0.0
  0
LINE
  5
3F2
330
1E
100
AcDbEntity
  8
0
100
AcDbLine
 10
347.6
 20
46.6529
 30
0.0
 11
348.0
 21
48.1918
 31
0.0
  0
LINE
  5
3F3
330
1E
100
AcDbEntity
  8
0
100
AcDbLine
 10
347.6
 20
50.4725
 30
0.0
 11
348.0
 21
49.02519999999999
 31
0.0
  0
LINE
  5
3F4
330
1E
100
AcDbEntity
  8
0
100
AcDbLine
 10
347.6
 20
47.4434
 30
0.0
 11
348.0
 21
49.02519999999999
 31
0.0
  0
LINE
  5
3F5
330
1E
100
AcDbEntity
  8
0
100
AcDbLine
 10
348.0
 20
49.02519999999999
 30
0.0
 11
348.0
 21
48.1918
 31
0.0
  0
LINE
  5
3F6
330
1E
100
AcDbEntity
  8
0
100
AcDbLine
 10
348.0
 20
48.1918
 30
0.0
 11
348.0
 21
22.2
 31
0.0
  0
LINE
  5
3F7
330
1E
100
AcDbEntity
  8
0
100
AcDbLine
 10
348.0
 20
48.1918
 30
0.0
 11
348.0
 21
49.02519999999999
 31
0.0
  0
LINE
  5
3F8
330
1E
100
AcDbEntity
  8
0
100
AcDbLine
 10
347.6
 20
46.29999999999999
 30
0.0
 11
347.9061374972889
 21
47.8306874864455
 31
0.0
  0
LINE
  5
3FA
330
1E
100
AcDbEntity
  8
0
100
AcDbLine
 10
355.0
 20
22.0
 30
0.0
 11
361.0
 21
16.0
 31
0.0
  0
LINE
  5
3FB
330
1E
100
AcDbEntity
  8
0
100
AcDbLine
 10
348.0
 20
24.5609756097561
 30
0.0
 11
355.0
 21
22.0
 31
0.0
  0
LINE
  5
3FC
330
1E
100
AcDbEntity
  8
0
100
AcDbLine
 10
352.4
 20
11.0
 30
0.0
 11
359.2999999999999
 21
11.0
 31
0.0
  0
LINE
  5
3FD
330
1E
100
AcDbEntity
  8
0
100
AcDbLine
 10
361.0
 20
16.0
 30
0.0
 11
363.0
 21
11.0
 31
0.0
  0
LINE
  5
3FE
330
1E
100
AcDbEntity
  8
0
100
AcDbLine
 10
359.2999999999999
 20
11.0
 30
0.0
 11
364.6
 21
11.0
 31
0.0
  0
LINE
  5
3FF
330
1E
100
AcDbEntity
  8
0
100
AcDbLine
 10
364.6
 20
11.0
 30
0.0
 11
367.8
 21
11.0
 31
0.0
  0
LINE
  5
400
330
1E
100
AcDbEntity
  8
0
100
AcDbLine
 10
367.8
 20
11.0
 30
0.0
 11
369.0
 21
11.0
 31
0.0
  0
LINE
  5
401
330
1E
100
AcDbEntity
  8
0
100
AcDbLine
 10
370.704
 20
0.9999999999999978
 30
0.0
 11
372.0
 21
0.9999999999999978
 31
0.0
  0
LINE
  5
402
330
1E
100
AcDbEntity
  8
0
100
AcDbLine
 10
369.7
 20
9.0
 30
0.0
 11
371.0
 21
9.0
 31
0.0
  0
LINE
  5
403
330
1E
100
AcDbEntity
  8
0
100
AcDbLine
 10
371.0
 20
9.0
 30
0.0
 11
371.0
 21
0.9999999999999978
 31
0.0
  0
LINE
  5
404
330
1E
100
AcDbEntity
  8
0
100
AcDbLine
 10
369.0
 20
11.0
 30
0.0
 11
371.0
 21
9.0
 31
0.0
  0
LINE
  5
405
330
1E
100
AcDbEntity
  8
0
100
AcDbLine
 10
371.0
 20
0.9999999999999978
 30
0.0
 11
371.0
 21
9.0
 31
0.0
  0
LINE
  5
406
330
1E
100
AcDbEntity
  8
0
100
AcDbLine
 10
347.1999999999999
 20
56.5054
 30
0.0
 11
347.1999999999999
 21
62.2052
 31
0.0
  0
LINE
  5
407
330
1E
100
AcDbEntity
  8
0
100
AcDbLine
 10
347.0
 20
67.68550000000001
 30
0.0
 11
347.1999999999999
 21
62.2052
 31
0.0
  0
LINE
  5
408
330
1E
100
AcDbEntity
  8
0
100
AcDbLine
 10
346.7999999999999
 20
73.6866
 30
0.0
 11
347.0
 21
67.68550000000001
 31
0.0
  0
LINE
  5
409
330
1E
100
AcDbEntity
  8
0
100
AcDbLine
 10
346.3
 20
80.20650000000001
 30
0.0
 11
346.7999999999999
 21
73.6866
 31
0.0
  0
LINE
  5
40A
330
1E
100
AcDbEntity
  8
0
100
AcDbLine
 10
345.6999999999999
 20
86.97459999999999
 30
0.0
 11
346.3
 21
80.20650000000001
 31
0.0
  0
LINE
  5
40B
330
1E
100
AcDbEntity
  8
0
100
AcDbLine
 10
345.0
 20
93.09639999999999
 30
0.0
 11
345.6999999999999
 21
86.97459999999999
 31
0.0
  0
LINE
  5
40C
330
1E
100
AcDbEntity
  8
0
100
AcDbLine
 10
344.5
 20
100.0049999999999
 30
0.0
 11
345.0
 21
93.09639999999999
 31
0.0
  0
LINE
  5
40D
330
1E
100
AcDbEntity
  8
0
100
AcDbLine
 10
344.157729633601
 20
104.336089216408
 30
0.0
 11
344.5
 21
100.0049999999999
 31
0.0
  0
LINE
  5
40E
330
1E
100
AcDbEntity
  8
0
100
AcDbLine
 10
340.3999999999999
 20
103.854
 30
0.0
 11
344.5
 21
104.38
 31
0.0
  0
LINE
  5
40F
330
1E
100
AcDbEntity
  8
0
100
AcDbLine
 10
344.5
 20
104.38
 30
0.0
 11
348.0
 21
105.213
 31
0.0
  0
LINE
  5
410
330
1E
100
AcDbEntity
  8
0
100
AcDbLine
 10
331.6
 20
103.854
 30
0.0
 11
336.0
 21
103.668
 31
0.0
  0
LINE
  5
411
330
1E
100
AcDbEntity
  8
0
100
AcDbLine
 10
348.0
 20
105.213
 30
0.0
 11
355.8
 21
107.0829999999999
 31
0.0
  0
LINE
  5
412
330
1E
100
AcDbEntity
  8
0
100
AcDbLine
 10
355.8
 20
107.0829999999999
 30
0.0
 11
360.1999999999999
 21
108.906
 31
0.0
  0
LINE
  5
413
330
1E
100
AcDbEntity
  8
0
100
AcDbLine
 10
327.4999999999999
 20
104.38
 30
0.0
 11
331.6
 21
103.854
 31
0.0
  0
LINE
  5
414
330
1E
100
AcDbEntity
  8
0
100
AcDbLine
 10
324.0
 20
105.213
 30
0.0
 11
327.4999999999999
 21
104.38
 31
0.0
  0
LINE
  5
415
330
1E
100
AcDbEntity
  8
0
100
AcDbLine
 10
368.0
 20
114.1729999999999
 30
0.0
 11
371.7
 21
116.892
 31
0.0
  0
LINE
  5
416
330
1E
100
AcDbEntity
  8
0
100
AcDbLine
 10
360.1999999999999
 20
108.906
 30
0.0
 11
368.0
 21
114.1729999999999
 31
0.0
  0
LINE
  5
417
330
1E
100
AcDbEntity
  8
0
100
AcDbLine
 10
316.1999999999999
 20
107.0829999999999
 30
0.0
 11
324.0
 21
105.213
 31
0.0
  0
LINE
  5
418
330
1E
100
AcDbEntity
  8
0
100
AcDbLine
 10
311.8
 20
108.906
 30
0.0
 11
316.1999999999999
 21
107.0829999999999
 31
0.0
  0
LINE
  5
419
330
1E
100
AcDbEntity
  8
0
100
AcDbLine
 10
299.3999999999999
 20
132.3979999999999
 30
0.0
 11
302.8999999999999
 21
138.778
 31
0.0
  0
LINE
  5
41A
330
1E
100
AcDbEntity
  8
0
100
AcDbLine
 10
299.3999999999999
 20
132.3979999999999
 30
0.0
 11
303.1
 21
135.21
 31
0.0
  0
LINE
  5
41B
330
1E
100
AcDbEntity
  8
0
100
AcDbLine
 10
300.3
 20
122.825
 30
0.0
 11
304.0
 21
125.5449999999999
 31
0.0
  0
LINE
  5
41C
330
1E
100
AcDbEntity
  8
0
100
AcDbLine
 10
368.0
 20
125.5449999999999
 30
0.0
 11
371.7
 21
122.825
 31
0.0
  0
LINE
  5
41D
330
1E
100
AcDbEntity
  8
0
100
AcDbLine
 10
371.7
 20
122.825
 30
0.0
 11
373.0
 21
119.859
 31
0.0
  0
LINE
  5
41E
330
1E
100
AcDbEntity
  8
0
100
AcDbLine
 10
374.0
 20
120.6279999999999
 30
0.0
 11
374.0
 21
129.37
 31
0.0
  0
LINE
  5
41F
330
1E
100
AcDbEntity
  8
0
100
AcDbLine
 10
374.0
 20
129.37
 30
0.0
 11
374.0
 21
120.6279999999999
 31
0.0
  0
LINE
  5
420
330
1E
100
AcDbEntity
  8
0
100
AcDbLine
 10
371.7
 20
116.892
 30
0.0
 11
373.0
 21
119.859
 31
0.0
  0
LINE
  5
421
330
1E
100
AcDbEntity
  8
0
100
AcDbLine
 10
371.7
 20
116.892
 30
0.0
 11
374.0
 21
120.6279999999999
 31
0.0
  0
LINE
  5
422
330
1E
100
AcDbEntity
  8
0
100
AcDbLine
 10
301.3999999999999
 20
130.764
 30
0.0
 11
307.8
 21
133.328
 31
0.0
  0
LINE
  5
423
330
1E
100
AcDbEntity
  8
0
100
AcDbLine
 10
307.8
 20
133.328
 30
0.0
 11
316.1
 21
135.306
 31
0.0
  0
LINE
  5
424
330
1E
100
AcDbEntity
  8
0
100
AcDbLine
 10
309.2
 20
137.651
 30
0.0
 11
317.1
 21
139.5359999999999
 31
0.0
  0
LINE
  5
425
330
1E
100
AcDbEntity
  8
0
100
AcDbLine
 10
303.1
 20
135.21
 30
0.0
 11
309.2
 21
137.651
 31
0.0
  0
LINE
  5
426
330
1E
100
AcDbEntity
  8
0
100
AcDbLine
 10
302.8999999999999
 20
138.778
 30
0.0
 11
308.3
 21
144.971
 31
0.0
  0
LINE
  5
427
330
1E
100
AcDbEntity
  8
0
100
AcDbLine
 10
308.3
 20
144.971
 30
0.0
 11
311.1
 21
147.1029999999999
 31
0.0
  0
LINE
  5
428
330
1E
100
AcDbEntity
  8
0
100
AcDbLine
 10
354.4
 20
129.7479999999999
 30
0.0
 11
362.1
 21
127.9249999999999
 31
0.0
  0
LINE
  5
429
330
1E
100
AcDbEntity
  8
0
100
AcDbLine
 10
362.1
 20
127.9249999999999
 30
0.0
 11
368.0
 21
125.5449999999999
 31
0.0
  0
LINE
  5
42A
330
1E
100
AcDbEntity
  8
0
100
AcDbLine
 10
316.1
 20
135.306
 30
0.0
 11
323.1
 21
136.3569999999999
 31
0.0
  0
LINE
  5
42B
330
1E
100
AcDbEntity
  8
0
100
AcDbLine
 10
326.2
 20
140.68
 30
0.0
 11
336.0
 21
141.1129999999999
 31
0.0
  0
LINE
  5
42C
330
1E
100
AcDbEntity
  8
0
100
AcDbLine
 10
317.1
 20
139.5359999999999
 30
0.0
 11
326.2
 21
140.68
 31
0.0
  0
LINE
  5
42D
330
1E
100
AcDbEntity
  8
0
100
AcDbLine
 10
311.1
 20
147.1029999999999
 30
0.0
 11
317.8
 21
151.6359999999999
 31
0.0
  0
LINE
  5
42E
330
1E
100
AcDbEntity
  8
0
100
AcDbLine
 10
325.4999999999999
 20
154.014
 30
0.0
 11
330.6
 21
154.6329999999999
 31
0.0
  0
LINE
  5
42F
330
1E
100
AcDbEntity
  8
0
100
AcDbLine
 10
321.1999999999999
 20
152.964
 30
0.0
 11
325.4999999999999
 21
154.014
 31
0.0
  0
LINE
  5
430
330
1E
100
AcDbEntity
  8
0
100
AcDbLine
 10
317.8
 20
151.6359999999999
 30
0.0
 11
321.1999999999999
 21
152.964
 31
0.0
  0
LINE
  5
431
330
1E
100
AcDbEntity
  8
0
100
AcDbLine
 10
370.6
 20
130.764
 30
0.0
 11
374.0
 21
128.6
 31
0.0
  0
LINE
  5
432
330
1E
100
AcDbEntity
  8
0
100
AcDbLine
 10
336.0
 20
141.1129999999999
 30
0.0
 11
345.8
 21
140.68
 31
0.0
  0
LINE
  5
433
330
1E
100
AcDbEntity
  8
0
100
AcDbLine
 10
336.0
 20
154.8799999999999
 30
0.0
 11
341.3999999999999
 21
154.6329999999999
 31
0.0
  0
LINE
  5
434
330
1E
100
AcDbEntity
  8
0
100
AcDbLine
 10
330.6
 20
154.6329999999999
 30
0.0
 11
336.0
 21
154.8799999999999
 31
0.0
  0
LINE
  5
435
330
1E
100
AcDbEntity
  8
0
100
AcDbLine
 10
348.8999999999999
 20
136.3569999999999
 30
0.0
 11
355.8999999999999
 21
135.306
 31
0.0
  0
LINE
  5
436
330
1E
100
AcDbEntity
  8
0
100
AcDbLine
 10
345.8
 20
140.68
 30
0.0
 11
354.8999999999999
 21
139.5359999999999
 31
0.0
  0
LINE
  5
437
330
1E
100
AcDbEntity
  8
0
100
AcDbLine
 10
355.8999999999999
 20
135.306
 30
0.0
 11
364.1999999999999
 21
133.328
 31
0.0
  0
LINE
  5
438
330
1E
100
AcDbEntity
  8
0
100
AcDbLine
 10
354.8999999999999
 20
139.5359999999999
 30
0.0
 11
362.8
 21
137.651
 31
0.0
  0
LINE
  5
439
330
1E
100
AcDbEntity
  8
0
100
AcDbLine
 10
354.1999999999999
 20
151.6359999999999
 30
0.0
 11
360.8999999999999
 21
147.1029999999999
 31
0.0
  0
LINE
  5
43A
330
1E
100
AcDbEntity
  8
0
100
AcDbLine
 10
364.1999999999999
 20
133.328
 30
0.0
 11
370.6
 21
130.764
 31
0.0
  0
LINE
  5
43B
330
1E
100
AcDbEntity
  8
0
100
AcDbLine
 10
362.8
 20
137.651
 30
0.0
 11
368.9
 21
135.21
 31
0.0
  0
LINE
  5
43C
330
1E
100
AcDbEntity
  8
0
100
AcDbLine
 10
368.9
 20
135.21
 30
0.0
 11
372.6
 21
132.3979999999999
 31
0.0
  0
LINE
  5
43D
330
1E
100
AcDbEntity
  8
0
100
AcDbLine
 10
369.1
 20
138.778
 30
0.0
 11
372.6
 21
132.3979999999999
 31
0.0
  0
LINE
  5
43E
330
1E
100
AcDbEntity
  8
0
100
AcDbLine
 10
372.6
 20
132.3979999999999
 30
0.0
 11
374.0
 21
129.37
 31
0.0
  0
LINE
  5
43F
330
1E
100
AcDbEntity
  8
0
100
AcDbLine
 10
363.7
 20
144.971
 30
0.0
 11
369.1
 21
138.778
 31
0.0
  0
LINE
  5
440
330
1E
100
AcDbEntity
  8
0
100
AcDbLine
 10
360.8999999999999
 20
147.1029999999999
 30
0.0
 11
363.7
 21
144.971
 31
0.0
  0
LINE
  5
441
330
1E
100
AcDbEntity
  8
0
100
AcDbLine
 10
341.3999999999999
 20
154.6329999999999
 30
0.0
 11
346.4999999999999
 21
154.014
 31
0.0
  0
LINE
  5
442
330
1E
100
AcDbEntity
  8
0
100
AcDbLine
 10
346.4999999999999
 20
154.014
 30
0.0
 11
350.8
 21
152.964
 31
0.0
  0
LINE
  5
443
330
1E
100
AcDbEntity
  8
0
100
AcDbLine
 10
350.8
 20
152.964
 30
0.0
 11
354.1999999999999
 21
151.6359999999999
 31
0.0
  0
LINE
  5
444
330
1E
100
AcDbEntity
  8
0
100
AcDbLine
 10
336.0
 20
131.293
 30
0.0
 11
345.6
 21
130.891
 31
0.0
  0
LINE
  5
445
330
1E
100
AcDbEntity
  8
0
100
AcDbLine
 10
345.6
 20
130.891
 30
0.0
 11
354.4
 21
129.7479999999999
 31
0.0
  0
LINE
  5
446
330
1E
100
AcDbEntity
  8
0
100
AcDbLine
 10
326.3999999999999
 20
130.891
 30
0.0
 11
336.0
 21
131.293
 31
0.0
  0
LINE
  5
447
330
1E
100
AcDbEntity
  8
0
100
AcDbLine
 10
317.6
 20
129.7479999999999
 30
0.0
 11
326.3999999999999
 21
130.891
 31
0.0
  0
LINE
  5
448
330
1E
100
AcDbEntity
  8
0
100
AcDbLine
 10
309.8999999999999
 20
127.9249999999999
 30
0.0
 11
317.6
 21
129.7479999999999
 31
0.0
  0
LINE
  5
449
330
1E
100
AcDbEntity
  8
0
100
AcDbLine
 10
304.0
 20
125.5449999999999
 30
0.0
 11
309.8999999999999
 21
127.9249999999999
 31
0.0
  0
LINE
  5
44A
330
1E
100
AcDbEntity
  8
0
100
AcDbLine
 10
300.3
 20
116.892
 30
0.0
 11
304.0
 21
114.1729999999999
 31
0.0
  0
LINE
  5
44B
330
1E
100
AcDbEntity
  8
0
100
AcDbLine
 10
304.0
 20
114.1729999999999
 30
0.0
 11
311.8
 21
108.906
 31
0.0
  0
LINE
  5
44C
330
1E
100
AcDbEntity
  8
0
100
AcDbLine
 10
299.0
 20
119.859
 30
0.0
 11
300.3
 21
116.892
 31
0.0
  0
LINE
  5
44D
330
1E
100
AcDbEntity
  8
0
100
AcDbLine
 10
299.0
 20
119.859
 30
0.0
 11
300.3
 21
122.825
 31
0.0
  0
LINE
  5
452
330
1E
100
AcDbEntity
  8
0
100
AcDbLine
 10
323.1
 20
136.3569999999999
 30
0.0
 11
333.8998036123699
 21
136.9888286312624
 31
0.0
  0
LINE
  5
453
330
1E
100
AcDbEntity
  8
0
100
AcDbLine
 10
333.8998036123699
 20
136.9888286312624
 30
0.0
 11
341.6104101418142
 21
136.9888286312624
 31
0.0
  0
LINE
  5
454
330
1E
100
AcDbEntity
  8
0
100
AcDbLine
 10
341.6104101418142
 20
136.9888286312624
 30
0.0
 11
348.8999999999999
 21
136.3569999999999
 31
0.0
  0
ENDSEC
  0
SECTION
  2
OBJECTS
  0
DICTIONARY
  5
C
330
0
100
AcDbDictionary
281
     1
  3
ACAD_GROUP
350
D
  3
ACAD_LAYOUT
350
19
  3
ACAD_MLINESTYLE
350
16
  3
ACAD_PLOTSETTINGS
350
18
  3
ACAD_PLOTSTYLENAME
350
E
  3
AcDbVariableDictionary
350
455
  0
DICTIONARY
  5
D
102
{ACAD_REACTORS
330
C
102
}
330
C
100
AcDbDictionary
281
     1
  0
DICTIONARY
  5
19
102
{ACAD_REACTORS
330
C
102
}
330
C
100
AcDbDictionary
281
     1
  3
Layout1
350
1D
  3
Model
350
21
  0
DICTIONARY
  5
16
102
{ACAD_REACTORS
330
C
102
}
330
C
100
AcDbDictionary
281
     1
  3
Standard
350
17
  0
DICTIONARY
  5
18
102
{ACAD_REACTORS
330
C
102
}
330
C
100
AcDbDictionary
281
     1
  0
ACDBDICTIONARYWDFLT
  5
E
102
{ACAD_REACTORS
330
C
102
}
330
C
100
AcDbDictionary
281
     1
  3
Normal
350
F
100
AcDbDictionaryWithDefault
340
F
  0
DICTIONARY
  5
455
102
{ACAD_REACTORS
330
C
102
}
330
C
100
AcDbDictionary
281
     1
  3
DIMASSOC
350
456
  0
LAYOUT
  5
1D
102
{ACAD_REACTORS
330
19
102
}
330
19
100
AcDbPlotSettings
  1

  2
hp deskjet 980c series
  4

  6

 40
0.0
 41
0.0
 42
0.0
 43
0.0
 44
0.0
 45
0.0
 46
0.0
 47
0.0
 48
0.0
 49
0.0
140
0.0
141
0.0
142
1.0
143
1.0
 70
   688
 72
     0
 73
     0
 74
     5
  7

 75
    16
147
1.0
148
0.0
149
0.0
100
AcDbLayout
  1
Layout1
 70
     1
 71
     1
 10
0.0
 20
0.0
 11
12.0
 21
9.0
 12
0.0
 22
0.0
 32
0.0
 14
1.000000000000000E+20
 24
1.000000000000000E+20
 34
1.000000000000000E+20
 15
-1.000000000000000E+20
 25
-1.000000000000000E+20
 35
-1.000000000000000E+20
146
0.0
 13
0.0
 23
0.0
 33
0.0
 16
1.0
 26
0.0
 36
0.0
 17
0.0
 27
1.0
 37
0.0
 76
     0
330
1A
  0
LAYOUT
  5
21
102
{ACAD_REACTORS
330
19
102
}
330
19
100
AcDbPlotSettings
  1

  2
hp deskjet 980c series
  4

  6

 40
0.0
 41
0.0
 42
0.0
 43
0.0
 44
0.0
 45
0.0
 46
0.0
 47
0.0
 48
0.0
 49
0.0
140
0.0
141
0.0
142
1.0
143
1.0
 70
  1712
 72
     0
 73
     0
 74
     0
  7

 75
     0
147
1.0
148
0.0
149
0.0
100
AcDbLayout
  1
Model
 70
     1
 71
     0
 10
0.0
 20
0.0
 11
12.0
 21
9.0
 12
0.0
 22
0.0
 32
0.0
 14
0.0
 24
0.0
 34
0.0
 15
0.0
 25
0.0
 35
0.0
146
0.0
 13
0.0
 23
0.0
 33
0.0
 16
1.0
 26
0.0
 36
0.0
 17
0.0
 27
1.0
 37
0.0
 76
     0
330
1E
  0
MLINESTYLE
  5
17
102
{ACAD_REACTORS
330
16
102
}
330
16
100
AcDbMlineStyle
  2
STANDARD
 70
     0
  3

 62
   256
 51
90.0
 52
90.0
 71
     2
 49
0.5
 62
   256
  6
BYLAYER
 49
-0.5
 62
   256
  6
BYLAYER
  0
ACDBPLACEHOLDER
  5
F
102
{ACAD_REACTORS
330
E
102
}
330
E
  0
DICTIONARYVAR
  5
456
102
{ACAD_REACTORS
330
455
102
}
330
455
100
DictionaryVariables
280
     0
  1
1
  0
ENDSEC
  0
EOF
