  0
SECTION
  2
HEADER
  9
$ACADVER
  1
AC1015
  9
$ACADMAINTVER
 70
    13
  9
$DWGCODEPAGE
  3
ANSI_1252
  9
$INSBASE
 10
0.0
 20
0.0
 30
0.0
  9
$EXTMIN
 10
0.0000174999999955
 20
0.0000225000000036
 30
0.0
  9
$EXTMAX
 10
85.9999825
 20
208.9999774999999
 30
0.0
  9
$LIMMIN
 10
0.0
 20
0.0
  9
$LIMMAX
 10
12.0
 20
9.0
  9
$ORTHOMODE
 70
     0
  9
$REGENMODE
 70
     1
  9
$FILLMODE
 70
     1
  9
$QTEXTMODE
 70
     0
  9
$MIRRTEXT
 70
     1
  9
$LTSCALE
 40
1.0
  9
$ATTMODE
 70
     1
  9
$TEXTSIZE
 40
0.2
  9
$TRACEWID
 40
0.05
  9
$TEXTSTYLE
  7
Standard
  9
$CLAYER
  8
0
  9
$CELTYPE
  6
Continuous
  9
$CECOLOR
 62
   256
  9
$CELTSCALE
 40
1.0
  9
$DISPSILH
 70
     0
  9
$DIMSCALE
 40
1.0
  9
$DIMASZ
 40
0.18
  9
$DIMEXO
 40
0.0625
  9
$DIMDLI
 40
0.38
  9
$DIMRND
 40
0.0
  9
$DIMDLE
 40
0.0
  9
$DIMEXE
 40
0.18
  9
$DIMTP
 40
0.0
  9
$DIMTM
 40
0.0
  9
$DIMTXT
 40
0.18
  9
$DIMCEN
 40
0.09
  9
$DIMTSZ
 40
0.0
  9
$DIMTOL
 70
     0
  9
$DIMLIM
 70
     0
  9
$DIMTIH
 70
     1
  9
$DIMTOH
 70
     1
  9
$DIMSE1
 70
     0
  9
$DIMSE2
 70
     0
  9
$DIMTAD
 70
     0
  9
$DIMZIN
 70
     0
  9
$DIMBLK
  1

  9
$DIMASO
 70
     1
  9
$DIMSHO
 70
     1
  9
$DIMPOST
  1

  9
$DIMAPOST
  1

  9
$DIMALT
 70
     0
  9
$DIMALTD
 70
     2
  9
$DIMALTF
 40
25.4
  9
$DIMLFAC
 40
1.0
  9
$DIMTOFL
 70
     0
  9
$DIMTVP
 40
0.0
  9
$DIMTIX
 70
     0
  9
$DIMSOXD
 70
     0
  9
$DIMSAH
 70
     0
  9
$DIMBLK1
  1

  9
$DIMBLK2
  1

  9
$DIMSTYLE
  2
Standard
  9
$DIMCLRD
 70
     0
  9
$DIMCLRE
 70
     0
  9
$DIMCLRT
 70
     0
  9
$DIMTFAC
 40
1.0
  9
$DIMGAP
 40
0.09
  9
$DIMJUST
 70
     0
  9
$DIMSD1
 70
     0
  9
$DIMSD2
 70
     0
  9
$DIMTOLJ
 70
     1
  9
$DIMTZIN
 70
     0
  9
$DIMALTZ
 70
     0
  9
$DIMALTTZ
 70
     0
  9
$DIMUPT
 70
     0
  9
$DIMDEC
 70
     4
  9
$DIMTDEC
 70
     4
  9
$DIMALTU
 70
     2
  9
$DIMALTTD
 70
     2
  9
$DIMTXSTY
  7
Standard
  9
$DIMAUNIT
 70
     0
  9
$DIMADEC
 70
     0
  9
$DIMALTRND
 40
0.0
  9
$DIMAZIN
 70
     0
  9
$DIMDSEP
 70
    46
  9
$DIMATFIT
 70
     3
  9
$DIMFRAC
 70
     0
  9
$DIMLDRBLK
  1

  9
$DIMLUNIT
 70
     2
  9
$DIMLWD
 70
    -2
  9
$DIMLWE
 70
    -2
  9
$DIMTMOVE
 70
     0
  9
$LUNITS
 70
     2
  9
$LUPREC
 70
     4
  9
$SKETCHINC
 40
0.1
  9
$FILLETRAD
 40
0.0
  9
$AUNITS
 70
     0
  9
$AUPREC
 70
     0
  9
$MENU
  1
.
  9
$ELEVATION
 40
0.0
  9
$PELEVATION
 40
0.0
  9
$THICKNESS
 40
0.0
  9
$LIMCHECK
 70
     0
  9
$CHAMFERA
 40
0.0
  9
$CHAMFERB
 40
0.0
  9
$CHAMFERC
 40
0.0
  9
$CHAMFERD
 40
0.0
  9
$SKPOLY
 70
     0
  9
$TDCREATE
 40
2454752.779960937
  9
$TDUCREATE
 40
2454752.696627604
  9
$TDUPDATE
 40
2454752.781316007
  9
$TDUUPDATE
 40
2454752.697982673
  9
$TDINDWG
 40
0.0013550694
  9
$TDUSRTIMER
 40
0.0013550694
  9
$USRTIMER
 70
     1
  9
$ANGBASE
 50
0.0
  9
$ANGDIR
 70
     0
  9
$PDMODE
 70
     0
  9
$PDSIZE
 40
0.0
  9
$PLINEWID
 40
0.0
  9
$SPLFRAME
 70
     0
  9
$SPLINETYPE
 70
     6
  9
$SPLINESEGS
 70
     8
  9
$HANDSEED
  5
212
  9
$SURFTAB1
 70
     6
  9
$SURFTAB2
 70
     6
  9
$SURFTYPE
 70
     6
  9
$SURFU
 70
     6
  9
$SURFV
 70
     6
  9
$UCSBASE
  2

  9
$UCSNAME
  2

  9
$UCSORG
 10
0.0
 20
0.0
 30
0.0
  9
$UCSXDIR
 10
1.0
 20
0.0
 30
0.0
  9
$UCSYDIR
 10
0.0
 20
1.0
 30
0.0
  9
$UCSORTHOREF
  2

  9
$UCSORTHOVIEW
 70
     1
  9
$UCSORGTOP
 10
0.0
 20
0.0
 30
0.0
  9
$UCSORGBOTTOM
 10
0.0
 20
0.0
 30
0.0
  9
$UCSORGLEFT
 10
0.0
 20
0.0
 30
0.0
  9
$UCSORGRIGHT
 10
0.0
 20
0.0
 30
0.0
  9
$UCSORGFRONT
 10
0.0
 20
0.0
 30
0.0
  9
$UCSORGBACK
 10
0.0
 20
0.0
 30
0.0
  9
$PUCSBASE
  2

  9
$PUCSNAME
  2

  9
$PUCSORG
 10
0.0
 20
0.0
 30
0.0
  9
$PUCSXDIR
 10
1.0
 20
0.0
 30
0.0
  9
$PUCSYDIR
 10
0.0
 20
1.0
 30
0.0
  9
$PUCSORTHOREF
  2

  9
$PUCSORTHOVIEW
 70
     0
  9
$PUCSORGTOP
 10
0.0
 20
0.0
 30
0.0
  9
$PUCSORGBOTTOM
 10
0.0
 20
0.0
 30
0.0
  9
$PUCSORGLEFT
 10
0.0
 20
0.0
 30
0.0
  9
$PUCSORGRIGHT
 10
0.0
 20
0.0
 30
0.0
  9
$PUCSORGFRONT
 10
0.0
 20
0.0
 30
0.0
  9
$PUCSORGBACK
 10
0.0
 20
0.0
 30
0.0
  9
$USERI1
 70
     0
  9
$USERI2
 70
     0
  9
$USERI3
 70
     0
  9
$USERI4
 70
     0
  9
$USERI5
 70
     0
  9
$USERR1
 40
0.0
  9
$USERR2
 40
0.0
  9
$USERR3
 40
0.0
  9
$USERR4
 40
0.0
  9
$USERR5
 40
0.0
  9
$WORLDVIEW
 70
     1
  9
$SHADEDGE
 70
     3
  9
$SHADEDIF
 70
    70
  9
$TILEMODE
 70
     1
  9
$MAXACTVP
 70
    64
  9
$PINSBASE
 10
0.0
 20
0.0
 30
0.0
  9
$PLIMCHECK
 70
     0
  9
$PEXTMIN
 10
1.000000000000000E+20
 20
1.000000000000000E+20
 30
1.000000000000000E+20
  9
$PEXTMAX
 10
-1.000000000000000E+20
 20
-1.000000000000000E+20
 30
-1.000000000000000E+20
  9
$PLIMMIN
 10
0.0
 20
0.0
  9
$PLIMMAX
 10
12.0
 20
9.0
  9
$UNITMODE
 70
     0
  9
$VISRETAIN
 70
     1
  9
$PLINEGEN
 70
     0
  9
$PSLTSCALE
 70
     1
  9
$TREEDEPTH
 70
  3020
  9
$CMLSTYLE
  2
Standard
  9
$CMLJUST
 70
     0
  9
$CMLSCALE
 40
1.0
  9
$PROXYGRAPHICS
 70
     1
  9
$MEASUREMENT
 70
     0
  9
$CELWEIGHT
370
    -1
  9
$ENDCAPS
280
     0
  9
$JOINSTYLE
280
     0
  9
$LWDISPLAY
290
     0
  9
$INSUNITS
 70
     0
  9
$HYPERLINKBASE
  1

  9
$STYLESHEET
  1

  9
$XEDIT
290
     1
  9
$CEPSNTYPE
380
     0
  9
$PSTYLEMODE
290
     1
  9
$FINGERPRINTGUID
  2
{22F073AA-ACF8-4910-BE4E-5DB7673DD4BD}
  9
$VERSIONGUID
  2
{8DFF3351-A5F2-49E7-88A8-4B8CFE216F53}
  9
$EXTNAMES
290
     1
  9
$PSVPSCALE
 40
0.0
  9
$OLESTARTUP
290
     0
  0
ENDSEC
  0
SECTION
  2
CLASSES
  0
CLASS
  1
ACDBDICTIONARYWDFLT
  2
AcDbDictionaryWithDefault
  3
AutoCAD 2000
 90
        0
280
     0
281
     0
  0
CLASS
  1
ACDBPLACEHOLDER
  2
AcDbPlaceHolder
  3
AutoCAD 2000
 90
        0
280
     0
281
     0
  0
CLASS
  1
LAYOUT
  2
AcDbLayout
  3
AutoCAD 2000
 90
        0
280
     0
281
     0
  0
CLASS
  1
DICTIONARYVAR
  2
AcDbDictionaryVar
  3
AutoCAD 2000
 90
        0
280
     0
281
     0
  0
ENDSEC
  0
SECTION
  2
TABLES
  0
TABLE
  2
VPORT
  5
8
330
0
100
AcDbSymbolTable
 70
     2
  0
VPORT
  5
211
330
8
100
AcDbSymbolTableRecord
100
AcDbViewportTableRecord
  2
*Active
 70
     0
 10
0.0
 20
0.0
 11
1.0
 21
1.0
 12
43.0
 22
104.4999999999999
 13
0.0
 23
0.0
 14
1.0
 24
1.0
 15
0.0
 25
0.0
 16
0.0
 26
0.0
 36
1.0
 17
0.0
 27
0.0
 37
0.0
 40
210.6035352173913
 41
2.078104993597951
 42
50.0
 43
0.0
 44
0.0
 50
0.0
 51
0.0
 71
     0
 72
   100
 73
     1
 74
     3
 75
     0
 76
     0
 77
     0
 78
     0
281
     0
 65
     1
110
0.0
120
0.0
130
0.0
111
1.0
121
0.0
131
0.0
112
0.0
122
1.0
132
0.0
 79
     1
146
0.0
  0
ENDTAB
  0
TABLE
  2
LTYPE
  5
5
330
0
100
AcDbSymbolTable
 70
     1
  0
LTYPE
  5
13
330
5
100
AcDbSymbolTableRecord
100
AcDbLinetypeTableRecord
  2
ByBlock
 70
     0
  3

 72
    65
 73
     0
 40
0.0
  0
LTYPE
  5
14
330
5
100
AcDbSymbolTableRecord
100
AcDbLinetypeTableRecord
  2
ByLayer
 70
     0
  3

 72
    65
 73
     0
 40
0.0
  0
LTYPE
  5
15
330
5
100
AcDbSymbolTableRecord
100
AcDbLinetypeTableRecord
  2
Continuous
 70
     0
  3
Solid line
 72
    65
 73
     0
 40
0.0
  0
ENDTAB
  0
TABLE
  2
LAYER
  5
2
330
0
100
AcDbSymbolTable
 70
     1
  0
LAYER
  5
10
330
2
100
AcDbSymbolTableRecord
100
AcDbLayerTableRecord
  2
0
 70
     0
 62
     7
  6
Continuous
370
    -3
390
F
  0
ENDTAB
  0
TABLE
  2
STYLE
  5
3
330
0
100
AcDbSymbolTable
 70
     1
  0
STYLE
  5
11
330
3
100
AcDbSymbolTableRecord
100
AcDbTextStyleTableRecord
  2
Standard
 70
     0
 40
0.0
 41
1.0
 50
0.0
 71
     0
 42
0.2
  3
txt
  4

  0
ENDTAB
  0
TABLE
  2
VIEW
  5
6
330
0
100
AcDbSymbolTable
 70
     0
  0
ENDTAB
  0
TABLE
  2
UCS
  5
7
330
0
100
AcDbSymbolTable
 70
     0
  0
ENDTAB
  0
TABLE
  2
APPID
  5
9
330
0
100
AcDbSymbolTable
 70
     1
  0
APPID
  5
12
330
9
100
AcDbSymbolTableRecord
100
AcDbRegAppTableRecord
  2
ACAD
 70
     0
  0
ENDTAB
  0
TABLE
  2
DIMSTYLE
  5
A
330
0
100
AcDbSymbolTable
 70
     1
100
AcDbDimStyleTable
 71
     0
  0
DIMSTYLE
105
20B
330
A
100
AcDbSymbolTableRecord
100
AcDbDimStyleTableRecord
  2
Standard
 70
     0
340
11
  0
ENDTAB
  0
TABLE
  2
BLOCK_RECORD
  5
1
330
0
100
AcDbSymbolTable
 70
     0
  0
BLOCK_RECORD
  5
1E
330
1
100
AcDbSymbolTableRecord
100
AcDbBlockTableRecord
  2
*Model_Space
340
21
  0
BLOCK_RECORD
  5
1A
330
1
100
AcDbSymbolTableRecord
100
AcDbBlockTableRecord
  2
*Paper_Space
340
1D
  0
ENDTAB
  0
ENDSEC
  0
SECTION
  2
BLOCKS
  0
BLOCK
  5
1F
330
1E
100
AcDbEntity
  8
0
100
AcDbBlockBegin
  2
*Model_Space
 70
     0
 10
0.0
 20
0.0
 30
0.0
  3
*Model_Space
  1

  0
ENDBLK
  5
20
330
1E
100
AcDbEntity
  8
0
100
AcDbBlockEnd
  0
BLOCK
  5
1B
330
1A
100
AcDbEntity
 67
     1
  8
0
100
AcDbBlockBegin
  2
*Paper_Space
 70
     0
 10
0.0
 20
0.0
 30
0.0
  3
*Paper_Space
  1

  0
ENDBLK
  5
1C
330
1A
100
AcDbEntity
 67
     1
  8
0
100
AcDbBlockEnd
  0
ENDSEC
  0
SECTION
  2
ENTITIES
  0
LINE
  5
22
330
1E
100
AcDbEntity
  8
0
100
AcDbLine
 10
0.0000174999999955
 20
6.7643575
 30
0.0
 11
0.150254499999996
 21
9.4527475
 31
0.0
  0
LINE
  5
23
330
1E
100
AcDbEntity
  8
0
100
AcDbLine
 10
0.0000174999999955
 20
6.7643575
 30
0.0
 11
0.150254499999996
 21
9.4527475
 31
0.0
  0
LINE
  5
24
330
1E
100
AcDbEntity
  8
0
100
AcDbLine
 10
0.0000174999999955
 20
6.7643575
 30
0.0
 11
0.5142424999999951
 21
4.317807499999999
 31
0.0
  0
LINE
  5
25
330
1E
100
AcDbEntity
  8
0
100
AcDbLine
 10
0.150254499999996
 20
9.4527475
 30
0.0
 11
1.176262499999999
 21
12.8361775
 31
0.0
  0
LINE
  5
26
330
1E
100
AcDbEntity
  8
0
100
AcDbLine
 10
0.150254499999996
 20
9.4527475
 30
0.0
 11
1.176262499999999
 21
12.8361775
 31
0.0
  0
LINE
  5
27
330
1E
100
AcDbEntity
  8
0
100
AcDbLine
 10
0.0000174999999955
 20
6.7643575
 30
0.0
 11
0.5142424999999951
 21
4.317807499999999
 31
0.0
  0
LINE
  5
28
330
1E
100
AcDbEntity
  8
0
100
AcDbLine
 10
1.176262499999999
 20
12.8361775
 30
0.0
 11
5.251722499999999
 21
20.8660775
 31
0.0
  0
LINE
  5
29
330
1E
100
AcDbEntity
  8
0
100
AcDbLine
 10
1.176262499999999
 20
12.8361775
 30
0.0
 11
5.251722499999999
 21
20.8660775
 31
0.0
  0
LINE
  5
2A
330
1E
100
AcDbEntity
  8
0
100
AcDbLine
 10
0.5142424999999951
 20
4.317807499999999
 30
0.0
 11
1.6929325
 21
2.113117499999999
 31
0.0
  0
LINE
  5
2B
330
1E
100
AcDbEntity
  8
0
100
AcDbLine
 10
1.6929325
 20
2.113117499999999
 30
0.0
 11
3.7473925
 21
0.6034145000000041
 31
0.0
  0
LINE
  5
2C
330
1E
100
AcDbEntity
  8
0
100
AcDbLine
 10
1.6929325
 20
2.113117499999999
 30
0.0
 11
3.7473925
 21
0.6034145000000041
 31
0.0
  0
LINE
  5
2D
330
1E
100
AcDbEntity
  8
0
100
AcDbLine
 10
6.22447249999999
 20
0.0000225000000036
 30
0.0
 11
8.67101249999999
 21
0.514247500000004
 31
0.0
  0
LINE
  5
2E
330
1E
100
AcDbEntity
  8
0
100
AcDbLine
 10
5.251722499999999
 20
20.8660775
 30
0.0
 11
10.92698249999999
 21
32.5635775
 31
0.0
  0
LINE
  5
2F
330
1E
100
AcDbEntity
  8
0
100
AcDbLine
 10
5.251722499999999
 20
20.8660775
 30
0.0
 11
10.92698249999999
 21
32.5635775
 31
0.0
  0
LINE
  5
30
330
1E
100
AcDbEntity
  8
0
100
AcDbLine
 10
8.67101249999999
 20
0.514247500000003
 30
0.0
 11
10.8756825
 21
1.6929375
 31
0.0
  0
LINE
  5
31
330
1E
100
AcDbEntity
  8
0
100
AcDbLine
 10
10.92698249999999
 20
32.5635775
 30
0.0
 11
19.8630825
 21
49.3607775
 31
0.0
  0
LINE
  5
32
330
1E
100
AcDbEntity
  8
0
100
AcDbLine
 10
14.7708825
 20
6.496857499999999
 30
0.0
 11
18.30258249999999
 21
14.7803775
 31
0.0
  0
LINE
  5
33
330
1E
100
AcDbEntity
  8
0
100
AcDbLine
 10
15.4999825
 20
78.49997749999999
 30
0.0
 11
16.9999825
 21
74.9999775
 31
0.0
  0
LINE
  5
34
330
1E
100
AcDbEntity
  8
0
100
AcDbLine
 10
14.4999825
 20
83.49997749999999
 30
0.0
 11
15.4999825
 21
78.49997749999999
 31
0.0
  0
LINE
  5
35
330
1E
100
AcDbEntity
  8
0
100
AcDbLine
 10
13.9999825
 20
89.9999775
 30
0.0
 11
14.4999825
 21
96.4999775
 31
0.0
  0
LINE
  5
36
330
1E
100
AcDbEntity
  8
0
100
AcDbLine
 10
13.9999825
 20
89.9999775
 30
0.0
 11
14.4999825
 21
83.49997749999999
 31
0.0
  0
LINE
  5
37
330
1E
100
AcDbEntity
  8
0
100
AcDbLine
 10
16.9999825
 20
82.4999775
 30
0.0
 11
16.9999825
 21
79.3999775
 31
0.0
  0
LINE
  5
38
330
1E
100
AcDbEntity
  8
0
100
AcDbLine
 10
16.9999825
 20
82.4999775
 30
0.0
 11
16.9999825
 21
86.09997750000001
 31
0.0
  0
LINE
  5
39
330
1E
100
AcDbEntity
  8
0
100
AcDbLine
 10
16.9999825
 20
79.3999775
 30
0.0
 11
16.9999825
 21
76.9999775
 31
0.0
  0
LINE
  5
3A
330
1E
100
AcDbEntity
  8
0
100
AcDbLine
 10
16.9999825
 20
79.3999775
 30
0.0
 11
16.9999825
 21
82.4999775
 31
0.0
  0
LINE
  5
3B
330
1E
100
AcDbEntity
  8
0
100
AcDbLine
 10
16.9999825
 20
76.9999775
 30
0.0
 11
16.9999825
 21
75.4999775
 31
0.0
  0
LINE
  5
3C
330
1E
100
AcDbEntity
  8
0
100
AcDbLine
 10
16.9999825
 20
76.9999775
 30
0.0
 11
16.9999825
 21
79.3999775
 31
0.0
  0
LINE
  5
3D
330
1E
100
AcDbEntity
  8
0
100
AcDbLine
 10
16.9999825
 20
86.09997750000001
 30
0.0
 11
16.9999825
 21
89.9999775
 31
0.0
  0
LINE
  5
3E
330
1E
100
AcDbEntity
  8
0
100
AcDbLine
 10
16.9999825
 20
89.9999775
 30
0.0
 11
16.9999825
 21
86.09997750000001
 31
0.0
  0
LINE
  5
3F
330
1E
100
AcDbEntity
  8
0
100
AcDbLine
 10
16.9999825
 20
89.9999775
 30
0.0
 11
16.9999825
 21
93.8999775
 31
0.0
  0
LINE
  5
40
330
1E
100
AcDbEntity
  8
0
100
AcDbLine
 10
16.9999825
 20
75.4999775
 30
0.0
 11
16.9999825
 21
74.9999775
 31
0.0
  0
LINE
  5
41
330
1E
100
AcDbEntity
  8
0
100
AcDbLine
 10
16.9999825
 20
75.4999775
 30
0.0
 11
16.9999825
 21
76.9999775
 31
0.0
  0
LINE
  5
42
330
1E
100
AcDbEntity
  8
0
100
AcDbLine
 10
16.9999825
 20
74.9999775
 30
0.0
 11
17.4999825
 21
74.4999775
 31
0.0
  0
LINE
  5
43
330
1E
100
AcDbEntity
  8
0
100
AcDbLine
 10
16.9999825
 20
74.9999775
 30
0.0
 11
16.9999825
 21
75.4999775
 31
0.0
  0
LINE
  5
4C
330
1E
100
AcDbEntity
  8
0
100
AcDbLine
 10
17.4999825
 20
74.4999775
 30
0.0
 11
18.4999825
 21
74.4999775
 31
0.0
  0
LINE
  5
52
330
1E
100
AcDbEntity
  8
0
100
AcDbLine
 10
16.9999825
 20
93.8999775
 30
0.0
 11
16.9999825
 21
89.9999775
 31
0.0
  0
LINE
  5
53
330
1E
100
AcDbEntity
  8
0
100
AcDbLine
 10
16.9999825
 20
93.8999775
 30
0.0
 11
16.9999825
 21
97.4999775
 31
0.0
  0
LINE
  5
54
330
1E
100
AcDbEntity
  8
0
100
AcDbLine
 10
14.4999825
 20
96.4999775
 30
0.0
 11
15.4999825
 21
101.4999774999999
 31
0.0
  0
LINE
  5
55
330
1E
100
AcDbEntity
  8
0
100
AcDbLine
 10
16.9999825
 20
97.4999775
 30
0.0
 11
16.9999825
 21
93.8999775
 31
0.0
  0
LINE
  5
56
330
1E
100
AcDbEntity
  8
0
100
AcDbLine
 10
16.9999825
 20
97.4999775
 30
0.0
 11
16.9999825
 21
100.5999775
 31
0.0
  0
LINE
  5
57
330
1E
100
AcDbEntity
  8
0
100
AcDbLine
 10
15.4999825
 20
101.4999774999999
 30
0.0
 11
16.9999825
 21
104.9999774999999
 31
0.0
  0
LINE
  5
58
330
1E
100
AcDbEntity
  8
0
100
AcDbLine
 10
16.9999825
 20
100.5999775
 30
0.0
 11
16.9999825
 21
97.4999775
 31
0.0
  0
LINE
  5
59
330
1E
100
AcDbEntity
  8
0
100
AcDbLine
 10
16.9999825
 20
100.5999775
 30
0.0
 11
16.9999825
 21
102.9999775
 31
0.0
  0
LINE
  5
5A
330
1E
100
AcDbEntity
  8
0
100
AcDbLine
 10
16.9999825
 20
102.9999775
 30
0.0
 11
16.9999825
 21
100.5999775
 31
0.0
  0
LINE
  5
5B
330
1E
100
AcDbEntity
  8
0
100
AcDbLine
 10
16.9999825
 20
102.9999775
 30
0.0
 11
16.9999825
 21
104.4999774999999
 31
0.0
  0
LINE
  5
61
330
1E
100
AcDbEntity
  8
0
100
AcDbLine
 10
16.9999825
 20
104.4999774999999
 30
0.0
 11
16.9999825
 21
102.9999775
 31
0.0
  0
LINE
  5
62
330
1E
100
AcDbEntity
  8
0
100
AcDbLine
 10
16.9999825
 20
104.4999774999999
 30
0.0
 11
16.9999825
 21
104.9999774999999
 31
0.0
  0
LINE
  5
63
330
1E
100
AcDbEntity
  8
0
100
AcDbLine
 10
16.9999825
 20
104.9999774999999
 30
0.0
 11
16.9999825
 21
104.4999774999999
 31
0.0
  0
LINE
  5
64
330
1E
100
AcDbEntity
  8
0
100
AcDbLine
 10
16.9999825
 20
104.9999774999999
 30
0.0
 11
17.4999825
 21
105.4999774999999
 31
0.0
  0
LINE
  5
6A
330
1E
100
AcDbEntity
  8
0
100
AcDbLine
 10
17.4999825
 20
105.4999774999999
 30
0.0
 11
18.4999825
 21
105.4999774999999
 31
0.0
  0
LINE
  5
6B
330
1E
100
AcDbEntity
  8
0
100
AcDbLine
 10
18.4999825
 20
74.4999775
 30
0.0
 11
18.9999825
 21
74.9999775
 31
0.0
  0
LINE
  5
79
330
1E
100
AcDbEntity
  8
0
100
AcDbLine
 10
18.9999825
 20
89.9999775
 30
0.0
 11
18.9999825
 21
93.8999775
 31
0.0
  0
LINE
  5
7D
330
1E
100
AcDbEntity
  8
0
100
AcDbLine
 10
18.9999825
 20
93.8999775
 30
0.0
 11
18.9999825
 21
97.4999775
 31
0.0
  0
LINE
  5
7E
330
1E
100
AcDbEntity
  8
0
100
AcDbLine
 10
18.9999825
 20
97.4999775
 30
0.0
 11
18.9999825
 21
100.5999775
 31
0.0
  0
LINE
  5
83
330
1E
100
AcDbEntity
  8
0
100
AcDbLine
 10
18.9999825
 20
100.5999775
 30
0.0
 11
18.9999825
 21
102.9999775
 31
0.0
  0
LINE
  5
84
330
1E
100
AcDbEntity
  8
0
100
AcDbLine
 10
18.9999825
 20
102.9999775
 30
0.0
 11
18.9999825
 21
104.4999774999999
 31
0.0
  0
LINE
  5
88
330
1E
100
AcDbEntity
  8
0
100
AcDbLine
 10
18.4999825
 20
105.4999774999999
 30
0.0
 11
18.9999825
 21
104.9999774999999
 31
0.0
  0
LINE
  5
89
330
1E
100
AcDbEntity
  8
0
100
AcDbLine
 10
18.9999825
 20
104.4999774999999
 30
0.0
 11
18.9999825
 21
104.9999774999999
 31
0.0
  0
LINE
  5
8A
330
1E
100
AcDbEntity
  8
0
100
AcDbLine
 10
18.9999825
 20
86.09997750000001
 30
0.0
 11
18.9999825
 21
89.9999775
 31
0.0
  0
LINE
  5
8B
330
1E
100
AcDbEntity
  8
0
100
AcDbLine
 10
18.9999825
 20
82.4999775
 30
0.0
 11
18.9999825
 21
86.09997750000001
 31
0.0
  0
LINE
  5
8C
330
1E
100
AcDbEntity
  8
0
100
AcDbLine
 10
18.9999825
 20
79.3999775
 30
0.0
 11
18.9999825
 21
82.4999775
 31
0.0
  0
LINE
  5
8D
330
1E
100
AcDbEntity
  8
0
100
AcDbLine
 10
18.9999825
 20
76.9999775
 30
0.0
 11
18.9999825
 21
79.3999775
 31
0.0
  0
LINE
  5
8E
330
1E
100
AcDbEntity
  8
0
100
AcDbLine
 10
18.9999825
 20
75.4999775
 30
0.0
 11
18.9999825
 21
76.9999775
 31
0.0
  0
LINE
  5
8F
330
1E
100
AcDbEntity
  8
0
100
AcDbLine
 10
18.9999825
 20
74.9999775
 30
0.0
 11
18.9999825
 21
75.4999775
 31
0.0
  0
LINE
  5
90
330
1E
100
AcDbEntity
  8
0
100
AcDbLine
 10
18.9999825
 20
74.9999775
 30
0.0
 11
23.9999825
 21
68.9999775
 31
0.0
  0
LINE
  5
91
330
1E
100
AcDbEntity
  8
0
100
AcDbLine
 10
23.9999825
 20
68.9999775
 30
0.0
 11
28.7483544227646
 21
65.2012799617883
 31
0.0
  0
LINE
  5
92
330
1E
100
AcDbEntity
  8
0
100
AcDbLine
 10
18.9999825
 20
104.9999774999999
 30
0.0
 11
23.9999825
 21
110.9999774999999
 31
0.0
  0
LINE
  5
93
330
1E
100
AcDbEntity
  8
0
100
AcDbLine
 10
23.9999825
 20
110.9999774999999
 30
0.0
 11
28.9999825
 21
114.9999774999999
 31
0.0
  0
LINE
  5
94
330
1E
100
AcDbEntity
  8
0
100
AcDbLine
 10
28.9999825
 20
114.9999774999999
 30
0.0
 11
34.4999825
 21
116.9999774999999
 31
0.0
  0
LINE
  5
95
330
1E
100
AcDbEntity
  8
0
100
AcDbLine
 10
19.8630825
 20
49.3607775
 30
0.0
 11
28.76129263499629
 21
65.2243459731034
 31
0.0
  0
LINE
  5
96
330
1E
100
AcDbEntity
  8
0
100
AcDbLine
 10
41.9999825
 20
61.9999775
 30
0.0
 11
45.9999825
 21
61.9999775
 31
0.0
  0
LINE
  5
97
330
1E
100
AcDbEntity
  8
0
100
AcDbLine
 10
37.6488687392189
 20
62.5801260014375
 30
0.0
 11
41.9999825
 21
61.9999775
 31
0.0
  0
LINE
  5
98
330
1E
100
AcDbEntity
  8
0
100
AcDbLine
 10
45.9999825
 20
61.9999775
 30
0.0
 11
53.99998249999999
 21
62.9999775
 31
0.0
  0
LINE
  5
99
330
1E
100
AcDbEntity
  8
0
100
AcDbLine
 10
53.99998249999999
 20
116.7999774999999
 30
0.0
 11
54.18998249999999
 21
115.8799775
 31
0.0
  0
LINE
  5
9A
330
1E
100
AcDbEntity
  8
0
100
AcDbLine
 10
53.99998249999999
 20
62.9999775
 30
0.0
 11
57.99998249999999
 21
63.9999775
 31
0.0
  0
LINE
  5
9B
330
1E
100
AcDbEntity
  8
0
100
AcDbLine
 10
34.4999825
 20
116.9999774999999
 30
0.0
 11
41.9999825
 21
117.9999774999999
 31
0.0
  0
LINE
  5
9D
330
1E
100
AcDbEntity
  8
0
100
AcDbLine
 10
73.9999825
 20
41.9999775
 30
0.0
 11
74.4999825
 21
40.59997749999999
 31
0.0
  0
LINE
  5
9E
330
1E
100
AcDbEntity
  8
0
100
AcDbLine
 10
73.9999825
 20
41.9999775
 30
0.0
 11
73.9999825
 21
58.9999775
 31
0.0
  0
LINE
  5
9F
330
1E
100
AcDbEntity
  8
0
100
AcDbLine
 10
73.9999825
 20
58.9999775
 30
0.0
 11
73.9999825
 21
65.4999775
 31
0.0
  0
LINE
  5
A0
330
1E
100
AcDbEntity
  8
0
100
AcDbLine
 10
73.9999825
 20
58.9999775
 30
0.0
 11
73.9999825
 21
66.09997750000001
 31
0.0
  0
LINE
  5
A1
330
1E
100
AcDbEntity
  8
0
100
AcDbLine
 10
57.99998249999999
 20
64.8999775
 30
0.0
 11
57.99998249999999
 21
63.9999775
 31
0.0
  0
LINE
  5
A2
330
1E
100
AcDbEntity
  8
0
100
AcDbLine
 10
57.99998249999999
 20
67.3999775
 30
0.0
 11
57.99998249999999
 21
64.8999775
 31
0.0
  0
LINE
  5
A3
330
1E
100
AcDbEntity
  8
0
100
AcDbLine
 10
57.99998249999999
 20
65.6666441666667
 30
0.0
 11
58.99998249999999
 21
65.4999775
 31
0.0
  0
LINE
  5
A4
330
1E
100
AcDbEntity
  8
0
100
AcDbLine
 10
58.99998249999999
 20
65.4999775
 30
0.0
 11
73.9999825
 21
65.4999775
 31
0.0
  0
LINE
  5
A5
330
1E
100
AcDbEntity
  8
0
100
AcDbLine
 10
57.99998249999999
 20
71.59997750000001
 30
0.0
 11
57.99998249999999
 21
67.3999775
 31
0.0
  0
LINE
  5
A6
330
1E
100
AcDbEntity
  8
0
100
AcDbLine
 10
73.9999825
 20
70.1999775
 30
0.0
 11
73.9999825
 21
72.9999775
 31
0.0
  0
LINE
  5
A7
330
1E
100
AcDbEntity
  8
0
100
AcDbLine
 10
73.9999825
 20
70.1999775
 30
0.0
 11
73.9999825
 21
67.79997749999999
 31
0.0
  0
LINE
  5
A8
330
1E
100
AcDbEntity
  8
0
100
AcDbLine
 10
73.9999825
 20
67.79997749999999
 30
0.0
 11
73.9999825
 21
70.1999775
 31
0.0
  0
LINE
  5
A9
330
1E
100
AcDbEntity
  8
0
100
AcDbLine
 10
73.9999825
 20
67.79997749999999
 30
0.0
 11
73.9999825
 21
65.7999775
 31
0.0
  0
LINE
  5
AA
330
1E
100
AcDbEntity
  8
0
100
AcDbLine
 10
73.9999825
 20
65.7999775
 30
0.0
 11
73.9999825
 21
67.79997749999999
 31
0.0
  0
LINE
  5
AB
330
1E
100
AcDbEntity
  8
0
100
AcDbLine
 10
73.9999825
 20
65.7999775
 30
0.0
 11
73.9999825
 21
64.1999775
 31
0.0
  0
LINE
  5
AC
330
1E
100
AcDbEntity
  8
0
100
AcDbLine
 10
73.9999825
 20
72.9999775
 30
0.0
 11
73.9999825
 21
70.1999775
 31
0.0
  0
LINE
  5
AD
330
1E
100
AcDbEntity
  8
0
100
AcDbLine
 10
73.9999825
 20
72.9999775
 30
0.0
 11
73.9999825
 21
76.09997750000001
 31
0.0
  0
LINE
  5
AE
330
1E
100
AcDbEntity
  8
0
100
AcDbLine
 10
73.9999825
 20
66.09997750000001
 30
0.0
 11
73.9999825
 21
74.1999775
 31
0.0
  0
LINE
  5
AF
330
1E
100
AcDbEntity
  8
0
100
AcDbLine
 10
73.9999825
 20
66.09997750000001
 30
0.0
 11
73.9999825
 21
58.9999775
 31
0.0
  0
LINE
  5
B0
330
1E
100
AcDbEntity
  8
0
100
AcDbLine
 10
57.99998249999999
 20
77.09997750000001
 30
0.0
 11
57.99998249999999
 21
71.59997750000001
 31
0.0
  0
LINE
  5
B1
330
1E
100
AcDbEntity
  8
0
100
AcDbLine
 10
73.9999825
 20
74.1999775
 30
0.0
 11
73.9999825
 21
83.1999775
 31
0.0
  0
LINE
  5
B2
330
1E
100
AcDbEntity
  8
0
100
AcDbLine
 10
73.9999825
 20
74.1999775
 30
0.0
 11
73.9999825
 21
66.09997750000001
 31
0.0
  0
LINE
  5
B3
330
1E
100
AcDbEntity
  8
0
100
AcDbLine
 10
73.9999825
 20
76.09997750000001
 30
0.0
 11
73.9999825
 21
72.9999775
 31
0.0
  0
LINE
  5
B4
330
1E
100
AcDbEntity
  8
0
100
AcDbLine
 10
73.9999825
 20
76.09997750000001
 30
0.0
 11
73.9999825
 21
79.2999775
 31
0.0
  0
LINE
  5
B5
330
1E
100
AcDbEntity
  8
0
100
AcDbLine
 10
57.99998249999999
 20
83.2999775
 30
0.0
 11
57.99998249999999
 21
77.09997750000001
 31
0.0
  0
LINE
  5
B6
330
1E
100
AcDbEntity
  8
0
100
AcDbLine
 10
73.9999825
 20
83.1999775
 30
0.0
 11
73.9999825
 21
92.69997749999999
 31
0.0
  0
LINE
  5
B7
330
1E
100
AcDbEntity
  8
0
100
AcDbLine
 10
73.9999825
 20
83.1999775
 30
0.0
 11
73.9999825
 21
74.1999775
 31
0.0
  0
LINE
  5
B8
330
1E
100
AcDbEntity
  8
0
100
AcDbLine
 10
73.9999825
 20
79.2999775
 30
0.0
 11
73.9999825
 21
76.09997750000001
 31
0.0
  0
LINE
  5
B9
330
1E
100
AcDbEntity
  8
0
100
AcDbLine
 10
73.9999825
 20
79.2999775
 30
0.0
 11
73.9999825
 21
82.79997749999999
 31
0.0
  0
LINE
  5
BA
330
1E
100
AcDbEntity
  8
0
100
AcDbLine
 10
73.9999825
 20
82.79997749999999
 30
0.0
 11
73.9999825
 21
79.2999775
 31
0.0
  0
LINE
  5
BB
330
1E
100
AcDbEntity
  8
0
100
AcDbLine
 10
73.9999825
 20
82.79997749999999
 30
0.0
 11
73.9999825
 21
86.3999775
 31
0.0
  0
LINE
  5
BC
330
1E
100
AcDbEntity
  8
0
100
AcDbLine
 10
57.99998249999999
 20
89.9999775
 30
0.0
 11
57.99998249999999
 21
83.2999775
 31
0.0
  0
LINE
  5
BD
330
1E
100
AcDbEntity
  8
0
100
AcDbLine
 10
73.9999825
 20
92.69997749999999
 30
0.0
 11
73.9999825
 21
102.7999775
 31
0.0
  0
LINE
  5
BE
330
1E
100
AcDbEntity
  8
0
100
AcDbLine
 10
73.9999825
 20
92.69997749999999
 30
0.0
 11
73.9999825
 21
83.1999775
 31
0.0
  0
LINE
  5
BF
330
1E
100
AcDbEntity
  8
0
100
AcDbLine
 10
73.9999825
 20
86.3999775
 30
0.0
 11
73.9999825
 21
82.79997749999999
 31
0.0
  0
LINE
  5
C0
330
1E
100
AcDbEntity
  8
0
100
AcDbLine
 10
73.9999825
 20
86.3999775
 30
0.0
 11
73.9999825
 21
89.9999775
 31
0.0
  0
LINE
  5
C1
330
1E
100
AcDbEntity
  8
0
100
AcDbLine
 10
73.9999825
 20
89.9999775
 30
0.0
 11
73.9999825
 21
86.3999775
 31
0.0
  0
LINE
  5
C2
330
1E
100
AcDbEntity
  8
0
100
AcDbLine
 10
73.9999825
 20
89.9999775
 30
0.0
 11
73.9999825
 21
93.59997750000001
 31
0.0
  0
LINE
  5
C3
330
1E
100
AcDbEntity
  8
0
100
AcDbLine
 10
56.9999825
 20
96.73997750000001
 30
0.0
 11
57.99998249999999
 21
89.9999775
 31
0.0
  0
LINE
  5
C4
330
1E
100
AcDbEntity
  8
0
100
AcDbLine
 10
55.89998249999999
 20
103.1599774999999
 30
0.0
 11
56.9999825
 21
96.73997750000001
 31
0.0
  0
LINE
  5
C5
330
1E
100
AcDbEntity
  8
0
100
AcDbLine
 10
73.9999825
 20
102.7999775
 30
0.0
 11
73.9999825
 21
92.69997749999999
 31
0.0
  0
LINE
  5
C6
330
1E
100
AcDbEntity
  8
0
100
AcDbLine
 10
55.21998249999999
 20
108.8299774999999
 30
0.0
 11
55.89998249999999
 21
103.1599774999999
 31
0.0
  0
LINE
  5
C7
330
1E
100
AcDbEntity
  8
0
100
AcDbLine
 10
54.59998249999999
 20
113.0999775
 30
0.0
 11
55.21998249999999
 21
108.8299774999999
 31
0.0
  0
LINE
  5
C8
330
1E
100
AcDbEntity
  8
0
100
AcDbLine
 10
54.53906821428571
 20
113.513006071429
 30
0.0
 11
55.99998249999999
 21
113.9999774999999
 31
0.0
  0
LINE
  5
C9
330
1E
100
AcDbEntity
  8
0
100
AcDbLine
 10
55.99998249999999
 20
113.9999774999999
 30
0.0
 11
58.99998249999999
 21
114.4999774999999
 31
0.0
  0
LINE
  5
CA
330
1E
100
AcDbEntity
  8
0
100
AcDbLine
 10
58.99998249999999
 20
114.4999774999999
 30
0.0
 11
73.9999825
 21
114.4999774999999
 31
0.0
  0
LINE
  5
CB
330
1E
100
AcDbEntity
  8
0
100
AcDbLine
 10
73.9999825
 20
114.1999774999999
 30
0.0
 11
73.9999825
 21
112.1999774999999
 31
0.0
  0
LINE
  5
CC
330
1E
100
AcDbEntity
  8
0
100
AcDbLine
 10
73.9999825
 20
114.1999774999999
 30
0.0
 11
73.9999825
 21
115.7999774999999
 31
0.0
  0
LINE
  5
CD
330
1E
100
AcDbEntity
  8
0
100
AcDbLine
 10
73.9999825
 20
112.1999774999999
 30
0.0
 11
73.9999825
 21
109.7999774999999
 31
0.0
  0
LINE
  5
CE
330
1E
100
AcDbEntity
  8
0
100
AcDbLine
 10
73.9999825
 20
112.1999774999999
 30
0.0
 11
73.9999825
 21
114.1999774999999
 31
0.0
  0
LINE
  5
CF
330
1E
100
AcDbEntity
  8
0
100
AcDbLine
 10
73.9999825
 20
109.7999774999999
 30
0.0
 11
73.9999825
 21
106.9999774999999
 31
0.0
  0
LINE
  5
D0
330
1E
100
AcDbEntity
  8
0
100
AcDbLine
 10
73.9999825
 20
109.7999774999999
 30
0.0
 11
73.9999825
 21
112.1999774999999
 31
0.0
  0
LINE
  5
D1
330
1E
100
AcDbEntity
  8
0
100
AcDbLine
 10
73.9999825
 20
106.9999774999999
 30
0.0
 11
73.9999825
 21
103.8999775
 31
0.0
  0
LINE
  5
D2
330
1E
100
AcDbEntity
  8
0
100
AcDbLine
 10
73.9999825
 20
106.9999774999999
 30
0.0
 11
73.9999825
 21
109.7999774999999
 31
0.0
  0
LINE
  5
D3
330
1E
100
AcDbEntity
  8
0
100
AcDbLine
 10
73.9999825
 20
103.8999775
 30
0.0
 11
73.9999825
 21
100.6999775
 31
0.0
  0
LINE
  5
D4
330
1E
100
AcDbEntity
  8
0
100
AcDbLine
 10
73.9999825
 20
103.8999775
 30
0.0
 11
73.9999825
 21
106.9999774999999
 31
0.0
  0
LINE
  5
D5
330
1E
100
AcDbEntity
  8
0
100
AcDbLine
 10
73.9999825
 20
100.6999775
 30
0.0
 11
73.9999825
 21
97.1999775
 31
0.0
  0
LINE
  5
D6
330
1E
100
AcDbEntity
  8
0
100
AcDbLine
 10
73.9999825
 20
100.6999775
 30
0.0
 11
73.9999825
 21
103.8999775
 31
0.0
  0
LINE
  5
D7
330
1E
100
AcDbEntity
  8
0
100
AcDbLine
 10
73.9999825
 20
97.1999775
 30
0.0
 11
73.9999825
 21
93.59997750000001
 31
0.0
  0
LINE
  5
D8
330
1E
100
AcDbEntity
  8
0
100
AcDbLine
 10
73.9999825
 20
97.1999775
 30
0.0
 11
73.9999825
 21
100.6999775
 31
0.0
  0
LINE
  5
D9
330
1E
100
AcDbEntity
  8
0
100
AcDbLine
 10
73.9999825
 20
93.59997750000001
 30
0.0
 11
73.9999825
 21
89.9999775
 31
0.0
  0
LINE
  5
DA
330
1E
100
AcDbEntity
  8
0
100
AcDbLine
 10
73.9999825
 20
93.59997750000001
 30
0.0
 11
73.9999825
 21
97.1999775
 31
0.0
  0
LINE
  5
DB
330
1E
100
AcDbEntity
  8
0
100
AcDbLine
 10
73.9999825
 20
65.4999775
 30
0.0
 11
73.9999825
 21
58.9999775
 31
0.0
  0
LINE
  5
DC
330
1E
100
AcDbEntity
  8
0
100
AcDbLine
 10
73.9999825
 20
65.4999775
 30
0.0
 11
73.9999825
 21
64.1999775
 31
0.0
  0
LINE
  5
DD
330
1E
100
AcDbEntity
  8
0
100
AcDbLine
 10
73.9999825
 20
64.1999775
 30
0.0
 11
73.9999825
 21
65.4999775
 31
0.0
  0
LINE
  5
DE
330
1E
100
AcDbEntity
  8
0
100
AcDbLine
 10
73.9999825
 20
64.1999775
 30
0.0
 11
73.9999825
 21
62.9999775
 31
0.0
  0
LINE
  5
DF
330
1E
100
AcDbEntity
  8
0
100
AcDbLine
 10
73.9999825
 20
64.1999775
 30
0.0
 11
73.9999825
 21
65.7999775
 31
0.0
  0
LINE
  5
E0
330
1E
100
AcDbEntity
  8
0
100
AcDbLine
 10
73.9999825
 20
62.9999775
 30
0.0
 11
73.9999825
 21
64.1999775
 31
0.0
  0
LINE
  5
E1
330
1E
100
AcDbEntity
  8
0
100
AcDbLine
 10
73.9999825
 20
62.9999775
 30
0.0
 11
73.9999825
 21
62.2999775
 31
0.0
  0
LINE
  5
E3
330
1E
100
AcDbEntity
  8
0
100
AcDbLine
 10
73.9999825
 20
62.2999775
 30
0.0
 11
73.9999825
 21
62.9999775
 31
0.0
  0
LINE
  5
E4
330
1E
100
AcDbEntity
  8
0
100
AcDbLine
 10
73.9999825
 20
62.2999775
 30
0.0
 11
73.9999825
 21
61.9999775
 31
0.0
  0
LINE
  5
E7
330
1E
100
AcDbEntity
  8
0
100
AcDbLine
 10
85.9999825
 20
38.9999775
 30
0.0
 11
85.9999825
 21
39.8999775
 31
0.0
  0
LINE
  5
E8
330
1E
100
AcDbEntity
  8
0
100
AcDbLine
 10
74.4999825
 20
40.59997749999999
 30
0.0
 11
75.59998249999999
 21
39.49997749999999
 31
0.0
  0
LINE
  5
E9
330
1E
100
AcDbEntity
  8
0
100
AcDbLine
 10
85.9999825
 20
72.29997749999999
 30
0.0
 11
85.9999825
 21
63.9999775
 31
0.0
  0
LINE
  5
EA
330
1E
100
AcDbEntity
  8
0
100
AcDbLine
 10
85.9999825
 20
72.29997749999999
 30
0.0
 11
85.9999825
 21
81.6999775
 31
0.0
  0
LINE
  5
EB
330
1E
100
AcDbEntity
  8
0
100
AcDbLine
 10
85.9999825
 20
81.6999775
 30
0.0
 11
85.9999825
 21
72.29997749999999
 31
0.0
  0
LINE
  5
EC
330
1E
100
AcDbEntity
  8
0
100
AcDbLine
 10
85.9999825
 20
81.6999775
 30
0.0
 11
85.9999825
 21
91.4999775
 31
0.0
  0
LINE
  5
ED
330
1E
100
AcDbEntity
  8
0
100
AcDbLine
 10
85.9999825
 20
91.4999775
 30
0.0
 11
85.9999825
 21
102.0999775
 31
0.0
  0
LINE
  5
EE
330
1E
100
AcDbEntity
  8
0
100
AcDbLine
 10
85.9999825
 20
91.4999775
 30
0.0
 11
85.9999825
 21
81.6999775
 31
0.0
  0
LINE
  5
EF
330
1E
100
AcDbEntity
  8
0
100
AcDbLine
 10
85.9999825
 20
63.9999775
 30
0.0
 11
85.9999825
 21
56.6999775
 31
0.0
  0
LINE
  5
F0
330
1E
100
AcDbEntity
  8
0
100
AcDbLine
 10
85.9999825
 20
63.9999775
 30
0.0
 11
85.9999825
 21
72.29997749999999
 31
0.0
  0
LINE
  5
F1
330
1E
100
AcDbEntity
  8
0
100
AcDbLine
 10
85.9999825
 20
56.6999775
 30
0.0
 11
85.9999825
 21
50.39997750000001
 31
0.0
  0
LINE
  5
F2
330
1E
100
AcDbEntity
  8
0
100
AcDbLine
 10
85.9999825
 20
56.6999775
 30
0.0
 11
85.9999825
 21
63.9999775
 31
0.0
  0
LINE
  5
F3
330
1E
100
AcDbEntity
  8
0
100
AcDbLine
 10
85.9999825
 20
50.39997750000001
 30
0.0
 11
85.9999825
 21
45.59997749999999
 31
0.0
  0
LINE
  5
F4
330
1E
100
AcDbEntity
  8
0
100
AcDbLine
 10
85.9999825
 20
50.39997750000001
 30
0.0
 11
85.9999825
 21
56.6999775
 31
0.0
  0
LINE
  5
F5
330
1E
100
AcDbEntity
  8
0
100
AcDbLine
 10
85.9999825
 20
45.59997749999999
 30
0.0
 11
85.9999825
 21
42.0999775
 31
0.0
  0
LINE
  5
F6
330
1E
100
AcDbEntity
  8
0
100
AcDbLine
 10
85.9999825
 20
45.59997749999999
 30
0.0
 11
85.9999825
 21
50.39997750000001
 31
0.0
  0
LINE
  5
F7
330
1E
100
AcDbEntity
  8
0
100
AcDbLine
 10
85.9999825
 20
100.2999774999999
 30
0.0
 11
85.9999825
 21
96.99997750000001
 31
0.0
  0
LINE
  5
F8
330
1E
100
AcDbEntity
  8
0
100
AcDbLine
 10
85.9999825
 20
102.0999775
 30
0.0
 11
85.9999825
 21
112.8999775
 31
0.0
  0
LINE
  5
F9
330
1E
100
AcDbEntity
  8
0
100
AcDbLine
 10
85.9999825
 20
102.0999775
 30
0.0
 11
85.9999825
 21
100.2999774999999
 31
0.0
  0
LINE
  5
FA
330
1E
100
AcDbEntity
  8
0
100
AcDbLine
 10
85.9999825
 20
112.8999775
 30
0.0
 11
85.9999825
 21
102.0999775
 31
0.0
  0
LINE
  5
FB
330
1E
100
AcDbEntity
  8
0
100
AcDbLine
 10
85.9999825
 20
112.8999775
 30
0.0
 11
85.9999825
 21
123.9999774999999
 31
0.0
  0
LINE
  5
FC
330
1E
100
AcDbEntity
  8
0
100
AcDbLine
 10
85.9999825
 20
42.0999775
 30
0.0
 11
85.9999825
 21
39.8999775
 31
0.0
  0
LINE
  5
FD
330
1E
100
AcDbEntity
  8
0
100
AcDbLine
 10
85.9999825
 20
42.0999775
 30
0.0
 11
85.9999825
 21
45.59997749999999
 31
0.0
  0
LINE
  5
FE
330
1E
100
AcDbEntity
  8
0
100
AcDbLine
 10
85.9999825
 20
39.8999775
 30
0.0
 11
85.9999825
 21
38.9999775
 31
0.0
  0
LINE
  5
FF
330
1E
100
AcDbEntity
  8
0
100
AcDbLine
 10
85.9999825
 20
39.8999775
 30
0.0
 11
85.9999825
 21
42.0999775
 31
0.0
  0
LINE
  5
100
330
1E
100
AcDbEntity
  8
0
100
AcDbLine
 10
75.59998249999999
 20
39.49997749999999
 30
0.0
 11
76.9999825
 21
38.9999775
 31
0.0
  0
LINE
  5
101
330
1E
100
AcDbEntity
  8
0
100
AcDbLine
 10
76.9999825
 20
38.9999775
 30
0.0
 11
85.9999825
 21
38.9999775
 31
0.0
  0
LINE
  5
102
330
1E
100
AcDbEntity
  8
0
100
AcDbLine
 10
73.9999825
 20
61.9999775
 30
0.0
 11
73.9999825
 21
62.2999775
 31
0.0
  0
LINE
  5
103
330
1E
100
AcDbEntity
  8
0
100
AcDbLine
 10
73.9999825
 20
115.7999774999999
 30
0.0
 11
73.9999825
 21
114.4999774999999
 31
0.0
  0
LINE
  5
104
330
1E
100
AcDbEntity
  8
0
100
AcDbLine
 10
73.9999825
 20
115.7999774999999
 30
0.0
 11
73.9999825
 21
116.9999774999999
 31
0.0
  0
LINE
  5
105
330
1E
100
AcDbEntity
  8
0
100
AcDbLine
 10
73.9999825
 20
115.7999774999999
 30
0.0
 11
73.9999825
 21
114.1999774999999
 31
0.0
  0
LINE
  5
106
330
1E
100
AcDbEntity
  8
0
100
AcDbLine
 10
73.9999825
 20
116.9999774999999
 30
0.0
 11
73.9999825
 21
115.7999774999999
 31
0.0
  0
LINE
  5
107
330
1E
100
AcDbEntity
  8
0
100
AcDbLine
 10
73.9999825
 20
116.9999774999999
 30
0.0
 11
73.9999825
 21
117.6999774999999
 31
0.0
  0
LINE
  5
108
330
1E
100
AcDbEntity
  8
0
100
AcDbLine
 10
73.9999825
 20
114.4999774999999
 30
0.0
 11
73.9999825
 21
123.9999774999999
 31
0.0
  0
LINE
  5
109
330
1E
100
AcDbEntity
  8
0
100
AcDbLine
 10
73.9999825
 20
114.4999774999999
 30
0.0
 11
73.9999825
 21
115.7999774999999
 31
0.0
  0
LINE
  5
10A
330
1E
100
AcDbEntity
  8
0
100
AcDbLine
 10
54.18998249999999
 20
115.8799775
 30
0.0
 11
54.53906821428571
 21
113.513006071429
 31
0.0
  0
LINE
  5
10B
330
1E
100
AcDbEntity
  8
0
100
AcDbLine
 10
54.18998249999999
 20
115.8799775
 30
0.0
 11
54.59998249999999
 21
113.0999775
 31
0.0
  0
LINE
  5
116
330
1E
100
AcDbEntity
  8
0
100
AcDbLine
 10
33.9999825
 20
160.4999775
 30
0.0
 11
38.9999825
 21
156.4999774999999
 31
0.0
  0
LINE
  5
11A
330
1E
100
AcDbEntity
  8
0
100
AcDbLine
 10
32.9999825
 20
163.9999774999999
 30
0.0
 11
33.9999825
 21
167.4999775
 31
0.0
  0
LINE
  5
11B
330
1E
100
AcDbEntity
  8
0
100
AcDbLine
 10
32.9999825
 20
163.9999774999999
 30
0.0
 11
33.9999825
 21
160.4999775
 31
0.0
  0
LINE
  5
126
330
1E
100
AcDbEntity
  8
0
100
AcDbLine
 10
38.9999825
 20
156.4999774999999
 30
0.0
 11
43.9999825
 21
154.9999775
 31
0.0
  0
LINE
  5
127
330
1E
100
AcDbEntity
  8
0
100
AcDbLine
 10
43.9999825
 20
154.9999775
 30
0.0
 11
50.9999825
 21
153.9999775
 31
0.0
  0
LINE
  5
129
330
1E
100
AcDbEntity
  8
0
100
AcDbLine
 10
33.9999825
 20
167.4999775
 30
0.0
 11
38.9999825
 21
171.4999775
 31
0.0
  0
LINE
  5
12A
330
1E
100
AcDbEntity
  8
0
100
AcDbLine
 10
38.9999825
 20
171.4999775
 30
0.0
 11
43.9999825
 21
172.9999775
 31
0.0
  0
LINE
  5
12B
330
1E
100
AcDbEntity
  8
0
100
AcDbLine
 10
43.9999825
 20
172.9999775
 30
0.0
 11
50.9999825
 21
173.9999775
 31
0.0
  0
LINE
  5
12C
330
1E
100
AcDbEntity
  8
0
100
AcDbLine
 10
41.9999825
 20
117.9999774999999
 30
0.0
 11
45.9999825
 21
117.9999774999999
 31
0.0
  0
LINE
  5
12D
330
1E
100
AcDbEntity
  8
0
100
AcDbLine
 10
73.9999825
 20
117.6999774999999
 30
0.0
 11
73.9999825
 21
116.9999774999999
 31
0.0
  0
LINE
  5
12E
330
1E
100
AcDbEntity
  8
0
100
AcDbLine
 10
73.9999825
 20
117.6999774999999
 30
0.0
 11
73.9999825
 21
117.9999774999999
 31
0.0
  0
LINE
  5
12F
330
1E
100
AcDbEntity
  8
0
100
AcDbLine
 10
85.9999825
 20
123.9999774999999
 30
0.0
 11
85.9999825
 21
135.0999775
 31
0.0
  0
LINE
  5
130
330
1E
100
AcDbEntity
  8
0
100
AcDbLine
 10
85.9999825
 20
123.9999774999999
 30
0.0
 11
85.9999825
 21
112.8999775
 31
0.0
  0
LINE
  5
131
330
1E
100
AcDbEntity
  8
0
100
AcDbLine
 10
73.9999825
 20
117.9999774999999
 30
0.0
 11
73.9999825
 21
117.6999774999999
 31
0.0
  0
LINE
  5
132
330
1E
100
AcDbEntity
  8
0
100
AcDbLine
 10
73.9999825
 20
134.6999775
 30
0.0
 11
73.9999825
 21
123.9999774999999
 31
0.0
  0
LINE
  5
133
330
1E
100
AcDbEntity
  8
0
100
AcDbLine
 10
73.9999825
 20
134.6999775
 30
0.0
 11
73.9999825
 21
155.2999774999999
 31
0.0
  0
LINE
  5
134
330
1E
100
AcDbEntity
  8
0
100
AcDbLine
 10
66.9999825
 20
148.9999775
 30
0.0
 11
73.9999825
 21
148.9999775
 31
0.0
  0
LINE
  5
135
330
1E
100
AcDbEntity
  8
0
100
AcDbLine
 10
66.9999825
 20
148.9999775
 30
0.0
 11
66.9999825
 21
149.4999775
 31
0.0
  0
LINE
  5
136
330
1E
100
AcDbEntity
  8
0
100
AcDbLine
 10
66.9999825
 20
149.4999775
 30
0.0
 11
66.9999825
 21
148.9999775
 31
0.0
  0
LINE
  5
137
330
1E
100
AcDbEntity
  8
0
100
AcDbLine
 10
66.9999825
 20
149.4999775
 30
0.0
 11
66.9999825
 21
150.9999774999999
 31
0.0
  0
LINE
  5
138
330
1E
100
AcDbEntity
  8
0
100
AcDbLine
 10
50.9999825
 20
153.9999775
 30
0.0
 11
50.9999825
 21
154.3999774999999
 31
0.0
  0
LINE
  5
139
330
1E
100
AcDbEntity
  8
0
100
AcDbLine
 10
50.9999825
 20
155.2999774999999
 30
0.0
 11
50.9999825
 21
154.3999774999999
 31
0.0
  0
LINE
  5
13A
330
1E
100
AcDbEntity
  8
0
100
AcDbLine
 10
50.9999825
 20
155.2999774999999
 30
0.0
 11
50.9999825
 21
156.8999774999999
 31
0.0
  0
LINE
  5
13B
330
1E
100
AcDbEntity
  8
0
100
AcDbLine
 10
50.9999825
 20
154.3999774999999
 30
0.0
 11
50.9999825
 21
153.9999775
 31
0.0
  0
LINE
  5
13C
330
1E
100
AcDbEntity
  8
0
100
AcDbLine
 10
50.9999825
 20
154.3999774999999
 30
0.0
 11
50.9999825
 21
155.2999774999999
 31
0.0
  0
LINE
  5
13D
330
1E
100
AcDbEntity
  8
0
100
AcDbLine
 10
65.9999825
 20
154.0999774999999
 30
0.0
 11
65.9999825
 21
156.9999775
 31
0.0
  0
LINE
  5
13E
330
1E
100
AcDbEntity
  8
0
100
AcDbLine
 10
65.9999825
 20
154.0999774999999
 30
0.0
 11
65.9999825
 21
151.8999774999999
 31
0.0
  0
LINE
  5
13F
330
1E
100
AcDbEntity
  8
0
100
AcDbLine
 10
65.9999825
 20
151.8999774999999
 30
0.0
 11
65.9999825
 21
154.0999774999999
 31
0.0
  0
LINE
  5
140
330
1E
100
AcDbEntity
  8
0
100
AcDbLine
 10
65.9999825
 20
151.8999774999999
 30
0.0
 11
65.9999825
 21
150.4999774999999
 31
0.0
  0
LINE
  5
141
330
1E
100
AcDbEntity
  8
0
100
AcDbLine
 10
66.9999825
 20
153.3999774999999
 30
0.0
 11
66.9999825
 21
150.9999774999999
 31
0.0
  0
LINE
  5
142
330
1E
100
AcDbEntity
  8
0
100
AcDbLine
 10
66.9999825
 20
153.3999774999999
 30
0.0
 11
66.9999825
 21
156.4999774999999
 31
0.0
  0
LINE
  5
143
330
1E
100
AcDbEntity
  8
0
100
AcDbLine
 10
66.9999825
 20
150.9999774999999
 30
0.0
 11
66.9999825
 21
149.4999775
 31
0.0
  0
LINE
  5
144
330
1E
100
AcDbEntity
  8
0
100
AcDbLine
 10
66.9999825
 20
150.9999774999999
 30
0.0
 11
66.9999825
 21
153.3999774999999
 31
0.0
  0
LINE
  5
145
330
1E
100
AcDbEntity
  8
0
100
AcDbLine
 10
65.9999825
 20
150.4999774999999
 30
0.0
 11
65.9999825
 21
151.8999774999999
 31
0.0
  0
LINE
  5
146
330
1E
100
AcDbEntity
  8
0
100
AcDbLine
 10
65.9999825
 20
150.4999774999999
 30
0.0
 11
65.9999825
 21
149.9999775
 31
0.0
  0
LINE
  5
147
330
1E
100
AcDbEntity
  8
0
100
AcDbLine
 10
65.9999825
 20
149.9999775
 30
0.0
 11
65.9999825
 21
150.4999774999999
 31
0.0
  0
LINE
  5
148
330
1E
100
AcDbEntity
  8
0
100
AcDbLine
 10
65.9999825
 20
149.9999775
 30
0.0
 11
66.9999825
 21
148.9999775
 31
0.0
  0
LINE
  5
149
330
1E
100
AcDbEntity
  8
0
100
AcDbLine
 10
73.9999825
 20
155.2999774999999
 30
0.0
 11
73.9999825
 21
164.7999774999999
 31
0.0
  0
LINE
  5
14A
330
1E
100
AcDbEntity
  8
0
100
AcDbLine
 10
73.9999825
 20
155.2999774999999
 30
0.0
 11
73.9999825
 21
134.6999775
 31
0.0
  0
LINE
  5
14B
330
1E
100
AcDbEntity
  8
0
100
AcDbLine
 10
50.9999825
 20
158.9999775
 30
0.0
 11
50.9999825
 21
156.8999774999999
 31
0.0
  0
LINE
  5
14C
330
1E
100
AcDbEntity
  8
0
100
AcDbLine
 10
50.9999825
 20
158.9999775
 30
0.0
 11
50.9999825
 21
161.3999774999999
 31
0.0
  0
LINE
  5
14D
330
1E
100
AcDbEntity
  8
0
100
AcDbLine
 10
50.9999825
 20
156.8999774999999
 30
0.0
 11
50.9999825
 21
155.2999774999999
 31
0.0
  0
LINE
  5
14E
330
1E
100
AcDbEntity
  8
0
100
AcDbLine
 10
50.9999825
 20
156.8999774999999
 30
0.0
 11
50.9999825
 21
158.9999775
 31
0.0
  0
LINE
  5
14F
330
1E
100
AcDbEntity
  8
0
100
AcDbLine
 10
50.9999825
 20
157.9999775
 30
0.0
 11
61.9999825
 21
159.9999775
 31
0.0
  0
LINE
  5
150
330
1E
100
AcDbEntity
  8
0
100
AcDbLine
 10
50.9999825
 20
161.3999774999999
 30
0.0
 11
50.9999825
 21
158.9999775
 31
0.0
  0
LINE
  5
151
330
1E
100
AcDbEntity
  8
0
100
AcDbLine
 10
50.9999825
 20
161.3999774999999
 30
0.0
 11
50.9999825
 21
163.9999774999999
 31
0.0
  0
LINE
  5
152
330
1E
100
AcDbEntity
  8
0
100
AcDbLine
 10
50.9999825
 20
161.3999774999999
 30
0.0
 11
50.9999825
 21
162.4999775
 31
0.0
  0
LINE
  5
153
330
1E
100
AcDbEntity
  8
0
100
AcDbLine
 10
50.9999825
 20
162.4999775
 30
0.0
 11
50.9999825
 21
163.9999774999999
 31
0.0
  0
LINE
  5
154
330
1E
100
AcDbEntity
  8
0
100
AcDbLine
 10
61.9999825
 20
162.9999774999999
 30
0.0
 11
61.9999825
 21
161.9999775
 31
0.0
  0
LINE
  5
155
330
1E
100
AcDbEntity
  8
0
100
AcDbLine
 10
61.9999825
 20
162.9999774999999
 30
0.0
 11
61.9999825
 21
163.9999774999999
 31
0.0
  0
LINE
  5
156
330
1E
100
AcDbEntity
  8
0
100
AcDbLine
 10
61.9999825
 20
161.9999775
 30
0.0
 11
61.9999825
 21
161.1999774999999
 31
0.0
  0
LINE
  5
157
330
1E
100
AcDbEntity
  8
0
100
AcDbLine
 10
61.9999825
 20
161.9999775
 30
0.0
 11
61.9999825
 21
162.9999774999999
 31
0.0
  0
LINE
  5
158
330
1E
100
AcDbEntity
  8
0
100
AcDbLine
 10
61.9999825
 20
161.1999774999999
 30
0.0
 11
61.9999825
 21
160.4999775
 31
0.0
  0
LINE
  5
159
330
1E
100
AcDbEntity
  8
0
100
AcDbLine
 10
61.9999825
 20
161.1999774999999
 30
0.0
 11
61.9999825
 21
161.9999775
 31
0.0
  0
LINE
  5
15A
330
1E
100
AcDbEntity
  8
0
100
AcDbLine
 10
61.9999825
 20
160.4999775
 30
0.0
 11
61.9999825
 21
160.0999775
 31
0.0
  0
LINE
  5
15B
330
1E
100
AcDbEntity
  8
0
100
AcDbLine
 10
61.9999825
 20
160.4999775
 30
0.0
 11
61.9999825
 21
161.1999774999999
 31
0.0
  0
LINE
  5
15C
330
1E
100
AcDbEntity
  8
0
100
AcDbLine
 10
61.9999825
 20
160.0999775
 30
0.0
 11
61.9999825
 21
159.9999775
 31
0.0
  0
LINE
  5
15D
330
1E
100
AcDbEntity
  8
0
100
AcDbLine
 10
61.9999825
 20
160.0999775
 30
0.0
 11
61.9999825
 21
160.4999775
 31
0.0
  0
LINE
  5
15E
330
1E
100
AcDbEntity
  8
0
100
AcDbLine
 10
61.9999825
 20
159.9999775
 30
0.0
 11
64.9999825
 21
157.9999775
 31
0.0
  0
LINE
  5
15F
330
1E
100
AcDbEntity
  8
0
100
AcDbLine
 10
61.9999825
 20
159.9999775
 30
0.0
 11
61.9999825
 21
160.0999775
 31
0.0
  0
LINE
  5
160
330
1E
100
AcDbEntity
  8
0
100
AcDbLine
 10
50.9999825
 20
163.9999774999999
 30
0.0
 11
50.9999825
 21
166.5999774999999
 31
0.0
  0
LINE
  5
161
330
1E
100
AcDbEntity
  8
0
100
AcDbLine
 10
64.9999825
 20
162.4999775
 30
0.0
 11
64.9999825
 21
160.9999775
 31
0.0
  0
LINE
  5
162
330
1E
100
AcDbEntity
  8
0
100
AcDbLine
 10
64.9999825
 20
162.4999775
 30
0.0
 11
64.9999825
 21
163.9999774999999
 31
0.0
  0
LINE
  5
163
330
1E
100
AcDbEntity
  8
0
100
AcDbLine
 10
64.9999825
 20
160.9999775
 30
0.0
 11
64.9999825
 21
159.7999774999999
 31
0.0
  0
LINE
  5
164
330
1E
100
AcDbEntity
  8
0
100
AcDbLine
 10
64.9999825
 20
160.9999775
 30
0.0
 11
64.9999825
 21
162.4999775
 31
0.0
  0
LINE
  5
165
330
1E
100
AcDbEntity
  8
0
100
AcDbLine
 10
64.9999825
 20
159.7999774999999
 30
0.0
 11
64.9999825
 21
158.7999774999999
 31
0.0
  0
LINE
  5
166
330
1E
100
AcDbEntity
  8
0
100
AcDbLine
 10
64.9999825
 20
159.7999774999999
 30
0.0
 11
64.9999825
 21
160.9999775
 31
0.0
  0
LINE
  5
167
330
1E
100
AcDbEntity
  8
0
100
AcDbLine
 10
64.9999825
 20
158.7999774999999
 30
0.0
 11
64.9999825
 21
158.1999774999999
 31
0.0
  0
LINE
  5
168
330
1E
100
AcDbEntity
  8
0
100
AcDbLine
 10
64.9999825
 20
158.7999774999999
 30
0.0
 11
64.9999825
 21
159.7999774999999
 31
0.0
  0
LINE
  5
169
330
1E
100
AcDbEntity
  8
0
100
AcDbLine
 10
64.9999825
 20
158.1999774999999
 30
0.0
 11
64.9999825
 21
157.9999775
 31
0.0
  0
LINE
  5
16A
330
1E
100
AcDbEntity
  8
0
100
AcDbLine
 10
64.9999825
 20
158.1999774999999
 30
0.0
 11
64.9999825
 21
158.7999774999999
 31
0.0
  0
LINE
  5
16B
330
1E
100
AcDbEntity
  8
0
100
AcDbLine
 10
64.9999825
 20
157.9999775
 30
0.0
 11
65.94998249999999
 21
150.3999774999999
 31
0.0
  0
LINE
  5
16C
330
1E
100
AcDbEntity
  8
0
100
AcDbLine
 10
64.9999825
 20
157.9999775
 30
0.0
 11
64.9999825
 21
158.1999774999999
 31
0.0
  0
LINE
  5
16D
330
1E
100
AcDbEntity
  8
0
100
AcDbLine
 10
61.9999825
 20
163.9999774999999
 30
0.0
 11
61.9999825
 21
164.9999774999999
 31
0.0
  0
LINE
  5
16E
330
1E
100
AcDbEntity
  8
0
100
AcDbLine
 10
61.9999825
 20
163.9999774999999
 30
0.0
 11
61.9999825
 21
162.9999774999999
 31
0.0
  0
LINE
  5
16F
330
1E
100
AcDbEntity
  8
0
100
AcDbLine
 10
64.9999825
 20
163.9999774999999
 30
0.0
 11
64.9999825
 21
165.4999775
 31
0.0
  0
LINE
  5
170
330
1E
100
AcDbEntity
  8
0
100
AcDbLine
 10
64.9999825
 20
163.9999774999999
 30
0.0
 11
64.9999825
 21
162.4999775
 31
0.0
  0
LINE
  5
171
330
1E
100
AcDbEntity
  8
0
100
AcDbLine
 10
65.9999825
 20
160.3999774999999
 30
0.0
 11
65.9999825
 21
163.9999774999999
 31
0.0
  0
LINE
  5
172
330
1E
100
AcDbEntity
  8
0
100
AcDbLine
 10
65.9999825
 20
160.3999774999999
 30
0.0
 11
65.9999825
 21
156.9999775
 31
0.0
  0
LINE
  5
173
330
1E
100
AcDbEntity
  8
0
100
AcDbLine
 10
66.9999825
 20
160.0999775
 30
0.0
 11
66.9999825
 21
156.4999774999999
 31
0.0
  0
LINE
  5
174
330
1E
100
AcDbEntity
  8
0
100
AcDbLine
 10
66.9999825
 20
160.0999775
 30
0.0
 11
66.9999825
 21
163.9999774999999
 31
0.0
  0
LINE
  5
175
330
1E
100
AcDbEntity
  8
0
100
AcDbLine
 10
66.9999825
 20
156.4999774999999
 30
0.0
 11
66.9999825
 21
153.3999774999999
 31
0.0
  0
LINE
  5
176
330
1E
100
AcDbEntity
  8
0
100
AcDbLine
 10
66.9999825
 20
156.4999774999999
 30
0.0
 11
66.9999825
 21
160.0999775
 31
0.0
  0
LINE
  5
177
330
1E
100
AcDbEntity
  8
0
100
AcDbLine
 10
65.9999825
 20
156.9999775
 30
0.0
 11
65.9999825
 21
160.3999774999999
 31
0.0
  0
LINE
  5
178
330
1E
100
AcDbEntity
  8
0
100
AcDbLine
 10
65.9999825
 20
156.9999775
 30
0.0
 11
65.9999825
 21
154.0999774999999
 31
0.0
  0
LINE
  5
179
330
1E
100
AcDbEntity
  8
0
100
AcDbLine
 10
65.9999825
 20
163.9999774999999
 30
0.0
 11
65.9999825
 21
167.5999775
 31
0.0
  0
LINE
  5
17A
330
1E
100
AcDbEntity
  8
0
100
AcDbLine
 10
65.9999825
 20
163.9999774999999
 30
0.0
 11
65.9999825
 21
160.3999774999999
 31
0.0
  0
LINE
  5
17B
330
1E
100
AcDbEntity
  8
0
100
AcDbLine
 10
66.9999825
 20
163.9999774999999
 30
0.0
 11
66.9999825
 21
167.8999774999999
 31
0.0
  0
LINE
  5
17C
330
1E
100
AcDbEntity
  8
0
100
AcDbLine
 10
73.9999825
 20
163.9999774999999
 30
0.0
 11
73.9999825
 21
159.6999775
 31
0.0
  0
LINE
  5
17D
330
1E
100
AcDbEntity
  8
0
100
AcDbLine
 10
73.9999825
 20
163.9999774999999
 30
0.0
 11
73.9999825
 21
168.2999774999999
 31
0.0
  0
LINE
  5
17E
330
1E
100
AcDbEntity
  8
0
100
AcDbLine
 10
61.9999825
 20
164.9999774999999
 30
0.0
 11
61.9999825
 21
163.9999774999999
 31
0.0
  0
LINE
  5
17F
330
1E
100
AcDbEntity
  8
0
100
AcDbLine
 10
61.9999825
 20
164.9999774999999
 30
0.0
 11
61.9999825
 21
165.9999774999999
 31
0.0
  0
LINE
  5
180
330
1E
100
AcDbEntity
  8
0
100
AcDbLine
 10
50.9999825
 20
166.5999774999999
 30
0.0
 11
50.9999825
 21
163.9999774999999
 31
0.0
  0
LINE
  5
181
330
1E
100
AcDbEntity
  8
0
100
AcDbLine
 10
50.9999825
 20
166.5999774999999
 30
0.0
 11
50.9999825
 21
168.9999774999999
 31
0.0
  0
LINE
  5
182
330
1E
100
AcDbEntity
  8
0
100
AcDbLine
 10
61.9999825
 20
165.9999774999999
 30
0.0
 11
61.9999825
 21
164.9999774999999
 31
0.0
  0
LINE
  5
183
330
1E
100
AcDbEntity
  8
0
100
AcDbLine
 10
61.9999825
 20
165.9999774999999
 30
0.0
 11
61.9999825
 21
166.7999775
 31
0.0
  0
LINE
  5
184
330
1E
100
AcDbEntity
  8
0
100
AcDbLine
 10
61.9999825
 20
166.7999775
 30
0.0
 11
61.9999825
 21
165.9999774999999
 31
0.0
  0
LINE
  5
185
330
1E
100
AcDbEntity
  8
0
100
AcDbLine
 10
61.9999825
 20
166.7999775
 30
0.0
 11
61.9999825
 21
167.4999775
 31
0.0
  0
LINE
  5
186
330
1E
100
AcDbEntity
  8
0
100
AcDbLine
 10
61.9999825
 20
167.4999775
 30
0.0
 11
61.9999825
 21
166.7999775
 31
0.0
  0
LINE
  5
187
330
1E
100
AcDbEntity
  8
0
100
AcDbLine
 10
61.9999825
 20
167.4999775
 30
0.0
 11
61.9999825
 21
167.8999774999999
 31
0.0
  0
LINE
  5
188
330
1E
100
AcDbEntity
  8
0
100
AcDbLine
 10
64.9999825
 20
165.4999775
 30
0.0
 11
64.9999825
 21
163.9999774999999
 31
0.0
  0
LINE
  5
189
330
1E
100
AcDbEntity
  8
0
100
AcDbLine
 10
64.9999825
 20
165.4999775
 30
0.0
 11
64.9999825
 21
166.9999774999999
 31
0.0
  0
LINE
  5
18A
330
1E
100
AcDbEntity
  8
0
100
AcDbLine
 10
64.9999825
 20
166.9999774999999
 30
0.0
 11
64.9999825
 21
165.4999775
 31
0.0
  0
LINE
  5
18B
330
1E
100
AcDbEntity
  8
0
100
AcDbLine
 10
64.9999825
 20
166.9999774999999
 30
0.0
 11
64.9999825
 21
168.1999774999999
 31
0.0
  0
LINE
  5
18C
330
1E
100
AcDbEntity
  8
0
100
AcDbLine
 10
61.9999825
 20
167.8999774999999
 30
0.0
 11
61.9999825
 21
167.4999775
 31
0.0
  0
LINE
  5
18D
330
1E
100
AcDbEntity
  8
0
100
AcDbLine
 10
61.9999825
 20
167.8999774999999
 30
0.0
 11
61.9999825
 21
167.9999774999999
 31
0.0
  0
LINE
  5
18E
330
1E
100
AcDbEntity
  8
0
100
AcDbLine
 10
65.9999825
 20
167.5999775
 30
0.0
 11
65.9999825
 21
163.9999774999999
 31
0.0
  0
LINE
  5
18F
330
1E
100
AcDbEntity
  8
0
100
AcDbLine
 10
65.9999825
 20
167.5999775
 30
0.0
 11
65.9999825
 21
170.9999774999999
 31
0.0
  0
LINE
  5
190
330
1E
100
AcDbEntity
  8
0
100
AcDbLine
 10
50.9999825
 20
168.9999774999999
 30
0.0
 11
50.9999825
 21
166.5999774999999
 31
0.0
  0
LINE
  5
191
330
1E
100
AcDbEntity
  8
0
100
AcDbLine
 10
50.9999825
 20
168.9999774999999
 30
0.0
 11
50.9999825
 21
171.0999774999999
 31
0.0
  0
LINE
  5
192
330
1E
100
AcDbEntity
  8
0
100
AcDbLine
 10
61.9999825
 20
167.9999774999999
 30
0.0
 11
61.9999825
 21
167.8999774999999
 31
0.0
  0
LINE
  5
193
330
1E
100
AcDbEntity
  8
0
100
AcDbLine
 10
61.9999825
 20
167.9999774999999
 30
0.0
 11
64.9999825
 21
169.9999775
 31
0.0
  0
LINE
  5
194
330
1E
100
AcDbEntity
  8
0
100
AcDbLine
 10
64.9999825
 20
168.1999774999999
 30
0.0
 11
64.9999825
 21
166.9999774999999
 31
0.0
  0
LINE
  5
195
330
1E
100
AcDbEntity
  8
0
100
AcDbLine
 10
64.9999825
 20
168.1999774999999
 30
0.0
 11
64.9999825
 21
169.1999775
 31
0.0
  0
LINE
  5
196
330
1E
100
AcDbEntity
  8
0
100
AcDbLine
 10
50.9999825
 20
169.9999775
 30
0.0
 11
61.9999825
 21
167.9999774999999
 31
0.0
  0
LINE
  5
197
330
1E
100
AcDbEntity
  8
0
100
AcDbLine
 10
64.9999825
 20
169.1999775
 30
0.0
 11
64.9999825
 21
168.1999774999999
 31
0.0
  0
LINE
  5
198
330
1E
100
AcDbEntity
  8
0
100
AcDbLine
 10
64.9999825
 20
169.1999775
 30
0.0
 11
64.9999825
 21
169.7999774999999
 31
0.0
  0
LINE
  5
199
330
1E
100
AcDbEntity
  8
0
100
AcDbLine
 10
64.9999825
 20
169.7999774999999
 30
0.0
 11
64.9999825
 21
169.1999775
 31
0.0
  0
LINE
  5
19A
330
1E
100
AcDbEntity
  8
0
100
AcDbLine
 10
64.9999825
 20
169.7999774999999
 30
0.0
 11
64.9999825
 21
169.9999775
 31
0.0
  0
LINE
  5
19B
330
1E
100
AcDbEntity
  8
0
100
AcDbLine
 10
64.9999825
 20
169.9999775
 30
0.0
 11
64.9999825
 21
169.7999774999999
 31
0.0
  0
LINE
  5
19C
330
1E
100
AcDbEntity
  8
0
100
AcDbLine
 10
64.9999825
 20
169.9999775
 30
0.0
 11
65.94998249999999
 21
177.5999775
 31
0.0
  0
LINE
  5
19D
330
1E
100
AcDbEntity
  8
0
100
AcDbLine
 10
50.9999825
 20
171.0999774999999
 30
0.0
 11
50.9999825
 21
168.9999774999999
 31
0.0
  0
LINE
  5
19E
330
1E
100
AcDbEntity
  8
0
100
AcDbLine
 10
50.9999825
 20
171.0999774999999
 30
0.0
 11
50.9999825
 21
172.6999774999999
 31
0.0
  0
LINE
  5
19F
330
1E
100
AcDbEntity
  8
0
100
AcDbLine
 10
65.9999825
 20
170.9999774999999
 30
0.0
 11
65.9999825
 21
167.5999775
 31
0.0
  0
LINE
  5
1A0
330
1E
100
AcDbEntity
  8
0
100
AcDbLine
 10
65.9999825
 20
170.9999774999999
 30
0.0
 11
65.9999825
 21
173.8999774999999
 31
0.0
  0
LINE
  5
1A1
330
1E
100
AcDbEntity
  8
0
100
AcDbLine
 10
66.9999825
 20
171.4999775
 30
0.0
 11
66.9999825
 21
167.8999774999999
 31
0.0
  0
LINE
  5
1A2
330
1E
100
AcDbEntity
  8
0
100
AcDbLine
 10
66.9999825
 20
171.4999775
 30
0.0
 11
66.9999825
 21
174.5999775
 31
0.0
  0
LINE
  5
1A3
330
1E
100
AcDbEntity
  8
0
100
AcDbLine
 10
66.9999825
 20
167.8999774999999
 30
0.0
 11
66.9999825
 21
163.9999774999999
 31
0.0
  0
LINE
  5
1A4
330
1E
100
AcDbEntity
  8
0
100
AcDbLine
 10
66.9999825
 20
167.8999774999999
 30
0.0
 11
66.9999825
 21
171.4999775
 31
0.0
  0
LINE
  5
1A5
330
1E
100
AcDbEntity
  8
0
100
AcDbLine
 10
73.9999825
 20
168.2999774999999
 30
0.0
 11
73.9999825
 21
163.9999774999999
 31
0.0
  0
LINE
  5
1A6
330
1E
100
AcDbEntity
  8
0
100
AcDbLine
 10
73.9999825
 20
168.2999774999999
 30
0.0
 11
73.9999825
 21
172.1999775
 31
0.0
  0
LINE
  5
1A7
330
1E
100
AcDbEntity
  8
0
100
AcDbLine
 10
50.9999825
 20
172.6999774999999
 30
0.0
 11
50.9999825
 21
171.0999774999999
 31
0.0
  0
LINE
  5
1A8
330
1E
100
AcDbEntity
  8
0
100
AcDbLine
 10
50.9999825
 20
172.6999774999999
 30
0.0
 11
50.9999825
 21
173.5999774999999
 31
0.0
  0
LINE
  5
1A9
330
1E
100
AcDbEntity
  8
0
100
AcDbLine
 10
50.9999825
 20
173.5999774999999
 30
0.0
 11
50.9999825
 21
172.6999774999999
 31
0.0
  0
LINE
  5
1AA
330
1E
100
AcDbEntity
  8
0
100
AcDbLine
 10
50.9999825
 20
173.5999774999999
 30
0.0
 11
50.9999825
 21
173.9999775
 31
0.0
  0
LINE
  5
1AB
330
1E
100
AcDbEntity
  8
0
100
AcDbLine
 10
50.9999825
 20
173.9999775
 30
0.0
 11
50.9999825
 21
173.5999774999999
 31
0.0
  0
LINE
  5
1AC
330
1E
100
AcDbEntity
  8
0
100
AcDbLine
 10
65.9999825
 20
176.0999774999999
 30
0.0
 11
65.9999825
 21
173.8999774999999
 31
0.0
  0
LINE
  5
1AD
330
1E
100
AcDbEntity
  8
0
100
AcDbLine
 10
65.9999825
 20
176.0999774999999
 30
0.0
 11
65.9999825
 21
177.4999774999999
 31
0.0
  0
LINE
  5
1AE
330
1E
100
AcDbEntity
  8
0
100
AcDbLine
 10
65.9999825
 20
173.8999774999999
 30
0.0
 11
65.9999825
 21
170.9999774999999
 31
0.0
  0
LINE
  5
1AF
330
1E
100
AcDbEntity
  8
0
100
AcDbLine
 10
65.9999825
 20
173.8999774999999
 30
0.0
 11
65.9999825
 21
176.0999774999999
 31
0.0
  0
LINE
  5
1B0
330
1E
100
AcDbEntity
  8
0
100
AcDbLine
 10
65.9999825
 20
177.9999775
 30
0.0
 11
65.9999825
 21
177.4999774999999
 31
0.0
  0
LINE
  5
1B1
330
1E
100
AcDbEntity
  8
0
100
AcDbLine
 10
65.9999825
 20
177.9999775
 30
0.0
 11
66.9999825
 21
178.9999775
 31
0.0
  0
LINE
  5
1B2
330
1E
100
AcDbEntity
  8
0
100
AcDbLine
 10
65.9999825
 20
177.4999774999999
 30
0.0
 11
65.9999825
 21
176.0999774999999
 31
0.0
  0
LINE
  5
1B3
330
1E
100
AcDbEntity
  8
0
100
AcDbLine
 10
65.9999825
 20
177.4999774999999
 30
0.0
 11
65.9999825
 21
177.9999775
 31
0.0
  0
LINE
  5
1B4
330
1E
100
AcDbEntity
  8
0
100
AcDbLine
 10
66.9999825
 20
176.9999775
 30
0.0
 11
66.9999825
 21
174.5999775
 31
0.0
  0
LINE
  5
1B5
330
1E
100
AcDbEntity
  8
0
100
AcDbLine
 10
66.9999825
 20
176.9999775
 30
0.0
 11
66.9999825
 21
178.4999774999999
 31
0.0
  0
LINE
  5
1B6
330
1E
100
AcDbEntity
  8
0
100
AcDbLine
 10
66.9999825
 20
174.5999775
 30
0.0
 11
66.9999825
 21
171.4999775
 31
0.0
  0
LINE
  5
1B7
330
1E
100
AcDbEntity
  8
0
100
AcDbLine
 10
66.9999825
 20
174.5999775
 30
0.0
 11
66.9999825
 21
176.9999775
 31
0.0
  0
LINE
  5
1B8
330
1E
100
AcDbEntity
  8
0
100
AcDbLine
 10
73.9999825
 20
172.1999775
 30
0.0
 11
73.9999825
 21
168.2999774999999
 31
0.0
  0
LINE
  5
1B9
330
1E
100
AcDbEntity
  8
0
100
AcDbLine
 10
73.9999825
 20
172.1999775
 30
0.0
 11
73.9999825
 21
175.5999775
 31
0.0
  0
LINE
  5
1BA
330
1E
100
AcDbEntity
  8
0
100
AcDbLine
 10
73.9999825
 20
175.5999775
 30
0.0
 11
73.9999825
 21
172.1999775
 31
0.0
  0
LINE
  5
1BB
330
1E
100
AcDbEntity
  8
0
100
AcDbLine
 10
73.9999825
 20
175.5999775
 30
0.0
 11
73.9999825
 21
178.2999774999999
 31
0.0
  0
LINE
  5
1BC
330
1E
100
AcDbEntity
  8
0
100
AcDbLine
 10
66.9999825
 20
178.9999775
 30
0.0
 11
66.9999825
 21
178.4999774999999
 31
0.0
  0
LINE
  5
1BD
330
1E
100
AcDbEntity
  8
0
100
AcDbLine
 10
66.9999825
 20
178.9999775
 30
0.0
 11
73.9999825
 21
178.9999775
 31
0.0
  0
LINE
  5
1BE
330
1E
100
AcDbEntity
  8
0
100
AcDbLine
 10
66.9999825
 20
178.4999774999999
 30
0.0
 11
66.9999825
 21
176.9999775
 31
0.0
  0
LINE
  5
1BF
330
1E
100
AcDbEntity
  8
0
100
AcDbLine
 10
66.9999825
 20
178.4999774999999
 30
0.0
 11
66.9999825
 21
178.9999775
 31
0.0
  0
LINE
  5
1C0
330
1E
100
AcDbEntity
  8
0
100
AcDbLine
 10
73.9999825
 20
178.2999774999999
 30
0.0
 11
73.9999825
 21
175.5999775
 31
0.0
  0
LINE
  5
1C1
330
1E
100
AcDbEntity
  8
0
100
AcDbLine
 10
73.9999825
 20
178.2999774999999
 30
0.0
 11
73.9999825
 21
179.8999774999999
 31
0.0
  0
LINE
  5
1C2
330
1E
100
AcDbEntity
  8
0
100
AcDbLine
 10
73.9999825
 20
173.7999774999999
 30
0.0
 11
73.9999825
 21
164.7999774999999
 31
0.0
  0
LINE
  5
1C3
330
1E
100
AcDbEntity
  8
0
100
AcDbLine
 10
73.9999825
 20
164.7999774999999
 30
0.0
 11
73.9999825
 21
173.7999774999999
 31
0.0
  0
LINE
  5
1C4
330
1E
100
AcDbEntity
  8
0
100
AcDbLine
 10
73.9999825
 20
164.7999774999999
 30
0.0
 11
73.9999825
 21
155.2999774999999
 31
0.0
  0
LINE
  5
1C5
330
1E
100
AcDbEntity
  8
0
100
AcDbLine
 10
73.9999825
 20
159.6999775
 30
0.0
 11
73.9999825
 21
155.7999774999999
 31
0.0
  0
LINE
  5
1C6
330
1E
100
AcDbEntity
  8
0
100
AcDbLine
 10
73.9999825
 20
159.6999775
 30
0.0
 11
73.9999825
 21
163.9999774999999
 31
0.0
  0
LINE
  5
1C7
330
1E
100
AcDbEntity
  8
0
100
AcDbLine
 10
73.9999825
 20
155.7999774999999
 30
0.0
 11
73.9999825
 21
152.3999774999999
 31
0.0
  0
LINE
  5
1C8
330
1E
100
AcDbEntity
  8
0
100
AcDbLine
 10
73.9999825
 20
155.7999774999999
 30
0.0
 11
73.9999825
 21
159.6999775
 31
0.0
  0
LINE
  5
1C9
330
1E
100
AcDbEntity
  8
0
100
AcDbLine
 10
73.9999825
 20
152.3999774999999
 30
0.0
 11
73.9999825
 21
149.6999774999999
 31
0.0
  0
LINE
  5
1CA
330
1E
100
AcDbEntity
  8
0
100
AcDbLine
 10
73.9999825
 20
152.3999774999999
 30
0.0
 11
73.9999825
 21
155.7999774999999
 31
0.0
  0
LINE
  5
1CB
330
1E
100
AcDbEntity
  8
0
100
AcDbLine
 10
73.9999825
 20
149.6999774999999
 30
0.0
 11
73.9999825
 21
148.0999774999999
 31
0.0
  0
LINE
  5
1CC
330
1E
100
AcDbEntity
  8
0
100
AcDbLine
 10
73.9999825
 20
149.6999774999999
 30
0.0
 11
73.9999825
 21
152.3999774999999
 31
0.0
  0
LINE
  5
1CD
330
1E
100
AcDbEntity
  8
0
100
AcDbLine
 10
73.9999825
 20
194.9999775
 30
0.0
 11
73.9999825
 21
179.8999774999999
 31
0.0
  0
LINE
  5
1CE
330
1E
100
AcDbEntity
  8
0
100
AcDbLine
 10
73.9999825
 20
148.9999775
 30
0.0
 11
73.9999825
 21
148.0999774999999
 31
0.0
  0
LINE
  5
1CF
330
1E
100
AcDbEntity
  8
0
100
AcDbLine
 10
73.9999825
 20
148.0999774999999
 30
0.0
 11
73.9999825
 21
148.9999775
 31
0.0
  0
LINE
  5
1D0
330
1E
100
AcDbEntity
  8
0
100
AcDbLine
 10
73.9999825
 20
148.0999774999999
 30
0.0
 11
73.9999825
 21
147.4999775
 31
0.0
  0
LINE
  5
1D1
330
1E
100
AcDbEntity
  8
0
100
AcDbLine
 10
73.9999825
 20
148.0999774999999
 30
0.0
 11
73.9999825
 21
149.6999774999999
 31
0.0
  0
LINE
  5
1D2
330
1E
100
AcDbEntity
  8
0
100
AcDbLine
 10
73.9999825
 20
147.4999775
 30
0.0
 11
73.9999825
 21
148.0999774999999
 31
0.0
  0
LINE
  5
1D4
330
1E
100
AcDbEntity
  8
0
100
AcDbLine
 10
73.9999825
 20
194.9999775
 30
0.0
 11
73.9999825
 21
199.5999774999999
 31
0.0
  0
LINE
  5
1D5
330
1E
100
AcDbEntity
  8
0
100
AcDbLine
 10
73.9999825
 20
199.5999774999999
 30
0.0
 11
73.9999825
 21
202.9999774999999
 31
0.0
  0
LINE
  5
1D6
330
1E
100
AcDbEntity
  8
0
100
AcDbLine
 10
73.9999825
 20
199.5999774999999
 30
0.0
 11
73.9999825
 21
194.9999775
 31
0.0
  0
LINE
  5
1D8
330
1E
100
AcDbEntity
  8
0
100
AcDbLine
 10
73.9999825
 20
202.9999774999999
 30
0.0
 11
73.9999825
 21
199.5999774999999
 31
0.0
  0
LINE
  5
1D9
330
1E
100
AcDbEntity
  8
0
100
AcDbLine
 10
73.9999825
 20
202.9999774999999
 30
0.0
 11
73.9999825
 21
205.1999775
 31
0.0
  0
LINE
  5
1DA
330
1E
100
AcDbEntity
  8
0
100
AcDbLine
 10
73.9999825
 20
205.1999775
 30
0.0
 11
73.9999825
 21
202.9999774999999
 31
0.0
  0
LINE
  5
1DB
330
1E
100
AcDbEntity
  8
0
100
AcDbLine
 10
73.9999825
 20
205.1999775
 30
0.0
 11
73.9999825
 21
205.9999775
 31
0.0
  0
LINE
  5
1DC
330
1E
100
AcDbEntity
  8
0
100
AcDbLine
 10
73.9999825
 20
178.9999775
 30
0.0
 11
73.9999825
 21
179.8999774999999
 31
0.0
  0
LINE
  5
1DD
330
1E
100
AcDbEntity
  8
0
100
AcDbLine
 10
73.9999825
 20
205.9999775
 30
0.0
 11
73.9999825
 21
205.1999775
 31
0.0
  0
LINE
  5
1DE
330
1E
100
AcDbEntity
  8
0
100
AcDbLine
 10
73.9999825
 20
205.9999775
 30
0.0
 11
74.4999825
 21
207.3999774999999
 31
0.0
  0
LINE
  5
1DF
330
1E
100
AcDbEntity
  8
0
100
AcDbLine
 10
74.4999825
 20
207.3999774999999
 30
0.0
 11
75.59998249999999
 21
208.4999774999999
 31
0.0
  0
LINE
  5
1E0
330
1E
100
AcDbEntity
  8
0
100
AcDbLine
 10
85.9999825
 20
191.2999774999999
 30
0.0
 11
85.9999825
 21
183.9999775
 31
0.0
  0
LINE
  5
1E1
330
1E
100
AcDbEntity
  8
0
100
AcDbLine
 10
85.9999825
 20
191.2999774999999
 30
0.0
 11
85.9999825
 21
197.5999775
 31
0.0
  0
LINE
  5
1E2
330
1E
100
AcDbEntity
  8
0
100
AcDbLine
 10
85.9999825
 20
197.5999775
 30
0.0
 11
85.9999825
 21
191.2999774999999
 31
0.0
  0
LINE
  5
1E3
330
1E
100
AcDbEntity
  8
0
100
AcDbLine
 10
85.9999825
 20
197.5999775
 30
0.0
 11
85.9999825
 21
202.3999774999999
 31
0.0
  0
LINE
  5
1E4
330
1E
100
AcDbEntity
  8
0
100
AcDbLine
 10
85.9999825
 20
202.3999774999999
 30
0.0
 11
85.9999825
 21
197.5999775
 31
0.0
  0
LINE
  5
1E5
330
1E
100
AcDbEntity
  8
0
100
AcDbLine
 10
85.9999825
 20
202.3999774999999
 30
0.0
 11
85.9999825
 21
205.8999774999999
 31
0.0
  0
LINE
  5
1E6
330
1E
100
AcDbEntity
  8
0
100
AcDbLine
 10
85.9999825
 20
205.8999774999999
 30
0.0
 11
85.9999825
 21
202.3999774999999
 31
0.0
  0
LINE
  5
1E7
330
1E
100
AcDbEntity
  8
0
100
AcDbLine
 10
85.9999825
 20
205.8999774999999
 30
0.0
 11
85.9999825
 21
208.0999774999999
 31
0.0
  0
LINE
  5
1E8
330
1E
100
AcDbEntity
  8
0
100
AcDbLine
 10
85.9999825
 20
208.0999774999999
 30
0.0
 11
85.9999825
 21
205.8999774999999
 31
0.0
  0
LINE
  5
1E9
330
1E
100
AcDbEntity
  8
0
100
AcDbLine
 10
85.9999825
 20
208.0999774999999
 30
0.0
 11
85.9999825
 21
208.9999774999999
 31
0.0
  0
LINE
  5
1EA
330
1E
100
AcDbEntity
  8
0
100
AcDbLine
 10
85.9999825
 20
208.9999774999999
 30
0.0
 11
85.9999825
 21
208.0999774999999
 31
0.0
  0
LINE
  5
1EB
330
1E
100
AcDbEntity
  8
0
100
AcDbLine
 10
85.9999825
 20
183.9999775
 30
0.0
 11
85.9999825
 21
175.6999774999999
 31
0.0
  0
LINE
  5
1EC
330
1E
100
AcDbEntity
  8
0
100
AcDbLine
 10
85.9999825
 20
183.9999775
 30
0.0
 11
85.9999825
 21
191.2999774999999
 31
0.0
  0
LINE
  5
1ED
330
1E
100
AcDbEntity
  8
0
100
AcDbLine
 10
85.9999825
 20
175.6999774999999
 30
0.0
 11
85.9999825
 21
166.2999774999999
 31
0.0
  0
LINE
  5
1EE
330
1E
100
AcDbEntity
  8
0
100
AcDbLine
 10
85.9999825
 20
175.6999774999999
 30
0.0
 11
85.9999825
 21
183.9999775
 31
0.0
  0
LINE
  5
1EF
330
1E
100
AcDbEntity
  8
0
100
AcDbLine
 10
85.9999825
 20
166.2999774999999
 30
0.0
 11
85.9999825
 21
156.4999774999999
 31
0.0
  0
LINE
  5
1F0
330
1E
100
AcDbEntity
  8
0
100
AcDbLine
 10
85.9999825
 20
166.2999774999999
 30
0.0
 11
85.9999825
 21
175.6999774999999
 31
0.0
  0
LINE
  5
1F1
330
1E
100
AcDbEntity
  8
0
100
AcDbLine
 10
85.9999825
 20
156.4999774999999
 30
0.0
 11
85.9999825
 21
145.8999774999999
 31
0.0
  0
LINE
  5
1F2
330
1E
100
AcDbEntity
  8
0
100
AcDbLine
 10
85.9999825
 20
156.4999774999999
 30
0.0
 11
85.9999825
 21
166.2999774999999
 31
0.0
  0
LINE
  5
1F3
330
1E
100
AcDbEntity
  8
0
100
AcDbLine
 10
85.9999825
 20
145.8999774999999
 30
0.0
 11
85.9999825
 21
135.0999775
 31
0.0
  0
LINE
  5
1F4
330
1E
100
AcDbEntity
  8
0
100
AcDbLine
 10
85.9999825
 20
145.8999774999999
 30
0.0
 11
85.9999825
 21
156.4999774999999
 31
0.0
  0
LINE
  5
1F5
330
1E
100
AcDbEntity
  8
0
100
AcDbLine
 10
85.9999825
 20
135.0999775
 30
0.0
 11
85.9999825
 21
123.9999774999999
 31
0.0
  0
LINE
  5
1F6
330
1E
100
AcDbEntity
  8
0
100
AcDbLine
 10
85.9999825
 20
135.0999775
 30
0.0
 11
85.9999825
 21
145.8999774999999
 31
0.0
  0
LINE
  5
1F7
330
1E
100
AcDbEntity
  8
0
100
AcDbLine
 10
75.59998249999999
 20
208.4999774999999
 30
0.0
 11
76.9999825
 21
208.9999774999999
 31
0.0
  0
LINE
  5
1F8
330
1E
100
AcDbEntity
  8
0
100
AcDbLine
 10
76.9999825
 20
208.9999774999999
 30
0.0
 11
85.9999825
 21
208.9999774999999
 31
0.0
  0
LINE
  5
1F9
330
1E
100
AcDbEntity
  8
0
100
AcDbLine
 10
73.9999825
 20
179.8999774999999
 30
0.0
 11
73.9999825
 21
194.9999775
 31
0.0
  0
LINE
  5
1FA
330
1E
100
AcDbEntity
  8
0
100
AcDbLine
 10
73.9999825
 20
179.8999774999999
 30
0.0
 11
73.9999825
 21
178.9999775
 31
0.0
  0
LINE
  5
1FB
330
1E
100
AcDbEntity
  8
0
100
AcDbLine
 10
73.9999825
 20
179.8999774999999
 30
0.0
 11
73.9999825
 21
178.2999774999999
 31
0.0
  0
LINE
  5
1FC
330
1E
100
AcDbEntity
  8
0
100
AcDbLine
 10
73.9999825
 20
123.9999774999999
 30
0.0
 11
73.9999825
 21
114.4999774999999
 31
0.0
  0
LINE
  5
1FD
330
1E
100
AcDbEntity
  8
0
100
AcDbLine
 10
73.9999825
 20
123.9999774999999
 30
0.0
 11
73.9999825
 21
134.6999775
 31
0.0
  0
LINE
  5
1FE
330
1E
100
AcDbEntity
  8
0
100
AcDbLine
 10
45.9999825
 20
117.9999774999999
 30
0.0
 11
52.59998249999999
 21
117.1999774999999
 31
0.0
  0
LINE
  5
1FF
330
1E
100
AcDbEntity
  8
0
100
AcDbLine
 10
52.59998249999999
 20
117.1999774999999
 30
0.0
 11
53.99998249999999
 21
116.7999774999999
 31
0.0
  0
LINE
  5
200
330
1E
100
AcDbEntity
  8
0
100
AcDbLine
 10
30.7387825
 20
44.2893775
 30
0.0
 11
37.6539708455751
 21
62.57944572059
 31
0.0
  0
LINE
  5
201
330
1E
100
AcDbEntity
  8
0
100
AcDbLine
 10
30.7387825
 20
44.2893775
 30
0.0
 11
37.6539708455751
 21
62.57944572059
 31
0.0
  0
LINE
  5
202
330
1E
100
AcDbEntity
  8
0
100
AcDbLine
 10
23.6152825
 20
26.6469775
 30
0.0
 11
30.7387825
 21
44.2893775
 31
0.0
  0
LINE
  5
203
330
1E
100
AcDbEntity
  8
0
100
AcDbLine
 10
18.30258249999999
 20
14.7803775
 30
0.0
 11
23.6152825
 21
26.6469775
 31
0.0
  0
LINE
  5
204
330
1E
100
AcDbEntity
  8
0
100
AcDbLine
 10
14.7708825
 20
6.496857499999999
 30
0.0
 11
18.30258249999999
 21
14.7803775
 31
0.0
  0
LINE
  5
205
330
1E
100
AcDbEntity
  8
0
100
AcDbLine
 10
12.83858249999999
 20
3.536087499999999
 30
0.0
 11
14.7708825
 21
6.496857499999999
 31
0.0
  0
LINE
  5
206
330
1E
100
AcDbEntity
  8
0
100
AcDbLine
 10
10.8756825
 20
1.6929375
 30
0.0
 11
12.83858249999999
 21
3.536087499999999
 31
0.0
  0
LINE
  5
207
330
1E
100
AcDbEntity
  8
0
100
AcDbLine
 10
8.67101249999999
 20
0.514247500000004
 30
0.0
 11
10.8756825
 21
1.6929375
 31
0.0
  0
LINE
  5
208
330
1E
100
AcDbEntity
  8
0
100
AcDbLine
 10
6.22447249999999
 20
0.0000225000000037
 30
0.0
 11
8.67101249999999
 21
0.514247500000004
 31
0.0
  0
LINE
  5
209
330
1E
100
AcDbEntity
  8
0
100
AcDbLine
 10
3.7473925
 20
0.6034145000000041
 30
0.0
 11
6.22447249999999
 21
0.0000225000000036
 31
0.0
  0
LINE
  5
20A
330
1E
100
AcDbEntity
  8
0
100
AcDbLine
 10
3.7473925
 20
0.6034145000000041
 30
0.0
 11
6.22447249999999
 21
0.0000225000000037
 31
0.0
  0
ENDSEC
  0
SECTION
  2
OBJECTS
  0
DICTIONARY
  5
C
330
0
100
AcDbDictionary
281
     1
  3
ACAD_GROUP
350
D
  3
ACAD_LAYOUT
350
19
  3
ACAD_MLINESTYLE
350
16
  3
ACAD_PLOTSETTINGS
350
18
  3
ACAD_PLOTSTYLENAME
350
E
  3
AcDbVariableDictionary
350
20F
  0
DICTIONARY
  5
D
102
{ACAD_REACTORS
330
C
102
}
330
C
100
AcDbDictionary
281
     1
  0
DICTIONARY
  5
19
102
{ACAD_REACTORS
330
C
102
}
330
C
100
AcDbDictionary
281
     1
  3
Layout1
350
1D
  3
Model
350
21
  0
DICTIONARY
  5
16
102
{ACAD_REACTORS
330
C
102
}
330
C
100
AcDbDictionary
281
     1
  3
Standard
350
17
  0
DICTIONARY
  5
18
102
{ACAD_REACTORS
330
C
102
}
330
C
100
AcDbDictionary
281
     1
  0
ACDBDICTIONARYWDFLT
  5
E
102
{ACAD_REACTORS
330
C
102
}
330
C
100
AcDbDictionary
281
     1
  3
Normal
350
F
100
AcDbDictionaryWithDefault
340
F
  0
DICTIONARY
  5
20F
102
{ACAD_REACTORS
330
C
102
}
330
C
100
AcDbDictionary
281
     1
  3
DIMASSOC
350
210
  0
LAYOUT
  5
1D
102
{ACAD_REACTORS
330
19
102
}
330
19
100
AcDbPlotSettings
  1

  2
hp deskjet 980c series
  4

  6

 40
0.0
 41
0.0
 42
0.0
 43
0.0
 44
0.0
 45
0.0
 46
0.0
 47
0.0
 48
0.0
 49
0.0
140
0.0
141
0.0
142
1.0
143
1.0
 70
   688
 72
     0
 73
     0
 74
     5
  7

 75
    16
147
1.0
148
0.0
149
0.0
100
AcDbLayout
  1
Layout1
 70
     1
 71
     1
 10
0.0
 20
0.0
 11
12.0
 21
9.0
 12
0.0
 22
0.0
 32
0.0
 14
1.000000000000000E+20
 24
1.000000000000000E+20
 34
1.000000000000000E+20
 15
-1.000000000000000E+20
 25
-1.000000000000000E+20
 35
-1.000000000000000E+20
146
0.0
 13
0.0
 23
0.0
 33
0.0
 16
1.0
 26
0.0
 36
0.0
 17
0.0
 27
1.0
 37
0.0
 76
     0
330
1A
  0
LAYOUT
  5
21
102
{ACAD_REACTORS
330
19
102
}
330
19
100
AcDbPlotSettings
  1

  2
hp deskjet 980c series
  4

  6

 40
0.0
 41
0.0
 42
0.0
 43
0.0
 44
0.0
 45
0.0
 46
0.0
 47
0.0
 48
0.0
 49
0.0
140
0.0
141
0.0
142
1.0
143
1.0
 70
  1712
 72
     0
 73
     0
 74
     0
  7

 75
     0
147
1.0
148
0.0
149
0.0
100
AcDbLayout
  1
Model
 70
     1
 71
     0
 10
0.0
 20
0.0
 11
12.0
 21
9.0
 12
0.0
 22
0.0
 32
0.0
 14
0.0
 24
0.0
 34
0.0
 15
0.0
 25
0.0
 35
0.0
146
0.0
 13
0.0
 23
0.0
 33
0.0
 16
1.0
 26
0.0
 36
0.0
 17
0.0
 27
1.0
 37
0.0
 76
     0
330
1E
  0
MLINESTYLE
  5
17
102
{ACAD_REACTORS
330
16
102
}
330
16
100
AcDbMlineStyle
  2
STANDARD
 70
     0
  3

 62
   256
 51
90.0
 52
90.0
 71
     2
 49
0.5
 62
   256
  6
BYLAYER
 49
-0.5
 62
   256
  6
BYLAYER
  0
ACDBPLACEHOLDER
  5
F
102
{ACAD_REACTORS
330
E
102
}
330
E
  0
DICTIONARYVAR
  5
210
102
{ACAD_REACTORS
330
20F
102
}
330
20F
100
DictionaryVariables
280
     0
  1
1
  0
ENDSEC
  0
EOF
