  0
SECTION
  2
HEADER
  9
$ACADVER
  1
AC1015
  9
$ACADMAINTVER
 70
    13
  9
$DWGCODEPAGE
  3
ANSI_1252
  9
$INSBASE
 10
0.0
 20
0.0
 30
0.0
  9
$EXTMIN
 10
-0.0000000000000017
 20
0.0042000000000066
 30
0.0
  9
$EXTMAX
 10
200.0
 20
143.9958
 30
0.0
  9
$LIMMIN
 10
0.0
 20
0.0
  9
$LIMMAX
 10
12.0
 20
9.0
  9
$ORTHOMODE
 70
     0
  9
$REGENMODE
 70
     1
  9
$FILLMODE
 70
     1
  9
$QTEXTMODE
 70
     0
  9
$MIRRTEXT
 70
     1
  9
$LTSCALE
 40
1.0
  9
$ATTMODE
 70
     1
  9
$TEXTSIZE
 40
0.2
  9
$TRACEWID
 40
0.05
  9
$TEXTSTYLE
  7
Standard
  9
$CLAYER
  8
0
  9
$CELTYPE
  6
Continuous
  9
$CECOLOR
 62
   256
  9
$CELTSCALE
 40
1.0
  9
$DISPSILH
 70
     0
  9
$DIMSCALE
 40
1.0
  9
$DIMASZ
 40
0.18
  9
$DIMEXO
 40
0.0625
  9
$DIMDLI
 40
0.38
  9
$DIMRND
 40
0.0
  9
$DIMDLE
 40
0.0
  9
$DIMEXE
 40
0.18
  9
$DIMTP
 40
0.0
  9
$DIMTM
 40
0.0
  9
$DIMTXT
 40
0.18
  9
$DIMCEN
 40
0.09
  9
$DIMTSZ
 40
0.0
  9
$DIMTOL
 70
     0
  9
$DIMLIM
 70
     0
  9
$DIMTIH
 70
     1
  9
$DIMTOH
 70
     1
  9
$DIMSE1
 70
     0
  9
$DIMSE2
 70
     0
  9
$DIMTAD
 70
     0
  9
$DIMZIN
 70
     0
  9
$DIMBLK
  1

  9
$DIMASO
 70
     1
  9
$DIMSHO
 70
     1
  9
$DIMPOST
  1

  9
$DIMAPOST
  1

  9
$DIMALT
 70
     0
  9
$DIMALTD
 70
     2
  9
$DIMALTF
 40
25.4
  9
$DIMLFAC
 40
1.0
  9
$DIMTOFL
 70
     0
  9
$DIMTVP
 40
0.0
  9
$DIMTIX
 70
     0
  9
$DIMSOXD
 70
     0
  9
$DIMSAH
 70
     0
  9
$DIMBLK1
  1

  9
$DIMBLK2
  1

  9
$DIMSTYLE
  2
Standard
  9
$DIMCLRD
 70
     0
  9
$DIMCLRE
 70
     0
  9
$DIMCLRT
 70
     0
  9
$DIMTFAC
 40
1.0
  9
$DIMGAP
 40
0.09
  9
$DIMJUST
 70
     0
  9
$DIMSD1
 70
     0
  9
$DIMSD2
 70
     0
  9
$DIMTOLJ
 70
     1
  9
$DIMTZIN
 70
     0
  9
$DIMALTZ
 70
     0
  9
$DIMALTTZ
 70
     0
  9
$DIMUPT
 70
     0
  9
$DIMDEC
 70
     4
  9
$DIMTDEC
 70
     4
  9
$DIMALTU
 70
     2
  9
$DIMALTTD
 70
     2
  9
$DIMTXSTY
  7
Standard
  9
$DIMAUNIT
 70
     0
  9
$DIMADEC
 70
     0
  9
$DIMALTRND
 40
0.0
  9
$DIMAZIN
 70
     0
  9
$DIMDSEP
 70
    46
  9
$DIMATFIT
 70
     3
  9
$DIMFRAC
 70
     0
  9
$DIMLDRBLK
  1

  9
$DIMLUNIT
 70
     2
  9
$DIMLWD
 70
    -2
  9
$DIMLWE
 70
    -2
  9
$DIMTMOVE
 70
     0
  9
$LUNITS
 70
     2
  9
$LUPREC
 70
     4
  9
$SKETCHINC
 40
0.1
  9
$FILLETRAD
 40
0.0
  9
$AUNITS
 70
     0
  9
$AUPREC
 70
     0
  9
$MENU
  1
.
  9
$ELEVATION
 40
0.0
  9
$PELEVATION
 40
0.0
  9
$THICKNESS
 40
0.0
  9
$LIMCHECK
 70
     0
  9
$CHAMFERA
 40
0.0
  9
$CHAMFERB
 40
0.0
  9
$CHAMFERC
 40
0.0
  9
$CHAMFERD
 40
0.0
  9
$SKPOLY
 70
     0
  9
$TDCREATE
 40
2454753.363185393
  9
$TDUCREATE
 40
2454753.279852060
  9
$TDUPDATE
 40
2454753.366532835
  9
$TDUUPDATE
 40
2454753.283199502
  9
$TDINDWG
 40
0.0033474421
  9
$TDUSRTIMER
 40
0.0033474421
  9
$USRTIMER
 70
     1
  9
$ANGBASE
 50
0.0
  9
$ANGDIR
 70
     0
  9
$PDMODE
 70
     0
  9
$PDSIZE
 40
0.0
  9
$PLINEWID
 40
0.0
  9
$SPLFRAME
 70
     0
  9
$SPLINETYPE
 70
     6
  9
$SPLINESEGS
 70
     8
  9
$HANDSEED
  5
1CE
  9
$SURFTAB1
 70
     6
  9
$SURFTAB2
 70
     6
  9
$SURFTYPE
 70
     6
  9
$SURFU
 70
     6
  9
$SURFV
 70
     6
  9
$UCSBASE
  2

  9
$UCSNAME
  2

  9
$UCSORG
 10
0.0
 20
0.0
 30
0.0
  9
$UCSXDIR
 10
1.0
 20
0.0
 30
0.0
  9
$UCSYDIR
 10
0.0
 20
1.0
 30
0.0
  9
$UCSORTHOREF
  2

  9
$UCSORTHOVIEW
 70
     1
  9
$UCSORGTOP
 10
0.0
 20
0.0
 30
0.0
  9
$UCSORGBOTTOM
 10
0.0
 20
0.0
 30
0.0
  9
$UCSORGLEFT
 10
0.0
 20
0.0
 30
0.0
  9
$UCSORGRIGHT
 10
0.0
 20
0.0
 30
0.0
  9
$UCSORGFRONT
 10
0.0
 20
0.0
 30
0.0
  9
$UCSORGBACK
 10
0.0
 20
0.0
 30
0.0
  9
$PUCSBASE
  2

  9
$PUCSNAME
  2

  9
$PUCSORG
 10
0.0
 20
0.0
 30
0.0
  9
$PUCSXDIR
 10
1.0
 20
0.0
 30
0.0
  9
$PUCSYDIR
 10
0.0
 20
1.0
 30
0.0
  9
$PUCSORTHOREF
  2

  9
$PUCSORTHOVIEW
 70
     0
  9
$PUCSORGTOP
 10
0.0
 20
0.0
 30
0.0
  9
$PUCSORGBOTTOM
 10
0.0
 20
0.0
 30
0.0
  9
$PUCSORGLEFT
 10
0.0
 20
0.0
 30
0.0
  9
$PUCSORGRIGHT
 10
0.0
 20
0.0
 30
0.0
  9
$PUCSORGFRONT
 10
0.0
 20
0.0
 30
0.0
  9
$PUCSORGBACK
 10
0.0
 20
0.0
 30
0.0
  9
$USERI1
 70
     0
  9
$USERI2
 70
     0
  9
$USERI3
 70
     0
  9
$USERI4
 70
     0
  9
$USERI5
 70
     0
  9
$USERR1
 40
0.0
  9
$USERR2
 40
0.0
  9
$USERR3
 40
0.0
  9
$USERR4
 40
0.0
  9
$USERR5
 40
0.0
  9
$WORLDVIEW
 70
     1
  9
$SHADEDGE
 70
     3
  9
$SHADEDIF
 70
    70
  9
$TILEMODE
 70
     1
  9
$MAXACTVP
 70
    64
  9
$PINSBASE
 10
0.0
 20
0.0
 30
0.0
  9
$PLIMCHECK
 70
     0
  9
$PEXTMIN
 10
1.000000000000000E+20
 20
1.000000000000000E+20
 30
1.000000000000000E+20
  9
$PEXTMAX
 10
-1.000000000000000E+20
 20
-1.000000000000000E+20
 30
-1.000000000000000E+20
  9
$PLIMMIN
 10
0.0
 20
0.0
  9
$PLIMMAX
 10
12.0
 20
9.0
  9
$UNITMODE
 70
     0
  9
$VISRETAIN
 70
     1
  9
$PLINEGEN
 70
     0
  9
$PSLTSCALE
 70
     1
  9
$TREEDEPTH
 70
  3020
  9
$CMLSTYLE
  2
Standard
  9
$CMLJUST
 70
     0
  9
$CMLSCALE
 40
1.0
  9
$PROXYGRAPHICS
 70
     1
  9
$MEASUREMENT
 70
     0
  9
$CELWEIGHT
370
    -1
  9
$ENDCAPS
280
     0
  9
$JOINSTYLE
280
     0
  9
$LWDISPLAY
290
     0
  9
$INSUNITS
 70
     0
  9
$HYPERLINKBASE
  1

  9
$STYLESHEET
  1

  9
$XEDIT
290
     1
  9
$CEPSNTYPE
380
     0
  9
$PSTYLEMODE
290
     1
  9
$FINGERPRINTGUID
  2
{A0BFC91D-5AC4-4BCB-BA0F-D75C018924ED}
  9
$VERSIONGUID
  2
{9488DABE-0709-442A-B5CF-DE3C758C5F52}
  9
$EXTNAMES
290
     1
  9
$PSVPSCALE
 40
0.0
  9
$OLESTARTUP
290
     0
  0
ENDSEC
  0
SECTION
  2
CLASSES
  0
CLASS
  1
ACDBDICTIONARYWDFLT
  2
AcDbDictionaryWithDefault
  3
AutoCAD 2000
 90
        0
280
     0
281
     0
  0
CLASS
  1
ACDBPLACEHOLDER
  2
AcDbPlaceHolder
  3
AutoCAD 2000
 90
        0
280
     0
281
     0
  0
CLASS
  1
LAYOUT
  2
AcDbLayout
  3
AutoCAD 2000
 90
        0
280
     0
281
     0
  0
CLASS
  1
DICTIONARYVAR
  2
AcDbDictionaryVar
  3
AutoCAD 2000
 90
        0
280
     0
281
     0
  0
ENDSEC
  0
SECTION
  2
TABLES
  0
TABLE
  2
VPORT
  5
8
330
0
100
AcDbSymbolTable
 70
     2
  0
VPORT
  5
1CD
330
8
100
AcDbSymbolTableRecord
100
AcDbViewportTableRecord
  2
*Active
 70
     0
 10
0.0
 20
0.0
 11
1.0
 21
1.0
 12
100.0
 22
72.00000000000001
 13
0.0
 23
0.0
 14
1.0
 24
1.0
 15
0.0
 25
0.0
 16
0.0
 26
0.0
 36
1.0
 17
0.0
 27
0.0
 37
0.0
 40
145.0963948849105
 41
2.078104993597951
 42
50.0
 43
0.0
 44
0.0
 50
0.0
 51
0.0
 71
     0
 72
   100
 73
     1
 74
     3
 75
     0
 76
     0
 77
     0
 78
     0
281
     0
 65
     1
110
0.0
120
0.0
130
0.0
111
1.0
121
0.0
131
0.0
112
0.0
122
1.0
132
0.0
 79
     1
146
0.0
  0
ENDTAB
  0
TABLE
  2
LTYPE
  5
5
330
0
100
AcDbSymbolTable
 70
     1
  0
LTYPE
  5
13
330
5
100
AcDbSymbolTableRecord
100
AcDbLinetypeTableRecord
  2
ByBlock
 70
     0
  3

 72
    65
 73
     0
 40
0.0
  0
LTYPE
  5
14
330
5
100
AcDbSymbolTableRecord
100
AcDbLinetypeTableRecord
  2
ByLayer
 70
     0
  3

 72
    65
 73
     0
 40
0.0
  0
LTYPE
  5
15
330
5
100
AcDbSymbolTableRecord
100
AcDbLinetypeTableRecord
  2
Continuous
 70
     0
  3
Solid line
 72
    65
 73
     0
 40
0.0
  0
ENDTAB
  0
TABLE
  2
LAYER
  5
2
330
0
100
AcDbSymbolTable
 70
     1
  0
LAYER
  5
10
330
2
100
AcDbSymbolTableRecord
100
AcDbLayerTableRecord
  2
0
 70
     0
 62
     7
  6
Continuous
370
    -3
390
F
  0
ENDTAB
  0
TABLE
  2
STYLE
  5
3
330
0
100
AcDbSymbolTable
 70
     1
  0
STYLE
  5
11
330
3
100
AcDbSymbolTableRecord
100
AcDbTextStyleTableRecord
  2
Standard
 70
     0
 40
0.0
 41
1.0
 50
0.0
 71
     0
 42
0.2
  3
txt
  4

  0
ENDTAB
  0
TABLE
  2
VIEW
  5
6
330
0
100
AcDbSymbolTable
 70
     0
  0
ENDTAB
  0
TABLE
  2
UCS
  5
7
330
0
100
AcDbSymbolTable
 70
     0
  0
ENDTAB
  0
TABLE
  2
APPID
  5
9
330
0
100
AcDbSymbolTable
 70
     1
  0
APPID
  5
12
330
9
100
AcDbSymbolTableRecord
100
AcDbRegAppTableRecord
  2
ACAD
 70
     0
  0
ENDTAB
  0
TABLE
  2
DIMSTYLE
  5
A
330
0
100
AcDbSymbolTable
 70
     1
100
AcDbDimStyleTable
 71
     0
  0
DIMSTYLE
105
1C7
330
A
100
AcDbSymbolTableRecord
100
AcDbDimStyleTableRecord
  2
Standard
 70
     0
340
11
  0
ENDTAB
  0
TABLE
  2
BLOCK_RECORD
  5
1
330
0
100
AcDbSymbolTable
 70
     0
  0
BLOCK_RECORD
  5
1E
330
1
100
AcDbSymbolTableRecord
100
AcDbBlockTableRecord
  2
*Model_Space
340
21
  0
BLOCK_RECORD
  5
1A
330
1
100
AcDbSymbolTableRecord
100
AcDbBlockTableRecord
  2
*Paper_Space
340
1D
  0
ENDTAB
  0
ENDSEC
  0
SECTION
  2
BLOCKS
  0
BLOCK
  5
1F
330
1E
100
AcDbEntity
  8
0
100
AcDbBlockBegin
  2
*Model_Space
 70
     0
 10
0.0
 20
0.0
 30
0.0
  3
*Model_Space
  1

  0
ENDBLK
  5
20
330
1E
100
AcDbEntity
  8
0
100
AcDbBlockEnd
  0
BLOCK
  5
1B
330
1A
100
AcDbEntity
 67
     1
  8
0
100
AcDbBlockBegin
  2
*Paper_Space
 70
     0
 10
0.0
 20
0.0
 30
0.0
  3
*Paper_Space
  1

  0
ENDBLK
  5
1C
330
1A
100
AcDbEntity
 67
     1
  8
0
100
AcDbBlockEnd
  0
ENDSEC
  0
SECTION
  2
ENTITIES
  0
LINE
  5
22
330
1E
100
AcDbEntity
  8
0
100
AcDbLine
 10
-0.0000000000000016
 20
81.9958
 30
0.0
 11
0.599999999999999
 21
81.9958
 31
0.0
  0
LINE
  5
23
330
1E
100
AcDbEntity
  8
0
100
AcDbLine
 10
-0.0000000000000017
 20
81.9958
 30
0.0
 11
2.0
 21
79.9958
 31
0.0
  0
LINE
  5
24
330
1E
100
AcDbEntity
  8
0
100
AcDbLine
 10
-0.0000000000000016
 20
82.9958
 30
0.0
 11
0.8999999999999989
 21
92.9958
 31
0.0
  0
LINE
  5
25
330
1E
100
AcDbEntity
  8
0
100
AcDbLine
 10
-0.0000000000000016
 20
81.9958
 30
0.0
 11
-0.0000000000000015
 21
82.9958
 31
0.0
  0
LINE
  5
26
330
1E
100
AcDbEntity
  8
0
100
AcDbLine
 10
-0.0000000000000016
 20
81.9958
 30
0.0
 11
0.599999999999999
 21
81.9958
 31
0.0
  0
LINE
  5
27
330
1E
100
AcDbEntity
  8
0
100
AcDbLine
 10
-0.0000000000000016
 20
81.9958
 30
0.0
 11
2.0
 21
79.9958
 31
0.0
  0
LINE
  5
28
330
1E
100
AcDbEntity
  8
0
100
AcDbLine
 10
0.5999999999999979
 20
81.9958
 30
0.0
 11
2.399999999999999
 21
81.9958
 31
0.0
  0
LINE
  5
29
330
1E
100
AcDbEntity
  8
0
100
AcDbLine
 10
0.599999999999999
 20
81.9958
 30
0.0
 11
2.399999999999999
 21
81.9958
 31
0.0
  0
LINE
  5
2A
330
1E
100
AcDbEntity
  8
0
100
AcDbLine
 10
5.9
 20
75.9958
 30
0.0
 11
8.099999999999999
 21
75.9958
 31
0.0
  0
LINE
  5
2B
330
1E
100
AcDbEntity
  8
0
100
AcDbLine
 10
4.5
 20
75.9958
 30
0.0
 11
5.9
 21
75.9958
 31
0.0
  0
LINE
  5
2C
330
1E
100
AcDbEntity
  8
0
100
AcDbLine
 10
5.9
 20
79.9958
 30
0.0
 11
8.099999999999999
 21
79.9958
 31
0.0
  0
LINE
  5
2D
330
1E
100
AcDbEntity
  8
0
100
AcDbLine
 10
4.5
 20
79.9958
 30
0.0
 11
5.9
 21
79.9958
 31
0.0
  0
LINE
  5
2E
330
1E
100
AcDbEntity
  8
0
100
AcDbLine
 10
4.0
 20
79.9958
 30
0.0
 11
4.5
 21
79.9958
 31
0.0
  0
LINE
  5
2F
330
1E
100
AcDbEntity
  8
0
100
AcDbLine
 10
4.0
 20
75.9958
 30
0.0
 11
4.5
 21
75.9958
 31
0.0
  0
LINE
  5
30
330
1E
100
AcDbEntity
  8
0
100
AcDbLine
 10
4.0
 20
75.9958
 30
0.0
 11
4.0
 21
79.9958
 31
0.0
  0
LINE
  5
31
330
1E
100
AcDbEntity
  8
0
100
AcDbLine
 10
11.0
 20
75.9958
 30
0.0
 11
14.4
 21
75.9958
 31
0.0
  0
LINE
  5
32
330
1E
100
AcDbEntity
  8
0
100
AcDbLine
 10
11.0
 20
79.9958
 30
0.0
 11
14.4
 21
79.9958
 31
0.0
  0
LINE
  5
33
330
1E
100
AcDbEntity
  8
0
100
AcDbLine
 10
8.099999999999999
 20
79.9958
 30
0.0
 11
11.0
 21
79.9958
 31
0.0
  0
LINE
  5
34
330
1E
100
AcDbEntity
  8
0
100
AcDbLine
 10
8.099999999999999
 20
75.9958
 30
0.0
 11
11.0
 21
75.9958
 31
0.0
  0
LINE
  5
35
330
1E
100
AcDbEntity
  8
0
100
AcDbLine
 10
18.0
 20
75.9958
 30
0.0
 11
21.6
 21
75.9958
 31
0.0
  0
LINE
  5
36
330
1E
100
AcDbEntity
  8
0
100
AcDbLine
 10
21.6
 20
75.9958
 30
0.0
 11
25.0
 21
75.9958
 31
0.0
  0
LINE
  5
37
330
1E
100
AcDbEntity
  8
0
100
AcDbLine
 10
21.6
 20
79.9958
 30
0.0
 11
25.0
 21
79.9958
 31
0.0
  0
LINE
  5
38
330
1E
100
AcDbEntity
  8
0
100
AcDbLine
 10
14.4
 20
79.9958
 30
0.0
 11
18.0
 21
79.9958
 31
0.0
  0
LINE
  5
39
330
1E
100
AcDbEntity
  8
0
100
AcDbLine
 10
14.4
 20
75.9958
 30
0.0
 11
18.0
 21
75.9958
 31
0.0
  0
LINE
  5
3A
330
1E
100
AcDbEntity
  8
0
100
AcDbLine
 10
25.0
 20
75.9958
 30
0.0
 11
27.9
 21
75.9958
 31
0.0
  0
LINE
  5
3B
330
1E
100
AcDbEntity
  8
0
100
AcDbLine
 10
25.0
 20
79.9958
 30
0.0
 11
27.9
 21
79.9958
 31
0.0
  0
LINE
  5
3C
330
1E
100
AcDbEntity
  8
0
100
AcDbLine
 10
27.9
 20
79.9958
 30
0.0
 11
30.1
 21
79.9958
 31
0.0
  0
LINE
  5
3D
330
1E
100
AcDbEntity
  8
0
100
AcDbLine
 10
27.9
 20
75.9958
 30
0.0
 11
30.1
 21
75.9958
 31
0.0
  0
LINE
  5
3E
330
1E
100
AcDbEntity
  8
0
100
AcDbLine
 10
30.1
 20
79.9958
 30
0.0
 11
31.5
 21
79.9958
 31
0.0
  0
LINE
  5
3F
330
1E
100
AcDbEntity
  8
0
100
AcDbLine
 10
31.5
 20
79.9958
 30
0.0
 11
32.0
 21
79.9958
 31
0.0
  0
LINE
  5
40
330
1E
100
AcDbEntity
  8
0
100
AcDbLine
 10
30.1
 20
75.9958
 30
0.0
 11
31.5
 21
75.9958
 31
0.0
  0
LINE
  5
41
330
1E
100
AcDbEntity
  8
0
100
AcDbLine
 10
32.0
 20
75.9958
 30
0.0
 11
32.0
 21
79.9958
 31
0.0
  0
LINE
  5
42
330
1E
100
AcDbEntity
  8
0
100
AcDbLine
 10
31.5
 20
75.9958
 30
0.0
 11
32.0
 21
75.9958
 31
0.0
  0
LINE
  5
43
330
1E
100
AcDbEntity
  8
0
100
AcDbLine
 10
31.89999999999999
 20
79.9958
 30
0.0
 11
33.39999999999999
 21
79.9958
 31
0.0
  0
LINE
  5
44
330
1E
100
AcDbEntity
  8
0
100
AcDbLine
 10
29.3
 20
79.9958
 30
0.0
 11
31.89999999999999
 21
79.9958
 31
0.0
  0
LINE
  5
45
330
1E
100
AcDbEntity
  8
0
100
AcDbLine
 10
26.0
 20
79.9958
 30
0.0
 11
29.3
 21
79.9958
 31
0.0
  0
LINE
  5
46
330
1E
100
AcDbEntity
  8
0
100
AcDbLine
 10
22.1
 20
79.9958
 30
0.0
 11
26.0
 21
79.9958
 31
0.0
  0
LINE
  5
47
330
1E
100
AcDbEntity
  8
0
100
AcDbLine
 10
18.0
 20
79.9958
 30
0.0
 11
22.1
 21
79.9958
 31
0.0
  0
LINE
  5
48
330
1E
100
AcDbEntity
  8
0
100
AcDbLine
 10
18.0
 20
79.9958
 30
0.0
 11
21.6
 21
79.9958
 31
0.0
  0
LINE
  5
49
330
1E
100
AcDbEntity
  8
0
100
AcDbLine
 10
13.9
 20
79.9958
 30
0.0
 11
18.0
 21
79.9958
 31
0.0
  0
LINE
  5
4A
330
1E
100
AcDbEntity
  8
0
100
AcDbLine
 10
10.0
 20
79.9958
 30
0.0
 11
13.9
 21
79.9958
 31
0.0
  0
LINE
  5
4B
330
1E
100
AcDbEntity
  8
0
100
AcDbLine
 10
6.7
 20
79.9958
 30
0.0
 11
10.0
 21
79.9958
 31
0.0
  0
LINE
  5
4C
330
1E
100
AcDbEntity
  8
0
100
AcDbLine
 10
4.099999999999999
 20
79.9958
 30
0.0
 11
6.7
 21
79.9958
 31
0.0
  0
LINE
  5
4D
330
1E
100
AcDbEntity
  8
0
100
AcDbLine
 10
34.0
 20
79.9958
 30
0.0
 11
36.0
 21
81.9958
 31
0.0
  0
LINE
  5
4E
330
1E
100
AcDbEntity
  8
0
100
AcDbLine
 10
33.39999999999999
 20
79.9958
 30
0.0
 11
34.0
 21
79.9958
 31
0.0
  0
LINE
  5
4F
330
1E
100
AcDbEntity
  8
0
100
AcDbLine
 10
32.0
 20
79.9958
 30
0.0
 11
33.39999999999999
 21
79.9958
 31
0.0
  0
LINE
  5
50
330
1E
100
AcDbEntity
  8
0
100
AcDbLine
 10
32.0
 20
79.9958
 30
0.0
 11
32.0
 21
75.9958
 31
0.0
  0
LINE
  5
51
330
1E
100
AcDbEntity
  8
0
100
AcDbLine
 10
35.4
 20
81.9958
 30
0.0
 11
36.0
 21
81.9958
 31
0.0
  0
LINE
  5
52
330
1E
100
AcDbEntity
  8
0
100
AcDbLine
 10
36.0
 20
81.9958
 30
0.0
 11
36.0
 21
82.9958
 31
0.0
  0
LINE
  5
53
330
1E
100
AcDbEntity
  8
0
100
AcDbLine
 10
33.6
 20
81.9958
 30
0.0
 11
35.4
 21
81.9958
 31
0.0
  0
LINE
  5
54
330
1E
100
AcDbEntity
  8
0
100
AcDbLine
 10
30.7
 20
81.9958
 30
0.0
 11
33.6
 21
81.9958
 31
0.0
  0
LINE
  5
55
330
1E
100
AcDbEntity
  8
0
100
AcDbLine
 10
27.0
 20
81.9958
 30
0.0
 11
30.7
 21
81.9958
 31
0.0
  0
LINE
  5
56
330
1E
100
AcDbEntity
  8
0
100
AcDbLine
 10
22.6
 20
81.9958
 30
0.0
 11
27.0
 21
81.9958
 31
0.0
  0
LINE
  5
57
330
1E
100
AcDbEntity
  8
0
100
AcDbLine
 10
18.0
 20
81.9958
 30
0.0
 11
22.6
 21
81.9958
 31
0.0
  0
LINE
  5
58
330
1E
100
AcDbEntity
  8
0
100
AcDbLine
 10
13.4
 20
81.9958
 30
0.0
 11
18.0
 21
81.9958
 31
0.0
  0
LINE
  5
59
330
1E
100
AcDbEntity
  8
0
100
AcDbLine
 10
9.0
 20
81.9958
 30
0.0
 11
13.4
 21
81.9958
 31
0.0
  0
LINE
  5
5A
330
1E
100
AcDbEntity
  8
0
100
AcDbLine
 10
5.299999999999999
 20
81.9958
 30
0.0
 11
9.0
 21
81.9958
 31
0.0
  0
LINE
  5
5B
330
1E
100
AcDbEntity
  8
0
100
AcDbLine
 10
2.399999999999999
 20
81.9958
 30
0.0
 11
5.299999999999999
 21
81.9958
 31
0.0
  0
LINE
  5
5C
330
1E
100
AcDbEntity
  8
0
100
AcDbLine
 10
2.6
 20
79.9958
 30
0.0
 11
4.0
 21
79.9958
 31
0.0
  0
LINE
  5
5D
330
1E
100
AcDbEntity
  8
0
100
AcDbLine
 10
2.6
 20
79.9958
 30
0.0
 11
4.099999999999999
 21
79.9958
 31
0.0
  0
LINE
  5
5E
330
1E
100
AcDbEntity
  8
0
100
AcDbLine
 10
2.0
 20
79.9958
 30
0.0
 11
2.6
 21
79.9958
 31
0.0
  0
LINE
  5
5F
330
1E
100
AcDbEntity
  8
0
100
AcDbLine
 10
36.0
 20
82.9958
 30
0.0
 11
36.0
 21
81.9958
 31
0.0
  0
LINE
  5
60
330
1E
100
AcDbEntity
  8
0
100
AcDbLine
 10
36.0
 20
82.9958
 30
0.0
 11
36.0
 21
83.59579999999999
 31
0.0
  0
LINE
  5
61
330
1E
100
AcDbEntity
  8
0
100
AcDbLine
 10
-0.0000000000000015
 20
82.9958
 30
0.0
 11
0.8999999999999989
 21
92.9958
 31
0.0
  0
LINE
  5
62
330
1E
100
AcDbEntity
  8
0
100
AcDbLine
 10
36.0
 20
83.59579999999999
 30
0.0
 11
36.29999999999999
 21
84.5958
 31
0.0
  0
LINE
  5
63
330
1E
100
AcDbEntity
  8
0
100
AcDbLine
 10
36.0
 20
83.59579999999999
 30
0.0
 11
36.0
 21
82.9958
 31
0.0
  0
LINE
  5
64
330
1E
100
AcDbEntity
  8
0
100
AcDbLine
 10
36.29999999999999
 20
84.5958
 30
0.0
 11
37.1
 21
85.5958
 31
0.0
  0
LINE
  5
65
330
1E
100
AcDbEntity
  8
0
100
AcDbLine
 10
37.1
 20
85.5958
 30
0.0
 11
37.7
 21
86.1958
 31
0.0
  0
LINE
  5
66
330
1E
100
AcDbEntity
  8
0
100
AcDbLine
 10
37.7
 20
86.1958
 30
0.0
 11
38.6
 21
86.69580000000001
 31
0.0
  0
LINE
  5
67
330
1E
100
AcDbEntity
  8
0
100
AcDbLine
 10
38.6
 20
86.69580000000001
 30
0.0
 11
40.0
 21
86.89579999999999
 31
0.0
  0
LINE
  5
68
330
1E
100
AcDbEntity
  8
0
100
AcDbLine
 10
108.511
 20
60.0042
 30
0.0
 11
108.911
 21
60.0042
 31
0.0
  0
LINE
  5
69
330
1E
100
AcDbEntity
  8
0
100
AcDbLine
 10
111.511
 20
60.0042
 30
0.0
 11
111.511
 21
4.26600000000003
 31
0.0
  0
LINE
  5
6A
330
1E
100
AcDbEntity
  8
0
100
AcDbLine
 10
111.511
 20
60.0042
 30
0.0
 11
111.811
 21
60.0042
 31
0.0
  0
LINE
  5
6B
330
1E
100
AcDbEntity
  8
0
100
AcDbLine
 10
111.811
 20
5.615400000000029
 30
0.0
 11
112.511
 21
6.81480000000003
 31
0.0
  0
LINE
  5
6C
330
1E
100
AcDbEntity
  8
0
100
AcDbLine
 10
111.611
 20
60.0042
 30
0.0
 11
113.811
 21
60.0042
 31
0.0
  0
LINE
  5
6D
330
1E
100
AcDbEntity
  8
0
100
AcDbLine
 10
111.811
 20
60.0042
 30
0.0
 11
112.511
 21
60.0042
 31
0.0
  0
LINE
  5
6E
330
1E
100
AcDbEntity
  8
0
100
AcDbLine
 10
112.511
 20
60.0042
 30
0.0
 11
113.711
 21
60.0042
 31
0.0
  0
LINE
  5
6F
330
1E
100
AcDbEntity
  8
0
100
AcDbLine
 10
112.511
 20
6.81480000000003
 30
0.0
 11
113.711
 21
8.014200000000009
 31
0.0
  0
LINE
  5
70
330
1E
100
AcDbEntity
  8
0
100
AcDbLine
 10
111.511
 20
4.26600000000003
 30
0.0
 11
111.811
 21
2.279400000000019
 31
0.0
  0
LINE
  5
71
330
1E
100
AcDbEntity
  8
0
100
AcDbLine
 10
111.511
 20
4.26600000000003
 30
0.0
 11
111.511
 21
60.0042
 31
0.0
  0
LINE
  5
72
330
1E
100
AcDbEntity
  8
0
100
AcDbLine
 10
111.511
 20
4.26600000000003
 30
0.0
 11
111.811
 21
5.615400000000029
 31
0.0
  0
LINE
  5
73
330
1E
100
AcDbEntity
  8
0
100
AcDbLine
 10
111.811
 20
2.279400000000019
 30
0.0
 11
112.511
 21
1.15500000000002
 31
0.0
  0
LINE
  5
74
330
1E
100
AcDbEntity
  8
0
100
AcDbLine
 10
113.811
 20
60.0042
 30
0.0
 11
116.311
 21
60.0042
 31
0.0
  0
LINE
  5
75
330
1E
100
AcDbEntity
  8
0
100
AcDbLine
 10
113.711
 20
8.014200000000009
 30
0.0
 11
115.311
 21
9.063800000000018
 31
0.0
  0
LINE
  5
76
330
1E
100
AcDbEntity
  8
0
100
AcDbLine
 10
113.711
 20
60.0042
 30
0.0
 11
115.311
 21
60.0042
 31
0.0
  0
LINE
  5
77
330
1E
100
AcDbEntity
  8
0
100
AcDbLine
 10
115.311
 20
9.063800000000018
 30
0.0
 11
117.111
 21
9.775900000000008
 31
0.0
  0
LINE
  5
78
330
1E
100
AcDbEntity
  8
0
100
AcDbLine
 10
115.311
 20
60.0042
 30
0.0
 11
117.111
 21
60.0042
 31
0.0
  0
LINE
  5
79
330
1E
100
AcDbEntity
  8
0
100
AcDbLine
 10
112.511
 20
1.15500000000002
 30
0.0
 11
113.711
 21
0.480300000000024
 31
0.0
  0
LINE
  5
7A
330
1E
100
AcDbEntity
  8
0
100
AcDbLine
 10
113.711
 20
0.4803000000000229
 30
0.0
 11
115.311
 21
0.105400000000027
 31
0.0
  0
LINE
  5
7B
330
1E
100
AcDbEntity
  8
0
100
AcDbLine
 10
116.311
 20
60.0042
 30
0.0
 11
119.011
 21
60.0042
 31
0.0
  0
LINE
  5
7C
330
1E
100
AcDbEntity
  8
0
100
AcDbLine
 10
117.111
 20
9.775900000000008
 30
0.0
 11
119.011
 21
10.0042
 31
0.0
  0
LINE
  5
7D
330
1E
100
AcDbEntity
  8
0
100
AcDbLine
 10
117.111
 20
60.0042
 30
0.0
 11
119.011
 21
60.0042
 31
0.0
  0
LINE
  5
7E
330
1E
100
AcDbEntity
  8
0
100
AcDbLine
 10
115.311
 20
0.105400000000027
 30
0.0
 11
117.111
 21
0.0305000000000271
 31
0.0
  0
LINE
  5
7F
330
1E
100
AcDbEntity
  8
0
100
AcDbLine
 10
117.111
 20
0.0305000000000271
 30
0.0
 11
119.011
 21
0.0042000000000066
 31
0.0
  0
LINE
  5
80
330
1E
100
AcDbEntity
  8
0
100
AcDbLine
 10
108.911
 20
60.0042
 30
0.0
 11
109.911
 21
60.0042
 31
0.0
  0
LINE
  5
81
330
1E
100
AcDbEntity
  8
0
100
AcDbLine
 10
107.6083960496329
 20
87.08231851101549
 30
0.0
 11
108.511
 21
60.0042
 31
0.0
  0
LINE
  5
82
330
1E
100
AcDbEntity
  8
0
100
AcDbLine
 10
109.911
 20
60.0042
 30
0.0
 11
111.511
 21
60.0042
 31
0.0
  0
LINE
  5
83
330
1E
100
AcDbEntity
  8
0
100
AcDbLine
 10
109.911
 20
60.0042
 30
0.0
 11
111.611
 21
60.0042
 31
0.0
  0
LINE
  5
84
330
1E
100
AcDbEntity
  8
0
100
AcDbLine
 10
40.0
 20
86.89579999999999
 30
0.0
 11
107.6117605164339
 21
86.9813845069828
 31
0.0
  0
LINE
  5
85
330
1E
100
AcDbEntity
  8
0
100
AcDbLine
 10
0.8999999999999989
 20
92.9958
 30
0.0
 11
4.099999999999999
 21
103.0958
 31
0.0
  0
LINE
  5
86
330
1E
100
AcDbEntity
  8
0
100
AcDbLine
 10
0.8999999999999989
 20
92.9958
 30
0.0
 11
4.099999999999999
 21
103.0958
 31
0.0
  0
LINE
  5
87
330
1E
100
AcDbEntity
  8
0
100
AcDbLine
 10
4.099999999999999
 20
103.0958
 30
0.0
 11
9.4
 21
113.2958
 31
0.0
  0
LINE
  5
88
330
1E
100
AcDbEntity
  8
0
100
AcDbLine
 10
98.756
 20
102.6197999999999
 30
0.0
 11
100.772
 21
97.57980000000001
 31
0.0
  0
LINE
  5
89
330
1E
100
AcDbEntity
  8
0
100
AcDbLine
 10
98.504
 20
107.9957999999999
 30
0.0
 11
99.26000000000001
 21
113.2878
 31
0.0
  0
LINE
  5
8A
330
1E
100
AcDbEntity
  8
0
100
AcDbLine
 10
98.504
 20
107.9957999999999
 30
0.0
 11
99.26000000000001
 21
102.7038
 31
0.0
  0
LINE
  5
8B
330
1E
100
AcDbEntity
  8
0
100
AcDbLine
 10
9.4
 20
113.2958
 30
0.0
 11
17.7
 21
120.8957999999999
 31
0.0
  0
LINE
  5
8C
330
1E
100
AcDbEntity
  8
0
100
AcDbLine
 10
98.0
 20
107.9957999999999
 30
0.0
 11
98.756
 21
113.3718
 31
0.0
  0
LINE
  5
8D
330
1E
100
AcDbEntity
  8
0
100
AcDbLine
 10
98.0
 20
107.9957999999999
 30
0.0
 11
98.756
 21
102.6197999999999
 31
0.0
  0
LINE
  5
8E
330
1E
100
AcDbEntity
  8
0
100
AcDbLine
 10
99.26000000000001
 20
102.7038
 30
0.0
 11
101.276
 21
97.83180000000001
 31
0.0
  0
LINE
  5
92
330
1E
100
AcDbEntity
  8
0
100
AcDbLine
 10
101.276
 20
97.83180000000001
 30
0.0
 11
104.552
 21
93.54779999999999
 31
0.0
  0
LINE
  5
93
330
1E
100
AcDbEntity
  8
0
100
AcDbLine
 10
100.772
 20
97.57980000000001
 30
0.0
 11
104.132
 21
93.1278
 31
0.0
  0
LINE
  5
94
330
1E
100
AcDbEntity
  8
0
100
AcDbLine
 10
104.132
 20
93.1278
 30
0.0
 11
108.584
 21
89.76779999999999
 31
0.0
  0
LINE
  5
95
330
1E
100
AcDbEntity
  8
0
100
AcDbLine
 10
99.26000000000001
 20
113.2878
 30
0.0
 11
101.276
 21
118.1598
 31
0.0
  0
LINE
  5
96
330
1E
100
AcDbEntity
  8
0
100
AcDbLine
 10
101.276
 20
118.1598
 30
0.0
 11
104.552
 21
122.4437999999999
 31
0.0
  0
LINE
  5
97
330
1E
100
AcDbEntity
  8
0
100
AcDbLine
 10
98.756
 20
113.3718
 30
0.0
 11
100.772
 21
118.4117999999999
 31
0.0
  0
LINE
  5
99
330
1E
100
AcDbEntity
  8
0
100
AcDbLine
 10
17.7
 20
120.8957999999999
 30
0.0
 11
27.9
 21
126.6958
 31
0.0
  0
LINE
  5
9A
330
1E
100
AcDbEntity
  8
0
100
AcDbLine
 10
100.772
 20
118.4117999999999
 30
0.0
 11
104.132
 21
122.8637999999999
 31
0.0
  0
LINE
  5
9B
330
1E
100
AcDbEntity
  8
0
100
AcDbLine
 10
104.552
 20
93.54779999999999
 30
0.0
 11
108.8359999999999
 21
90.27179999999999
 31
0.0
  0
LINE
  5
A0
330
1E
100
AcDbEntity
  8
0
100
AcDbLine
 10
108.8359999999999
 20
90.27179999999999
 30
0.0
 11
113.708
 21
88.2558
 31
0.0
  0
LINE
  5
A1
330
1E
100
AcDbEntity
  8
0
100
AcDbLine
 10
108.584
 20
89.76779999999999
 30
0.0
 11
113.6239999999999
 21
87.7518
 31
0.0
  0
LINE
  5
A2
330
1E
100
AcDbEntity
  8
0
100
AcDbLine
 10
113.6239999999999
 20
87.7518
 30
0.0
 11
119.0
 21
86.9958
 31
0.0
  0
LINE
  5
A3
330
1E
100
AcDbEntity
  8
0
100
AcDbLine
 10
104.552
 20
122.4437999999999
 30
0.0
 11
108.8359999999999
 21
125.7198
 31
0.0
  0
LINE
  5
A5
330
1E
100
AcDbEntity
  8
0
100
AcDbLine
 10
108.8359999999999
 20
125.7198
 30
0.0
 11
113.708
 21
127.7357999999999
 31
0.0
  0
LINE
  5
A6
330
1E
100
AcDbEntity
  8
0
100
AcDbLine
 10
104.132
 20
122.8637999999999
 30
0.0
 11
108.584
 21
126.2237999999999
 31
0.0
  0
LINE
  5
A7
330
1E
100
AcDbEntity
  8
0
100
AcDbLine
 10
27.9
 20
126.6958
 30
0.0
 11
40.0
 21
128.9958
 31
0.0
  0
LINE
  5
A8
330
1E
100
AcDbEntity
  8
0
100
AcDbLine
 10
108.584
 20
126.2237999999999
 30
0.0
 11
113.6239999999999
 21
128.2398
 31
0.0
  0
LINE
  5
A9
330
1E
100
AcDbEntity
  8
0
100
AcDbLine
 10
113.708
 20
88.2558
 30
0.0
 11
119.0
 21
87.49979999999998
 31
0.0
  0
LINE
  5
AA
330
1E
100
AcDbEntity
  8
0
100
AcDbLine
 10
115.0
 20
128.4332999999999
 30
0.0
 11
115.0
 21
132.6197999999999
 31
0.0
  0
LINE
  5
AB
330
1E
100
AcDbEntity
  8
0
100
AcDbLine
 10
113.708
 20
127.7357999999999
 30
0.0
 11
119.0
 21
128.4918
 31
0.0
  0
LINE
  5
AC
330
1E
100
AcDbEntity
  8
0
100
AcDbLine
 10
113.6239999999999
 20
128.2398
 30
0.0
 11
119.0
 21
128.9958
 31
0.0
  0
LINE
  5
AD
330
1E
100
AcDbEntity
  8
0
100
AcDbLine
 10
113.6239999999999
 20
128.2398
 30
0.0
 11
115.0
 21
128.4332999999999
 31
0.0
  0
LINE
  5
AE
330
1E
100
AcDbEntity
  8
0
100
AcDbLine
 10
40.0
 20
128.9958
 30
0.0
 11
115.0
 21
128.9958
 31
0.0
  0
LINE
  5
AF
330
1E
100
AcDbEntity
  8
0
100
AcDbLine
 10
112.795238095238
 20
128.9958
 30
0.0
 11
113.3
 21
129.1957999999999
 31
0.0
  0
LINE
  5
B0
330
1E
100
AcDbEntity
  8
0
100
AcDbLine
 10
111.8
 20
129.9957999999999
 30
0.0
 11
111.9333333333329
 21
128.9958
 31
0.0
  0
LINE
  5
B1
330
1E
100
AcDbEntity
  8
0
100
AcDbLine
 10
111.4999999999999
 20
133.9957999999999
 30
0.0
 11
112.0
 21
137.4958
 31
0.0
  0
LINE
  5
B2
330
1E
100
AcDbEntity
  8
0
100
AcDbLine
 10
111.4999999999999
 20
133.9957999999999
 30
0.0
 11
111.8
 21
129.9957999999999
 31
0.0
  0
LINE
  5
B3
330
1E
100
AcDbEntity
  8
0
100
AcDbLine
 10
112.0
 20
137.4958
 30
0.0
 11
113.0
 21
139.9958
 31
0.0
  0
LINE
  5
B4
330
1E
100
AcDbEntity
  8
0
100
AcDbLine
 10
115.144
 20
132.6197999999999
 30
0.0
 11
115.5279999999999
 21
132.6197999999999
 31
0.0
  0
LINE
  5
B5
330
1E
100
AcDbEntity
  8
0
100
AcDbLine
 10
115.5279999999999
 20
132.6197999999999
 30
0.0
 11
116.168
 21
132.6197999999999
 31
0.0
  0
LINE
  5
B6
330
1E
100
AcDbEntity
  8
0
100
AcDbLine
 10
115.0959999999999
 20
132.715
 30
0.0
 11
115.2399999999999
 21
132.715
 31
0.0
  0
LINE
  5
B7
330
1E
100
AcDbEntity
  8
0
100
AcDbLine
 10
115.2399999999999
 20
132.715
 30
0.0
 11
115.6239999999999
 21
132.715
 31
0.0
  0
LINE
  5
B8
330
1E
100
AcDbEntity
  8
0
100
AcDbLine
 10
115.6239999999999
 20
132.715
 30
0.0
 11
116.2479999999999
 21
132.715
 31
0.0
  0
LINE
  5
B9
330
1E
100
AcDbEntity
  8
0
100
AcDbLine
 10
116.2479999999999
 20
132.715
 30
0.0
 11
117.0639999999999
 21
132.715
 31
0.0
  0
LINE
  5
BA
330
1E
100
AcDbEntity
  8
0
100
AcDbLine
 10
116.168
 20
132.6197999999999
 30
0.0
 11
117.016
 21
132.6197999999999
 31
0.0
  0
LINE
  5
BB
330
1E
100
AcDbEntity
  8
0
100
AcDbLine
 10
115.0
 20
132.6197999999999
 30
0.0
 11
115.0959999999999
 21
132.715
 31
0.0
  0
LINE
  5
BC
330
1E
100
AcDbEntity
  8
0
100
AcDbLine
 10
115.0
 20
132.6197999999999
 30
0.0
 11
115.0
 21
128.4332999999999
 31
0.0
  0
LINE
  5
BD
330
1E
100
AcDbEntity
  8
0
100
AcDbLine
 10
115.0
 20
132.6197999999999
 30
0.0
 11
115.144
 21
132.6197999999999
 31
0.0
  0
LINE
  5
BE
330
1E
100
AcDbEntity
  8
0
100
AcDbLine
 10
113.3
 20
129.1957999999999
 30
0.0
 11
115.0
 21
129.434396491228
 31
0.0
  0
LINE
  5
BF
330
1E
100
AcDbEntity
  8
0
100
AcDbLine
 10
113.0
 20
139.9958
 30
0.0
 11
114.5
 21
141.9958
 31
0.0
  0
LINE
  5
C0
330
1E
100
AcDbEntity
  8
0
100
AcDbLine
 10
114.5
 20
141.9958
 30
0.0
 11
116.5
 21
143.4957999999999
 31
0.0
  0
LINE
  5
C1
330
1E
100
AcDbEntity
  8
0
100
AcDbLine
 10
117.0639999999999
 20
132.715
 30
0.0
 11
117.992
 21
132.715
 31
0.0
  0
LINE
  5
C2
330
1E
100
AcDbEntity
  8
0
100
AcDbLine
 10
117.016
 20
132.6197999999999
 30
0.0
 11
117.9759999999999
 21
132.6197999999999
 31
0.0
  0
LINE
  5
C3
330
1E
100
AcDbEntity
  8
0
100
AcDbLine
 10
117.992
 20
132.715
 30
0.0
 11
119.0
 21
132.715
 31
0.0
  0
LINE
  5
C4
330
1E
100
AcDbEntity
  8
0
100
AcDbLine
 10
117.9759999999999
 20
132.6197999999999
 30
0.0
 11
119.0
 21
132.6197999999999
 31
0.0
  0
LINE
  5
C5
330
1E
100
AcDbEntity
  8
0
100
AcDbLine
 10
119.0
 20
132.715
 30
0.0
 11
120.008
 21
132.715
 31
0.0
  0
LINE
  5
C6
330
1E
100
AcDbEntity
  8
0
100
AcDbLine
 10
119.0
 20
132.6197999999999
 30
0.0
 11
120.0239999999999
 21
132.6197999999999
 31
0.0
  0
LINE
  5
C7
330
1E
100
AcDbEntity
  8
0
100
AcDbLine
 10
119.0
 20
143.9958
 30
0.0
 11
121.5
 21
143.4957999999999
 31
0.0
  0
LINE
  5
C8
330
1E
100
AcDbEntity
  8
0
100
AcDbLine
 10
116.5
 20
143.4957999999999
 30
0.0
 11
119.0
 21
143.9958
 31
0.0
  0
LINE
  5
C9
330
1E
100
AcDbEntity
  8
0
100
AcDbLine
 10
119.0
 20
128.4918
 30
0.0
 11
124.292
 21
127.7357999999999
 31
0.0
  0
LINE
  5
CA
330
1E
100
AcDbEntity
  8
0
100
AcDbLine
 10
119.0
 20
128.9958
 30
0.0
 11
124.3759999999999
 21
128.2398
 31
0.0
  0
LINE
  5
CB
330
1E
100
AcDbEntity
  8
0
100
AcDbLine
 10
119.0
 20
87.49979999999998
 30
0.0
 11
124.292
 21
88.2558
 31
0.0
  0
LINE
  5
CC
330
1E
100
AcDbEntity
  8
0
100
AcDbLine
 10
120.911
 20
0.0305000000000269
 30
0.0
 11
122.7109999999999
 21
0.105400000000026
 31
0.0
  0
LINE
  5
CD
330
1E
100
AcDbEntity
  8
0
100
AcDbLine
 10
119.011
 20
0.0042000000000066
 30
0.0
 11
120.911
 21
0.0305000000000269
 31
0.0
  0
LINE
  5
CE
330
1E
100
AcDbEntity
  8
0
100
AcDbLine
 10
120.911
 20
9.775900000000008
 30
0.0
 11
122.7109999999999
 21
9.063800000000018
 31
0.0
  0
LINE
  5
CF
330
1E
100
AcDbEntity
  8
0
100
AcDbLine
 10
120.911
 20
60.0042
 30
0.0
 11
122.7109999999999
 21
60.0042
 31
0.0
  0
LINE
  5
D0
330
1E
100
AcDbEntity
  8
0
100
AcDbLine
 10
119.011
 20
10.0042
 30
0.0
 11
120.911
 21
9.775900000000008
 31
0.0
  0
LINE
  5
D1
330
1E
100
AcDbEntity
  8
0
100
AcDbLine
 10
122.7109999999999
 20
0.105400000000026
 30
0.0
 11
124.311
 21
0.4803000000000229
 31
0.0
  0
LINE
  5
D2
330
1E
100
AcDbEntity
  8
0
100
AcDbLine
 10
125.511
 20
1.15500000000002
 30
0.0
 11
126.211
 21
2.279400000000019
 31
0.0
  0
LINE
  5
D3
330
1E
100
AcDbEntity
  8
0
100
AcDbLine
 10
124.311
 20
0.4803000000000229
 30
0.0
 11
125.511
 21
1.15500000000002
 31
0.0
  0
LINE
  5
D4
330
1E
100
AcDbEntity
  8
0
100
AcDbLine
 10
126.211
 20
2.279400000000019
 30
0.0
 11
126.511
 21
4.26600000000003
 31
0.0
  0
LINE
  5
D5
330
1E
100
AcDbEntity
  8
0
100
AcDbLine
 10
126.211
 20
5.615400000000029
 30
0.0
 11
126.511
 21
4.26600000000003
 31
0.0
  0
LINE
  5
D6
330
1E
100
AcDbEntity
  8
0
100
AcDbLine
 10
125.511
 20
6.81480000000003
 30
0.0
 11
126.211
 21
5.615400000000029
 31
0.0
  0
LINE
  5
D7
330
1E
100
AcDbEntity
  8
0
100
AcDbLine
 10
126.211
 20
60.0042
 30
0.0
 11
126.511
 21
60.0042
 31
0.0
  0
LINE
  5
D8
330
1E
100
AcDbEntity
  8
0
100
AcDbLine
 10
125.511
 20
60.0042
 30
0.0
 11
126.211
 21
60.0042
 31
0.0
  0
LINE
  5
D9
330
1E
100
AcDbEntity
  8
0
100
AcDbLine
 10
124.311
 20
60.0042
 30
0.0
 11
125.511
 21
60.0042
 31
0.0
  0
LINE
  5
DA
330
1E
100
AcDbEntity
  8
0
100
AcDbLine
 10
124.311
 20
8.014200000000009
 30
0.0
 11
125.511
 21
6.81480000000003
 31
0.0
  0
LINE
  5
DB
330
1E
100
AcDbEntity
  8
0
100
AcDbLine
 10
122.7109999999999
 20
9.063800000000018
 30
0.0
 11
124.311
 21
8.014200000000009
 31
0.0
  0
LINE
  5
DC
330
1E
100
AcDbEntity
  8
0
100
AcDbLine
 10
122.7109999999999
 20
60.0042
 30
0.0
 11
124.311
 21
60.0042
 31
0.0
  0
LINE
  5
DD
330
1E
100
AcDbEntity
  8
0
100
AcDbLine
 10
126.511
 20
4.26600000000003
 30
0.0
 11
126.511
 21
60.0042
 31
0.0
  0
LINE
  5
DE
330
1E
100
AcDbEntity
  8
0
100
AcDbLine
 10
126.511
 20
4.26600000000003
 30
0.0
 11
126.511
 21
60.0042
 31
0.0
  0
LINE
  5
DF
330
1E
100
AcDbEntity
  8
0
100
AcDbLine
 10
126.411
 20
60.0042
 30
0.0
 11
128.1109999999999
 21
60.0042
 31
0.0
  0
LINE
  5
E0
330
1E
100
AcDbEntity
  8
0
100
AcDbLine
 10
124.211
 20
60.0042
 30
0.0
 11
126.411
 21
60.0042
 31
0.0
  0
LINE
  5
E1
330
1E
100
AcDbEntity
  8
0
100
AcDbLine
 10
121.7109999999999
 20
60.0042
 30
0.0
 11
124.211
 21
60.0042
 31
0.0
  0
LINE
  5
E2
330
1E
100
AcDbEntity
  8
0
100
AcDbLine
 10
119.011
 20
60.0042
 30
0.0
 11
121.7109999999999
 21
60.0042
 31
0.0
  0
LINE
  5
E3
330
1E
100
AcDbEntity
  8
0
100
AcDbLine
 10
119.011
 20
60.0042
 30
0.0
 11
120.911
 21
60.0042
 31
0.0
  0
LINE
  5
E4
330
1E
100
AcDbEntity
  8
0
100
AcDbLine
 10
129.5109999999999
 20
60.0042
 30
0.0
 11
130.5109999999999
 21
90.0042
 31
0.0
  0
LINE
  5
E5
330
1E
100
AcDbEntity
  8
0
100
AcDbLine
 10
129.1109999999999
 20
60.0042
 30
0.0
 11
129.5109999999999
 21
60.0042
 31
0.0
  0
LINE
  5
E6
330
1E
100
AcDbEntity
  8
0
100
AcDbLine
 10
128.1109999999999
 20
60.0042
 30
0.0
 11
129.1109999999999
 21
60.0042
 31
0.0
  0
LINE
  5
E7
330
1E
100
AcDbEntity
  8
0
100
AcDbLine
 10
126.511
 20
60.0042
 30
0.0
 11
128.1109999999999
 21
60.0042
 31
0.0
  0
LINE
  5
E8
330
1E
100
AcDbEntity
  8
0
100
AcDbLine
 10
174.0
 20
75.9958
 30
0.0
 11
176.0
 21
73.9958
 31
0.0
  0
LINE
  5
E9
330
1E
100
AcDbEntity
  8
0
100
AcDbLine
 10
174.0
 20
75.9958
 30
0.0
 11
174.0
 21
77.1958
 31
0.0
  0
LINE
  5
EA
330
1E
100
AcDbEntity
  8
0
100
AcDbLine
 10
174.0
 20
77.1958
 30
0.0
 11
174.0
 21
80.29580000000001
 31
0.0
  0
LINE
  5
EB
330
1E
100
AcDbEntity
  8
0
100
AcDbLine
 10
174.0
 20
77.1958
 30
0.0
 11
174.0
 21
75.9958
 31
0.0
  0
LINE
  5
EC
330
1E
100
AcDbEntity
  8
0
100
AcDbLine
 10
176.0
 20
75.19580000000001
 30
0.0
 11
176.0
 21
78.5958
 31
0.0
  0
LINE
  5
ED
330
1E
100
AcDbEntity
  8
0
100
AcDbLine
 10
176.0
 20
75.19580000000001
 30
0.0
 11
176.0
 21
73.9958
 31
0.0
  0
LINE
  5
EE
330
1E
100
AcDbEntity
  8
0
100
AcDbLine
 10
176.0
 20
78.5958
 30
0.0
 11
176.0
 21
83.9958
 31
0.0
  0
LINE
  5
EF
330
1E
100
AcDbEntity
  8
0
100
AcDbLine
 10
176.0
 20
78.5958
 30
0.0
 11
176.0
 21
75.19580000000001
 31
0.0
  0
LINE
  5
F0
330
1E
100
AcDbEntity
  8
0
100
AcDbLine
 10
176.0
 20
83.9958
 30
0.0
 11
176.0
 21
91.09579999999999
 31
0.0
  0
LINE
  5
F1
330
1E
100
AcDbEntity
  8
0
100
AcDbLine
 10
176.0
 20
83.9958
 30
0.0
 11
176.0
 21
78.5958
 31
0.0
  0
LINE
  5
F2
330
1E
100
AcDbEntity
  8
0
100
AcDbLine
 10
174.0
 20
80.29580000000001
 30
0.0
 11
174.0
 21
85.39579999999999
 31
0.0
  0
LINE
  5
F3
330
1E
100
AcDbEntity
  8
0
100
AcDbLine
 10
174.0
 20
80.29580000000001
 30
0.0
 11
174.0
 21
77.1958
 31
0.0
  0
LINE
  5
F4
330
1E
100
AcDbEntity
  8
0
100
AcDbLine
 10
174.0
 20
85.39579999999999
 30
0.0
 11
174.0
 21
92.0958
 31
0.0
  0
LINE
  5
F5
330
1E
100
AcDbEntity
  8
0
100
AcDbLine
 10
174.0
 20
85.39579999999999
 30
0.0
 11
174.0
 21
80.29580000000001
 31
0.0
  0
LINE
  5
F6
330
1E
100
AcDbEntity
  8
0
100
AcDbLine
 10
200.0
 20
75.19580000000001
 30
0.0
 11
200.0
 21
73.9958
 31
0.0
  0
LINE
  5
F7
330
1E
100
AcDbEntity
  8
0
100
AcDbLine
 10
200.0
 20
78.5958
 30
0.0
 11
200.0
 21
75.19580000000001
 31
0.0
  0
LINE
  5
F8
330
1E
100
AcDbEntity
  8
0
100
AcDbLine
 10
200.0
 20
83.9958
 30
0.0
 11
200.0
 21
78.5958
 31
0.0
  0
LINE
  5
F9
330
1E
100
AcDbEntity
  8
0
100
AcDbLine
 10
176.0
 20
73.9958
 30
0.0
 11
200.0
 21
73.9958
 31
0.0
  0
LINE
  5
FA
330
1E
100
AcDbEntity
  8
0
100
AcDbLine
 10
176.0
 20
73.9958
 30
0.0
 11
176.0
 21
75.19580000000001
 31
0.0
  0
LINE
  5
FB
330
1E
100
AcDbEntity
  8
0
100
AcDbLine
 10
124.292
 20
127.7357999999999
 30
0.0
 11
129.1639999999999
 21
125.7198
 31
0.0
  0
LINE
  5
FE
330
1E
100
AcDbEntity
  8
0
100
AcDbLine
 10
129.1639999999999
 20
125.7198
 30
0.0
 11
133.4479999999999
 21
122.4437999999999
 31
0.0
  0
LINE
  5
FF
330
1E
100
AcDbEntity
  8
0
100
AcDbLine
 10
124.3759999999999
 20
128.2398
 30
0.0
 11
129.4159999999999
 21
126.2237999999999
 31
0.0
  0
LINE
  5
100
330
1E
100
AcDbEntity
  8
0
100
AcDbLine
 10
120.984
 20
132.6197999999999
 30
0.0
 11
121.832
 21
132.6197999999999
 31
0.0
  0
LINE
  5
101
330
1E
100
AcDbEntity
  8
0
100
AcDbLine
 10
120.9359999999999
 20
132.715
 30
0.0
 11
121.752
 21
132.715
 31
0.0
  0
LINE
  5
102
330
1E
100
AcDbEntity
  8
0
100
AcDbLine
 10
120.008
 20
132.715
 30
0.0
 11
120.9359999999999
 21
132.715
 31
0.0
  0
LINE
  5
103
330
1E
100
AcDbEntity
  8
0
100
AcDbLine
 10
120.0239999999999
 20
132.6197999999999
 30
0.0
 11
120.984
 21
132.6197999999999
 31
0.0
  0
LINE
  5
104
330
1E
100
AcDbEntity
  8
0
100
AcDbLine
 10
124.7
 20
129.1957999999999
 30
0.0
 11
130.0
 21
127.0958
 31
0.0
  0
LINE
  5
105
330
1E
100
AcDbEntity
  8
0
100
AcDbLine
 10
121.752
 20
132.715
 30
0.0
 11
122.376
 21
132.715
 31
0.0
  0
LINE
  5
106
330
1E
100
AcDbEntity
  8
0
100
AcDbLine
 10
123.0
 20
132.6197999999999
 30
0.0
 11
123.0
 21
128.4332999999999
 31
0.0
  0
LINE
  5
107
330
1E
100
AcDbEntity
  8
0
100
AcDbLine
 10
122.856
 20
132.6197999999999
 30
0.0
 11
123.0
 21
132.6197999999999
 31
0.0
  0
LINE
  5
108
330
1E
100
AcDbEntity
  8
0
100
AcDbLine
 10
122.76
 20
132.715
 30
0.0
 11
122.9039999999999
 21
132.715
 31
0.0
  0
LINE
  5
109
330
1E
100
AcDbEntity
  8
0
100
AcDbLine
 10
122.9039999999999
 20
132.715
 30
0.0
 11
123.0
 21
132.6197999999999
 31
0.0
  0
LINE
  5
10A
330
1E
100
AcDbEntity
  8
0
100
AcDbLine
 10
122.376
 20
132.715
 30
0.0
 11
122.76
 21
132.715
 31
0.0
  0
LINE
  5
10B
330
1E
100
AcDbEntity
  8
0
100
AcDbLine
 10
122.472
 20
132.6197999999999
 30
0.0
 11
122.856
 21
132.6197999999999
 31
0.0
  0
LINE
  5
10C
330
1E
100
AcDbEntity
  8
0
100
AcDbLine
 10
121.832
 20
132.6197999999999
 30
0.0
 11
122.472
 21
132.6197999999999
 31
0.0
  0
LINE
  5
10D
330
1E
100
AcDbEntity
  8
0
100
AcDbLine
 10
123.0
 20
129.434396491228
 30
0.0
 11
124.7
 21
129.1957999999999
 31
0.0
  0
LINE
  5
10E
330
1E
100
AcDbEntity
  8
0
100
AcDbLine
 10
126.0234169653519
 20
128.671427240143
 30
0.0
 11
126.2
 21
129.9957999999999
 31
0.0
  0
LINE
  5
10F
330
1E
100
AcDbEntity
  8
0
100
AcDbLine
 10
126.2
 20
129.9957999999999
 30
0.0
 11
126.5
 21
133.9957999999999
 31
0.0
  0
LINE
  5
110
330
1E
100
AcDbEntity
  8
0
100
AcDbLine
 10
126.0
 20
137.4958
 30
0.0
 11
126.5
 21
133.9957999999999
 31
0.0
  0
LINE
  5
111
330
1E
100
AcDbEntity
  8
0
100
AcDbLine
 10
125.0
 20
139.9958
 30
0.0
 11
126.0
 21
137.4958
 31
0.0
  0
LINE
  5
112
330
1E
100
AcDbEntity
  8
0
100
AcDbLine
 10
123.5
 20
141.9958
 30
0.0
 11
125.0
 21
139.9958
 31
0.0
  0
LINE
  5
113
330
1E
100
AcDbEntity
  8
0
100
AcDbLine
 10
121.5
 20
143.4957999999999
 30
0.0
 11
123.5
 21
141.9958
 31
0.0
  0
LINE
  5
114
330
1E
100
AcDbEntity
  8
0
100
AcDbLine
 10
123.0
 20
128.4332999999999
 30
0.0
 11
124.3759999999999
 21
128.2398
 31
0.0
  0
LINE
  5
115
330
1E
100
AcDbEntity
  8
0
100
AcDbLine
 10
123.0
 20
128.4332999999999
 30
0.0
 11
123.0
 21
132.6197999999999
 31
0.0
  0
LINE
  5
116
330
1E
100
AcDbEntity
  8
0
100
AcDbLine
 10
129.4159999999999
 20
126.2237999999999
 30
0.0
 11
133.8679999999999
 21
122.8637999999999
 31
0.0
  0
LINE
  5
117
330
1E
100
AcDbEntity
  8
0
100
AcDbLine
 10
129.1639999999999
 20
90.27179999999999
 30
0.0
 11
133.4479999999999
 21
93.54779999999999
 31
0.0
  0
LINE
  5
118
330
1E
100
AcDbEntity
  8
0
100
AcDbLine
 10
124.292
 20
88.2558
 30
0.0
 11
129.1639999999999
 21
90.27179999999999
 31
0.0
  0
LINE
  5
119
330
1E
100
AcDbEntity
  8
0
100
AcDbLine
 10
130.4870410958899
 20
89.2854328767123
 30
0.0
 11
132.6249999999999
 21
90.99580000000001
 31
0.0
  0
LINE
  5
11A
330
1E
100
AcDbEntity
  8
0
100
AcDbLine
 10
156.0
 20
90.99580000000001
 30
0.0
 11
156.0
 21
91.5958
 31
0.0
  0
LINE
  5
11C
330
1E
100
AcDbEntity
  8
0
100
AcDbLine
 10
156.0
 20
91.5958
 30
0.0
 11
156.0
 21
93.29579999999999
 31
0.0
  0
LINE
  5
11D
330
1E
100
AcDbEntity
  8
0
100
AcDbLine
 10
156.0
 20
91.5958
 30
0.0
 11
156.0
 21
90.99580000000001
 31
0.0
  0
LINE
  5
11E
330
1E
100
AcDbEntity
  8
0
100
AcDbLine
 10
131.0431
 20
90.99580000000001
 30
0.0
 11
156.0
 21
90.99580000000001
 31
0.0
  0
LINE
  5
11F
330
1E
100
AcDbEntity
  8
0
100
AcDbLine
 10
170.0
 20
90.99580000000001
 30
0.0
 11
172.0
 21
92.21009999999999
 31
0.0
  0
LINE
  5
120
330
1E
100
AcDbEntity
  8
0
100
AcDbLine
 10
167.0
 20
90.99580000000001
 30
0.0
 11
170.0
 21
90.99580000000001
 31
0.0
  0
LINE
  5
122
330
1E
100
AcDbEntity
  8
0
100
AcDbLine
 10
172.0
 20
92.21009999999999
 30
0.0
 11
174.0
 21
94.6387
 31
0.0
  0
LINE
  5
123
330
1E
100
AcDbEntity
  8
0
100
AcDbLine
 10
164.0
 20
90.99580000000001
 30
0.0
 11
167.0
 21
90.99580000000001
 31
0.0
  0
LINE
  5
124
330
1E
100
AcDbEntity
  8
0
100
AcDbLine
 10
162.0
 20
92.21009999999999
 30
0.0
 11
164.0
 21
90.99580000000001
 31
0.0
  0
LINE
  5
125
330
1E
100
AcDbEntity
  8
0
100
AcDbLine
 10
130.1109999999999
 20
90.0042
 30
0.0
 11
130.5109999999999
 21
90.0042
 31
0.0
  0
LINE
  5
126
330
1E
100
AcDbEntity
  8
0
100
AcDbLine
 10
129.763564705882
 20
90.0042
 30
0.0
 11
130.1109999999999
 21
90.0042
 31
0.0
  0
LINE
  5
128
330
1E
100
AcDbEntity
  8
0
100
AcDbLine
 10
200.0
 20
91.09579999999999
 30
0.0
 11
200.0
 21
83.9958
 31
0.0
  0
LINE
  5
129
330
1E
100
AcDbEntity
  8
0
100
AcDbLine
 10
176.0
 20
91.09579999999999
 30
0.0
 11
176.0
 21
99.19580000000001
 31
0.0
  0
LINE
  5
12A
330
1E
100
AcDbEntity
  8
0
100
AcDbLine
 10
176.0
 20
91.09579999999999
 30
0.0
 11
176.0
 21
83.9958
 31
0.0
  0
LINE
  5
12B
330
1E
100
AcDbEntity
  8
0
100
AcDbLine
 10
174.0
 20
92.0958
 30
0.0
 11
174.0
 21
94.6387
 31
0.0
  0
LINE
  5
12C
330
1E
100
AcDbEntity
  8
0
100
AcDbLine
 10
174.0
 20
92.0958
 30
0.0
 11
174.0
 21
85.39579999999999
 31
0.0
  0
LINE
  5
12D
330
1E
100
AcDbEntity
  8
0
100
AcDbLine
 10
174.0
 20
92.0958
 30
0.0
 11
174.0
 21
99.6958
 31
0.0
  0
LINE
  5
130
330
1E
100
AcDbEntity
  8
0
100
AcDbLine
 10
136.724
 20
118.1598
 30
0.0
 11
138.74
 21
113.2878
 31
0.0
  0
LINE
  5
131
330
1E
100
AcDbEntity
  8
0
100
AcDbLine
 10
133.4479999999999
 20
122.4437999999999
 30
0.0
 11
136.724
 21
118.1598
 31
0.0
  0
LINE
  5
132
330
1E
100
AcDbEntity
  8
0
100
AcDbLine
 10
130.0
 20
127.0958
 30
0.0
 11
132.6249999999999
 21
124.9958
 31
0.0
  0
LINE
  5
133
330
1E
100
AcDbEntity
  8
0
100
AcDbLine
 10
131.0431
 20
124.9958
 30
0.0
 11
156.0
 21
124.9958
 31
0.0
  0
LINE
  5
135
330
1E
100
AcDbEntity
  8
0
100
AcDbLine
 10
133.8679999999999
 20
122.8637999999999
 30
0.0
 11
137.2279999999999
 21
118.4117999999999
 31
0.0
  0
LINE
  5
138
330
1E
100
AcDbEntity
  8
0
100
AcDbLine
 10
137.2279999999999
 20
118.4117999999999
 30
0.0
 11
139.244
 21
113.3718
 31
0.0
  0
LINE
  5
139
330
1E
100
AcDbEntity
  8
0
100
AcDbLine
 10
136.724
 20
97.83180000000001
 30
0.0
 11
138.74
 21
102.7038
 31
0.0
  0
LINE
  5
13A
330
1E
100
AcDbEntity
  8
0
100
AcDbLine
 10
133.4479999999999
 20
93.54779999999999
 30
0.0
 11
136.724
 21
97.83180000000001
 31
0.0
  0
LINE
  5
13B
330
1E
100
AcDbEntity
  8
0
100
AcDbLine
 10
156.0
 20
93.29579999999999
 30
0.0
 11
156.0
 21
95.99569999999999
 31
0.0
  0
LINE
  5
13C
330
1E
100
AcDbEntity
  8
0
100
AcDbLine
 10
156.0
 20
93.29579999999999
 30
0.0
 11
156.0
 21
91.5958
 31
0.0
  0
LINE
  5
13D
330
1E
100
AcDbEntity
  8
0
100
AcDbLine
 10
156.0
 20
95.99569999999999
 30
0.0
 11
156.0
 21
99.54579999999999
 31
0.0
  0
LINE
  5
13E
330
1E
100
AcDbEntity
  8
0
100
AcDbLine
 10
156.0
 20
95.99569999999999
 30
0.0
 11
156.0
 21
93.29579999999999
 31
0.0
  0
LINE
  5
13F
330
1E
100
AcDbEntity
  8
0
100
AcDbLine
 10
160.0
 20
99.42440000000001
 30
0.0
 11
160.0
 21
101.9600999999999
 31
0.0
  0
LINE
  5
140
330
1E
100
AcDbEntity
  8
0
100
AcDbLine
 10
160.0
 20
99.42440000000001
 30
0.0
 11
160.0
 21
97.49580000000001
 31
0.0
  0
LINE
  5
141
330
1E
100
AcDbEntity
  8
0
100
AcDbLine
 10
160.0
 20
97.49580000000001
 30
0.0
 11
160.0
 21
99.42440000000001
 31
0.0
  0
LINE
  5
142
330
1E
100
AcDbEntity
  8
0
100
AcDbLine
 10
160.0
 20
97.49580000000001
 30
0.0
 11
160.0
 21
96.28149999999999
 31
0.0
  0
LINE
  5
143
330
1E
100
AcDbEntity
  8
0
100
AcDbLine
 10
160.0
 20
96.28149999999999
 30
0.0
 11
160.0
 21
97.49580000000001
 31
0.0
  0
LINE
  5
144
330
1E
100
AcDbEntity
  8
0
100
AcDbLine
 10
160.0
 20
96.28149999999999
 30
0.0
 11
160.0
 21
95.8529
 31
0.0
  0
LINE
  5
145
330
1E
100
AcDbEntity
  8
0
100
AcDbLine
 10
156.0
 20
99.54579999999999
 30
0.0
 11
156.0
 21
103.5957999999999
 31
0.0
  0
LINE
  5
146
330
1E
100
AcDbEntity
  8
0
100
AcDbLine
 10
156.0
 20
99.54579999999999
 30
0.0
 11
156.0
 21
95.99569999999999
 31
0.0
  0
LINE
  5
147
330
1E
100
AcDbEntity
  8
0
100
AcDbLine
 10
156.0
 20
95.8529
 30
0.0
 11
160.0
 21
95.8529
 31
0.0
  0
LINE
  5
14B
330
1E
100
AcDbEntity
  8
0
100
AcDbLine
 10
174.0
 20
98.52440000000001
 30
0.0
 11
174.0
 21
96.4601
 31
0.0
  0
LINE
  5
14C
330
1E
100
AcDbEntity
  8
0
100
AcDbLine
 10
174.0
 20
96.4601
 30
0.0
 11
174.0
 21
95.12439999999999
 31
0.0
  0
LINE
  5
14D
330
1E
100
AcDbEntity
  8
0
100
AcDbLine
 10
174.0
 20
95.12439999999999
 30
0.0
 11
174.0
 21
94.6387
 31
0.0
  0
LINE
  5
151
330
1E
100
AcDbEntity
  8
0
100
AcDbLine
 10
160.0
 20
95.8529
 30
0.0
 11
162.0
 21
92.21009999999999
 31
0.0
  0
LINE
  5
152
330
1E
100
AcDbEntity
  8
0
100
AcDbLine
 10
160.0
 20
95.8529
 30
0.0
 11
160.0
 21
96.28149999999999
 31
0.0
  0
LINE
  5
153
330
1E
100
AcDbEntity
  8
0
100
AcDbLine
 10
174.0
 20
101.3171999999999
 30
0.0
 11
174.0
 21
98.52440000000001
 31
0.0
  0
LINE
  5
154
330
1E
100
AcDbEntity
  8
0
100
AcDbLine
 10
160.0
 20
101.9600999999999
 30
0.0
 11
160.0
 21
104.8529999999999
 31
0.0
  0
LINE
  5
155
330
1E
100
AcDbEntity
  8
0
100
AcDbLine
 10
160.0
 20
101.9600999999999
 30
0.0
 11
160.0
 21
99.42440000000001
 31
0.0
  0
LINE
  5
156
330
1E
100
AcDbEntity
  8
0
100
AcDbLine
 10
174.0
 20
99.6958
 30
0.0
 11
174.0
 21
107.9957999999999
 31
0.0
  0
LINE
  5
157
330
1E
100
AcDbEntity
  8
0
100
AcDbLine
 10
174.0
 20
99.6958
 30
0.0
 11
174.0
 21
92.0958
 31
0.0
  0
LINE
  5
158
330
1E
100
AcDbEntity
  8
0
100
AcDbLine
 10
200.0
 20
99.19580000000001
 30
0.0
 11
200.0
 21
91.09579999999999
 31
0.0
  0
LINE
  5
159
330
1E
100
AcDbEntity
  8
0
100
AcDbLine
 10
176.0
 20
99.19580000000001
 30
0.0
 11
176.0
 21
107.9957999999999
 31
0.0
  0
LINE
  5
15A
330
1E
100
AcDbEntity
  8
0
100
AcDbLine
 10
176.0
 20
99.19580000000001
 30
0.0
 11
176.0
 21
91.09579999999999
 31
0.0
  0
LINE
  5
15B
330
1E
100
AcDbEntity
  8
0
100
AcDbLine
 10
174.0
 20
94.6387
 30
0.0
 11
174.0
 21
92.0958
 31
0.0
  0
LINE
  5
15C
330
1E
100
AcDbEntity
  8
0
100
AcDbLine
 10
138.74
 20
113.2878
 30
0.0
 11
139.496
 21
107.9957999999999
 31
0.0
  0
LINE
  5
15D
330
1E
100
AcDbEntity
  8
0
100
AcDbLine
 10
160.0
 20
107.9957999999999
 30
0.0
 11
160.0
 21
111.1385999999999
 31
0.0
  0
LINE
  5
15E
330
1E
100
AcDbEntity
  8
0
100
AcDbLine
 10
160.0
 20
107.9957999999999
 30
0.0
 11
160.0
 21
104.8529999999999
 31
0.0
  0
LINE
  5
160
330
1E
100
AcDbEntity
  8
0
100
AcDbLine
 10
174.0
 20
104.5957999999999
 30
0.0
 11
174.0
 21
101.3171999999999
 31
0.0
  0
LINE
  5
164
330
1E
100
AcDbEntity
  8
0
100
AcDbLine
 10
160.0
 20
104.8529999999999
 30
0.0
 11
160.0
 21
107.9957999999999
 31
0.0
  0
LINE
  5
165
330
1E
100
AcDbEntity
  8
0
100
AcDbLine
 10
160.0
 20
104.8529999999999
 30
0.0
 11
160.0
 21
101.9600999999999
 31
0.0
  0
LINE
  5
168
330
1E
100
AcDbEntity
  8
0
100
AcDbLine
 10
156.0
 20
103.5957999999999
 30
0.0
 11
156.0
 21
107.9957999999999
 31
0.0
  0
LINE
  5
169
330
1E
100
AcDbEntity
  8
0
100
AcDbLine
 10
156.0
 20
103.5957999999999
 30
0.0
 11
156.0
 21
99.54579999999999
 31
0.0
  0
LINE
  5
16A
330
1E
100
AcDbEntity
  8
0
100
AcDbLine
 10
156.0
 20
107.9957999999999
 30
0.0
 11
156.0
 21
112.3958
 31
0.0
  0
LINE
  5
16B
330
1E
100
AcDbEntity
  8
0
100
AcDbLine
 10
156.0
 20
107.9957999999999
 30
0.0
 11
156.0
 21
103.5957999999999
 31
0.0
  0
LINE
  5
16C
330
1E
100
AcDbEntity
  8
0
100
AcDbLine
 10
174.0
 20
107.9957999999999
 30
0.0
 11
174.0
 21
116.2957999999999
 31
0.0
  0
LINE
  5
16D
330
1E
100
AcDbEntity
  8
0
100
AcDbLine
 10
174.0
 20
107.9957999999999
 30
0.0
 11
174.0
 21
99.6958
 31
0.0
  0
LINE
  5
16E
330
1E
100
AcDbEntity
  8
0
100
AcDbLine
 10
174.0
 20
107.9957999999999
 30
0.0
 11
174.0
 21
104.5957999999999
 31
0.0
  0
LINE
  5
170
330
1E
100
AcDbEntity
  8
0
100
AcDbLine
 10
174.0
 20
111.3958
 30
0.0
 11
174.0
 21
107.9957999999999
 31
0.0
  0
LINE
  5
172
330
1E
100
AcDbEntity
  8
0
100
AcDbLine
 10
160.0
 20
111.1385999999999
 30
0.0
 11
160.0
 21
114.0314999999999
 31
0.0
  0
LINE
  5
173
330
1E
100
AcDbEntity
  8
0
100
AcDbLine
 10
160.0
 20
111.1385999999999
 30
0.0
 11
160.0
 21
107.9957999999999
 31
0.0
  0
LINE
  5
174
330
1E
100
AcDbEntity
  8
0
100
AcDbLine
 10
156.0
 20
112.3958
 30
0.0
 11
156.0
 21
116.4457999999999
 31
0.0
  0
LINE
  5
175
330
1E
100
AcDbEntity
  8
0
100
AcDbLine
 10
156.0
 20
112.3958
 30
0.0
 11
156.0
 21
107.9957999999999
 31
0.0
  0
LINE
  5
176
330
1E
100
AcDbEntity
  8
0
100
AcDbLine
 10
176.0
 20
107.9957999999999
 30
0.0
 11
176.0
 21
99.19580000000001
 31
0.0
  0
LINE
  5
177
330
1E
100
AcDbEntity
  8
0
100
AcDbLine
 10
176.0
 20
107.9957999999999
 30
0.0
 11
176.0
 21
116.7958
 31
0.0
  0
LINE
  5
178
330
1E
100
AcDbEntity
  8
0
100
AcDbLine
 10
200.0
 20
107.9957999999999
 30
0.0
 11
200.0
 21
99.19580000000001
 31
0.0
  0
LINE
  5
179
330
1E
100
AcDbEntity
  8
0
100
AcDbLine
 10
156.0
 20
120.1386999999999
 30
0.0
 11
160.0
 21
120.1386999999999
 31
0.0
  0
LINE
  5
17A
330
1E
100
AcDbEntity
  8
0
100
AcDbLine
 10
156.0
 20
119.9958999999999
 30
0.0
 11
156.0
 21
122.6957999999999
 31
0.0
  0
LINE
  5
17B
330
1E
100
AcDbEntity
  8
0
100
AcDbLine
 10
156.0
 20
119.9958999999999
 30
0.0
 11
156.0
 21
116.4457999999999
 31
0.0
  0
LINE
  5
17C
330
1E
100
AcDbEntity
  8
0
100
AcDbLine
 10
160.0
 20
114.0314999999999
 30
0.0
 11
160.0
 21
116.5672
 31
0.0
  0
LINE
  5
17D
330
1E
100
AcDbEntity
  8
0
100
AcDbLine
 10
160.0
 20
114.0314999999999
 30
0.0
 11
160.0
 21
111.1385999999999
 31
0.0
  0
LINE
  5
17E
330
1E
100
AcDbEntity
  8
0
100
AcDbLine
 10
160.0
 20
116.5672
 30
0.0
 11
160.0
 21
118.4957999999999
 31
0.0
  0
LINE
  5
17F
330
1E
100
AcDbEntity
  8
0
100
AcDbLine
 10
160.0
 20
116.5672
 30
0.0
 11
160.0
 21
114.0314999999999
 31
0.0
  0
LINE
  5
180
330
1E
100
AcDbEntity
  8
0
100
AcDbLine
 10
174.0
 20
114.6743999999999
 30
0.0
 11
174.0
 21
111.3958
 31
0.0
  0
LINE
  5
181
330
1E
100
AcDbEntity
  8
0
100
AcDbLine
 10
174.0
 20
117.4672
 30
0.0
 11
174.0
 21
114.6743999999999
 31
0.0
  0
LINE
  5
183
330
1E
100
AcDbEntity
  8
0
100
AcDbLine
 10
174.0
 20
119.5314999999999
 30
0.0
 11
174.0
 21
117.4672
 31
0.0
  0
LINE
  5
185
330
1E
100
AcDbEntity
  8
0
100
AcDbLine
 10
160.0
 20
118.4957999999999
 30
0.0
 11
160.0
 21
119.7100999999999
 31
0.0
  0
LINE
  5
186
330
1E
100
AcDbEntity
  8
0
100
AcDbLine
 10
160.0
 20
118.4957999999999
 30
0.0
 11
160.0
 21
116.5672
 31
0.0
  0
LINE
  5
187
330
1E
100
AcDbEntity
  8
0
100
AcDbLine
 10
160.0
 20
119.7100999999999
 30
0.0
 11
160.0
 21
120.1386999999999
 31
0.0
  0
LINE
  5
188
330
1E
100
AcDbEntity
  8
0
100
AcDbLine
 10
160.0
 20
119.7100999999999
 30
0.0
 11
160.0
 21
118.4957999999999
 31
0.0
  0
LINE
  5
189
330
1E
100
AcDbEntity
  8
0
100
AcDbLine
 10
156.0
 20
116.4457999999999
 30
0.0
 11
156.0
 21
119.9958999999999
 31
0.0
  0
LINE
  5
18A
330
1E
100
AcDbEntity
  8
0
100
AcDbLine
 10
156.0
 20
116.4457999999999
 30
0.0
 11
156.0
 21
112.3958
 31
0.0
  0
LINE
  5
18E
330
1E
100
AcDbEntity
  8
0
100
AcDbLine
 10
156.0
 20
122.6957999999999
 30
0.0
 11
156.0
 21
124.3957999999999
 31
0.0
  0
LINE
  5
18F
330
1E
100
AcDbEntity
  8
0
100
AcDbLine
 10
156.0
 20
122.6957999999999
 30
0.0
 11
156.0
 21
119.9958999999999
 31
0.0
  0
LINE
  5
193
330
1E
100
AcDbEntity
  8
0
100
AcDbLine
 10
174.0
 20
120.8671999999999
 30
0.0
 11
174.0
 21
119.5314999999999
 31
0.0
  0
LINE
  5
194
330
1E
100
AcDbEntity
  8
0
100
AcDbLine
 10
172.0
 20
123.7814999999999
 30
0.0
 11
174.0
 21
121.3529
 31
0.0
  0
LINE
  5
195
330
1E
100
AcDbEntity
  8
0
100
AcDbLine
 10
162.0
 20
123.7814999999999
 30
0.0
 11
164.0
 21
124.9958
 31
0.0
  0
LINE
  5
196
330
1E
100
AcDbEntity
  8
0
100
AcDbLine
 10
160.0
 20
120.1386999999999
 30
0.0
 11
162.0
 21
123.7814999999999
 31
0.0
  0
LINE
  5
197
330
1E
100
AcDbEntity
  8
0
100
AcDbLine
 10
160.0
 20
120.1386999999999
 30
0.0
 11
160.0
 21
119.7100999999999
 31
0.0
  0
LINE
  5
198
330
1E
100
AcDbEntity
  8
0
100
AcDbLine
 10
174.0
 20
116.2957999999999
 30
0.0
 11
174.0
 21
123.8958
 31
0.0
  0
LINE
  5
199
330
1E
100
AcDbEntity
  8
0
100
AcDbLine
 10
174.0
 20
116.2957999999999
 30
0.0
 11
174.0
 21
107.9957999999999
 31
0.0
  0
LINE
  5
19A
330
1E
100
AcDbEntity
  8
0
100
AcDbLine
 10
156.0
 20
124.9958
 30
0.0
 11
156.0
 21
124.3957999999999
 31
0.0
  0
LINE
  5
19B
330
1E
100
AcDbEntity
  8
0
100
AcDbLine
 10
167.0
 20
124.9958
 30
0.0
 11
170.0
 21
124.9958
 31
0.0
  0
LINE
  5
19C
330
1E
100
AcDbEntity
  8
0
100
AcDbLine
 10
170.0
 20
124.9958
 30
0.0
 11
172.0
 21
123.7814999999999
 31
0.0
  0
LINE
  5
19D
330
1E
100
AcDbEntity
  8
0
100
AcDbLine
 10
164.0
 20
124.9958
 30
0.0
 11
167.0
 21
124.9958
 31
0.0
  0
LINE
  5
19E
330
1E
100
AcDbEntity
  8
0
100
AcDbLine
 10
156.0
 20
124.3957999999999
 30
0.0
 11
156.0
 21
124.9958
 31
0.0
  0
LINE
  5
19F
330
1E
100
AcDbEntity
  8
0
100
AcDbLine
 10
156.0
 20
124.3957999999999
 30
0.0
 11
156.0
 21
122.6957999999999
 31
0.0
  0
LINE
  5
1A0
330
1E
100
AcDbEntity
  8
0
100
AcDbLine
 10
174.0
 20
139.9958
 30
0.0
 11
176.0
 21
141.9958
 31
0.0
  0
LINE
  5
1A1
330
1E
100
AcDbEntity
  8
0
100
AcDbLine
 10
174.0
 20
139.9958
 30
0.0
 11
174.0
 21
138.7958
 31
0.0
  0
LINE
  5
1A2
330
1E
100
AcDbEntity
  8
0
100
AcDbLine
 10
174.0
 20
138.7958
 30
0.0
 11
174.0
 21
139.9958
 31
0.0
  0
LINE
  5
1A3
330
1E
100
AcDbEntity
  8
0
100
AcDbLine
 10
174.0
 20
138.7958
 30
0.0
 11
174.0
 21
135.6957999999999
 31
0.0
  0
LINE
  5
1A4
330
1E
100
AcDbEntity
  8
0
100
AcDbLine
 10
174.0
 20
135.6957999999999
 30
0.0
 11
174.0
 21
138.7958
 31
0.0
  0
LINE
  5
1A5
330
1E
100
AcDbEntity
  8
0
100
AcDbLine
 10
174.0
 20
135.6957999999999
 30
0.0
 11
174.0
 21
130.5957999999999
 31
0.0
  0
LINE
  5
1A6
330
1E
100
AcDbEntity
  8
0
100
AcDbLine
 10
174.0
 20
130.5957999999999
 30
0.0
 11
174.0
 21
135.6957999999999
 31
0.0
  0
LINE
  5
1A7
330
1E
100
AcDbEntity
  8
0
100
AcDbLine
 10
174.0
 20
130.5957999999999
 30
0.0
 11
174.0
 21
123.8958
 31
0.0
  0
LINE
  5
1A8
330
1E
100
AcDbEntity
  8
0
100
AcDbLine
 10
174.0
 20
123.8958
 30
0.0
 11
174.0
 21
130.5957999999999
 31
0.0
  0
LINE
  5
1A9
330
1E
100
AcDbEntity
  8
0
100
AcDbLine
 10
174.0
 20
123.8958
 30
0.0
 11
174.0
 21
121.3529
 31
0.0
  0
LINE
  5
1AA
330
1E
100
AcDbEntity
  8
0
100
AcDbLine
 10
174.0
 20
123.8958
 30
0.0
 11
174.0
 21
116.2957999999999
 31
0.0
  0
LINE
  5
1AB
330
1E
100
AcDbEntity
  8
0
100
AcDbLine
 10
176.0
 20
141.9958
 30
0.0
 11
200.0
 21
141.9958
 31
0.0
  0
LINE
  5
1AC
330
1E
100
AcDbEntity
  8
0
100
AcDbLine
 10
176.0
 20
141.9958
 30
0.0
 11
176.0
 21
140.7958
 31
0.0
  0
LINE
  5
1AD
330
1E
100
AcDbEntity
  8
0
100
AcDbLine
 10
176.0
 20
140.7958
 30
0.0
 11
176.0
 21
141.9958
 31
0.0
  0
LINE
  5
1AE
330
1E
100
AcDbEntity
  8
0
100
AcDbLine
 10
176.0
 20
140.7958
 30
0.0
 11
176.0
 21
137.3958
 31
0.0
  0
LINE
  5
1AF
330
1E
100
AcDbEntity
  8
0
100
AcDbLine
 10
176.0
 20
137.3958
 30
0.0
 11
176.0
 21
140.7958
 31
0.0
  0
LINE
  5
1B0
330
1E
100
AcDbEntity
  8
0
100
AcDbLine
 10
176.0
 20
137.3958
 30
0.0
 11
176.0
 21
131.9957999999999
 31
0.0
  0
LINE
  5
1B1
330
1E
100
AcDbEntity
  8
0
100
AcDbLine
 10
176.0
 20
131.9957999999999
 30
0.0
 11
176.0
 21
137.3958
 31
0.0
  0
LINE
  5
1B2
330
1E
100
AcDbEntity
  8
0
100
AcDbLine
 10
176.0
 20
131.9957999999999
 30
0.0
 11
176.0
 21
124.8958
 31
0.0
  0
LINE
  5
1B3
330
1E
100
AcDbEntity
  8
0
100
AcDbLine
 10
176.0
 20
124.8958
 30
0.0
 11
176.0
 21
131.9957999999999
 31
0.0
  0
LINE
  5
1B4
330
1E
100
AcDbEntity
  8
0
100
AcDbLine
 10
176.0
 20
124.8958
 30
0.0
 11
176.0
 21
116.7958
 31
0.0
  0
LINE
  5
1B5
330
1E
100
AcDbEntity
  8
0
100
AcDbLine
 10
200.0
 20
141.9958
 30
0.0
 11
200.0
 21
140.7958
 31
0.0
  0
LINE
  5
1B6
330
1E
100
AcDbEntity
  8
0
100
AcDbLine
 10
200.0
 20
140.7958
 30
0.0
 11
200.0
 21
137.3958
 31
0.0
  0
LINE
  5
1B7
330
1E
100
AcDbEntity
  8
0
100
AcDbLine
 10
200.0
 20
137.3958
 30
0.0
 11
200.0
 21
131.9957999999999
 31
0.0
  0
LINE
  5
1B8
330
1E
100
AcDbEntity
  8
0
100
AcDbLine
 10
200.0
 20
131.9957999999999
 30
0.0
 11
200.0
 21
124.8958
 31
0.0
  0
LINE
  5
1B9
330
1E
100
AcDbEntity
  8
0
100
AcDbLine
 10
200.0
 20
124.8958
 30
0.0
 11
200.0
 21
116.7958
 31
0.0
  0
LINE
  5
1BA
330
1E
100
AcDbEntity
  8
0
100
AcDbLine
 10
176.0
 20
116.7958
 30
0.0
 11
176.0
 21
124.8958
 31
0.0
  0
LINE
  5
1BB
330
1E
100
AcDbEntity
  8
0
100
AcDbLine
 10
176.0
 20
116.7958
 30
0.0
 11
176.0
 21
107.9957999999999
 31
0.0
  0
LINE
  5
1BC
330
1E
100
AcDbEntity
  8
0
100
AcDbLine
 10
200.0
 20
116.7958
 30
0.0
 11
200.0
 21
107.9957999999999
 31
0.0
  0
LINE
  5
1BD
330
1E
100
AcDbEntity
  8
0
100
AcDbLine
 10
174.0
 20
121.3529
 30
0.0
 11
174.0
 21
123.8958
 31
0.0
  0
LINE
  5
1BE
330
1E
100
AcDbEntity
  8
0
100
AcDbLine
 10
174.0
 20
121.3529
 30
0.0
 11
174.0
 21
120.8671999999999
 31
0.0
  0
LINE
  5
1BF
330
1E
100
AcDbEntity
  8
0
100
AcDbLine
 10
139.244
 20
113.3718
 30
0.0
 11
140.0
 21
107.9957999999999
 31
0.0
  0
LINE
  5
1C0
330
1E
100
AcDbEntity
  8
0
100
AcDbLine
 10
138.74
 20
102.7038
 30
0.0
 11
139.496
 21
107.9957999999999
 31
0.0
  0
LINE
  5
1C1
330
1E
100
AcDbEntity
  8
0
100
AcDbLine
 10
139.244
 20
102.6197999999999
 30
0.0
 11
140.0
 21
107.9957999999999
 31
0.0
  0
LINE
  5
1C2
330
1E
100
AcDbEntity
  8
0
100
AcDbLine
 10
137.2279999999999
 20
97.57980000000001
 30
0.0
 11
139.244
 21
102.6197999999999
 31
0.0
  0
LINE
  5
1C3
330
1E
100
AcDbEntity
  8
0
100
AcDbLine
 10
133.8679999999999
 20
93.1278
 30
0.0
 11
137.2279999999999
 21
97.57980000000001
 31
0.0
  0
LINE
  5
1C4
330
1E
100
AcDbEntity
  8
0
100
AcDbLine
 10
129.4159999999999
 20
89.76779999999999
 30
0.0
 11
133.8679999999999
 21
93.1278
 31
0.0
  0
LINE
  5
1C5
330
1E
100
AcDbEntity
  8
0
100
AcDbLine
 10
124.3759999999999
 20
87.7518
 30
0.0
 11
129.4159999999999
 21
89.76779999999999
 31
0.0
  0
LINE
  5
1C6
330
1E
100
AcDbEntity
  8
0
100
AcDbLine
 10
119.0
 20
86.9958
 30
0.0
 11
124.3759999999999
 21
87.7518
 31
0.0
  0
ENDSEC
  0
SECTION
  2
OBJECTS
  0
DICTIONARY
  5
C
330
0
100
AcDbDictionary
281
     1
  3
ACAD_GROUP
350
D
  3
ACAD_LAYOUT
350
19
  3
ACAD_MLINESTYLE
350
16
  3
ACAD_PLOTSETTINGS
350
18
  3
ACAD_PLOTSTYLENAME
350
E
  3
AcDbVariableDictionary
350
1CB
  0
DICTIONARY
  5
D
102
{ACAD_REACTORS
330
C
102
}
330
C
100
AcDbDictionary
281
     1
  0
DICTIONARY
  5
19
102
{ACAD_REACTORS
330
C
102
}
330
C
100
AcDbDictionary
281
     1
  3
Layout1
350
1D
  3
Model
350
21
  0
DICTIONARY
  5
16
102
{ACAD_REACTORS
330
C
102
}
330
C
100
AcDbDictionary
281
     1
  3
Standard
350
17
  0
DICTIONARY
  5
18
102
{ACAD_REACTORS
330
C
102
}
330
C
100
AcDbDictionary
281
     1
  0
ACDBDICTIONARYWDFLT
  5
E
102
{ACAD_REACTORS
330
C
102
}
330
C
100
AcDbDictionary
281
     1
  3
Normal
350
F
100
AcDbDictionaryWithDefault
340
F
  0
DICTIONARY
  5
1CB
102
{ACAD_REACTORS
330
C
102
}
330
C
100
AcDbDictionary
281
     1
  3
DIMASSOC
350
1CC
  0
LAYOUT
  5
1D
102
{ACAD_REACTORS
330
19
102
}
330
19
100
AcDbPlotSettings
  1

  2
hp deskjet 980c series
  4

  6

 40
0.0
 41
0.0
 42
0.0
 43
0.0
 44
0.0
 45
0.0
 46
0.0
 47
0.0
 48
0.0
 49
0.0
140
0.0
141
0.0
142
1.0
143
1.0
 70
   688
 72
     0
 73
     0
 74
     5
  7

 75
    16
147
1.0
148
0.0
149
0.0
100
AcDbLayout
  1
Layout1
 70
     1
 71
     1
 10
0.0
 20
0.0
 11
12.0
 21
9.0
 12
0.0
 22
0.0
 32
0.0
 14
1.000000000000000E+20
 24
1.000000000000000E+20
 34
1.000000000000000E+20
 15
-1.000000000000000E+20
 25
-1.000000000000000E+20
 35
-1.000000000000000E+20
146
0.0
 13
0.0
 23
0.0
 33
0.0
 16
1.0
 26
0.0
 36
0.0
 17
0.0
 27
1.0
 37
0.0
 76
     0
330
1A
  0
LAYOUT
  5
21
102
{ACAD_REACTORS
330
19
102
}
330
19
100
AcDbPlotSettings
  1

  2
hp deskjet 980c series
  4

  6

 40
0.0
 41
0.0
 42
0.0
 43
0.0
 44
0.0
 45
0.0
 46
0.0
 47
0.0
 48
0.0
 49
0.0
140
0.0
141
0.0
142
1.0
143
1.0
 70
  1712
 72
     0
 73
     0
 74
     0
  7

 75
     0
147
1.0
148
0.0
149
0.0
100
AcDbLayout
  1
Model
 70
     1
 71
     0
 10
0.0
 20
0.0
 11
12.0
 21
9.0
 12
0.0
 22
0.0
 32
0.0
 14
0.0
 24
0.0
 34
0.0
 15
0.0
 25
0.0
 35
0.0
146
0.0
 13
0.0
 23
0.0
 33
0.0
 16
1.0
 26
0.0
 36
0.0
 17
0.0
 27
1.0
 37
0.0
 76
     0
330
1E
  0
MLINESTYLE
  5
17
102
{ACAD_REACTORS
330
16
102
}
330
16
100
AcDbMlineStyle
  2
STANDARD
 70
     0
  3

 62
   256
 51
90.0
 52
90.0
 71
     2
 49
0.5
 62
   256
  6
BYLAYER
 49
-0.5
 62
   256
  6
BYLAYER
  0
ACDBPLACEHOLDER
  5
F
102
{ACAD_REACTORS
330
E
102
}
330
E
  0
DICTIONARYVAR
  5
1CC
102
{ACAD_REACTORS
330
1CB
102
}
330
1CB
100
DictionaryVariables
280
     0
  1
1
  0
ENDSEC
  0
EOF
