  0
SECTION
  2
HEADER
  9
$ACADVER
  1
AC1015
  9
$ACADMAINTVER
 70
    13
  9
$DWGCODEPAGE
  3
ANSI_1252
  9
$INSBASE
 10
0.0
 20
0.0
 30
0.0
  9
$EXTMIN
 10
-0.0000000000000027
 20
0.0042000000000035
 30
0.0
  9
$EXTMAX
 10
285.0
 20
143.9958
 30
0.0
  9
$LIMMIN
 10
0.0
 20
0.0
  9
$LIMMAX
 10
12.0
 20
9.0
  9
$ORTHOMODE
 70
     0
  9
$REGENMODE
 70
     1
  9
$FILLMODE
 70
     1
  9
$QTEXTMODE
 70
     0
  9
$MIRRTEXT
 70
     1
  9
$LTSCALE
 40
1.0
  9
$ATTMODE
 70
     1
  9
$TEXTSIZE
 40
0.2
  9
$TRACEWID
 40
0.05
  9
$TEXTSTYLE
  7
Standard
  9
$CLAYER
  8
0
  9
$CELTYPE
  6
Continuous
  9
$CECOLOR
 62
   256
  9
$CELTSCALE
 40
1.0
  9
$DISPSILH
 70
     0
  9
$DIMSCALE
 40
1.0
  9
$DIMASZ
 40
0.18
  9
$DIMEXO
 40
0.0625
  9
$DIMDLI
 40
0.38
  9
$DIMRND
 40
0.0
  9
$DIMDLE
 40
0.0
  9
$DIMEXE
 40
0.18
  9
$DIMTP
 40
0.0
  9
$DIMTM
 40
0.0
  9
$DIMTXT
 40
0.18
  9
$DIMCEN
 40
0.09
  9
$DIMTSZ
 40
0.0
  9
$DIMTOL
 70
     0
  9
$DIMLIM
 70
     0
  9
$DIMTIH
 70
     1
  9
$DIMTOH
 70
     1
  9
$DIMSE1
 70
     0
  9
$DIMSE2
 70
     0
  9
$DIMTAD
 70
     0
  9
$DIMZIN
 70
     0
  9
$DIMBLK
  1

  9
$DIMASO
 70
     1
  9
$DIMSHO
 70
     1
  9
$DIMPOST
  1

  9
$DIMAPOST
  1

  9
$DIMALT
 70
     0
  9
$DIMALTD
 70
     2
  9
$DIMALTF
 40
25.4
  9
$DIMLFAC
 40
1.0
  9
$DIMTOFL
 70
     0
  9
$DIMTVP
 40
0.0
  9
$DIMTIX
 70
     0
  9
$DIMSOXD
 70
     0
  9
$DIMSAH
 70
     0
  9
$DIMBLK1
  1

  9
$DIMBLK2
  1

  9
$DIMSTYLE
  2
Standard
  9
$DIMCLRD
 70
     0
  9
$DIMCLRE
 70
     0
  9
$DIMCLRT
 70
     0
  9
$DIMTFAC
 40
1.0
  9
$DIMGAP
 40
0.09
  9
$DIMJUST
 70
     0
  9
$DIMSD1
 70
     0
  9
$DIMSD2
 70
     0
  9
$DIMTOLJ
 70
     1
  9
$DIMTZIN
 70
     0
  9
$DIMALTZ
 70
     0
  9
$DIMALTTZ
 70
     0
  9
$DIMUPT
 70
     0
  9
$DIMDEC
 70
     4
  9
$DIMTDEC
 70
     4
  9
$DIMALTU
 70
     2
  9
$DIMALTTD
 70
     2
  9
$DIMTXSTY
  7
Standard
  9
$DIMAUNIT
 70
     0
  9
$DIMADEC
 70
     0
  9
$DIMALTRND
 40
0.0
  9
$DIMAZIN
 70
     0
  9
$DIMDSEP
 70
    46
  9
$DIMATFIT
 70
     3
  9
$DIMFRAC
 70
     0
  9
$DIMLDRBLK
  1

  9
$DIMLUNIT
 70
     2
  9
$DIMLWD
 70
    -2
  9
$DIMLWE
 70
    -2
  9
$DIMTMOVE
 70
     0
  9
$LUNITS
 70
     2
  9
$LUPREC
 70
     4
  9
$SKETCHINC
 40
0.1
  9
$FILLETRAD
 40
0.0
  9
$AUNITS
 70
     0
  9
$AUPREC
 70
     0
  9
$MENU
  1
.
  9
$ELEVATION
 40
0.0
  9
$PELEVATION
 40
0.0
  9
$THICKNESS
 40
0.0
  9
$LIMCHECK
 70
     0
  9
$CHAMFERA
 40
0.0
  9
$CHAMFERB
 40
0.0
  9
$CHAMFERC
 40
0.0
  9
$CHAMFERD
 40
0.0
  9
$SKPOLY
 70
     0
  9
$TDCREATE
 40
2454753.363183044
  9
$TDUCREATE
 40
2454753.279849711
  9
$TDUPDATE
 40
2454753.367190752
  9
$TDUUPDATE
 40
2454753.283857419
  9
$TDINDWG
 40
0.0040078819
  9
$TDUSRTIMER
 40
0.0040078819
  9
$USRTIMER
 70
     1
  9
$ANGBASE
 50
0.0
  9
$ANGDIR
 70
     0
  9
$PDMODE
 70
     0
  9
$PDSIZE
 40
0.0
  9
$PLINEWID
 40
0.0
  9
$SPLFRAME
 70
     0
  9
$SPLINETYPE
 70
     6
  9
$SPLINESEGS
 70
     8
  9
$HANDSEED
  5
368
  9
$SURFTAB1
 70
     6
  9
$SURFTAB2
 70
     6
  9
$SURFTYPE
 70
     6
  9
$SURFU
 70
     6
  9
$SURFV
 70
     6
  9
$UCSBASE
  2

  9
$UCSNAME
  2

  9
$UCSORG
 10
0.0
 20
0.0
 30
0.0
  9
$UCSXDIR
 10
1.0
 20
0.0
 30
0.0
  9
$UCSYDIR
 10
0.0
 20
1.0
 30
0.0
  9
$UCSORTHOREF
  2

  9
$UCSORTHOVIEW
 70
     1
  9
$UCSORGTOP
 10
0.0
 20
0.0
 30
0.0
  9
$UCSORGBOTTOM
 10
0.0
 20
0.0
 30
0.0
  9
$UCSORGLEFT
 10
0.0
 20
0.0
 30
0.0
  9
$UCSORGRIGHT
 10
0.0
 20
0.0
 30
0.0
  9
$UCSORGFRONT
 10
0.0
 20
0.0
 30
0.0
  9
$UCSORGBACK
 10
0.0
 20
0.0
 30
0.0
  9
$PUCSBASE
  2

  9
$PUCSNAME
  2

  9
$PUCSORG
 10
0.0
 20
0.0
 30
0.0
  9
$PUCSXDIR
 10
1.0
 20
0.0
 30
0.0
  9
$PUCSYDIR
 10
0.0
 20
1.0
 30
0.0
  9
$PUCSORTHOREF
  2

  9
$PUCSORTHOVIEW
 70
     0
  9
$PUCSORGTOP
 10
0.0
 20
0.0
 30
0.0
  9
$PUCSORGBOTTOM
 10
0.0
 20
0.0
 30
0.0
  9
$PUCSORGLEFT
 10
0.0
 20
0.0
 30
0.0
  9
$PUCSORGRIGHT
 10
0.0
 20
0.0
 30
0.0
  9
$PUCSORGFRONT
 10
0.0
 20
0.0
 30
0.0
  9
$PUCSORGBACK
 10
0.0
 20
0.0
 30
0.0
  9
$USERI1
 70
     0
  9
$USERI2
 70
     0
  9
$USERI3
 70
     0
  9
$USERI4
 70
     0
  9
$USERI5
 70
     0
  9
$USERR1
 40
0.0
  9
$USERR2
 40
0.0
  9
$USERR3
 40
0.0
  9
$USERR4
 40
0.0
  9
$USERR5
 40
0.0
  9
$WORLDVIEW
 70
     1
  9
$SHADEDGE
 70
     3
  9
$SHADEDIF
 70
    70
  9
$TILEMODE
 70
     1
  9
$MAXACTVP
 70
    64
  9
$PINSBASE
 10
0.0
 20
0.0
 30
0.0
  9
$PLIMCHECK
 70
     0
  9
$PEXTMIN
 10
1.000000000000000E+20
 20
1.000000000000000E+20
 30
1.000000000000000E+20
  9
$PEXTMAX
 10
-1.000000000000000E+20
 20
-1.000000000000000E+20
 30
-1.000000000000000E+20
  9
$PLIMMIN
 10
0.0
 20
0.0
  9
$PLIMMAX
 10
12.0
 20
9.0
  9
$UNITMODE
 70
     0
  9
$VISRETAIN
 70
     1
  9
$PLINEGEN
 70
     0
  9
$PSLTSCALE
 70
     1
  9
$TREEDEPTH
 70
  3020
  9
$CMLSTYLE
  2
Standard
  9
$CMLJUST
 70
     0
  9
$CMLSCALE
 40
1.0
  9
$PROXYGRAPHICS
 70
     1
  9
$MEASUREMENT
 70
     0
  9
$CELWEIGHT
370
    -1
  9
$ENDCAPS
280
     0
  9
$JOINSTYLE
280
     0
  9
$LWDISPLAY
290
     0
  9
$INSUNITS
 70
     0
  9
$HYPERLINKBASE
  1

  9
$STYLESHEET
  1

  9
$XEDIT
290
     1
  9
$CEPSNTYPE
380
     0
  9
$PSTYLEMODE
290
     1
  9
$FINGERPRINTGUID
  2
{DCEF4FD6-9DAD-4051-823F-0DDF4D5826ED}
  9
$VERSIONGUID
  2
{C9976806-B0DF-4396-8642-5E0079CFF6D5}
  9
$EXTNAMES
290
     1
  9
$PSVPSCALE
 40
0.0
  9
$OLESTARTUP
290
     0
  0
ENDSEC
  0
SECTION
  2
CLASSES
  0
CLASS
  1
ACDBDICTIONARYWDFLT
  2
AcDbDictionaryWithDefault
  3
AutoCAD 2000
 90
        0
280
     0
281
     0
  0
CLASS
  1
ACDBPLACEHOLDER
  2
AcDbPlaceHolder
  3
AutoCAD 2000
 90
        0
280
     0
281
     0
  0
CLASS
  1
LAYOUT
  2
AcDbLayout
  3
AutoCAD 2000
 90
        0
280
     0
281
     0
  0
CLASS
  1
DICTIONARYVAR
  2
AcDbDictionaryVar
  3
AutoCAD 2000
 90
        0
280
     0
281
     0
  0
ENDSEC
  0
SECTION
  2
TABLES
  0
TABLE
  2
VPORT
  5
8
330
0
100
AcDbSymbolTable
 70
     2
  0
VPORT
  5
367
330
8
100
AcDbSymbolTableRecord
100
AcDbViewportTableRecord
  2
*Active
 70
     0
 10
0.0
 20
0.0
 11
1.0
 21
1.0
 12
142.5
 22
72.0
 13
0.0
 23
0.0
 14
1.0
 24
1.0
 15
0.0
 25
0.0
 16
0.0
 26
0.0
 36
1.0
 17
0.0
 27
0.0
 37
0.0
 40
145.0963948849105
 41
2.078104993597951
 42
50.0
 43
0.0
 44
0.0
 50
0.0
 51
0.0
 71
     0
 72
   100
 73
     1
 74
     3
 75
     0
 76
     0
 77
     0
 78
     0
281
     0
 65
     1
110
0.0
120
0.0
130
0.0
111
1.0
121
0.0
131
0.0
112
0.0
122
1.0
132
0.0
 79
     1
146
0.0
  0
ENDTAB
  0
TABLE
  2
LTYPE
  5
5
330
0
100
AcDbSymbolTable
 70
     1
  0
LTYPE
  5
13
330
5
100
AcDbSymbolTableRecord
100
AcDbLinetypeTableRecord
  2
ByBlock
 70
     0
  3

 72
    65
 73
     0
 40
0.0
  0
LTYPE
  5
14
330
5
100
AcDbSymbolTableRecord
100
AcDbLinetypeTableRecord
  2
ByLayer
 70
     0
  3

 72
    65
 73
     0
 40
0.0
  0
LTYPE
  5
15
330
5
100
AcDbSymbolTableRecord
100
AcDbLinetypeTableRecord
  2
Continuous
 70
     0
  3
Solid line
 72
    65
 73
     0
 40
0.0
  0
ENDTAB
  0
TABLE
  2
LAYER
  5
2
330
0
100
AcDbSymbolTable
 70
     1
  0
LAYER
  5
10
330
2
100
AcDbSymbolTableRecord
100
AcDbLayerTableRecord
  2
0
 70
     0
 62
     7
  6
Continuous
370
    -3
390
F
  0
ENDTAB
  0
TABLE
  2
STYLE
  5
3
330
0
100
AcDbSymbolTable
 70
     1
  0
STYLE
  5
11
330
3
100
AcDbSymbolTableRecord
100
AcDbTextStyleTableRecord
  2
Standard
 70
     0
 40
0.0
 41
1.0
 50
0.0
 71
     0
 42
0.2
  3
txt
  4

  0
ENDTAB
  0
TABLE
  2
VIEW
  5
6
330
0
100
AcDbSymbolTable
 70
     0
  0
ENDTAB
  0
TABLE
  2
UCS
  5
7
330
0
100
AcDbSymbolTable
 70
     0
  0
ENDTAB
  0
TABLE
  2
APPID
  5
9
330
0
100
AcDbSymbolTable
 70
     1
  0
APPID
  5
12
330
9
100
AcDbSymbolTableRecord
100
AcDbRegAppTableRecord
  2
ACAD
 70
     0
  0
ENDTAB
  0
TABLE
  2
DIMSTYLE
  5
A
330
0
100
AcDbSymbolTable
 70
     1
100
AcDbDimStyleTable
 71
     0
  0
DIMSTYLE
105
35B
330
A
100
AcDbSymbolTableRecord
100
AcDbDimStyleTableRecord
  2
Standard
 70
     0
340
11
  0
ENDTAB
  0
TABLE
  2
BLOCK_RECORD
  5
1
330
0
100
AcDbSymbolTable
 70
     0
  0
BLOCK_RECORD
  5
1E
330
1
100
AcDbSymbolTableRecord
100
AcDbBlockTableRecord
  2
*Model_Space
340
21
  0
BLOCK_RECORD
  5
1A
330
1
100
AcDbSymbolTableRecord
100
AcDbBlockTableRecord
  2
*Paper_Space
340
1D
  0
ENDTAB
  0
ENDSEC
  0
SECTION
  2
BLOCKS
  0
BLOCK
  5
1F
330
1E
100
AcDbEntity
  8
0
100
AcDbBlockBegin
  2
*Model_Space
 70
     0
 10
0.0
 20
0.0
 30
0.0
  3
*Model_Space
  1

  0
ENDBLK
  5
20
330
1E
100
AcDbEntity
  8
0
100
AcDbBlockEnd
  0
BLOCK
  5
1B
330
1A
100
AcDbEntity
 67
     1
  8
0
100
AcDbBlockBegin
  2
*Paper_Space
 70
     0
 10
0.0
 20
0.0
 30
0.0
  3
*Paper_Space
  1

  0
ENDBLK
  5
1C
330
1A
100
AcDbEntity
 67
     1
  8
0
100
AcDbBlockEnd
  0
ENDSEC
  0
SECTION
  2
ENTITIES
  0
LINE
  5
22
330
1E
100
AcDbEntity
  8
0
100
AcDbLine
 10
6.5
 20
81.9958
 30
0.0
 11
7.0
 21
78.4958
 31
0.0
  0
LINE
  5
23
330
1E
100
AcDbEntity
  8
0
100
AcDbLine
 10
6.5
 20
81.9958
 30
0.0
 11
6.799999999999999
 21
85.99580000000001
 31
0.0
  0
LINE
  5
24
330
1E
100
AcDbEntity
  8
0
100
AcDbLine
 10
7.0
 20
78.4958
 30
0.0
 11
8.0
 21
75.9958
 31
0.0
  0
LINE
  5
25
330
1E
100
AcDbEntity
  8
0
100
AcDbLine
 10
8.0
 20
75.9958
 30
0.0
 11
9.5
 21
73.9958
 31
0.0
  0
LINE
  5
26
330
1E
100
AcDbEntity
  8
0
100
AcDbLine
 10
9.5
 20
73.9958
 30
0.0
 11
11.5
 21
72.4958
 31
0.0
  0
LINE
  5
27
330
1E
100
AcDbEntity
  8
0
100
AcDbLine
 10
21.0
 20
78.4958
 30
0.0
 11
21.49999999999999
 21
81.9958
 31
0.0
  0
LINE
  5
28
330
1E
100
AcDbEntity
  8
0
100
AcDbLine
 10
20.0
 20
75.9958
 30
0.0
 11
21.0
 21
78.4958
 31
0.0
  0
LINE
  5
29
330
1E
100
AcDbEntity
  8
0
100
AcDbLine
 10
18.5
 20
73.9958
 30
0.0
 11
20.0
 21
75.9958
 31
0.0
  0
LINE
  5
2A
330
1E
100
AcDbEntity
  8
0
100
AcDbLine
 10
16.5
 20
72.4958
 30
0.0
 11
18.5
 21
73.9958
 31
0.0
  0
LINE
  5
2B
330
1E
100
AcDbEntity
  8
0
100
AcDbLine
 10
14.0
 20
71.9958
 30
0.0
 11
16.5
 21
72.4958
 31
0.0
  0
LINE
  5
2C
330
1E
100
AcDbEntity
  8
0
100
AcDbLine
 10
11.5
 20
72.4958
 30
0.0
 11
14.0
 21
71.9958
 31
0.0
  0
LINE
  5
2D
330
1E
100
AcDbEntity
  8
0
100
AcDbLine
 10
21.2
 20
85.99580000000001
 30
0.0
 11
21.49999999999999
 21
81.9958
 31
0.0
  0
LINE
  5
2E
330
1E
100
AcDbEntity
  8
0
100
AcDbLine
 10
6.799999999999999
 20
85.99580000000001
 30
0.0
 11
7.0
 21
88.9958
 31
0.0
  0
LINE
  5
2F
330
1E
100
AcDbEntity
  8
0
100
AcDbLine
 10
50.0
 20
83.9958
 30
0.0
 11
57.1
 21
78.5958
 31
0.0
  0
LINE
  5
30
330
1E
100
AcDbEntity
  8
0
100
AcDbLine
 10
65.2
 20
75.19580000000001
 30
0.0
 11
74.0
 21
73.9958
 31
0.0
  0
LINE
  5
31
330
1E
100
AcDbEntity
  8
0
100
AcDbLine
 10
74.0
 20
75.9958
 30
0.0
 11
82.3
 21
77.1958
 31
0.0
  0
LINE
  5
32
330
1E
100
AcDbEntity
  8
0
100
AcDbLine
 10
82.3
 20
77.1958
 30
0.0
 11
89.9
 21
80.29580000000001
 31
0.0
  0
LINE
  5
33
330
1E
100
AcDbEntity
  8
0
100
AcDbLine
 10
74.0
 20
73.9958
 30
0.0
 11
82.79999999999999
 21
75.19580000000001
 31
0.0
  0
LINE
  5
34
330
1E
100
AcDbEntity
  8
0
100
AcDbLine
 10
74.0
 20
73.9958
 30
0.0
 11
82.79999999999999
 21
75.19580000000001
 31
0.0
  0
LINE
  5
35
330
1E
100
AcDbEntity
  8
0
100
AcDbLine
 10
142.0099999999999
 20
60.0042
 30
0.0
 11
142.3099999999999
 21
60.0042
 31
0.0
  0
LINE
  5
36
330
1E
100
AcDbEntity
  8
0
100
AcDbLine
 10
142.0099999999999
 20
60.0042
 30
0.0
 11
142.0099999999999
 21
0.0042000000000035
 31
0.0
  0
LINE
  5
37
330
1E
100
AcDbEntity
  8
0
100
AcDbLine
 10
142.0099999999999
 20
0.0042000000000066
 30
0.0
 11
142.0099999999999
 21
60.0042
 31
0.0
  0
LINE
  5
38
330
1E
100
AcDbEntity
  8
0
100
AcDbLine
 10
142.0099999999999
 20
0.0042000000000066
 30
0.0
 11
142.3729999999999
 21
0.0305000000000271
 31
0.0
  0
LINE
  5
39
330
1E
100
AcDbEntity
  8
0
100
AcDbLine
 10
142.0099999999999
 20
0.0042000000000066
 30
0.0
 11
142.3729999999999
 21
0.0305000000000269
 31
0.0
  0
LINE
  5
3A
330
1E
100
AcDbEntity
  8
0
100
AcDbLine
 10
142.3729999999999
 20
0.0305000000000269
 30
0.0
 11
143.048
 21
0.105400000000026
 31
0.0
  0
LINE
  5
3B
330
1E
100
AcDbEntity
  8
0
100
AcDbLine
 10
143.048
 20
0.105400000000026
 30
0.0
 11
144.286
 21
0.4803000000000229
 31
0.0
  0
LINE
  5
3C
330
1E
100
AcDbEntity
  8
0
100
AcDbLine
 10
144.286
 20
0.4803000000000229
 30
0.0
 11
145.7869999999999
 21
1.15500000000002
 31
0.0
  0
LINE
  5
3D
330
1E
100
AcDbEntity
  8
0
100
AcDbLine
 10
145.7869999999999
 20
1.15500000000002
 30
0.0
 11
147.587
 21
2.279400000000019
 31
0.0
  0
LINE
  5
3E
330
1E
100
AcDbEntity
  8
0
100
AcDbLine
 10
145.8099999999999
 20
60.0042
 30
0.0
 11
147.61
 21
60.0042
 31
0.0
  0
LINE
  5
3F
330
1E
100
AcDbEntity
  8
0
100
AcDbLine
 10
145.7869999999999
 20
1.15500000000002
 30
0.0
 11
147.587
 21
2.279400000000019
 31
0.0
  0
LINE
  5
40
330
1E
100
AcDbEntity
  8
0
100
AcDbLine
 10
144.21
 20
60.0042
 30
0.0
 11
145.8099999999999
 21
60.0042
 31
0.0
  0
LINE
  5
41
330
1E
100
AcDbEntity
  8
0
100
AcDbLine
 10
144.286
 20
0.480300000000024
 30
0.0
 11
145.7869999999999
 21
1.15500000000002
 31
0.0
  0
LINE
  5
42
330
1E
100
AcDbEntity
  8
0
100
AcDbLine
 10
143.0099999999999
 20
60.0042
 30
0.0
 11
144.21
 21
60.0042
 31
0.0
  0
LINE
  5
43
330
1E
100
AcDbEntity
  8
0
100
AcDbLine
 10
143.048
 20
0.105400000000027
 30
0.0
 11
144.286
 21
0.4803000000000229
 31
0.0
  0
LINE
  5
44
330
1E
100
AcDbEntity
  8
0
100
AcDbLine
 10
142.3099999999999
 20
60.0042
 30
0.0
 11
143.0099999999999
 21
60.0042
 31
0.0
  0
LINE
  5
45
330
1E
100
AcDbEntity
  8
0
100
AcDbLine
 10
142.3729999999999
 20
0.0305000000000271
 30
0.0
 11
143.048
 21
0.105400000000027
 31
0.0
  0
LINE
  5
46
330
1E
100
AcDbEntity
  8
0
100
AcDbLine
 10
147.587
 20
2.279400000000019
 30
0.0
 11
149.5379999999999
 21
4.26600000000003
 31
0.0
  0
LINE
  5
47
330
1E
100
AcDbEntity
  8
0
100
AcDbLine
 10
151.301
 20
5.615400000000029
 30
0.0
 11
153.139
 21
6.81480000000003
 31
0.0
  0
LINE
  5
48
330
1E
100
AcDbEntity
  8
0
100
AcDbLine
 10
149.5379999999999
 20
4.26600000000003
 30
0.0
 11
151.301
 21
5.615400000000029
 31
0.0
  0
LINE
  5
49
330
1E
100
AcDbEntity
  8
0
100
AcDbLine
 10
151.301
 20
5.615400000000029
 30
0.0
 11
153.139
 21
6.81480000000003
 31
0.0
  0
LINE
  5
4A
330
1E
100
AcDbEntity
  8
0
100
AcDbLine
 10
154.94
 20
8.014200000000009
 30
0.0
 11
156.0279999999999
 21
9.063800000000018
 31
0.0
  0
LINE
  5
4B
330
1E
100
AcDbEntity
  8
0
100
AcDbLine
 10
153.139
 20
6.81480000000003
 30
0.0
 11
154.94
 21
8.014200000000009
 31
0.0
  0
LINE
  5
4C
330
1E
100
AcDbEntity
  8
0
100
AcDbLine
 10
156.0279999999999
 20
9.063800000000018
 30
0.0
 11
156.741
 21
9.775900000000008
 31
0.0
  0
LINE
  5
4D
330
1E
100
AcDbEntity
  8
0
100
AcDbLine
 10
154.94
 20
8.014200000000009
 30
0.0
 11
156.0279999999999
 21
9.063800000000018
 31
0.0
  0
LINE
  5
4E
330
1E
100
AcDbEntity
  8
0
100
AcDbLine
 10
156.0279999999999
 20
9.063800000000018
 30
0.0
 11
156.741
 21
9.775900000000008
 31
0.0
  0
LINE
  5
4F
330
1E
100
AcDbEntity
  8
0
100
AcDbLine
 10
152.21
 20
60.0042
 30
0.0
 11
154.71
 21
60.0042
 31
0.0
  0
LINE
  5
50
330
1E
100
AcDbEntity
  8
0
100
AcDbLine
 10
149.5099999999999
 20
60.0042
 30
0.0
 11
151.41
 21
60.0042
 31
0.0
  0
LINE
  5
51
330
1E
100
AcDbEntity
  8
0
100
AcDbLine
 10
149.5099999999999
 20
60.0042
 30
0.0
 11
152.21
 21
60.0042
 31
0.0
  0
LINE
  5
52
330
1E
100
AcDbEntity
  8
0
100
AcDbLine
 10
151.41
 20
60.0042
 30
0.0
 11
153.2099999999999
 21
60.0042
 31
0.0
  0
LINE
  5
53
330
1E
100
AcDbEntity
  8
0
100
AcDbLine
 10
154.71
 20
60.0042
 30
0.0
 11
156.9099999999999
 21
60.0042
 31
0.0
  0
LINE
  5
54
330
1E
100
AcDbEntity
  8
0
100
AcDbLine
 10
153.2099999999999
 20
60.0042
 30
0.0
 11
154.8099999999999
 21
60.0042
 31
0.0
  0
LINE
  5
55
330
1E
100
AcDbEntity
  8
0
100
AcDbLine
 10
154.8099999999999
 20
60.0042
 30
0.0
 11
156.01
 21
60.0042
 31
0.0
  0
LINE
  5
56
330
1E
100
AcDbEntity
  8
0
100
AcDbLine
 10
157.01
 20
10.0042
 30
0.0
 11
157.01
 21
60.0042
 31
0.0
  0
LINE
  5
57
330
1E
100
AcDbEntity
  8
0
100
AcDbLine
 10
156.9099999999999
 20
60.0042
 30
0.0
 11
158.61
 21
60.0042
 31
0.0
  0
LINE
  5
58
330
1E
100
AcDbEntity
  8
0
100
AcDbLine
 10
156.01
 20
60.0042
 30
0.0
 11
156.71
 21
60.0042
 31
0.0
  0
LINE
  5
59
330
1E
100
AcDbEntity
  8
0
100
AcDbLine
 10
156.71
 20
60.0042
 30
0.0
 11
157.01
 21
60.0042
 31
0.0
  0
LINE
  5
5A
330
1E
100
AcDbEntity
  8
0
100
AcDbLine
 10
158.61
 20
60.0042
 30
0.0
 11
159.61
 21
60.0042
 31
0.0
  0
LINE
  5
5B
330
1E
100
AcDbEntity
  8
0
100
AcDbLine
 10
159.61
 20
60.0042
 30
0.0
 11
160.0099999999999
 21
60.0042
 31
0.0
  0
LINE
  5
5C
330
1E
100
AcDbEntity
  8
0
100
AcDbLine
 10
160.0099999999999
 20
60.0042
 30
0.0
 11
160.543053333333
 21
75.9958
 31
0.0
  0
LINE
  5
5D
330
1E
100
AcDbEntity
  8
0
100
AcDbLine
 10
157.01
 20
60.0042
 30
0.0
 11
157.01
 21
10.0042
 31
0.0
  0
LINE
  5
5E
330
1E
100
AcDbEntity
  8
0
100
AcDbLine
 10
157.01
 20
60.0042
 30
0.0
 11
158.61
 21
60.0042
 31
0.0
  0
LINE
  5
5F
330
1E
100
AcDbEntity
  8
0
100
AcDbLine
 10
156.741
 20
9.775900000000008
 30
0.0
 11
157.01
 21
10.0042
 31
0.0
  0
LINE
  5
60
330
1E
100
AcDbEntity
  8
0
100
AcDbLine
 10
147.61
 20
60.0042
 30
0.0
 11
149.5099999999999
 21
60.0042
 31
0.0
  0
LINE
  5
61
330
1E
100
AcDbEntity
  8
0
100
AcDbLine
 10
147.587
 20
2.279400000000019
 30
0.0
 11
149.5379999999999
 21
4.26600000000003
 31
0.0
  0
LINE
  5
62
330
1E
100
AcDbEntity
  8
0
100
AcDbLine
 10
146.8099999999999
 20
60.0042
 30
0.0
 11
149.5099999999999
 21
60.0042
 31
0.0
  0
LINE
  5
63
330
1E
100
AcDbEntity
  8
0
100
AcDbLine
 10
144.31
 20
60.0042
 30
0.0
 11
146.8099999999999
 21
60.0042
 31
0.0
  0
LINE
  5
64
330
1E
100
AcDbEntity
  8
0
100
AcDbLine
 10
142.11
 20
60.0042
 30
0.0
 11
144.31
 21
60.0042
 31
0.0
  0
LINE
  5
65
330
1E
100
AcDbEntity
  8
0
100
AcDbLine
 10
140.4099999999999
 20
60.0042
 30
0.0
 11
142.11
 21
60.0042
 31
0.0
  0
LINE
  5
66
330
1E
100
AcDbEntity
  8
0
100
AcDbLine
 10
140.4099999999999
 20
60.0042
 30
0.0
 11
142.0099999999999
 21
60.0042
 31
0.0
  0
LINE
  5
67
330
1E
100
AcDbEntity
  8
0
100
AcDbLine
 10
139.4099999999999
 20
60.0042
 30
0.0
 11
140.4099999999999
 21
60.0042
 31
0.0
  0
LINE
  5
68
330
1E
100
AcDbEntity
  8
0
100
AcDbLine
 10
139.0099999999999
 20
60.0042
 30
0.0
 11
139.4099999999999
 21
60.0042
 31
0.0
  0
LINE
  5
69
330
1E
100
AcDbEntity
  8
0
100
AcDbLine
 10
215.2
 20
75.19580000000001
 30
0.0
 11
224.0
 21
73.9958
 31
0.0
  0
LINE
  5
6A
330
1E
100
AcDbEntity
  8
0
100
AcDbLine
 10
215.2
 20
75.19580000000001
 30
0.0
 11
224.0
 21
73.9958
 31
0.0
  0
LINE
  5
6B
330
1E
100
AcDbEntity
  8
0
100
AcDbLine
 10
224.0
 20
73.9958
 30
0.0
 11
232.8
 21
75.19580000000001
 31
0.0
  0
LINE
  5
6C
330
1E
100
AcDbEntity
  8
0
100
AcDbLine
 10
224.0
 20
73.9958
 30
0.0
 11
232.8
 21
75.19580000000001
 31
0.0
  0
LINE
  5
6D
330
1E
100
AcDbEntity
  8
0
100
AcDbLine
 10
135.0
 20
75.9958
 30
0.0
 11
135.4999999999999
 21
75.9958
 31
0.0
  0
LINE
  5
6E
330
1E
100
AcDbEntity
  8
0
100
AcDbLine
 10
135.0
 20
75.9958
 30
0.0
 11
135.0
 21
79.9958
 31
0.0
  0
LINE
  5
6F
330
1E
100
AcDbEntity
  8
0
100
AcDbLine
 10
135.4999999999999
 20
75.9958
 30
0.0
 11
136.8999999999999
 21
75.9958
 31
0.0
  0
LINE
  5
70
330
1E
100
AcDbEntity
  8
0
100
AcDbLine
 10
136.8999999999999
 20
75.9958
 30
0.0
 11
139.1
 21
75.9958
 31
0.0
  0
LINE
  5
71
330
1E
100
AcDbEntity
  8
0
100
AcDbLine
 10
139.1
 20
75.9958
 30
0.0
 11
142.0
 21
75.9958
 31
0.0
  0
LINE
  5
72
330
1E
100
AcDbEntity
  8
0
100
AcDbLine
 10
163.0
 20
75.9958
 30
0.0
 11
163.0
 21
79.9958
 31
0.0
  0
LINE
  5
73
330
1E
100
AcDbEntity
  8
0
100
AcDbLine
 10
162.5
 20
75.9958
 30
0.0
 11
163.0
 21
75.9958
 31
0.0
  0
LINE
  5
74
330
1E
100
AcDbEntity
  8
0
100
AcDbLine
 10
161.0999999999999
 20
75.9958
 30
0.0
 11
162.5
 21
75.9958
 31
0.0
  0
LINE
  5
75
330
1E
100
AcDbEntity
  8
0
100
AcDbLine
 10
158.9
 20
75.9958
 30
0.0
 11
161.0999999999999
 21
75.9958
 31
0.0
  0
LINE
  5
76
330
1E
100
AcDbEntity
  8
0
100
AcDbLine
 10
156.0
 20
75.9958
 30
0.0
 11
158.9
 21
75.9958
 31
0.0
  0
LINE
  5
77
330
1E
100
AcDbEntity
  8
0
100
AcDbLine
 10
152.5999999999999
 20
75.9958
 30
0.0
 11
156.0
 21
75.9958
 31
0.0
  0
LINE
  5
78
330
1E
100
AcDbEntity
  8
0
100
AcDbLine
 10
149.0
 20
75.9958
 30
0.0
 11
152.5999999999999
 21
75.9958
 31
0.0
  0
LINE
  5
79
330
1E
100
AcDbEntity
  8
0
100
AcDbLine
 10
142.0
 20
75.9958
 30
0.0
 11
145.4
 21
75.9958
 31
0.0
  0
LINE
  5
7A
330
1E
100
AcDbEntity
  8
0
100
AcDbLine
 10
145.4
 20
75.9958
 30
0.0
 11
149.0
 21
75.9958
 31
0.0
  0
LINE
  5
7B
330
1E
100
AcDbEntity
  8
0
100
AcDbLine
 10
138.476946666667
 20
75.9958
 30
0.0
 11
139.0099999999999
 21
60.0042
 31
0.0
  0
LINE
  5
7C
330
1E
100
AcDbEntity
  8
0
100
AcDbLine
 10
215.7
 20
77.1958
 30
0.0
 11
224.0
 21
75.9958
 31
0.0
  0
LINE
  5
7D
330
1E
100
AcDbEntity
  8
0
100
AcDbLine
 10
224.0
 20
75.9958
 30
0.0
 11
232.2999999999999
 21
77.1958
 31
0.0
  0
LINE
  5
7E
330
1E
100
AcDbEntity
  8
0
100
AcDbLine
 10
232.2999999999999
 20
77.1958
 30
0.0
 11
239.9
 21
80.29580000000001
 31
0.0
  0
LINE
  5
7F
330
1E
100
AcDbEntity
  8
0
100
AcDbLine
 10
232.8
 20
75.19580000000001
 30
0.0
 11
240.9
 21
78.5958
 31
0.0
  0
LINE
  5
80
330
1E
100
AcDbEntity
  8
0
100
AcDbLine
 10
82.79999999999999
 20
75.19580000000001
 30
0.0
 11
90.90000000000001
 21
78.5958
 31
0.0
  0
LINE
  5
81
330
1E
100
AcDbEntity
  8
0
100
AcDbLine
 10
207.1
 20
78.5958
 30
0.0
 11
215.2
 21
75.19580000000001
 31
0.0
  0
LINE
  5
82
330
1E
100
AcDbEntity
  8
0
100
AcDbLine
 10
207.1
 20
78.5958
 30
0.0
 11
215.2
 21
75.19580000000001
 31
0.0
  0
LINE
  5
83
330
1E
100
AcDbEntity
  8
0
100
AcDbLine
 10
240.9
 20
78.5958
 30
0.0
 11
248.0
 21
83.9958
 31
0.0
  0
LINE
  5
84
330
1E
100
AcDbEntity
  8
0
100
AcDbLine
 10
240.9
 20
78.5958
 30
0.0
 11
248.0
 21
83.9958
 31
0.0
  0
LINE
  5
85
330
1E
100
AcDbEntity
  8
0
100
AcDbLine
 10
90.90000000000001
 20
78.5958
 30
0.0
 11
98.0
 21
83.9958
 31
0.0
  0
LINE
  5
86
330
1E
100
AcDbEntity
  8
0
100
AcDbLine
 10
90.90000000000001
 20
78.5958
 30
0.0
 11
98.0
 21
83.9958
 31
0.0
  0
LINE
  5
87
330
1E
100
AcDbEntity
  8
0
100
AcDbLine
 10
65.7
 20
77.1958
 30
0.0
 11
74.0
 21
75.9958
 31
0.0
  0
LINE
  5
88
330
1E
100
AcDbEntity
  8
0
100
AcDbLine
 10
65.2
 20
75.19580000000001
 30
0.0
 11
74.0
 21
73.9958
 31
0.0
  0
LINE
  5
89
330
1E
100
AcDbEntity
  8
0
100
AcDbLine
 10
135.0
 20
79.9958
 30
0.0
 11
135.0
 21
75.9958
 31
0.0
  0
LINE
  5
8A
330
1E
100
AcDbEntity
  8
0
100
AcDbLine
 10
135.0
 20
79.9958
 30
0.0
 11
135.4999999999999
 21
79.9958
 31
0.0
  0
LINE
  5
8B
330
1E
100
AcDbEntity
  8
0
100
AcDbLine
 10
133.0
 20
79.9958
 30
0.0
 11
133.6
 21
79.9958
 31
0.0
  0
LINE
  5
8C
330
1E
100
AcDbEntity
  8
0
100
AcDbLine
 10
133.6
 20
79.9958
 30
0.0
 11
135.0999999999999
 21
79.9958
 31
0.0
  0
LINE
  5
8D
330
1E
100
AcDbEntity
  8
0
100
AcDbLine
 10
133.6
 20
79.9958
 30
0.0
 11
135.0
 21
79.9958
 31
0.0
  0
LINE
  5
8E
330
1E
100
AcDbEntity
  8
0
100
AcDbLine
 10
135.4999999999999
 20
79.9958
 30
0.0
 11
136.8999999999999
 21
79.9958
 31
0.0
  0
LINE
  5
8F
330
1E
100
AcDbEntity
  8
0
100
AcDbLine
 10
136.8999999999999
 20
79.9958
 30
0.0
 11
139.1
 21
79.9958
 31
0.0
  0
LINE
  5
90
330
1E
100
AcDbEntity
  8
0
100
AcDbLine
 10
139.1
 20
79.9958
 30
0.0
 11
142.0
 21
79.9958
 31
0.0
  0
LINE
  5
91
330
1E
100
AcDbEntity
  8
0
100
AcDbLine
 10
135.0999999999999
 20
79.9958
 30
0.0
 11
137.7
 21
79.9958
 31
0.0
  0
LINE
  5
92
330
1E
100
AcDbEntity
  8
0
100
AcDbLine
 10
137.7
 20
79.9958
 30
0.0
 11
141.0
 21
79.9958
 31
0.0
  0
LINE
  5
93
330
1E
100
AcDbEntity
  8
0
100
AcDbLine
 10
152.5999999999999
 20
79.9958
 30
0.0
 11
156.0
 21
79.9958
 31
0.0
  0
LINE
  5
94
330
1E
100
AcDbEntity
  8
0
100
AcDbLine
 10
142.0
 20
79.9958
 30
0.0
 11
145.4
 21
79.9958
 31
0.0
  0
LINE
  5
95
330
1E
100
AcDbEntity
  8
0
100
AcDbLine
 10
145.4
 20
79.9958
 30
0.0
 11
149.0
 21
79.9958
 31
0.0
  0
LINE
  5
96
330
1E
100
AcDbEntity
  8
0
100
AcDbLine
 10
158.9
 20
79.9958
 30
0.0
 11
161.0999999999999
 21
79.9958
 31
0.0
  0
LINE
  5
97
330
1E
100
AcDbEntity
  8
0
100
AcDbLine
 10
156.0
 20
79.9958
 30
0.0
 11
158.9
 21
79.9958
 31
0.0
  0
LINE
  5
98
330
1E
100
AcDbEntity
  8
0
100
AcDbLine
 10
162.5
 20
79.9958
 30
0.0
 11
163.0
 21
79.9958
 31
0.0
  0
LINE
  5
99
330
1E
100
AcDbEntity
  8
0
100
AcDbLine
 10
161.0999999999999
 20
79.9958
 30
0.0
 11
162.5
 21
79.9958
 31
0.0
  0
LINE
  5
9A
330
1E
100
AcDbEntity
  8
0
100
AcDbLine
 10
163.0
 20
79.9958
 30
0.0
 11
164.4
 21
79.9958
 31
0.0
  0
LINE
  5
9B
330
1E
100
AcDbEntity
  8
0
100
AcDbLine
 10
163.0
 20
79.9958
 30
0.0
 11
163.0
 21
75.9958
 31
0.0
  0
LINE
  5
9C
330
1E
100
AcDbEntity
  8
0
100
AcDbLine
 10
164.4
 20
79.9958
 30
0.0
 11
165.0
 21
79.9958
 31
0.0
  0
LINE
  5
9D
330
1E
100
AcDbEntity
  8
0
100
AcDbLine
 10
165.0
 20
79.9958
 30
0.0
 11
167.0
 21
81.9958
 31
0.0
  0
LINE
  5
9E
330
1E
100
AcDbEntity
  8
0
100
AcDbLine
 10
162.9
 20
79.9958
 30
0.0
 11
164.4
 21
79.9958
 31
0.0
  0
LINE
  5
9F
330
1E
100
AcDbEntity
  8
0
100
AcDbLine
 10
160.3
 20
79.9958
 30
0.0
 11
162.9
 21
79.9958
 31
0.0
  0
LINE
  5
A0
330
1E
100
AcDbEntity
  8
0
100
AcDbLine
 10
157.0
 20
79.9958
 30
0.0
 11
160.3
 21
79.9958
 31
0.0
  0
LINE
  5
A1
330
1E
100
AcDbEntity
  8
0
100
AcDbLine
 10
153.0999999999999
 20
79.9958
 30
0.0
 11
157.0
 21
79.9958
 31
0.0
  0
LINE
  5
A2
330
1E
100
AcDbEntity
  8
0
100
AcDbLine
 10
149.0
 20
79.9958
 30
0.0
 11
153.0999999999999
 21
79.9958
 31
0.0
  0
LINE
  5
A3
330
1E
100
AcDbEntity
  8
0
100
AcDbLine
 10
149.0
 20
79.9958
 30
0.0
 11
152.5999999999999
 21
79.9958
 31
0.0
  0
LINE
  5
A4
330
1E
100
AcDbEntity
  8
0
100
AcDbLine
 10
141.0
 20
79.9958
 30
0.0
 11
144.9
 21
79.9958
 31
0.0
  0
LINE
  5
A5
330
1E
100
AcDbEntity
  8
0
100
AcDbLine
 10
144.9
 20
79.9958
 30
0.0
 11
149.0
 21
79.9958
 31
0.0
  0
LINE
  5
A6
330
1E
100
AcDbEntity
  8
0
100
AcDbLine
 10
208.0999999999999
 20
80.29580000000001
 30
0.0
 11
215.7
 21
77.1958
 31
0.0
  0
LINE
  5
A7
330
1E
100
AcDbEntity
  8
0
100
AcDbLine
 10
239.9
 20
80.29580000000001
 30
0.0
 11
246.6
 21
85.39579999999999
 31
0.0
  0
LINE
  5
A8
330
1E
100
AcDbEntity
  8
0
100
AcDbLine
 10
89.9
 20
80.29580000000001
 30
0.0
 11
96.6
 21
85.39579999999999
 31
0.0
  0
LINE
  5
A9
330
1E
100
AcDbEntity
  8
0
100
AcDbLine
 10
53.14289999999999
 20
85.99580000000001
 30
0.0
 11
54.8571
 21
85.99580000000001
 31
0.0
  0
LINE
  5
AD
330
1E
100
AcDbEntity
  8
0
100
AcDbLine
 10
52.0
 20
86.9958
 30
0.0
 11
53.14289999999999
 21
85.99580000000001
 31
0.0
  0
LINE
  5
AE
330
1E
100
AcDbEntity
  8
0
100
AcDbLine
 10
52.0
 20
86.9958
 30
0.0
 11
52.0
 21
87.79580000000001
 31
0.0
  0
LINE
  5
B1
330
1E
100
AcDbEntity
  8
0
100
AcDbLine
 10
56.0
 20
86.9958
 30
0.0
 11
56.0
 21
87.79580000000001
 31
0.0
  0
LINE
  5
B2
330
1E
100
AcDbEntity
  8
0
100
AcDbLine
 10
54.8571
 20
85.99580000000001
 30
0.0
 11
56.0
 21
86.9958
 31
0.0
  0
LINE
  5
B4
330
1E
100
AcDbEntity
  8
0
100
AcDbLine
 10
57.0
 20
86.9958
 30
0.0
 11
131.0
 21
86.9958
 31
0.0
  0
LINE
  5
B5
330
1E
100
AcDbEntity
  8
0
100
AcDbLine
 10
57.0
 20
86.9958
 30
0.0
 11
57.0
 21
87.79580000000001
 31
0.0
  0
LINE
  5
B6
330
1E
100
AcDbEntity
  8
0
100
AcDbLine
 10
96.6
 20
85.39579999999999
 30
0.0
 11
97.8179104477612
 21
86.9958
 31
0.0
  0
LINE
  5
B7
330
1E
100
AcDbEntity
  8
0
100
AcDbLine
 10
98.0
 20
83.9958
 30
0.0
 11
100.2816901408449
 21
86.9958
 31
0.0
  0
LINE
  5
B8
330
1E
100
AcDbEntity
  8
0
100
AcDbLine
 10
131.0
 20
81.9958
 30
0.0
 11
131.6999999999999
 21
81.9958
 31
0.0
  0
LINE
  5
B9
330
1E
100
AcDbEntity
  8
0
100
AcDbLine
 10
131.0
 20
81.9958
 30
0.0
 11
131.0
 21
82.9958
 31
0.0
  0
LINE
  5
BA
330
1E
100
AcDbEntity
  8
0
100
AcDbLine
 10
131.0
 20
81.9958
 30
0.0
 11
133.0
 21
79.9958
 31
0.0
  0
LINE
  5
BB
330
1E
100
AcDbEntity
  8
0
100
AcDbLine
 10
131.6999999999999
 20
81.9958
 30
0.0
 11
133.4
 21
81.9958
 31
0.0
  0
LINE
  5
BC
330
1E
100
AcDbEntity
  8
0
100
AcDbLine
 10
133.4
 20
81.9958
 30
0.0
 11
136.3
 21
81.9958
 31
0.0
  0
LINE
  5
BD
330
1E
100
AcDbEntity
  8
0
100
AcDbLine
 10
136.3
 20
81.9958
 30
0.0
 11
140.0
 21
81.9958
 31
0.0
  0
LINE
  5
BE
330
1E
100
AcDbEntity
  8
0
100
AcDbLine
 10
166.3
 20
81.9958
 30
0.0
 11
167.0
 21
81.9958
 31
0.0
  0
LINE
  5
BF
330
1E
100
AcDbEntity
  8
0
100
AcDbLine
 10
167.0
 20
81.9958
 30
0.0
 11
167.0
 21
82.9958
 31
0.0
  0
LINE
  5
C0
330
1E
100
AcDbEntity
  8
0
100
AcDbLine
 10
164.5999999999999
 20
81.9958
 30
0.0
 11
166.3
 21
81.9958
 31
0.0
  0
LINE
  5
C1
330
1E
100
AcDbEntity
  8
0
100
AcDbLine
 10
161.6999999999999
 20
81.9958
 30
0.0
 11
164.5999999999999
 21
81.9958
 31
0.0
  0
LINE
  5
C2
330
1E
100
AcDbEntity
  8
0
100
AcDbLine
 10
158.0
 20
81.9958
 30
0.0
 11
161.6999999999999
 21
81.9958
 31
0.0
  0
LINE
  5
C3
330
1E
100
AcDbEntity
  8
0
100
AcDbLine
 10
153.6
 20
81.9958
 30
0.0
 11
158.0
 21
81.9958
 31
0.0
  0
LINE
  5
C4
330
1E
100
AcDbEntity
  8
0
100
AcDbLine
 10
149.0
 20
81.9958
 30
0.0
 11
153.6
 21
81.9958
 31
0.0
  0
LINE
  5
C5
330
1E
100
AcDbEntity
  8
0
100
AcDbLine
 10
140.0
 20
81.9958
 30
0.0
 11
144.4
 21
81.9958
 31
0.0
  0
LINE
  5
C6
330
1E
100
AcDbEntity
  8
0
100
AcDbLine
 10
167.0
 20
82.9958
 30
0.0
 11
167.0
 21
88.29579999999999
 31
0.0
  0
LINE
  5
C7
330
1E
100
AcDbEntity
  8
0
100
AcDbLine
 10
167.0
 20
82.9958
 30
0.0
 11
167.0
 21
81.9958
 31
0.0
  0
LINE
  5
C8
330
1E
100
AcDbEntity
  8
0
100
AcDbLine
 10
144.4
 20
81.9958
 30
0.0
 11
149.0
 21
81.9958
 31
0.0
  0
LINE
  5
C9
330
1E
100
AcDbEntity
  8
0
100
AcDbLine
 10
131.0
 20
82.9958
 30
0.0
 11
131.0
 21
88.29579999999999
 31
0.0
  0
LINE
  5
CA
330
1E
100
AcDbEntity
  8
0
100
AcDbLine
 10
131.0
 20
82.9958
 30
0.0
 11
131.0
 21
81.9958
 31
0.0
  0
LINE
  5
CB
330
1E
100
AcDbEntity
  8
0
100
AcDbLine
 10
167.0
 20
86.9958
 30
0.0
 11
241.0
 21
86.9958
 31
0.0
  0
LINE
  5
CC
330
1E
100
AcDbEntity
  8
0
100
AcDbLine
 10
200.0
 20
83.9958
 30
0.0
 11
207.1
 21
78.5958
 31
0.0
  0
LINE
  5
CD
330
1E
100
AcDbEntity
  8
0
100
AcDbLine
 10
241.0
 20
86.9958
 30
0.0
 11
241.0
 21
87.79580000000001
 31
0.0
  0
LINE
  5
CE
330
1E
100
AcDbEntity
  8
0
100
AcDbLine
 10
201.4
 20
85.39579999999999
 30
0.0
 11
208.0999999999999
 21
80.29580000000001
 31
0.0
  0
LINE
  5
CF
330
1E
100
AcDbEntity
  8
0
100
AcDbLine
 10
200.1820895522389
 20
86.9958
 30
0.0
 11
201.4
 21
85.39579999999999
 31
0.0
  0
LINE
  5
D0
330
1E
100
AcDbEntity
  8
0
100
AcDbLine
 10
200.0
 20
83.9958
 30
0.0
 11
207.1
 21
78.5958
 31
0.0
  0
LINE
  5
D1
330
1E
100
AcDbEntity
  8
0
100
AcDbLine
 10
197.7183098591549
 20
86.9958
 30
0.0
 11
200.0
 21
83.9958
 31
0.0
  0
LINE
  5
D2
330
1E
100
AcDbEntity
  8
0
100
AcDbLine
 10
197.7183098591549
 20
86.9958
 30
0.0
 11
200.0
 21
83.9958
 31
0.0
  0
LINE
  5
D3
330
1E
100
AcDbEntity
  8
0
100
AcDbLine
 10
98.0
 20
83.9958
 30
0.0
 11
100.2816901408449
 21
86.9958
 31
0.0
  0
LINE
  5
D4
330
1E
100
AcDbEntity
  8
0
100
AcDbLine
 10
58.1
 20
80.29580000000001
 30
0.0
 11
65.7
 21
77.1958
 31
0.0
  0
LINE
  5
D5
330
1E
100
AcDbEntity
  8
0
100
AcDbLine
 10
51.4
 20
85.39579999999999
 30
0.0
 11
58.1
 21
80.29580000000001
 31
0.0
  0
LINE
  5
D6
330
1E
100
AcDbEntity
  8
0
100
AcDbLine
 10
57.1
 20
78.5958
 30
0.0
 11
65.2
 21
75.19580000000001
 31
0.0
  0
LINE
  5
D7
330
1E
100
AcDbEntity
  8
0
100
AcDbLine
 10
57.1
 20
78.5958
 30
0.0
 11
65.2
 21
75.19580000000001
 31
0.0
  0
LINE
  5
D8
330
1E
100
AcDbEntity
  8
0
100
AcDbLine
 10
50.0
 20
83.9958
 30
0.0
 11
57.1
 21
78.5958
 31
0.0
  0
LINE
  5
D9
330
1E
100
AcDbEntity
  8
0
100
AcDbLine
 10
21.0
 20
88.9958
 30
0.0
 11
21.2
 21
85.99580000000001
 31
0.0
  0
LINE
  5
DA
330
1E
100
AcDbEntity
  8
0
100
AcDbLine
 10
7.0
 20
88.9958
 30
0.0
 11
8.0
 21
92.9958
 31
0.0
  0
LINE
  5
DB
330
1E
100
AcDbEntity
  8
0
100
AcDbLine
 10
46.566
 20
88.9958
 30
0.0
 11
52.0
 21
87.9958
 31
0.0
  0
LINE
  5
DC
330
1E
100
AcDbEntity
  8
0
100
AcDbLine
 10
52.0
 20
87.79580000000001
 30
0.0
 11
52.0
 21
86.9958
 31
0.0
  0
LINE
  5
DD
330
1E
100
AcDbEntity
  8
0
100
AcDbLine
 10
52.0
 20
87.79580000000001
 30
0.0
 11
52.0
 21
89.7958
 31
0.0
  0
LINE
  5
DE
330
1E
100
AcDbEntity
  8
0
100
AcDbLine
 10
52.0
 20
87.79580000000001
 30
0.0
 11
52.0
 21
87.9958
 31
0.0
  0
LINE
  5
DF
330
1E
100
AcDbEntity
  8
0
100
AcDbLine
 10
56.0
 20
87.79580000000001
 30
0.0
 11
56.0
 21
89.7958
 31
0.0
  0
LINE
  5
E0
330
1E
100
AcDbEntity
  8
0
100
AcDbLine
 10
241.0
 20
87.79580000000001
 30
0.0
 11
241.0
 21
89.7958
 31
0.0
  0
LINE
  5
E1
330
1E
100
AcDbEntity
  8
0
100
AcDbLine
 10
241.0
 20
87.79580000000001
 30
0.0
 11
241.0
 21
86.9958
 31
0.0
  0
LINE
  5
E2
330
1E
100
AcDbEntity
  8
0
100
AcDbLine
 10
57.0
 20
87.79580000000001
 30
0.0
 11
57.0
 21
86.9958
 31
0.0
  0
LINE
  5
E3
330
1E
100
AcDbEntity
  8
0
100
AcDbLine
 10
57.0
 20
87.79580000000001
 30
0.0
 11
57.0
 21
89.7958
 31
0.0
  0
LINE
  5
E4
330
1E
100
AcDbEntity
  8
0
100
AcDbLine
 10
57.0
 20
87.79580000000001
 30
0.0
 11
57.0
 21
88.49580000000001
 31
0.0
  0
LINE
  5
E5
330
1E
100
AcDbEntity
  8
0
100
AcDbLine
 10
167.0
 20
88.29579999999999
 30
0.0
 11
167.0
 21
93.8958
 31
0.0
  0
LINE
  5
E6
330
1E
100
AcDbEntity
  8
0
100
AcDbLine
 10
167.0
 20
88.29579999999999
 30
0.0
 11
167.0
 21
82.9958
 31
0.0
  0
LINE
  5
E7
330
1E
100
AcDbEntity
  8
0
100
AcDbLine
 10
131.0
 20
88.29579999999999
 30
0.0
 11
131.0
 21
93.8958
 31
0.0
  0
LINE
  5
E8
330
1E
100
AcDbEntity
  8
0
100
AcDbLine
 10
131.0
 20
88.29579999999999
 30
0.0
 11
131.0
 21
82.9958
 31
0.0
  0
LINE
  5
E9
330
1E
100
AcDbEntity
  8
0
100
AcDbLine
 10
241.0
 20
88.49580000000001
 30
0.0
 11
243.0
 21
88.49580000000001
 31
0.0
  0
LINE
  5
EA
330
1E
100
AcDbEntity
  8
0
100
AcDbLine
 10
243.0
 20
88.49580000000001
 30
0.0
 11
243.0
 21
89.19580000000001
 31
0.0
  0
LINE
  5
EB
330
1E
100
AcDbEntity
  8
0
100
AcDbLine
 10
56.0
 20
88.49580000000001
 30
0.0
 11
57.0
 21
88.49580000000001
 31
0.0
  0
LINE
  5
F0
330
1E
100
AcDbEntity
  8
0
100
AcDbLine
 10
57.0
 20
88.49580000000001
 30
0.0
 11
57.0
 21
87.79580000000001
 31
0.0
  0
LINE
  5
F1
330
1E
100
AcDbEntity
  8
0
100
AcDbLine
 10
57.0
 20
88.49580000000001
 30
0.0
 11
57.0
 21
89.19580000000001
 31
0.0
  0
LINE
  5
F2
330
1E
100
AcDbEntity
  8
0
100
AcDbLine
 10
52.0
 20
88.6958
 30
0.0
 11
52.0
 21
90.6958
 31
0.0
  0
LINE
  5
F3
330
1E
100
AcDbEntity
  8
0
100
AcDbLine
 10
52.0
 20
88.6958
 30
0.0
 11
52.0
 21
87.9958
 31
0.0
  0
LINE
  5
F4
330
1E
100
AcDbEntity
  8
0
100
AcDbLine
 10
52.0
 20
87.9958
 30
0.0
 11
52.0
 21
88.6958
 31
0.0
  0
LINE
  5
F5
330
1E
100
AcDbEntity
  8
0
100
AcDbLine
 10
52.0
 20
87.9958
 30
0.0
 11
52.0
 21
87.79580000000001
 31
0.0
  0
LINE
  5
F6
330
1E
100
AcDbEntity
  8
0
100
AcDbLine
 10
49.000762749219
 20
88.54773913337892
 30
0.0
 11
51.4
 21
85.39579999999999
 31
0.0
  0
LINE
  5
F7
330
1E
100
AcDbEntity
  8
0
100
AcDbLine
 10
243.0
 20
89.19580000000001
 30
0.0
 11
243.0
 21
91.09579999999999
 31
0.0
  0
LINE
  5
F8
330
1E
100
AcDbEntity
  8
0
100
AcDbLine
 10
57.0
 20
89.19580000000001
 30
0.0
 11
57.0
 21
88.49580000000001
 31
0.0
  0
LINE
  5
F9
330
1E
100
AcDbEntity
  8
0
100
AcDbLine
 10
57.0
 20
89.19580000000001
 30
0.0
 11
57.0
 21
91.09579999999999
 31
0.0
  0
LINE
  5
FA
330
1E
100
AcDbEntity
  8
0
100
AcDbLine
 10
46.06867662829221
 20
89.16476221094921
 30
0.0
 11
50.0
 21
83.9958
 31
0.0
  0
LINE
  5
FB
330
1E
100
AcDbEntity
  8
0
100
AcDbLine
 10
46.06867662829221
 20
89.16476221094921
 30
0.0
 11
50.0
 21
83.9958
 31
0.0
  0
LINE
  5
FC
330
1E
100
AcDbEntity
  8
0
100
AcDbLine
 10
8.0
 20
92.9958
 30
0.0
 11
9.11764705882352
 21
95.97619215686279
 31
0.0
  0
LINE
  5
FD
330
1E
100
AcDbEntity
  8
0
100
AcDbLine
 10
9.0
 20
95.99580000000001
 30
0.0
 11
9.16600790513833
 21
95.9681320158103
 31
0.0
  0
LINE
  5
FE
330
1E
100
AcDbEntity
  8
0
100
AcDbLine
 10
20.0
 20
92.9958
 30
0.0
 11
21.0
 21
88.9958
 31
0.0
  0
LINE
  5
FF
330
1E
100
AcDbEntity
  8
0
100
AcDbLine
 10
18.8823529411765
 20
95.97619215686279
 30
0.0
 11
19.0
 21
95.99580000000001
 31
0.0
  0
LINE
  5
100
330
1E
100
AcDbEntity
  8
0
100
AcDbLine
 10
18.8823529411765
 20
95.97619215686279
 30
0.0
 11
20.0
 21
92.9958
 31
0.0
  0
LINE
  5
101
330
1E
100
AcDbEntity
  8
0
100
AcDbLine
 10
4.5
 20
96.4958
 30
0.0
 11
5.5
 21
96.4958
 31
0.0
  0
LINE
  5
105
330
1E
100
AcDbEntity
  8
0
100
AcDbLine
 10
4.0
 20
97.3958
 30
0.0
 11
4.0
 21
96.9958
 31
0.0
  0
LINE
  5
106
330
1E
100
AcDbEntity
  8
0
100
AcDbLine
 10
4.0
 20
97.3958
 30
0.0
 11
4.0
 21
98.49580000000001
 31
0.0
  0
LINE
  5
107
330
1E
100
AcDbEntity
  8
0
100
AcDbLine
 10
4.0
 20
96.9958
 30
0.0
 11
4.5
 21
96.4958
 31
0.0
  0
LINE
  5
108
330
1E
100
AcDbEntity
  8
0
100
AcDbLine
 10
4.0
 20
96.9958
 30
0.0
 11
4.0
 21
97.3958
 31
0.0
  0
LINE
  5
10B
330
1E
100
AcDbEntity
  8
0
100
AcDbLine
 10
5.5
 20
96.4958
 30
0.0
 11
6.0
 21
96.9958
 31
0.0
  0
LINE
  5
10D
330
1E
100
AcDbEntity
  8
0
100
AcDbLine
 10
6.0
 20
97.3958
 30
0.0
 11
6.0
 21
96.9958
 31
0.0
  0
LINE
  5
10E
330
1E
100
AcDbEntity
  8
0
100
AcDbLine
 10
6.0
 20
97.3958
 30
0.0
 11
6.0
 21
98.49580000000001
 31
0.0
  0
LINE
  5
10F
330
1E
100
AcDbEntity
  8
0
100
AcDbLine
 10
6.0
 20
96.9958
 30
0.0
 11
9.0
 21
95.99580000000001
 31
0.0
  0
LINE
  5
110
330
1E
100
AcDbEntity
  8
0
100
AcDbLine
 10
6.0
 20
96.9958
 30
0.0
 11
6.0
 21
97.3958
 31
0.0
  0
LINE
  5
111
330
1E
100
AcDbEntity
  8
0
100
AcDbLine
 10
19.0
 20
95.99580000000001
 30
0.0
 11
22.0
 21
96.9958
 31
0.0
  0
LINE
  5
112
330
1E
100
AcDbEntity
  8
0
100
AcDbLine
 10
52.0
 20
89.7958
 30
0.0
 11
52.0
 21
87.79580000000001
 31
0.0
  0
LINE
  5
113
330
1E
100
AcDbEntity
  8
0
100
AcDbLine
 10
52.0
 20
89.7958
 30
0.0
 11
52.0
 21
93.1958
 31
0.0
  0
LINE
  5
114
330
1E
100
AcDbEntity
  8
0
100
AcDbLine
 10
56.0
 20
89.7958
 30
0.0
 11
56.0
 21
93.1958
 31
0.0
  0
LINE
  5
115
330
1E
100
AcDbEntity
  8
0
100
AcDbLine
 10
241.0
 20
89.7958
 30
0.0
 11
241.0
 21
93.1958
 31
0.0
  0
LINE
  5
116
330
1E
100
AcDbEntity
  8
0
100
AcDbLine
 10
241.0
 20
89.7958
 30
0.0
 11
241.0
 21
87.79580000000001
 31
0.0
  0
LINE
  5
117
330
1E
100
AcDbEntity
  8
0
100
AcDbLine
 10
57.0
 20
89.7958
 30
0.0
 11
57.0
 21
87.79580000000001
 31
0.0
  0
LINE
  5
118
330
1E
100
AcDbEntity
  8
0
100
AcDbLine
 10
57.0
 20
89.7958
 30
0.0
 11
57.0
 21
93.1958
 31
0.0
  0
LINE
  5
119
330
1E
100
AcDbEntity
  8
0
100
AcDbLine
 10
30.71699999999999
 20
95.99580000000001
 30
0.0
 11
35.2453
 21
93.49580000000001
 31
0.0
  0
LINE
  5
11A
330
1E
100
AcDbEntity
  8
0
100
AcDbLine
 10
52.0
 20
97.49580000000001
 30
0.0
 11
52.0
 21
93.1958
 31
0.0
  0
LINE
  5
11B
330
1E
100
AcDbEntity
  8
0
100
AcDbLine
 10
52.0
 20
97.49580000000001
 30
0.0
 11
52.0
 21
102.5957999999999
 31
0.0
  0
LINE
  5
11C
330
1E
100
AcDbEntity
  8
0
100
AcDbLine
 10
52.0
 20
93.1958
 30
0.0
 11
52.0
 21
89.7958
 31
0.0
  0
LINE
  5
11D
330
1E
100
AcDbEntity
  8
0
100
AcDbLine
 10
52.0
 20
93.1958
 30
0.0
 11
52.0
 21
97.49580000000001
 31
0.0
  0
LINE
  5
11E
330
1E
100
AcDbEntity
  8
0
100
AcDbLine
 10
35.2453
 20
93.49580000000001
 30
0.0
 11
40.67919999999999
 21
90.99580000000001
 31
0.0
  0
LINE
  5
11F
330
1E
100
AcDbEntity
  8
0
100
AcDbLine
 10
40.67919999999999
 20
90.99580000000001
 30
0.0
 11
46.566
 21
88.9958
 31
0.0
  0
LINE
  5
122
330
1E
100
AcDbEntity
  8
0
100
AcDbLine
 10
56.0
 20
93.1958
 30
0.0
 11
56.0
 21
97.49580000000001
 31
0.0
  0
LINE
  5
125
330
1E
100
AcDbEntity
  8
0
100
AcDbLine
 10
57.0
 20
91.09579999999999
 30
0.0
 11
57.0
 21
89.19580000000001
 31
0.0
  0
LINE
  5
126
330
1E
100
AcDbEntity
  8
0
100
AcDbLine
 10
57.0
 20
91.09579999999999
 30
0.0
 11
57.0
 21
94.19580000000001
 31
0.0
  0
LINE
  5
129
330
1E
100
AcDbEntity
  8
0
100
AcDbLine
 10
56.0
 20
97.49580000000001
 30
0.0
 11
56.0
 21
102.5957999999999
 31
0.0
  0
LINE
  5
12C
330
1E
100
AcDbEntity
  8
0
100
AcDbLine
 10
57.0
 20
94.19580000000001
 30
0.0
 11
57.0
 21
91.09579999999999
 31
0.0
  0
LINE
  5
12D
330
1E
100
AcDbEntity
  8
0
100
AcDbLine
 10
57.0
 20
94.19580000000001
 30
0.0
 11
57.0
 21
98.29579999999999
 31
0.0
  0
LINE
  5
12E
330
1E
100
AcDbEntity
  8
0
100
AcDbLine
 10
57.0
 20
93.1958
 30
0.0
 11
57.0
 21
89.7958
 31
0.0
  0
LINE
  5
12F
330
1E
100
AcDbEntity
  8
0
100
AcDbLine
 10
57.0
 20
93.1958
 30
0.0
 11
57.0
 21
97.49580000000001
 31
0.0
  0
LINE
  5
130
330
1E
100
AcDbEntity
  8
0
100
AcDbLine
 10
241.0
 20
93.1958
 30
0.0
 11
241.0
 21
97.49580000000001
 31
0.0
  0
LINE
  5
131
330
1E
100
AcDbEntity
  8
0
100
AcDbLine
 10
241.0
 20
93.1958
 30
0.0
 11
241.0
 21
89.7958
 31
0.0
  0
LINE
  5
132
330
1E
100
AcDbEntity
  8
0
100
AcDbLine
 10
167.0
 20
93.8958
 30
0.0
 11
167.1
 21
99.39579999999999
 31
0.0
  0
LINE
  5
133
330
1E
100
AcDbEntity
  8
0
100
AcDbLine
 10
167.0
 20
93.8958
 30
0.0
 11
167.0
 21
88.29579999999999
 31
0.0
  0
LINE
  5
134
330
1E
100
AcDbEntity
  8
0
100
AcDbLine
 10
131.0
 20
93.8958
 30
0.0
 11
131.0
 21
88.29579999999999
 31
0.0
  0
LINE
  5
135
330
1E
100
AcDbEntity
  8
0
100
AcDbLine
 10
243.0
 20
91.09579999999999
 30
0.0
 11
243.0
 21
94.19580000000001
 31
0.0
  0
LINE
  5
136
330
1E
100
AcDbEntity
  8
0
100
AcDbLine
 10
167.0622879036669
 20
97.3216347016968
 30
0.0
 11
167.1999999999999
 21
97.49580000000001
 31
0.0
  0
LINE
  5
137
330
1E
100
AcDbEntity
  8
0
100
AcDbLine
 10
241.0
 20
97.49580000000001
 30
0.0
 11
241.0
 21
102.5957999999999
 31
0.0
  0
LINE
  5
138
330
1E
100
AcDbEntity
  8
0
100
AcDbLine
 10
241.0
 20
97.49580000000001
 30
0.0
 11
241.0
 21
93.1958
 31
0.0
  0
LINE
  5
139
330
1E
100
AcDbEntity
  8
0
100
AcDbLine
 10
167.1999999999999
 20
97.49580000000001
 30
0.0
 11
169.1999999999999
 21
102.5957999999999
 31
0.0
  0
LINE
  5
13A
330
1E
100
AcDbEntity
  8
0
100
AcDbLine
 10
243.0
 20
94.19580000000001
 30
0.0
 11
243.0
 21
98.29579999999999
 31
0.0
  0
LINE
  5
13B
330
1E
100
AcDbEntity
  8
0
100
AcDbLine
 10
130.8
 20
97.49580000000001
 30
0.0
 11
130.937712096333
 21
97.3216347016968
 31
0.0
  0
LINE
  5
13C
330
1E
100
AcDbEntity
  8
0
100
AcDbLine
 10
57.0
 20
97.49580000000001
 30
0.0
 11
57.0
 21
93.1958
 31
0.0
  0
LINE
  5
13D
330
1E
100
AcDbEntity
  8
0
100
AcDbLine
 10
57.0
 20
97.49580000000001
 30
0.0
 11
57.0
 21
102.5957999999999
 31
0.0
  0
LINE
  5
13E
330
1E
100
AcDbEntity
  8
0
100
AcDbLine
 10
52.0
 20
93.8958
 30
0.0
 11
52.0
 21
97.9958
 31
0.0
  0
LINE
  5
13F
330
1E
100
AcDbEntity
  8
0
100
AcDbLine
 10
52.0
 20
93.8958
 30
0.0
 11
52.0
 21
90.6958
 31
0.0
  0
LINE
  5
140
330
1E
100
AcDbEntity
  8
0
100
AcDbLine
 10
52.0
 20
90.6958
 30
0.0
 11
52.0
 21
93.8958
 31
0.0
  0
LINE
  5
141
330
1E
100
AcDbEntity
  8
0
100
AcDbLine
 10
52.0
 20
90.6958
 30
0.0
 11
52.0
 21
88.6958
 31
0.0
  0
LINE
  5
142
330
1E
100
AcDbEntity
  8
0
100
AcDbLine
 10
22.0
 20
96.9958
 30
0.0
 11
25.0
 21
98.9958
 31
0.0
  0
LINE
  5
145
330
1E
100
AcDbEntity
  8
0
100
AcDbLine
 10
4.0
 20
98.49580000000001
 30
0.0
 11
4.0
 21
97.3958
 31
0.0
  0
LINE
  5
146
330
1E
100
AcDbEntity
  8
0
100
AcDbLine
 10
4.0
 20
98.49580000000001
 30
0.0
 11
4.0
 21
100.1958
 31
0.0
  0
LINE
  5
149
330
1E
100
AcDbEntity
  8
0
100
AcDbLine
 10
6.0
 20
98.49580000000001
 30
0.0
 11
6.0
 21
97.3958
 31
0.0
  0
LINE
  5
14A
330
1E
100
AcDbEntity
  8
0
100
AcDbLine
 10
6.0
 20
98.49580000000001
 30
0.0
 11
6.0
 21
100.1958
 31
0.0
  0
LINE
  5
14D
330
1E
100
AcDbEntity
  8
0
100
AcDbLine
 10
1.5
 20
100.7957999999999
 30
0.0
 11
4.0
 21
96.9958
 31
0.0
  0
LINE
  5
14E
330
1E
100
AcDbEntity
  8
0
100
AcDbLine
 10
1.5
 20
100.7957999999999
 30
0.0
 11
4.0
 21
96.9958
 31
0.0
  0
LINE
  5
14F
330
1E
100
AcDbEntity
  8
0
100
AcDbLine
 10
4.0
 20
100.1958
 30
0.0
 11
4.0
 21
98.49580000000001
 31
0.0
  0
LINE
  5
150
330
1E
100
AcDbEntity
  8
0
100
AcDbLine
 10
4.0
 20
100.1958
 30
0.0
 11
4.0
 21
102.4958
 31
0.0
  0
LINE
  5
153
330
1E
100
AcDbEntity
  8
0
100
AcDbLine
 10
16.0
 20
100.7957999999999
 30
0.0
 11
17.8
 21
101.4958
 31
0.0
  0
LINE
  5
154
330
1E
100
AcDbEntity
  8
0
100
AcDbLine
 10
14.0
 20
100.4958
 30
0.0
 11
16.0
 21
100.7957999999999
 31
0.0
  0
LINE
  5
155
330
1E
100
AcDbEntity
  8
0
100
AcDbLine
 10
17.8
 20
101.4958
 30
0.0
 11
19.3
 21
102.6958
 31
0.0
  0
LINE
  5
156
330
1E
100
AcDbEntity
  8
0
100
AcDbLine
 10
10.2
 20
101.4958
 30
0.0
 11
12.0
 21
100.7957999999999
 31
0.0
  0
LINE
  5
157
330
1E
100
AcDbEntity
  8
0
100
AcDbLine
 10
12.0
 20
100.7957999999999
 30
0.0
 11
14.0
 21
100.4958
 31
0.0
  0
LINE
  5
158
330
1E
100
AcDbEntity
  8
0
100
AcDbLine
 10
6.0
 20
100.1958
 30
0.0
 11
6.0
 21
98.49580000000001
 31
0.0
  0
LINE
  5
159
330
1E
100
AcDbEntity
  8
0
100
AcDbLine
 10
6.0
 20
100.1958
 30
0.0
 11
6.0
 21
102.4958
 31
0.0
  0
LINE
  5
15A
330
1E
100
AcDbEntity
  8
0
100
AcDbLine
 10
0.199999999999997
 20
104.6958
 30
0.0
 11
1.5
 21
100.7957999999999
 31
0.0
  0
LINE
  5
15B
330
1E
100
AcDbEntity
  8
0
100
AcDbLine
 10
0.199999999999997
 20
104.6958
 30
0.0
 11
1.5
 21
100.7957999999999
 31
0.0
  0
LINE
  5
15C
330
1E
100
AcDbEntity
  8
0
100
AcDbLine
 10
4.0
 20
102.4958
 30
0.0
 11
4.0
 21
100.1958
 31
0.0
  0
LINE
  5
15D
330
1E
100
AcDbEntity
  8
0
100
AcDbLine
 10
4.0
 20
102.4958
 30
0.0
 11
4.0
 21
105.1958
 31
0.0
  0
LINE
  5
162
330
1E
100
AcDbEntity
  8
0
100
AcDbLine
 10
4.0
 20
105.1958
 30
0.0
 11
4.0
 21
102.4958
 31
0.0
  0
LINE
  5
163
330
1E
100
AcDbEntity
  8
0
100
AcDbLine
 10
4.0
 20
105.1958
 30
0.0
 11
4.0
 21
107.9957999999999
 31
0.0
  0
LINE
  5
168
330
1E
100
AcDbEntity
  8
0
100
AcDbLine
 10
6.0
 20
105.1958
 30
0.0
 11
6.0
 21
102.4958
 31
0.0
  0
LINE
  5
169
330
1E
100
AcDbEntity
  8
0
100
AcDbLine
 10
6.0
 20
105.1958
 30
0.0
 11
6.0
 21
107.9957999999999
 31
0.0
  0
LINE
  5
16A
330
1E
100
AcDbEntity
  8
0
100
AcDbLine
 10
19.3
 20
102.6958
 30
0.0
 11
20.5
 21
104.1958
 31
0.0
  0
LINE
  5
16B
330
1E
100
AcDbEntity
  8
0
100
AcDbLine
 10
20.5
 20
104.1958
 30
0.0
 11
21.2
 21
105.9957999999999
 31
0.0
  0
LINE
  5
16C
330
1E
100
AcDbEntity
  8
0
100
AcDbLine
 10
7.5
 20
104.1958
 30
0.0
 11
8.699999999999999
 21
102.6958
 31
0.0
  0
LINE
  5
16D
330
1E
100
AcDbEntity
  8
0
100
AcDbLine
 10
8.699999999999999
 20
102.6958
 30
0.0
 11
10.2
 21
101.4958
 31
0.0
  0
LINE
  5
16E
330
1E
100
AcDbEntity
  8
0
100
AcDbLine
 10
6.0
 20
102.4958
 30
0.0
 11
6.0
 21
100.1958
 31
0.0
  0
LINE
  5
16F
330
1E
100
AcDbEntity
  8
0
100
AcDbLine
 10
6.0
 20
102.4958
 30
0.0
 11
6.0
 21
105.1958
 31
0.0
  0
LINE
  5
170
330
1E
100
AcDbEntity
  8
0
100
AcDbLine
 10
-0.0000000000000027
 20
107.9957999999999
 30
0.0
 11
0.199999999999997
 21
104.6958
 31
0.0
  0
LINE
  5
171
330
1E
100
AcDbEntity
  8
0
100
AcDbLine
 10
-0.0000000000000027
 20
107.9957999999999
 30
0.0
 11
0.199999999999997
 21
111.2958
 31
0.0
  0
LINE
  5
172
330
1E
100
AcDbEntity
  8
0
100
AcDbLine
 10
4.0
 20
107.9957999999999
 30
0.0
 11
4.0
 21
105.1958
 31
0.0
  0
LINE
  5
173
330
1E
100
AcDbEntity
  8
0
100
AcDbLine
 10
4.0
 20
107.9957999999999
 30
0.0
 11
4.0
 21
110.7957999999999
 31
0.0
  0
LINE
  5
178
330
1E
100
AcDbEntity
  8
0
100
AcDbLine
 10
21.2
 20
105.9957999999999
 30
0.0
 11
21.49999999999999
 21
107.9957999999999
 31
0.0
  0
LINE
  5
179
330
1E
100
AcDbEntity
  8
0
100
AcDbLine
 10
6.799999999999999
 20
105.9957999999999
 30
0.0
 11
7.5
 21
104.1958
 31
0.0
  0
LINE
  5
17A
330
1E
100
AcDbEntity
  8
0
100
AcDbLine
 10
6.5
 20
107.9957999999999
 30
0.0
 11
6.799999999999999
 21
109.9957999999999
 31
0.0
  0
LINE
  5
17B
330
1E
100
AcDbEntity
  8
0
100
AcDbLine
 10
6.5
 20
107.9957999999999
 30
0.0
 11
6.799999999999999
 21
105.9957999999999
 31
0.0
  0
LINE
  5
17C
330
1E
100
AcDbEntity
  8
0
100
AcDbLine
 10
25.0
 20
107.9957999999999
 30
0.0
 11
25.0
 21
110.2958
 31
0.0
  0
LINE
  5
17D
330
1E
100
AcDbEntity
  8
0
100
AcDbLine
 10
25.0
 20
107.9957999999999
 30
0.0
 11
25.0
 21
105.6958
 31
0.0
  0
LINE
  5
17E
330
1E
100
AcDbEntity
  8
0
100
AcDbLine
 10
6.0
 20
107.9957999999999
 30
0.0
 11
6.0
 21
105.1958
 31
0.0
  0
LINE
  5
17F
330
1E
100
AcDbEntity
  8
0
100
AcDbLine
 10
6.0
 20
107.9957999999999
 30
0.0
 11
6.0
 21
110.7957999999999
 31
0.0
  0
LINE
  5
180
330
1E
100
AcDbEntity
  8
0
100
AcDbLine
 10
25.0
 20
105.6958
 30
0.0
 11
25.0
 21
107.9957999999999
 31
0.0
  0
LINE
  5
181
330
1E
100
AcDbEntity
  8
0
100
AcDbLine
 10
25.0
 20
105.6958
 30
0.0
 11
25.0
 21
103.4958
 31
0.0
  0
LINE
  5
182
330
1E
100
AcDbEntity
  8
0
100
AcDbLine
 10
25.0
 20
103.4958
 30
0.0
 11
25.0
 21
105.6958
 31
0.0
  0
LINE
  5
183
330
1E
100
AcDbEntity
  8
0
100
AcDbLine
 10
25.0
 20
103.4958
 30
0.0
 11
25.0
 21
101.5957999999999
 31
0.0
  0
LINE
  5
184
330
1E
100
AcDbEntity
  8
0
100
AcDbLine
 10
25.0
 20
101.5957999999999
 30
0.0
 11
25.0
 21
103.4958
 31
0.0
  0
LINE
  5
185
330
1E
100
AcDbEntity
  8
0
100
AcDbLine
 10
25.0
 20
101.5957999999999
 30
0.0
 11
25.0
 21
100.1958
 31
0.0
  0
LINE
  5
186
330
1E
100
AcDbEntity
  8
0
100
AcDbLine
 10
25.0
 20
100.1958
 30
0.0
 11
25.0
 21
101.5957999999999
 31
0.0
  0
LINE
  5
187
330
1E
100
AcDbEntity
  8
0
100
AcDbLine
 10
25.0
 20
100.1958
 30
0.0
 11
25.0
 21
99.29580000000001
 31
0.0
  0
LINE
  5
188
330
1E
100
AcDbEntity
  8
0
100
AcDbLine
 10
25.0
 20
99.29580000000001
 30
0.0
 11
25.0
 21
100.1958
 31
0.0
  0
LINE
  5
189
330
1E
100
AcDbEntity
  8
0
100
AcDbLine
 10
25.0
 20
99.29580000000001
 30
0.0
 11
25.0
 21
98.9958
 31
0.0
  0
LINE
  5
18A
330
1E
100
AcDbEntity
  8
0
100
AcDbLine
 10
26.0
 20
97.9958
 30
0.0
 11
27.0
 21
97.9958
 31
0.0
  0
LINE
  5
18C
330
1E
100
AcDbEntity
  8
0
100
AcDbLine
 10
27.0
 20
97.9958
 30
0.0
 11
28.0
 21
98.9958
 31
0.0
  0
LINE
  5
1A6
330
1E
100
AcDbEntity
  8
0
100
AcDbLine
 10
28.0
 20
107.9957999999999
 30
0.0
 11
28.0
 21
105.6958
 31
0.0
  0
LINE
  5
1A7
330
1E
100
AcDbEntity
  8
0
100
AcDbLine
 10
28.0
 20
107.9957999999999
 30
0.0
 11
28.0
 21
110.2958
 31
0.0
  0
LINE
  5
1A8
330
1E
100
AcDbEntity
  8
0
100
AcDbLine
 10
28.0
 20
105.6958
 30
0.0
 11
28.0
 21
103.4958
 31
0.0
  0
LINE
  5
1A9
330
1E
100
AcDbEntity
  8
0
100
AcDbLine
 10
28.0
 20
105.6958
 30
0.0
 11
28.0
 21
107.9957999999999
 31
0.0
  0
LINE
  5
1AA
330
1E
100
AcDbEntity
  8
0
100
AcDbLine
 10
28.0
 20
103.4958
 30
0.0
 11
28.0
 21
101.5957999999999
 31
0.0
  0
LINE
  5
1AB
330
1E
100
AcDbEntity
  8
0
100
AcDbLine
 10
28.0
 20
103.4958
 30
0.0
 11
28.0
 21
105.6958
 31
0.0
  0
LINE
  5
1AC
330
1E
100
AcDbEntity
  8
0
100
AcDbLine
 10
28.0
 20
101.5957999999999
 30
0.0
 11
28.0
 21
100.1958
 31
0.0
  0
LINE
  5
1AD
330
1E
100
AcDbEntity
  8
0
100
AcDbLine
 10
28.0
 20
101.5957999999999
 30
0.0
 11
28.0
 21
103.4958
 31
0.0
  0
LINE
  5
1AE
330
1E
100
AcDbEntity
  8
0
100
AcDbLine
 10
28.0
 20
100.1958
 30
0.0
 11
28.0
 21
99.29580000000001
 31
0.0
  0
LINE
  5
1AF
330
1E
100
AcDbEntity
  8
0
100
AcDbLine
 10
28.0
 20
100.1958
 30
0.0
 11
28.0
 21
101.5957999999999
 31
0.0
  0
LINE
  5
1B0
330
1E
100
AcDbEntity
  8
0
100
AcDbLine
 10
52.0
 20
102.5957999999999
 30
0.0
 11
52.0
 21
97.49580000000001
 31
0.0
  0
LINE
  5
1B1
330
1E
100
AcDbEntity
  8
0
100
AcDbLine
 10
52.0
 20
102.5957999999999
 30
0.0
 11
52.0
 21
107.9957999999999
 31
0.0
  0
LINE
  5
1B2
330
1E
100
AcDbEntity
  8
0
100
AcDbLine
 10
52.0
 20
107.9957999999999
 30
0.0
 11
52.0
 21
113.1958
 31
0.0
  0
LINE
  5
1B3
330
1E
100
AcDbEntity
  8
0
100
AcDbLine
 10
52.0
 20
107.9957999999999
 30
0.0
 11
52.0
 21
102.5957999999999
 31
0.0
  0
LINE
  5
1B4
330
1E
100
AcDbEntity
  8
0
100
AcDbLine
 10
52.0
 20
107.9957999999999
 30
0.0
 11
52.0
 21
102.7957999999999
 31
0.0
  0
LINE
  5
1B5
330
1E
100
AcDbEntity
  8
0
100
AcDbLine
 10
52.0
 20
107.9957999999999
 30
0.0
 11
52.0
 21
113.3958
 31
0.0
  0
LINE
  5
1B6
330
1E
100
AcDbEntity
  8
0
100
AcDbLine
 10
28.0
 20
99.29580000000001
 30
0.0
 11
28.0
 21
98.9958
 31
0.0
  0
LINE
  5
1B7
330
1E
100
AcDbEntity
  8
0
100
AcDbLine
 10
28.0
 20
99.29580000000001
 30
0.0
 11
28.0
 21
100.1958
 31
0.0
  0
LINE
  5
1B8
330
1E
100
AcDbEntity
  8
0
100
AcDbLine
 10
28.0
 20
98.9958
 30
0.0
 11
30.71699999999999
 21
95.99580000000001
 31
0.0
  0
LINE
  5
1B9
330
1E
100
AcDbEntity
  8
0
100
AcDbLine
 10
28.0
 20
98.9958
 30
0.0
 11
28.0
 21
99.29580000000001
 31
0.0
  0
LINE
  5
1BC
330
1E
100
AcDbEntity
  8
0
100
AcDbLine
 10
56.0
 20
102.5957999999999
 30
0.0
 11
56.0
 21
107.9957999999999
 31
0.0
  0
LINE
  5
1BF
330
1E
100
AcDbEntity
  8
0
100
AcDbLine
 10
57.0
 20
98.29579999999999
 30
0.0
 11
57.0
 21
94.19580000000001
 31
0.0
  0
LINE
  5
1C0
330
1E
100
AcDbEntity
  8
0
100
AcDbLine
 10
57.0
 20
98.29579999999999
 30
0.0
 11
57.0
 21
102.9958
 31
0.0
  0
LINE
  5
1C1
330
1E
100
AcDbEntity
  8
0
100
AcDbLine
 10
56.0
 20
107.9957999999999
 30
0.0
 11
56.0
 21
113.3958
 31
0.0
  0
LINE
  5
1C6
330
1E
100
AcDbEntity
  8
0
100
AcDbLine
 10
57.0
 20
102.9958
 30
0.0
 11
57.0
 21
98.29579999999999
 31
0.0
  0
LINE
  5
1C7
330
1E
100
AcDbEntity
  8
0
100
AcDbLine
 10
57.0
 20
102.9958
 30
0.0
 11
57.0
 21
107.9957999999999
 31
0.0
  0
LINE
  5
1C8
330
1E
100
AcDbEntity
  8
0
100
AcDbLine
 10
57.0
 20
102.5957999999999
 30
0.0
 11
57.0
 21
97.49580000000001
 31
0.0
  0
LINE
  5
1C9
330
1E
100
AcDbEntity
  8
0
100
AcDbLine
 10
57.0
 20
102.5957999999999
 30
0.0
 11
57.0
 21
107.9957999999999
 31
0.0
  0
LINE
  5
1CA
330
1E
100
AcDbEntity
  8
0
100
AcDbLine
 10
167.1
 20
99.39579999999999
 30
0.0
 11
167.1999999999999
 21
103.4958
 31
0.0
  0
LINE
  5
1CB
330
1E
100
AcDbEntity
  8
0
100
AcDbLine
 10
241.0
 20
102.5957999999999
 30
0.0
 11
241.0
 21
107.9957999999999
 31
0.0
  0
LINE
  5
1CC
330
1E
100
AcDbEntity
  8
0
100
AcDbLine
 10
241.0
 20
102.5957999999999
 30
0.0
 11
241.0
 21
97.49580000000001
 31
0.0
  0
LINE
  5
1CD
330
1E
100
AcDbEntity
  8
0
100
AcDbLine
 10
169.1999999999999
 20
102.5957999999999
 30
0.0
 11
170.0
 21
107.9957999999999
 31
0.0
  0
LINE
  5
1CE
330
1E
100
AcDbEntity
  8
0
100
AcDbLine
 10
130.9
 20
99.39579999999999
 30
0.0
 11
131.0
 21
93.8958
 31
0.0
  0
LINE
  5
1CF
330
1E
100
AcDbEntity
  8
0
100
AcDbLine
 10
243.0
 20
98.29579999999999
 30
0.0
 11
243.0
 21
102.9958
 31
0.0
  0
LINE
  5
1D0
330
1E
100
AcDbEntity
  8
0
100
AcDbLine
 10
167.1999999999999
 20
103.4958
 30
0.0
 11
167.4
 21
106.6958
 31
0.0
  0
LINE
  5
1D1
330
1E
100
AcDbEntity
  8
0
100
AcDbLine
 10
130.8
 20
103.4958
 30
0.0
 11
130.9
 21
99.39579999999999
 31
0.0
  0
LINE
  5
1D2
330
1E
100
AcDbEntity
  8
0
100
AcDbLine
 10
241.0
 20
107.9957999999999
 30
0.0
 11
241.0
 21
113.3958
 31
0.0
  0
LINE
  5
1D3
330
1E
100
AcDbEntity
  8
0
100
AcDbLine
 10
241.0
 20
107.9957999999999
 30
0.0
 11
241.0
 21
102.5957999999999
 31
0.0
  0
LINE
  5
1D4
330
1E
100
AcDbEntity
  8
0
100
AcDbLine
 10
130.6
 20
106.6958
 30
0.0
 11
130.8
 21
103.4958
 31
0.0
  0
LINE
  5
1D5
330
1E
100
AcDbEntity
  8
0
100
AcDbLine
 10
243.0
 20
102.9958
 30
0.0
 11
243.0
 21
107.9957999999999
 31
0.0
  0
LINE
  5
1D6
330
1E
100
AcDbEntity
  8
0
100
AcDbLine
 10
128.8
 20
102.5957999999999
 30
0.0
 11
130.8
 21
97.49580000000001
 31
0.0
  0
LINE
  5
1D7
330
1E
100
AcDbEntity
  8
0
100
AcDbLine
 10
128.0
 20
107.9957999999999
 30
0.0
 11
128.8
 21
102.5957999999999
 31
0.0
  0
LINE
  5
1D8
330
1E
100
AcDbEntity
  8
0
100
AcDbLine
 10
128.0
 20
107.9957999999999
 30
0.0
 11
128.8
 21
113.3958
 31
0.0
  0
LINE
  5
1D9
330
1E
100
AcDbEntity
  8
0
100
AcDbLine
 10
57.0
 20
107.9957999999999
 30
0.0
 11
57.0
 21
102.5957999999999
 31
0.0
  0
LINE
  5
1DA
330
1E
100
AcDbEntity
  8
0
100
AcDbLine
 10
57.0
 20
107.9957999999999
 30
0.0
 11
57.0
 21
102.9958
 31
0.0
  0
LINE
  5
1DB
330
1E
100
AcDbEntity
  8
0
100
AcDbLine
 10
57.0
 20
107.9957999999999
 30
0.0
 11
57.0
 21
113.3958
 31
0.0
  0
LINE
  5
1DC
330
1E
100
AcDbEntity
  8
0
100
AcDbLine
 10
57.0
 20
107.9957999999999
 30
0.0
 11
57.0
 21
112.9958
 31
0.0
  0
LINE
  5
1DD
330
1E
100
AcDbEntity
  8
0
100
AcDbLine
 10
52.0
 20
102.7957999999999
 30
0.0
 11
52.0
 21
107.9957999999999
 31
0.0
  0
LINE
  5
1DE
330
1E
100
AcDbEntity
  8
0
100
AcDbLine
 10
52.0
 20
102.7957999999999
 30
0.0
 11
52.0
 21
97.9958
 31
0.0
  0
LINE
  5
1DF
330
1E
100
AcDbEntity
  8
0
100
AcDbLine
 10
52.0
 20
97.9958
 30
0.0
 11
52.0
 21
102.7957999999999
 31
0.0
  0
LINE
  5
1E0
330
1E
100
AcDbEntity
  8
0
100
AcDbLine
 10
52.0
 20
97.9958
 30
0.0
 11
52.0
 21
93.8958
 31
0.0
  0
LINE
  5
1E1
330
1E
100
AcDbEntity
  8
0
100
AcDbLine
 10
25.0
 20
98.9958
 30
0.0
 11
25.0
 21
99.29580000000001
 31
0.0
  0
LINE
  5
1E2
330
1E
100
AcDbEntity
  8
0
100
AcDbLine
 10
25.0
 20
98.9958
 30
0.0
 11
26.0
 21
97.9958
 31
0.0
  0
LINE
  5
1E3
330
1E
100
AcDbEntity
  8
0
100
AcDbLine
 10
4.0
 20
110.7957999999999
 30
0.0
 11
4.0
 21
107.9957999999999
 31
0.0
  0
LINE
  5
1E4
330
1E
100
AcDbEntity
  8
0
100
AcDbLine
 10
4.0
 20
110.7957999999999
 30
0.0
 11
4.0
 21
113.4958
 31
0.0
  0
LINE
  5
1E5
330
1E
100
AcDbEntity
  8
0
100
AcDbLine
 10
6.799999999999999
 20
109.9957999999999
 30
0.0
 11
7.5
 21
111.7958
 31
0.0
  0
LINE
  5
1E6
330
1E
100
AcDbEntity
  8
0
100
AcDbLine
 10
21.2
 20
109.9957999999999
 30
0.0
 11
21.49999999999999
 21
107.9957999999999
 31
0.0
  0
LINE
  5
1E7
330
1E
100
AcDbEntity
  8
0
100
AcDbLine
 10
0.199999999999997
 20
111.2958
 30
0.0
 11
1.5
 21
115.1958
 31
0.0
  0
LINE
  5
1E8
330
1E
100
AcDbEntity
  8
0
100
AcDbLine
 10
0.199999999999997
 20
111.2958
 30
0.0
 11
1.5
 21
115.1958
 31
0.0
  0
LINE
  5
1ED
330
1E
100
AcDbEntity
  8
0
100
AcDbLine
 10
7.5
 20
111.7958
 30
0.0
 11
8.699999999999999
 21
113.2958
 31
0.0
  0
LINE
  5
1EE
330
1E
100
AcDbEntity
  8
0
100
AcDbLine
 10
20.5
 20
111.7958
 30
0.0
 11
21.2
 21
109.9957999999999
 31
0.0
  0
LINE
  5
1EF
330
1E
100
AcDbEntity
  8
0
100
AcDbLine
 10
6.0
 20
110.7957999999999
 30
0.0
 11
6.0
 21
107.9957999999999
 31
0.0
  0
LINE
  5
1F0
330
1E
100
AcDbEntity
  8
0
100
AcDbLine
 10
6.0
 20
110.7957999999999
 30
0.0
 11
6.0
 21
113.4958
 31
0.0
  0
LINE
  5
1F1
330
1E
100
AcDbEntity
  8
0
100
AcDbLine
 10
25.0
 20
110.2958
 30
0.0
 11
25.0
 21
112.4958
 31
0.0
  0
LINE
  5
1F2
330
1E
100
AcDbEntity
  8
0
100
AcDbLine
 10
25.0
 20
110.2958
 30
0.0
 11
25.0
 21
107.9957999999999
 31
0.0
  0
LINE
  5
1F3
330
1E
100
AcDbEntity
  8
0
100
AcDbLine
 10
4.0
 20
113.4958
 30
0.0
 11
4.0
 21
110.7957999999999
 31
0.0
  0
LINE
  5
1F4
330
1E
100
AcDbEntity
  8
0
100
AcDbLine
 10
4.0
 20
113.4958
 30
0.0
 11
4.0
 21
115.7958
 31
0.0
  0
LINE
  5
1F5
330
1E
100
AcDbEntity
  8
0
100
AcDbLine
 10
1.5
 20
115.1958
 30
0.0
 11
4.0
 21
118.9958
 31
0.0
  0
LINE
  5
1F6
330
1E
100
AcDbEntity
  8
0
100
AcDbLine
 10
1.5
 20
115.1958
 30
0.0
 11
4.0
 21
118.9958
 31
0.0
  0
LINE
  5
1F7
330
1E
100
AcDbEntity
  8
0
100
AcDbLine
 10
4.0
 20
115.7958
 30
0.0
 11
4.0
 21
113.4958
 31
0.0
  0
LINE
  5
1F8
330
1E
100
AcDbEntity
  8
0
100
AcDbLine
 10
4.0
 20
115.7958
 30
0.0
 11
4.0
 21
117.4957999999999
 31
0.0
  0
LINE
  5
1FD
330
1E
100
AcDbEntity
  8
0
100
AcDbLine
 10
6.0
 20
113.4958
 30
0.0
 11
6.0
 21
110.7957999999999
 31
0.0
  0
LINE
  5
1FE
330
1E
100
AcDbEntity
  8
0
100
AcDbLine
 10
6.0
 20
113.4958
 30
0.0
 11
6.0
 21
115.7958
 31
0.0
  0
LINE
  5
1FF
330
1E
100
AcDbEntity
  8
0
100
AcDbLine
 10
8.699999999999999
 20
113.2958
 30
0.0
 11
10.2
 21
114.4958
 31
0.0
  0
LINE
  5
200
330
1E
100
AcDbEntity
  8
0
100
AcDbLine
 10
10.2
 20
114.4958
 30
0.0
 11
12.0
 21
115.1958
 31
0.0
  0
LINE
  5
201
330
1E
100
AcDbEntity
  8
0
100
AcDbLine
 10
12.0
 20
115.1958
 30
0.0
 11
14.0
 21
115.4958
 31
0.0
  0
LINE
  5
202
330
1E
100
AcDbEntity
  8
0
100
AcDbLine
 10
19.3
 20
113.2958
 30
0.0
 11
20.5
 21
111.7958
 31
0.0
  0
LINE
  5
203
330
1E
100
AcDbEntity
  8
0
100
AcDbLine
 10
17.8
 20
114.4958
 30
0.0
 11
19.3
 21
113.2958
 31
0.0
  0
LINE
  5
204
330
1E
100
AcDbEntity
  8
0
100
AcDbLine
 10
16.0
 20
115.1958
 30
0.0
 11
17.8
 21
114.4958
 31
0.0
  0
LINE
  5
205
330
1E
100
AcDbEntity
  8
0
100
AcDbLine
 10
14.0
 20
115.4958
 30
0.0
 11
16.0
 21
115.1958
 31
0.0
  0
LINE
  5
206
330
1E
100
AcDbEntity
  8
0
100
AcDbLine
 10
6.0
 20
115.7958
 30
0.0
 11
6.0
 21
113.4958
 31
0.0
  0
LINE
  5
207
330
1E
100
AcDbEntity
  8
0
100
AcDbLine
 10
6.0
 20
115.7958
 30
0.0
 11
6.0
 21
117.4957999999999
 31
0.0
  0
LINE
  5
208
330
1E
100
AcDbEntity
  8
0
100
AcDbLine
 10
25.0
 20
112.4958
 30
0.0
 11
25.0
 21
114.3958
 31
0.0
  0
LINE
  5
209
330
1E
100
AcDbEntity
  8
0
100
AcDbLine
 10
25.0
 20
112.4958
 30
0.0
 11
25.0
 21
110.2958
 31
0.0
  0
LINE
  5
20A
330
1E
100
AcDbEntity
  8
0
100
AcDbLine
 10
25.0
 20
114.3958
 30
0.0
 11
25.0
 21
115.7958
 31
0.0
  0
LINE
  5
20B
330
1E
100
AcDbEntity
  8
0
100
AcDbLine
 10
25.0
 20
114.3958
 30
0.0
 11
25.0
 21
112.4958
 31
0.0
  0
LINE
  5
20C
330
1E
100
AcDbEntity
  8
0
100
AcDbLine
 10
4.0
 20
117.4957999999999
 30
0.0
 11
4.0
 21
115.7958
 31
0.0
  0
LINE
  5
20D
330
1E
100
AcDbEntity
  8
0
100
AcDbLine
 10
4.0
 20
117.4957999999999
 30
0.0
 11
4.0
 21
118.5958
 31
0.0
  0
LINE
  5
216
330
1E
100
AcDbEntity
  8
0
100
AcDbLine
 10
25.0
 20
116.9958
 30
0.0
 11
25.0
 21
116.6958
 31
0.0
  0
LINE
  5
217
330
1E
100
AcDbEntity
  8
0
100
AcDbLine
 10
25.0
 20
116.9958
 30
0.0
 11
26.0
 21
117.9958
 31
0.0
  0
LINE
  5
218
330
1E
100
AcDbEntity
  8
0
100
AcDbLine
 10
6.0
 20
117.4957999999999
 30
0.0
 11
6.0
 21
115.7958
 31
0.0
  0
LINE
  5
219
330
1E
100
AcDbEntity
  8
0
100
AcDbLine
 10
6.0
 20
117.4957999999999
 30
0.0
 11
6.0
 21
118.5958
 31
0.0
  0
LINE
  5
21A
330
1E
100
AcDbEntity
  8
0
100
AcDbLine
 10
25.0
 20
115.7958
 30
0.0
 11
25.0
 21
116.6958
 31
0.0
  0
LINE
  5
21B
330
1E
100
AcDbEntity
  8
0
100
AcDbLine
 10
25.0
 20
115.7958
 30
0.0
 11
25.0
 21
114.3958
 31
0.0
  0
LINE
  5
220
330
1E
100
AcDbEntity
  8
0
100
AcDbLine
 10
28.0
 20
110.2958
 30
0.0
 11
28.0
 21
107.9957999999999
 31
0.0
  0
LINE
  5
221
330
1E
100
AcDbEntity
  8
0
100
AcDbLine
 10
28.0
 20
110.2958
 30
0.0
 11
28.0
 21
112.4958
 31
0.0
  0
LINE
  5
22A
330
1E
100
AcDbEntity
  8
0
100
AcDbLine
 10
28.0
 20
112.4958
 30
0.0
 11
28.0
 21
110.2958
 31
0.0
  0
LINE
  5
22B
330
1E
100
AcDbEntity
  8
0
100
AcDbLine
 10
28.0
 20
112.4958
 30
0.0
 11
28.0
 21
114.3958
 31
0.0
  0
LINE
  5
22C
330
1E
100
AcDbEntity
  8
0
100
AcDbLine
 10
28.0
 20
114.3958
 30
0.0
 11
28.0
 21
112.4958
 31
0.0
  0
LINE
  5
22D
330
1E
100
AcDbEntity
  8
0
100
AcDbLine
 10
28.0
 20
114.3958
 30
0.0
 11
28.0
 21
115.7958
 31
0.0
  0
LINE
  5
232
330
1E
100
AcDbEntity
  8
0
100
AcDbLine
 10
28.0
 20
115.7958
 30
0.0
 11
28.0
 21
114.3958
 31
0.0
  0
LINE
  5
233
330
1E
100
AcDbEntity
  8
0
100
AcDbLine
 10
28.0
 20
115.7958
 30
0.0
 11
28.0
 21
116.6958
 31
0.0
  0
LINE
  5
234
330
1E
100
AcDbEntity
  8
0
100
AcDbLine
 10
52.0
 20
113.3958
 30
0.0
 11
52.0
 21
107.9957999999999
 31
0.0
  0
LINE
  5
235
330
1E
100
AcDbEntity
  8
0
100
AcDbLine
 10
52.0
 20
113.3958
 30
0.0
 11
52.0
 21
118.4957999999999
 31
0.0
  0
LINE
  5
236
330
1E
100
AcDbEntity
  8
0
100
AcDbLine
 10
28.0
 20
116.6958
 30
0.0
 11
28.0
 21
115.7958
 31
0.0
  0
LINE
  5
237
330
1E
100
AcDbEntity
  8
0
100
AcDbLine
 10
28.0
 20
116.6958
 30
0.0
 11
28.0
 21
116.9958
 31
0.0
  0
LINE
  5
23B
330
1E
100
AcDbEntity
  8
0
100
AcDbLine
 10
26.0
 20
117.9958
 30
0.0
 11
27.0
 21
117.9958
 31
0.0
  0
LINE
  5
23F
330
1E
100
AcDbEntity
  8
0
100
AcDbLine
 10
27.0
 20
117.9958
 30
0.0
 11
28.0
 21
116.9958
 31
0.0
  0
LINE
  5
240
330
1E
100
AcDbEntity
  8
0
100
AcDbLine
 10
28.0
 20
116.9958
 30
0.0
 11
28.0
 21
116.6958
 31
0.0
  0
LINE
  5
241
330
1E
100
AcDbEntity
  8
0
100
AcDbLine
 10
28.0
 20
116.9958
 30
0.0
 11
30.71699999999999
 21
119.9958
 31
0.0
  0
LINE
  5
242
330
1E
100
AcDbEntity
  8
0
100
AcDbLine
 10
56.0
 20
113.3958
 30
0.0
 11
56.0
 21
118.4957999999999
 31
0.0
  0
LINE
  5
243
330
1E
100
AcDbEntity
  8
0
100
AcDbLine
 10
57.0
 20
112.9958
 30
0.0
 11
57.0
 21
107.9957999999999
 31
0.0
  0
LINE
  5
244
330
1E
100
AcDbEntity
  8
0
100
AcDbLine
 10
57.0
 20
112.9958
 30
0.0
 11
57.0
 21
117.6958
 31
0.0
  0
LINE
  5
245
330
1E
100
AcDbEntity
  8
0
100
AcDbLine
 10
241.0
 20
113.3958
 30
0.0
 11
241.0
 21
118.4957999999999
 31
0.0
  0
LINE
  5
246
330
1E
100
AcDbEntity
  8
0
100
AcDbLine
 10
241.0
 20
113.3958
 30
0.0
 11
241.0
 21
107.9957999999999
 31
0.0
  0
LINE
  5
247
330
1E
100
AcDbEntity
  8
0
100
AcDbLine
 10
169.1999999999999
 20
113.3958
 30
0.0
 11
170.0
 21
107.9957999999999
 31
0.0
  0
LINE
  5
248
330
1E
100
AcDbEntity
  8
0
100
AcDbLine
 10
243.0
 20
112.9958
 30
0.0
 11
243.0
 21
117.6958
 31
0.0
  0
LINE
  5
249
330
1E
100
AcDbEntity
  8
0
100
AcDbLine
 10
128.8
 20
113.3958
 30
0.0
 11
130.8
 21
118.4957999999999
 31
0.0
  0
LINE
  5
24E
330
1E
100
AcDbEntity
  8
0
100
AcDbLine
 10
243.0
 20
117.6958
 30
0.0
 11
243.0
 21
121.7958
 31
0.0
  0
LINE
  5
24F
330
1E
100
AcDbEntity
  8
0
100
AcDbLine
 10
57.0
 20
117.6958
 30
0.0
 11
57.0
 21
112.9958
 31
0.0
  0
LINE
  5
250
330
1E
100
AcDbEntity
  8
0
100
AcDbLine
 10
57.0
 20
117.6958
 30
0.0
 11
57.0
 21
121.7958
 31
0.0
  0
LINE
  5
251
330
1E
100
AcDbEntity
  8
0
100
AcDbLine
 10
57.0
 20
113.3958
 30
0.0
 11
57.0
 21
107.9957999999999
 31
0.0
  0
LINE
  5
252
330
1E
100
AcDbEntity
  8
0
100
AcDbLine
 10
57.0
 20
113.3958
 30
0.0
 11
57.0
 21
118.4957999999999
 31
0.0
  0
LINE
  5
253
330
1E
100
AcDbEntity
  8
0
100
AcDbLine
 10
52.0
 20
113.1958
 30
0.0
 11
52.0
 21
117.9958
 31
0.0
  0
LINE
  5
254
330
1E
100
AcDbEntity
  8
0
100
AcDbLine
 10
52.0
 20
113.1958
 30
0.0
 11
52.0
 21
107.9957999999999
 31
0.0
  0
LINE
  5
255
330
1E
100
AcDbEntity
  8
0
100
AcDbLine
 10
52.0
 20
117.9958
 30
0.0
 11
52.0
 21
122.0957999999999
 31
0.0
  0
LINE
  5
256
330
1E
100
AcDbEntity
  8
0
100
AcDbLine
 10
52.0
 20
117.9958
 30
0.0
 11
52.0
 21
113.1958
 31
0.0
  0
LINE
  5
257
330
1E
100
AcDbEntity
  8
0
100
AcDbLine
 10
25.0
 20
116.6958
 30
0.0
 11
25.0
 21
116.9958
 31
0.0
  0
LINE
  5
258
330
1E
100
AcDbEntity
  8
0
100
AcDbLine
 10
25.0
 20
116.6958
 30
0.0
 11
25.0
 21
115.7958
 31
0.0
  0
LINE
  5
259
330
1E
100
AcDbEntity
  8
0
100
AcDbLine
 10
243.0
 20
107.9957999999999
 30
0.0
 11
243.0
 21
102.6197999999999
 31
0.0
  0
LINE
  5
25A
330
1E
100
AcDbEntity
  8
0
100
AcDbLine
 10
243.0
 20
107.9957999999999
 30
0.0
 11
243.0
 21
112.9958
 31
0.0
  0
LINE
  5
25B
330
1E
100
AcDbEntity
  8
0
100
AcDbLine
 10
243.0
 20
102.6197999999999
 30
0.0
 11
243.0
 21
97.57980000000001
 31
0.0
  0
LINE
  5
25C
330
1E
100
AcDbEntity
  8
0
100
AcDbLine
 10
243.0
 20
97.57980000000001
 30
0.0
 11
243.0
 21
93.1278
 31
0.0
  0
LINE
  5
25D
330
1E
100
AcDbEntity
  8
0
100
AcDbLine
 10
243.0
 20
93.1278
 30
0.0
 11
243.0
 21
89.76779999999999
 31
0.0
  0
LINE
  5
25E
330
1E
100
AcDbEntity
  8
0
100
AcDbLine
 10
243.0
 20
89.76779999999999
 30
0.0
 11
243.0
 21
87.7518
 31
0.0
  0
LINE
  5
25F
330
1E
100
AcDbEntity
  8
0
100
AcDbLine
 10
243.0
 20
113.3718
 30
0.0
 11
243.0
 21
107.9957999999999
 31
0.0
  0
LINE
  5
260
330
1E
100
AcDbEntity
  8
0
100
AcDbLine
 10
4.0
 20
118.5958
 30
0.0
 11
4.0
 21
117.4957999999999
 31
0.0
  0
LINE
  5
261
330
1E
100
AcDbEntity
  8
0
100
AcDbLine
 10
4.0
 20
118.5958
 30
0.0
 11
4.0
 21
118.9958
 31
0.0
  0
LINE
  5
262
330
1E
100
AcDbEntity
  8
0
100
AcDbLine
 10
4.0
 20
118.9958
 30
0.0
 11
4.0
 21
118.5958
 31
0.0
  0
LINE
  5
263
330
1E
100
AcDbEntity
  8
0
100
AcDbLine
 10
4.0
 20
118.9958
 30
0.0
 11
4.5
 21
119.4957999999999
 31
0.0
  0
LINE
  5
264
330
1E
100
AcDbEntity
  8
0
100
AcDbLine
 10
6.0
 20
118.5958
 30
0.0
 11
6.0
 21
117.4957999999999
 31
0.0
  0
LINE
  5
265
330
1E
100
AcDbEntity
  8
0
100
AcDbLine
 10
6.0
 20
118.5958
 30
0.0
 11
6.0
 21
118.9958
 31
0.0
  0
LINE
  5
269
330
1E
100
AcDbEntity
  8
0
100
AcDbLine
 10
4.5
 20
119.4957999999999
 30
0.0
 11
5.5
 21
119.4957999999999
 31
0.0
  0
LINE
  5
26D
330
1E
100
AcDbEntity
  8
0
100
AcDbLine
 10
5.5
 20
119.4957999999999
 30
0.0
 11
6.0
 21
118.9958
 31
0.0
  0
LINE
  5
26E
330
1E
100
AcDbEntity
  8
0
100
AcDbLine
 10
6.0
 20
118.9958
 30
0.0
 11
6.0
 21
118.5958
 31
0.0
  0
LINE
  5
26F
330
1E
100
AcDbEntity
  8
0
100
AcDbLine
 10
6.0
 20
118.9958
 30
0.0
 11
9.0
 21
119.9958
 31
0.0
  0
LINE
  5
270
330
1E
100
AcDbEntity
  8
0
100
AcDbLine
 10
9.0
 20
119.9958
 30
0.0
 11
9.11764705882352
 21
120.015407843137
 31
0.0
  0
LINE
  5
271
330
1E
100
AcDbEntity
  8
0
100
AcDbLine
 10
8.0
 20
122.9958
 30
0.0
 11
9.11764705882352
 21
120.015407843137
 31
0.0
  0
LINE
  5
272
330
1E
100
AcDbEntity
  8
0
100
AcDbLine
 10
18.8823529411765
 20
120.015407843137
 30
0.0
 11
20.0
 21
122.9958
 31
0.0
  0
LINE
  5
273
330
1E
100
AcDbEntity
  8
0
100
AcDbLine
 10
20.0
 20
122.9958
 30
0.0
 11
21.0
 21
126.9958
 31
0.0
  0
LINE
  5
274
330
1E
100
AcDbEntity
  8
0
100
AcDbLine
 10
18.83399209486169
 20
120.0234679841899
 30
0.0
 11
19.0
 21
119.9958
 31
0.0
  0
LINE
  5
275
330
1E
100
AcDbEntity
  8
0
100
AcDbLine
 10
19.0
 20
119.9958
 30
0.0
 11
22.0
 21
118.9958
 31
0.0
  0
LINE
  5
276
330
1E
100
AcDbEntity
  8
0
100
AcDbLine
 10
30.71699999999999
 20
119.9958
 30
0.0
 11
35.2453
 21
122.4957999999999
 31
0.0
  0
LINE
  5
277
330
1E
100
AcDbEntity
  8
0
100
AcDbLine
 10
52.0
 20
118.4957999999999
 30
0.0
 11
52.0
 21
113.3958
 31
0.0
  0
LINE
  5
278
330
1E
100
AcDbEntity
  8
0
100
AcDbLine
 10
52.0
 20
118.4957999999999
 30
0.0
 11
52.0
 21
122.7958
 31
0.0
  0
LINE
  5
279
330
1E
100
AcDbEntity
  8
0
100
AcDbLine
 10
52.0
 20
122.7958
 30
0.0
 11
52.0
 21
118.4957999999999
 31
0.0
  0
LINE
  5
27A
330
1E
100
AcDbEntity
  8
0
100
AcDbLine
 10
52.0
 20
122.7958
 30
0.0
 11
52.0
 21
126.1958
 31
0.0
  0
LINE
  5
27B
330
1E
100
AcDbEntity
  8
0
100
AcDbLine
 10
35.2453
 20
122.4957999999999
 30
0.0
 11
40.67919999999999
 21
124.9958
 31
0.0
  0
LINE
  5
27C
330
1E
100
AcDbEntity
  8
0
100
AcDbLine
 10
40.67919999999999
 20
124.9958
 30
0.0
 11
46.566
 21
126.9958
 31
0.0
  0
LINE
  5
27D
330
1E
100
AcDbEntity
  8
0
100
AcDbLine
 10
56.0
 20
118.4957999999999
 30
0.0
 11
56.0
 21
122.7958
 31
0.0
  0
LINE
  5
27E
330
1E
100
AcDbEntity
  8
0
100
AcDbLine
 10
241.0
 20
118.4957999999999
 30
0.0
 11
241.0
 21
122.7958
 31
0.0
  0
LINE
  5
27F
330
1E
100
AcDbEntity
  8
0
100
AcDbLine
 10
241.0
 20
118.4957999999999
 30
0.0
 11
241.0
 21
113.3958
 31
0.0
  0
LINE
  5
280
330
1E
100
AcDbEntity
  8
0
100
AcDbLine
 10
167.1999999999999
 20
118.4957999999999
 30
0.0
 11
169.1999999999999
 21
113.3958
 31
0.0
  0
LINE
  5
281
330
1E
100
AcDbEntity
  8
0
100
AcDbLine
 10
130.8
 20
118.4957999999999
 30
0.0
 11
134.1999999999999
 21
122.7958
 31
0.0
  0
LINE
  5
28A
330
1E
100
AcDbEntity
  8
0
100
AcDbLine
 10
56.0
 20
122.7958
 30
0.0
 11
56.0
 21
126.1958
 31
0.0
  0
LINE
  5
28B
330
1E
100
AcDbEntity
  8
0
100
AcDbLine
 10
57.0
 20
124.8958
 30
0.0
 11
57.0
 21
121.7958
 31
0.0
  0
LINE
  5
28C
330
1E
100
AcDbEntity
  8
0
100
AcDbLine
 10
57.0
 20
124.8958
 30
0.0
 11
57.0
 21
126.7957999999999
 31
0.0
  0
LINE
  5
28D
330
1E
100
AcDbEntity
  8
0
100
AcDbLine
 10
57.0
 20
121.7958
 30
0.0
 11
57.0
 21
117.6958
 31
0.0
  0
LINE
  5
28E
330
1E
100
AcDbEntity
  8
0
100
AcDbLine
 10
57.0
 20
121.7958
 30
0.0
 11
57.0
 21
124.8958
 31
0.0
  0
LINE
  5
28F
330
1E
100
AcDbEntity
  8
0
100
AcDbLine
 10
241.0
 20
122.7958
 30
0.0
 11
241.0
 21
126.1958
 31
0.0
  0
LINE
  5
290
330
1E
100
AcDbEntity
  8
0
100
AcDbLine
 10
241.0
 20
122.7958
 30
0.0
 11
241.0
 21
118.4957999999999
 31
0.0
  0
LINE
  5
291
330
1E
100
AcDbEntity
  8
0
100
AcDbLine
 10
163.8
 20
122.7958
 30
0.0
 11
167.1999999999999
 21
118.4957999999999
 31
0.0
  0
LINE
  5
292
330
1E
100
AcDbEntity
  8
0
100
AcDbLine
 10
243.0
 20
121.7958
 30
0.0
 11
243.0
 21
124.8958
 31
0.0
  0
LINE
  5
293
330
1E
100
AcDbEntity
  8
0
100
AcDbLine
 10
243.0
 20
124.8958
 30
0.0
 11
243.0
 21
126.7957999999999
 31
0.0
  0
LINE
  5
294
330
1E
100
AcDbEntity
  8
0
100
AcDbLine
 10
134.1999999999999
 20
122.7958
 30
0.0
 11
138.5
 21
126.1958
 31
0.0
  0
LINE
  5
295
330
1E
100
AcDbEntity
  8
0
100
AcDbLine
 10
57.0
 20
122.7958
 30
0.0
 11
57.0
 21
118.4957999999999
 31
0.0
  0
LINE
  5
296
330
1E
100
AcDbEntity
  8
0
100
AcDbLine
 10
57.0
 20
122.7958
 30
0.0
 11
57.0
 21
126.1958
 31
0.0
  0
LINE
  5
297
330
1E
100
AcDbEntity
  8
0
100
AcDbLine
 10
57.0
 20
118.4957999999999
 30
0.0
 11
57.0
 21
113.3958
 31
0.0
  0
LINE
  5
298
330
1E
100
AcDbEntity
  8
0
100
AcDbLine
 10
57.0
 20
118.4957999999999
 30
0.0
 11
57.0
 21
122.7958
 31
0.0
  0
LINE
  5
299
330
1E
100
AcDbEntity
  8
0
100
AcDbLine
 10
52.0
 20
122.0957999999999
 30
0.0
 11
52.0
 21
125.2958
 31
0.0
  0
LINE
  5
29A
330
1E
100
AcDbEntity
  8
0
100
AcDbLine
 10
52.0
 20
122.0957999999999
 30
0.0
 11
52.0
 21
117.9958
 31
0.0
  0
LINE
  5
29B
330
1E
100
AcDbEntity
  8
0
100
AcDbLine
 10
52.0
 20
126.1958
 30
0.0
 11
52.0
 21
122.7958
 31
0.0
  0
LINE
  5
29C
330
1E
100
AcDbEntity
  8
0
100
AcDbLine
 10
52.0
 20
126.1958
 30
0.0
 11
52.0
 21
128.1957999999999
 31
0.0
  0
LINE
  5
29D
330
1E
100
AcDbEntity
  8
0
100
AcDbLine
 10
56.0
 20
126.1958
 30
0.0
 11
56.0
 21
128.1957999999999
 31
0.0
  0
LINE
  5
29E
330
1E
100
AcDbEntity
  8
0
100
AcDbLine
 10
241.0
 20
126.1958
 30
0.0
 11
241.0
 21
128.1957999999999
 31
0.0
  0
LINE
  5
29F
330
1E
100
AcDbEntity
  8
0
100
AcDbLine
 10
241.0
 20
126.1958
 30
0.0
 11
241.0
 21
122.7958
 31
0.0
  0
LINE
  5
2A0
330
1E
100
AcDbEntity
  8
0
100
AcDbLine
 10
159.4999999999999
 20
126.1958
 30
0.0
 11
163.8
 21
122.7958
 31
0.0
  0
LINE
  5
2A1
330
1E
100
AcDbEntity
  8
0
100
AcDbLine
 10
57.0
 20
126.1958
 30
0.0
 11
57.0
 21
122.7958
 31
0.0
  0
LINE
  5
2A2
330
1E
100
AcDbEntity
  8
0
100
AcDbLine
 10
57.0
 20
126.1958
 30
0.0
 11
57.0
 21
128.1957999999999
 31
0.0
  0
LINE
  5
2A3
330
1E
100
AcDbEntity
  8
0
100
AcDbLine
 10
52.0
 20
125.2958
 30
0.0
 11
52.0
 21
127.2958
 31
0.0
  0
LINE
  5
2A4
330
1E
100
AcDbEntity
  8
0
100
AcDbLine
 10
52.0
 20
125.2958
 30
0.0
 11
52.0
 21
122.0957999999999
 31
0.0
  0
LINE
  5
2A5
330
1E
100
AcDbEntity
  8
0
100
AcDbLine
 10
22.0
 20
118.9958
 30
0.0
 11
25.0
 21
116.9958
 31
0.0
  0
LINE
  5
2A6
330
1E
100
AcDbEntity
  8
0
100
AcDbLine
 10
243.0
 20
118.4117999999999
 30
0.0
 11
243.0
 21
113.3718
 31
0.0
  0
LINE
  5
2A7
330
1E
100
AcDbEntity
  8
0
100
AcDbLine
 10
243.0
 20
122.8637999999999
 30
0.0
 11
243.0
 21
118.4117999999999
 31
0.0
  0
LINE
  5
2A8
330
1E
100
AcDbEntity
  8
0
100
AcDbLine
 10
7.0
 20
126.9958
 30
0.0
 11
8.0
 21
122.9958
 31
0.0
  0
LINE
  5
2A9
330
1E
100
AcDbEntity
  8
0
100
AcDbLine
 10
21.0
 20
126.9958
 30
0.0
 11
21.2
 21
129.9957999999999
 31
0.0
  0
LINE
  5
2AA
330
1E
100
AcDbEntity
  8
0
100
AcDbLine
 10
46.566
 20
126.9958
 30
0.0
 11
52.0
 21
127.9958
 31
0.0
  0
LINE
  5
2AB
330
1E
100
AcDbEntity
  8
0
100
AcDbLine
 10
243.0
 20
126.7957999999999
 30
0.0
 11
243.0
 21
127.4958
 31
0.0
  0
LINE
  5
2B0
330
1E
100
AcDbEntity
  8
0
100
AcDbLine
 10
57.0
 20
126.7957999999999
 30
0.0
 11
57.0
 21
124.8958
 31
0.0
  0
LINE
  5
2B1
330
1E
100
AcDbEntity
  8
0
100
AcDbLine
 10
57.0
 20
126.7957999999999
 30
0.0
 11
57.0
 21
127.4958
 31
0.0
  0
LINE
  5
2B2
330
1E
100
AcDbEntity
  8
0
100
AcDbLine
 10
52.0
 20
127.2958
 30
0.0
 11
52.0
 21
127.9958
 31
0.0
  0
LINE
  5
2B3
330
1E
100
AcDbEntity
  8
0
100
AcDbLine
 10
52.0
 20
127.2958
 30
0.0
 11
52.0
 21
125.2958
 31
0.0
  0
LINE
  5
2B4
330
1E
100
AcDbEntity
  8
0
100
AcDbLine
 10
52.0
 20
127.9958
 30
0.0
 11
52.0
 21
127.2958
 31
0.0
  0
LINE
  5
2B5
330
1E
100
AcDbEntity
  8
0
100
AcDbLine
 10
52.0
 20
127.9958
 30
0.0
 11
52.0
 21
128.1957999999999
 31
0.0
  0
LINE
  5
2B6
330
1E
100
AcDbEntity
  8
0
100
AcDbLine
 10
52.0
 20
128.1957999999999
 30
0.0
 11
52.0
 21
126.1958
 31
0.0
  0
LINE
  5
2B7
330
1E
100
AcDbEntity
  8
0
100
AcDbLine
 10
52.0
 20
128.1957999999999
 30
0.0
 11
52.0
 21
128.9958
 31
0.0
  0
LINE
  5
2B8
330
1E
100
AcDbEntity
  8
0
100
AcDbLine
 10
52.0
 20
128.1957999999999
 30
0.0
 11
52.0
 21
127.9958
 31
0.0
  0
LINE
  5
2B9
330
1E
100
AcDbEntity
  8
0
100
AcDbLine
 10
56.0
 20
128.1957999999999
 30
0.0
 11
56.0
 21
128.9958
 31
0.0
  0
LINE
  5
2BA
330
1E
100
AcDbEntity
  8
0
100
AcDbLine
 10
56.0
 20
127.4958
 30
0.0
 11
57.0
 21
127.4958
 31
0.0
  0
LINE
  5
2BB
330
1E
100
AcDbEntity
  8
0
100
AcDbLine
 10
57.0
 20
128.1957999999999
 30
0.0
 11
57.0
 21
128.9958
 31
0.0
  0
LINE
  5
2BC
330
1E
100
AcDbEntity
  8
0
100
AcDbLine
 10
57.0
 20
128.1957999999999
 30
0.0
 11
57.0
 21
127.4958
 31
0.0
  0
LINE
  5
2BD
330
1E
100
AcDbEntity
  8
0
100
AcDbLine
 10
57.0
 20
128.1957999999999
 30
0.0
 11
57.0
 21
126.1958
 31
0.0
  0
LINE
  5
2BE
330
1E
100
AcDbEntity
  8
0
100
AcDbLine
 10
241.0
 20
128.1957999999999
 30
0.0
 11
241.0
 21
128.9958
 31
0.0
  0
LINE
  5
2BF
330
1E
100
AcDbEntity
  8
0
100
AcDbLine
 10
241.0
 20
128.1957999999999
 30
0.0
 11
241.0
 21
126.1958
 31
0.0
  0
LINE
  5
2C0
330
1E
100
AcDbEntity
  8
0
100
AcDbLine
 10
241.0
 20
127.4958
 30
0.0
 11
243.0
 21
127.4958
 31
0.0
  0
LINE
  5
2C1
330
1E
100
AcDbEntity
  8
0
100
AcDbLine
 10
57.0
 20
127.4958
 30
0.0
 11
57.0
 21
128.1957999999999
 31
0.0
  0
LINE
  5
2C2
330
1E
100
AcDbEntity
  8
0
100
AcDbLine
 10
57.0
 20
127.4958
 30
0.0
 11
57.0
 21
126.7957999999999
 31
0.0
  0
LINE
  5
2C3
330
1E
100
AcDbEntity
  8
0
100
AcDbLine
 10
49.000762749219
 20
127.443860866621
 30
0.0
 11
51.4
 21
130.5957999999999
 31
0.0
  0
LINE
  5
2C4
330
1E
100
AcDbEntity
  8
0
100
AcDbLine
 10
46.06867662829221
 20
126.8268377890509
 30
0.0
 11
50.0
 21
131.9957999999999
 31
0.0
  0
LINE
  5
2C5
330
1E
100
AcDbEntity
  8
0
100
AcDbLine
 10
243.0
 20
126.2237999999999
 30
0.0
 11
243.0
 21
122.8637999999999
 31
0.0
  0
LINE
  5
2C6
330
1E
100
AcDbEntity
  8
0
100
AcDbLine
 10
243.0
 20
127.4958
 30
0.0
 11
243.0
 21
128.2398
 31
0.0
  0
LINE
  5
2C7
330
1E
100
AcDbEntity
  8
0
100
AcDbLine
 10
6.799999999999999
 20
129.9957999999999
 30
0.0
 11
7.0
 21
126.9958
 31
0.0
  0
LINE
  5
2C8
330
1E
100
AcDbEntity
  8
0
100
AcDbLine
 10
6.5
 20
133.9957999999999
 30
0.0
 11
7.0
 21
137.4958
 31
0.0
  0
LINE
  5
2C9
330
1E
100
AcDbEntity
  8
0
100
AcDbLine
 10
6.5
 20
133.9957999999999
 30
0.0
 11
6.799999999999999
 21
129.9957999999999
 31
0.0
  0
LINE
  5
2CA
330
1E
100
AcDbEntity
  8
0
100
AcDbLine
 10
7.0
 20
137.4958
 30
0.0
 11
8.0
 21
139.9958
 31
0.0
  0
LINE
  5
2CB
330
1E
100
AcDbEntity
  8
0
100
AcDbLine
 10
8.0
 20
139.9958
 30
0.0
 11
9.5
 21
141.9958
 31
0.0
  0
LINE
  5
2CC
330
1E
100
AcDbEntity
  8
0
100
AcDbLine
 10
9.5
 20
141.9958
 30
0.0
 11
11.5
 21
143.4957999999999
 31
0.0
  0
LINE
  5
2CD
330
1E
100
AcDbEntity
  8
0
100
AcDbLine
 10
11.5
 20
143.4957999999999
 30
0.0
 11
14.0
 21
143.9958
 31
0.0
  0
LINE
  5
2CE
330
1E
100
AcDbEntity
  8
0
100
AcDbLine
 10
21.2
 20
129.9957999999999
 30
0.0
 11
21.49999999999999
 21
133.9957999999999
 31
0.0
  0
LINE
  5
2CF
330
1E
100
AcDbEntity
  8
0
100
AcDbLine
 10
21.0
 20
137.4958
 30
0.0
 11
21.49999999999999
 21
133.9957999999999
 31
0.0
  0
LINE
  5
2D0
330
1E
100
AcDbEntity
  8
0
100
AcDbLine
 10
20.0
 20
139.9958
 30
0.0
 11
21.0
 21
137.4958
 31
0.0
  0
LINE
  5
2D1
330
1E
100
AcDbEntity
  8
0
100
AcDbLine
 10
18.5
 20
141.9958
 30
0.0
 11
20.0
 21
139.9958
 31
0.0
  0
LINE
  5
2D2
330
1E
100
AcDbEntity
  8
0
100
AcDbLine
 10
16.5
 20
143.4957999999999
 30
0.0
 11
18.5
 21
141.9958
 31
0.0
  0
LINE
  5
2D3
330
1E
100
AcDbEntity
  8
0
100
AcDbLine
 10
14.0
 20
143.9958
 30
0.0
 11
16.5
 21
143.4957999999999
 31
0.0
  0
LINE
  5
2D4
330
1E
100
AcDbEntity
  8
0
100
AcDbLine
 10
52.0
 20
128.9958
 30
0.0
 11
52.0
 21
128.1957999999999
 31
0.0
  0
LINE
  5
2D5
330
1E
100
AcDbEntity
  8
0
100
AcDbLine
 10
52.0
 20
128.9958
 30
0.0
 11
53.14289999999999
 21
129.9957999999999
 31
0.0
  0
LINE
  5
2D9
330
1E
100
AcDbEntity
  8
0
100
AcDbLine
 10
53.14289999999999
 20
129.9957999999999
 30
0.0
 11
54.8571
 21
129.9957999999999
 31
0.0
  0
LINE
  5
2DD
330
1E
100
AcDbEntity
  8
0
100
AcDbLine
 10
54.8571
 20
129.9957999999999
 30
0.0
 11
56.0
 21
128.9958
 31
0.0
  0
LINE
  5
2DE
330
1E
100
AcDbEntity
  8
0
100
AcDbLine
 10
57.0
 20
128.9958
 30
0.0
 11
149.0
 21
128.9958
 31
0.0
  0
LINE
  5
2DF
330
1E
100
AcDbEntity
  8
0
100
AcDbLine
 10
57.0
 20
128.9958
 30
0.0
 11
57.0
 21
128.1957999999999
 31
0.0
  0
LINE
  5
2E0
330
1E
100
AcDbEntity
  8
0
100
AcDbLine
 10
89.9
 20
135.6957999999999
 30
0.0
 11
96.6
 21
130.5957999999999
 31
0.0
  0
LINE
  5
2E1
330
1E
100
AcDbEntity
  8
0
100
AcDbLine
 10
96.6
 20
130.5957999999999
 30
0.0
 11
97.8179104477612
 21
128.9958
 31
0.0
  0
LINE
  5
2E2
330
1E
100
AcDbEntity
  8
0
100
AcDbLine
 10
149.0
 20
128.9958
 30
0.0
 11
241.0
 21
128.9958
 31
0.0
  0
LINE
  5
2E3
330
1E
100
AcDbEntity
  8
0
100
AcDbLine
 10
241.0
 20
128.9958
 30
0.0
 11
241.0
 21
128.1957999999999
 31
0.0
  0
LINE
  5
2E4
330
1E
100
AcDbEntity
  8
0
100
AcDbLine
 10
201.4
 20
130.5957999999999
 30
0.0
 11
208.0999999999999
 21
135.6957999999999
 31
0.0
  0
LINE
  5
2E5
330
1E
100
AcDbEntity
  8
0
100
AcDbLine
 10
200.1820895522389
 20
128.9958
 30
0.0
 11
201.4
 21
130.5957999999999
 31
0.0
  0
LINE
  5
2E6
330
1E
100
AcDbEntity
  8
0
100
AcDbLine
 10
208.0999999999999
 20
135.6957999999999
 30
0.0
 11
215.7
 21
138.7958
 31
0.0
  0
LINE
  5
2E7
330
1E
100
AcDbEntity
  8
0
100
AcDbLine
 10
200.0
 20
131.9957999999999
 30
0.0
 11
207.1
 21
137.3958
 31
0.0
  0
LINE
  5
2E8
330
1E
100
AcDbEntity
  8
0
100
AcDbLine
 10
197.7183098591549
 20
128.9958
 30
0.0
 11
200.0
 21
131.9957999999999
 31
0.0
  0
LINE
  5
2E9
330
1E
100
AcDbEntity
  8
0
100
AcDbLine
 10
239.9
 20
135.6957999999999
 30
0.0
 11
246.6
 21
130.5957999999999
 31
0.0
  0
LINE
  5
2EA
330
1E
100
AcDbEntity
  8
0
100
AcDbLine
 10
98.0
 20
131.9957999999999
 30
0.0
 11
100.2816901408449
 21
128.9958
 31
0.0
  0
LINE
  5
2EB
330
1E
100
AcDbEntity
  8
0
100
AcDbLine
 10
207.1
 20
137.3958
 30
0.0
 11
215.2
 21
140.7958
 31
0.0
  0
LINE
  5
2EC
330
1E
100
AcDbEntity
  8
0
100
AcDbLine
 10
240.9
 20
137.3958
 30
0.0
 11
248.0
 21
131.9957999999999
 31
0.0
  0
LINE
  5
2ED
330
1E
100
AcDbEntity
  8
0
100
AcDbLine
 10
90.90000000000001
 20
137.3958
 30
0.0
 11
98.0
 21
131.9957999999999
 31
0.0
  0
LINE
  5
2EE
330
1E
100
AcDbEntity
  8
0
100
AcDbLine
 10
58.1
 20
135.6957999999999
 30
0.0
 11
65.7
 21
138.7958
 31
0.0
  0
LINE
  5
2EF
330
1E
100
AcDbEntity
  8
0
100
AcDbLine
 10
51.4
 20
130.5957999999999
 30
0.0
 11
58.1
 21
135.6957999999999
 31
0.0
  0
LINE
  5
2F0
330
1E
100
AcDbEntity
  8
0
100
AcDbLine
 10
215.7
 20
138.7958
 30
0.0
 11
224.0
 21
139.9958
 31
0.0
  0
LINE
  5
2F1
330
1E
100
AcDbEntity
  8
0
100
AcDbLine
 10
232.2999999999999
 20
138.7958
 30
0.0
 11
239.9
 21
135.6957999999999
 31
0.0
  0
LINE
  5
2F2
330
1E
100
AcDbEntity
  8
0
100
AcDbLine
 10
82.3
 20
138.7958
 30
0.0
 11
89.9
 21
135.6957999999999
 31
0.0
  0
LINE
  5
2F3
330
1E
100
AcDbEntity
  8
0
100
AcDbLine
 10
74.0
 20
139.9958
 30
0.0
 11
82.3
 21
138.7958
 31
0.0
  0
LINE
  5
2F4
330
1E
100
AcDbEntity
  8
0
100
AcDbLine
 10
74.0
 20
141.9958
 30
0.0
 11
82.79999999999999
 21
140.7958
 31
0.0
  0
LINE
  5
2F5
330
1E
100
AcDbEntity
  8
0
100
AcDbLine
 10
215.2
 20
140.7958
 30
0.0
 11
224.0
 21
141.9958
 31
0.0
  0
LINE
  5
2F6
330
1E
100
AcDbEntity
  8
0
100
AcDbLine
 10
224.0
 20
139.9958
 30
0.0
 11
232.2999999999999
 21
138.7958
 31
0.0
  0
LINE
  5
2F7
330
1E
100
AcDbEntity
  8
0
100
AcDbLine
 10
224.0
 20
141.9958
 30
0.0
 11
232.8
 21
140.7958
 31
0.0
  0
LINE
  5
2F8
330
1E
100
AcDbEntity
  8
0
100
AcDbLine
 10
232.8
 20
140.7958
 30
0.0
 11
240.9
 21
137.3958
 31
0.0
  0
LINE
  5
2F9
330
1E
100
AcDbEntity
  8
0
100
AcDbLine
 10
82.79999999999999
 20
140.7958
 30
0.0
 11
90.90000000000001
 21
137.3958
 31
0.0
  0
LINE
  5
2FA
330
1E
100
AcDbEntity
  8
0
100
AcDbLine
 10
65.7
 20
138.7958
 30
0.0
 11
74.0
 21
139.9958
 31
0.0
  0
LINE
  5
2FB
330
1E
100
AcDbEntity
  8
0
100
AcDbLine
 10
65.2
 20
140.7958
 30
0.0
 11
74.0
 21
141.9958
 31
0.0
  0
LINE
  5
2FC
330
1E
100
AcDbEntity
  8
0
100
AcDbLine
 10
57.1
 20
137.3958
 30
0.0
 11
65.2
 21
140.7958
 31
0.0
  0
LINE
  5
2FD
330
1E
100
AcDbEntity
  8
0
100
AcDbLine
 10
50.0
 20
131.9957999999999
 30
0.0
 11
57.1
 21
137.3958
 31
0.0
  0
LINE
  5
2FE
330
1E
100
AcDbEntity
  8
0
100
AcDbLine
 10
243.0
 20
128.2398
 30
0.0
 11
243.0
 21
128.9958
 31
0.0
  0
LINE
  5
2FF
330
1E
100
AcDbEntity
  8
0
100
AcDbLine
 10
243.0
 20
128.2398
 30
0.0
 11
243.0
 21
126.2237999999999
 31
0.0
  0
LINE
  5
300
330
1E
100
AcDbEntity
  8
0
100
AcDbLine
 10
243.0
 20
128.9958
 30
0.0
 11
272.798
 21
128.9958
 31
0.0
  0
LINE
  5
301
330
1E
100
AcDbEntity
  8
0
100
AcDbLine
 10
243.0
 20
128.9958
 30
0.0
 11
243.0
 21
128.2398
 31
0.0
  0
LINE
  5
302
330
1E
100
AcDbEntity
  8
0
100
AcDbLine
 10
243.0
 20
87.7518
 30
0.0
 11
243.0
 21
88.49580000000001
 31
0.0
  0
LINE
  5
303
330
1E
100
AcDbEntity
  8
0
100
AcDbLine
 10
243.0
 20
87.7518
 30
0.0
 11
243.0
 21
86.9958
 31
0.0
  0
LINE
  5
304
330
1E
100
AcDbEntity
  8
0
100
AcDbLine
 10
246.6
 20
85.39579999999999
 30
0.0
 11
247.817910447761
 21
86.9958
 31
0.0
  0
LINE
  5
305
330
1E
100
AcDbEntity
  8
0
100
AcDbLine
 10
248.0
 20
83.9958
 30
0.0
 11
250.281690140845
 21
86.9958
 31
0.0
  0
LINE
  5
306
330
1E
100
AcDbEntity
  8
0
100
AcDbLine
 10
264.798
 20
128.9958
 30
0.0
 11
264.798
 21
132.6197999999999
 31
0.0
  0
LINE
  5
307
330
1E
100
AcDbEntity
  8
0
100
AcDbLine
 10
246.6
 20
130.5957999999999
 30
0.0
 11
247.817910447761
 21
128.9958
 31
0.0
  0
LINE
  5
308
330
1E
100
AcDbEntity
  8
0
100
AcDbLine
 10
268.798
 20
132.6197999999999
 30
0.0
 11
269.822
 21
132.6197999999999
 31
0.0
  0
LINE
  5
309
330
1E
100
AcDbEntity
  8
0
100
AcDbLine
 10
269.822
 20
132.6197999999999
 30
0.0
 11
270.7819999999999
 21
132.6197999999999
 31
0.0
  0
LINE
  5
30A
330
1E
100
AcDbEntity
  8
0
100
AcDbLine
 10
270.7819999999999
 20
132.6197999999999
 30
0.0
 11
271.6299999999999
 21
132.6197999999999
 31
0.0
  0
LINE
  5
30B
330
1E
100
AcDbEntity
  8
0
100
AcDbLine
 10
271.6299999999999
 20
132.6197999999999
 30
0.0
 11
272.2699999999999
 21
132.6197999999999
 31
0.0
  0
LINE
  5
30C
330
1E
100
AcDbEntity
  8
0
100
AcDbLine
 10
272.2699999999999
 20
132.6197999999999
 30
0.0
 11
272.6539999999999
 21
132.6197999999999
 31
0.0
  0
LINE
  5
30D
330
1E
100
AcDbEntity
  8
0
100
AcDbLine
 10
272.6539999999999
 20
132.6197999999999
 30
0.0
 11
272.798
 21
132.6197999999999
 31
0.0
  0
LINE
  5
30E
330
1E
100
AcDbEntity
  8
0
100
AcDbLine
 10
267.774
 20
132.6197999999999
 30
0.0
 11
268.798
 21
132.6197999999999
 31
0.0
  0
LINE
  5
30F
330
1E
100
AcDbEntity
  8
0
100
AcDbLine
 10
266.814
 20
132.6197999999999
 30
0.0
 11
267.774
 21
132.6197999999999
 31
0.0
  0
LINE
  5
310
330
1E
100
AcDbEntity
  8
0
100
AcDbLine
 10
265.966
 20
132.6197999999999
 30
0.0
 11
266.814
 21
132.6197999999999
 31
0.0
  0
LINE
  5
311
330
1E
100
AcDbEntity
  8
0
100
AcDbLine
 10
265.3259999999999
 20
132.6197999999999
 30
0.0
 11
265.966
 21
132.6197999999999
 31
0.0
  0
LINE
  5
312
330
1E
100
AcDbEntity
  8
0
100
AcDbLine
 10
268.798
 20
132.715
 30
0.0
 11
269.8059999999999
 21
132.715
 31
0.0
  0
LINE
  5
313
330
1E
100
AcDbEntity
  8
0
100
AcDbLine
 10
269.8059999999999
 20
132.715
 30
0.0
 11
270.734
 21
132.715
 31
0.0
  0
LINE
  5
314
330
1E
100
AcDbEntity
  8
0
100
AcDbLine
 10
270.734
 20
132.715
 30
0.0
 11
271.55
 21
132.715
 31
0.0
  0
LINE
  5
315
330
1E
100
AcDbEntity
  8
0
100
AcDbLine
 10
271.55
 20
132.715
 30
0.0
 11
272.174
 21
132.715
 31
0.0
  0
LINE
  5
316
330
1E
100
AcDbEntity
  8
0
100
AcDbLine
 10
272.174
 20
132.715
 30
0.0
 11
272.5579999999999
 21
132.715
 31
0.0
  0
LINE
  5
317
330
1E
100
AcDbEntity
  8
0
100
AcDbLine
 10
272.5579999999999
 20
132.715
 30
0.0
 11
272.7019999999999
 21
132.715
 31
0.0
  0
LINE
  5
318
330
1E
100
AcDbEntity
  8
0
100
AcDbLine
 10
267.79
 20
132.715
 30
0.0
 11
268.798
 21
132.715
 31
0.0
  0
LINE
  5
319
330
1E
100
AcDbEntity
  8
0
100
AcDbLine
 10
266.862
 20
132.715
 30
0.0
 11
267.79
 21
132.715
 31
0.0
  0
LINE
  5
31A
330
1E
100
AcDbEntity
  8
0
100
AcDbLine
 10
266.046
 20
132.715
 30
0.0
 11
266.862
 21
132.715
 31
0.0
  0
LINE
  5
31B
330
1E
100
AcDbEntity
  8
0
100
AcDbLine
 10
265.422
 20
132.715
 30
0.0
 11
266.046
 21
132.715
 31
0.0
  0
LINE
  5
31C
330
1E
100
AcDbEntity
  8
0
100
AcDbLine
 10
265.038
 20
132.715
 30
0.0
 11
265.422
 21
132.715
 31
0.0
  0
LINE
  5
31D
330
1E
100
AcDbEntity
  8
0
100
AcDbLine
 10
264.894
 20
132.715
 30
0.0
 11
265.038
 21
132.715
 31
0.0
  0
LINE
  5
31E
330
1E
100
AcDbEntity
  8
0
100
AcDbLine
 10
264.942
 20
132.6197999999999
 30
0.0
 11
265.3259999999999
 21
132.6197999999999
 31
0.0
  0
LINE
  5
31F
330
1E
100
AcDbEntity
  8
0
100
AcDbLine
 10
264.798
 20
132.6197999999999
 30
0.0
 11
264.894
 21
132.715
 31
0.0
  0
LINE
  5
320
330
1E
100
AcDbEntity
  8
0
100
AcDbLine
 10
264.798
 20
132.6197999999999
 30
0.0
 11
264.798
 21
128.9958
 31
0.0
  0
LINE
  5
321
330
1E
100
AcDbEntity
  8
0
100
AcDbLine
 10
264.798
 20
132.6197999999999
 30
0.0
 11
264.942
 21
132.6197999999999
 31
0.0
  0
LINE
  5
322
330
1E
100
AcDbEntity
  8
0
100
AcDbLine
 10
272.7019999999999
 20
132.715
 30
0.0
 11
272.798
 21
132.6197999999999
 31
0.0
  0
LINE
  5
323
330
1E
100
AcDbEntity
  8
0
100
AcDbLine
 10
272.798
 20
132.6197999999999
 30
0.0
 11
272.798
 21
128.9958
 31
0.0
  0
LINE
  5
324
330
1E
100
AcDbEntity
  8
0
100
AcDbLine
 10
248.0
 20
131.9957999999999
 30
0.0
 11
250.281690140845
 21
128.9958
 31
0.0
  0
LINE
  5
325
330
1E
100
AcDbEntity
  8
0
100
AcDbLine
 10
284.3329999999999
 20
102.6197999999999
 30
0.0
 11
284.3329999999999
 21
107.9957999999999
 31
0.0
  0
LINE
  5
326
330
1E
100
AcDbEntity
  8
0
100
AcDbLine
 10
284.3329999999999
 20
102.6197999999999
 30
0.0
 11
284.3329999999999
 21
97.57980000000001
 31
0.0
  0
LINE
  5
327
330
1E
100
AcDbEntity
  8
0
100
AcDbLine
 10
284.3329999999999
 20
97.57980000000001
 30
0.0
 11
284.3329999999999
 21
102.6197999999999
 31
0.0
  0
LINE
  5
328
330
1E
100
AcDbEntity
  8
0
100
AcDbLine
 10
284.3329999999999
 20
97.57980000000001
 30
0.0
 11
284.3329999999999
 21
93.1278
 31
0.0
  0
LINE
  5
329
330
1E
100
AcDbEntity
  8
0
100
AcDbLine
 10
284.3329999999999
 20
93.1278
 30
0.0
 11
284.3329999999999
 21
97.57980000000001
 31
0.0
  0
LINE
  5
32A
330
1E
100
AcDbEntity
  8
0
100
AcDbLine
 10
284.3329999999999
 20
93.1278
 30
0.0
 11
284.3329999999999
 21
89.76779999999999
 31
0.0
  0
LINE
  5
32B
330
1E
100
AcDbEntity
  8
0
100
AcDbLine
 10
284.3329999999999
 20
89.76779999999999
 30
0.0
 11
284.3329999999999
 21
93.1278
 31
0.0
  0
LINE
  5
32C
330
1E
100
AcDbEntity
  8
0
100
AcDbLine
 10
284.3329999999999
 20
89.76779999999999
 30
0.0
 11
284.3329999999999
 21
87.7518
 31
0.0
  0
LINE
  5
32D
330
1E
100
AcDbEntity
  8
0
100
AcDbLine
 10
284.3329999999999
 20
87.7518
 30
0.0
 11
284.3329999999999
 21
89.76779999999999
 31
0.0
  0
LINE
  5
32E
330
1E
100
AcDbEntity
  8
0
100
AcDbLine
 10
284.3329999999999
 20
87.7518
 30
0.0
 11
284.3329999999999
 21
86.9958
 31
0.0
  0
LINE
  5
32F
330
1E
100
AcDbEntity
  8
0
100
AcDbLine
 10
284.3329999999999
 20
107.9957999999999
 30
0.0
 11
284.3329999999999
 21
113.3718
 31
0.0
  0
LINE
  5
330
330
1E
100
AcDbEntity
  8
0
100
AcDbLine
 10
284.3329999999999
 20
107.9957999999999
 30
0.0
 11
284.3329999999999
 21
102.6197999999999
 31
0.0
  0
LINE
  5
331
330
1E
100
AcDbEntity
  8
0
100
AcDbLine
 10
284.3329999999999
 20
113.3718
 30
0.0
 11
284.3329999999999
 21
118.4117999999999
 31
0.0
  0
LINE
  5
332
330
1E
100
AcDbEntity
  8
0
100
AcDbLine
 10
284.3329999999999
 20
113.3718
 30
0.0
 11
284.3329999999999
 21
107.9957999999999
 31
0.0
  0
LINE
  5
333
330
1E
100
AcDbEntity
  8
0
100
AcDbLine
 10
284.3329999999999
 20
118.4117999999999
 30
0.0
 11
284.3329999999999
 21
122.8637999999999
 31
0.0
  0
LINE
  5
334
330
1E
100
AcDbEntity
  8
0
100
AcDbLine
 10
284.3329999999999
 20
118.4117999999999
 30
0.0
 11
284.3329999999999
 21
113.3718
 31
0.0
  0
LINE
  5
335
330
1E
100
AcDbEntity
  8
0
100
AcDbLine
 10
284.3329999999999
 20
122.8637999999999
 30
0.0
 11
284.3329999999999
 21
126.2237999999999
 31
0.0
  0
LINE
  5
336
330
1E
100
AcDbEntity
  8
0
100
AcDbLine
 10
284.3329999999999
 20
122.8637999999999
 30
0.0
 11
284.3329999999999
 21
118.4117999999999
 31
0.0
  0
LINE
  5
337
330
1E
100
AcDbEntity
  8
0
100
AcDbLine
 10
284.3329999999999
 20
126.2237999999999
 30
0.0
 11
284.3329999999999
 21
128.2398
 31
0.0
  0
LINE
  5
338
330
1E
100
AcDbEntity
  8
0
100
AcDbLine
 10
284.3329999999999
 20
126.2237999999999
 30
0.0
 11
284.3329999999999
 21
122.8637999999999
 31
0.0
  0
LINE
  5
339
330
1E
100
AcDbEntity
  8
0
100
AcDbLine
 10
285.0
 20
102.7038
 30
0.0
 11
285.0
 21
107.9957999999999
 31
0.0
  0
LINE
  5
33A
330
1E
100
AcDbEntity
  8
0
100
AcDbLine
 10
285.0
 20
102.7038
 30
0.0
 11
285.0
 21
97.83180000000001
 31
0.0
  0
LINE
  5
33B
330
1E
100
AcDbEntity
  8
0
100
AcDbLine
 10
285.0
 20
97.83180000000001
 30
0.0
 11
285.0
 21
102.7038
 31
0.0
  0
LINE
  5
33C
330
1E
100
AcDbEntity
  8
0
100
AcDbLine
 10
285.0
 20
97.83180000000001
 30
0.0
 11
285.0
 21
93.54779999999999
 31
0.0
  0
LINE
  5
33D
330
1E
100
AcDbEntity
  8
0
100
AcDbLine
 10
285.0
 20
93.54779999999999
 30
0.0
 11
285.0
 21
97.83180000000001
 31
0.0
  0
LINE
  5
33E
330
1E
100
AcDbEntity
  8
0
100
AcDbLine
 10
285.0
 20
93.54779999999999
 30
0.0
 11
285.0
 21
90.27179999999999
 31
0.0
  0
LINE
  5
33F
330
1E
100
AcDbEntity
  8
0
100
AcDbLine
 10
285.0
 20
90.27179999999999
 30
0.0
 11
285.0
 21
93.54779999999999
 31
0.0
  0
LINE
  5
340
330
1E
100
AcDbEntity
  8
0
100
AcDbLine
 10
285.0
 20
90.27179999999999
 30
0.0
 11
285.0
 21
88.2558
 31
0.0
  0
LINE
  5
341
330
1E
100
AcDbEntity
  8
0
100
AcDbLine
 10
285.0
 20
88.2558
 30
0.0
 11
285.0
 21
90.27179999999999
 31
0.0
  0
LINE
  5
342
330
1E
100
AcDbEntity
  8
0
100
AcDbLine
 10
285.0
 20
88.2558
 30
0.0
 11
285.0
 21
87.49979999999998
 31
0.0
  0
LINE
  5
343
330
1E
100
AcDbEntity
  8
0
100
AcDbLine
 10
285.0
 20
87.49979999999998
 30
0.0
 11
285.0
 21
88.2558
 31
0.0
  0
LINE
  5
344
330
1E
100
AcDbEntity
  8
0
100
AcDbLine
 10
285.0
 20
107.9957999999999
 30
0.0
 11
285.0
 21
113.2878
 31
0.0
  0
LINE
  5
345
330
1E
100
AcDbEntity
  8
0
100
AcDbLine
 10
285.0
 20
107.9957999999999
 30
0.0
 11
285.0
 21
102.7038
 31
0.0
  0
LINE
  5
346
330
1E
100
AcDbEntity
  8
0
100
AcDbLine
 10
285.0
 20
113.2878
 30
0.0
 11
285.0
 21
118.1598
 31
0.0
  0
LINE
  5
347
330
1E
100
AcDbEntity
  8
0
100
AcDbLine
 10
285.0
 20
113.2878
 30
0.0
 11
285.0
 21
107.9957999999999
 31
0.0
  0
LINE
  5
348
330
1E
100
AcDbEntity
  8
0
100
AcDbLine
 10
285.0
 20
118.1598
 30
0.0
 11
285.0
 21
122.4437999999999
 31
0.0
  0
LINE
  5
349
330
1E
100
AcDbEntity
  8
0
100
AcDbLine
 10
285.0
 20
118.1598
 30
0.0
 11
285.0
 21
113.2878
 31
0.0
  0
LINE
  5
34A
330
1E
100
AcDbEntity
  8
0
100
AcDbLine
 10
285.0
 20
122.4437999999999
 30
0.0
 11
285.0
 21
125.7198
 31
0.0
  0
LINE
  5
34B
330
1E
100
AcDbEntity
  8
0
100
AcDbLine
 10
285.0
 20
122.4437999999999
 30
0.0
 11
285.0
 21
118.1598
 31
0.0
  0
LINE
  5
34C
330
1E
100
AcDbEntity
  8
0
100
AcDbLine
 10
285.0
 20
125.7198
 30
0.0
 11
285.0
 21
127.7357999999999
 31
0.0
  0
LINE
  5
34D
330
1E
100
AcDbEntity
  8
0
100
AcDbLine
 10
285.0
 20
125.7198
 30
0.0
 11
285.0
 21
122.4437999999999
 31
0.0
  0
LINE
  5
34E
330
1E
100
AcDbEntity
  8
0
100
AcDbLine
 10
285.0
 20
128.4918
 30
0.0
 11
285.0
 21
127.7357999999999
 31
0.0
  0
LINE
  5
34F
330
1E
100
AcDbEntity
  8
0
100
AcDbLine
 10
285.0
 20
127.7357999999999
 30
0.0
 11
285.0
 21
128.4918
 31
0.0
  0
LINE
  5
350
330
1E
100
AcDbEntity
  8
0
100
AcDbLine
 10
285.0
 20
127.7357999999999
 30
0.0
 11
285.0
 21
125.7198
 31
0.0
  0
LINE
  5
351
330
1E
100
AcDbEntity
  8
0
100
AcDbLine
 10
284.3329999999999
 20
128.2398
 30
0.0
 11
284.3329999999999
 21
128.9958
 31
0.0
  0
LINE
  5
352
330
1E
100
AcDbEntity
  8
0
100
AcDbLine
 10
284.3329999999999
 20
128.2398
 30
0.0
 11
284.3329999999999
 21
126.2237999999999
 31
0.0
  0
LINE
  5
353
330
1E
100
AcDbEntity
  8
0
100
AcDbLine
 10
284.3329999999999
 20
128.9958
 30
0.0
 11
285.0
 21
128.4918
 31
0.0
  0
LINE
  5
354
330
1E
100
AcDbEntity
  8
0
100
AcDbLine
 10
284.3329999999999
 20
128.9958
 30
0.0
 11
284.3329999999999
 21
128.2398
 31
0.0
  0
LINE
  5
355
330
1E
100
AcDbEntity
  8
0
100
AcDbLine
 10
272.798
 20
128.9958
 30
0.0
 11
284.3329999999999
 21
128.9958
 31
0.0
  0
LINE
  5
356
330
1E
100
AcDbEntity
  8
0
100
AcDbLine
 10
272.798
 20
128.9958
 30
0.0
 11
272.798
 21
132.6197999999999
 31
0.0
  0
LINE
  5
357
330
1E
100
AcDbEntity
  8
0
100
AcDbLine
 10
284.3329999999999
 20
86.9958
 30
0.0
 11
285.0
 21
87.49979999999998
 31
0.0
  0
LINE
  5
358
330
1E
100
AcDbEntity
  8
0
100
AcDbLine
 10
284.3329999999999
 20
86.9958
 30
0.0
 11
284.3329999999999
 21
87.7518
 31
0.0
  0
LINE
  5
359
330
1E
100
AcDbEntity
  8
0
100
AcDbLine
 10
243.0
 20
86.9958
 30
0.0
 11
243.0
 21
87.7518
 31
0.0
  0
LINE
  5
35A
330
1E
100
AcDbEntity
  8
0
100
AcDbLine
 10
243.0
 20
86.9958
 30
0.0
 11
284.3329999999999
 21
86.9958
 31
0.0
  0
LINE
  5
35F
330
1E
100
AcDbEntity
  8
0
100
AcDbLine
 10
138.5
 20
126.1958
 30
0.0
 11
141.5483356664356
 21
127.7394844607404
 31
0.0
  0
LINE
  5
360
330
1E
100
AcDbEntity
  8
0
100
AcDbLine
 10
141.5483356664356
 20
127.7394844607404
 30
0.0
 11
144.7396354080709
 21
128.6435047210105
 31
0.0
  0
LINE
  5
361
330
1E
100
AcDbEntity
  8
0
100
AcDbLine
 10
144.7396354080709
 20
128.6435047210105
 30
0.0
 11
149.0
 21
128.9958
 31
0.0
  0
LINE
  5
362
330
1E
100
AcDbEntity
  8
0
100
AcDbLine
 10
149.0
 20
128.9958
 30
0.0
 11
152.5796800563361
 21
128.6183932254127
 31
0.0
  0
LINE
  5
363
330
1E
100
AcDbEntity
  8
0
100
AcDbLine
 10
152.5796800563361
 20
128.6183932254127
 30
0.0
 11
156.2232905116685
 21
127.6641492982891
 31
0.0
  0
LINE
  5
364
330
1E
100
AcDbEntity
  8
0
100
AcDbLine
 10
156.2232905116685
 20
127.6641492982891
 30
0.0
 11
159.4999999999999
 21
126.1958
 31
0.0
  0
ENDSEC
  0
SECTION
  2
OBJECTS
  0
DICTIONARY
  5
C
330
0
100
AcDbDictionary
281
     1
  3
ACAD_GROUP
350
D
  3
ACAD_LAYOUT
350
19
  3
ACAD_MLINESTYLE
350
16
  3
ACAD_PLOTSETTINGS
350
18
  3
ACAD_PLOTSTYLENAME
350
E
  3
AcDbVariableDictionary
350
365
  0
DICTIONARY
  5
D
102
{ACAD_REACTORS
330
C
102
}
330
C
100
AcDbDictionary
281
     1
  0
DICTIONARY
  5
19
102
{ACAD_REACTORS
330
C
102
}
330
C
100
AcDbDictionary
281
     1
  3
Layout1
350
1D
  3
Model
350
21
  0
DICTIONARY
  5
16
102
{ACAD_REACTORS
330
C
102
}
330
C
100
AcDbDictionary
281
     1
  3
Standard
350
17
  0
DICTIONARY
  5
18
102
{ACAD_REACTORS
330
C
102
}
330
C
100
AcDbDictionary
281
     1
  0
ACDBDICTIONARYWDFLT
  5
E
102
{ACAD_REACTORS
330
C
102
}
330
C
100
AcDbDictionary
281
     1
  3
Normal
350
F
100
AcDbDictionaryWithDefault
340
F
  0
DICTIONARY
  5
365
102
{ACAD_REACTORS
330
C
102
}
330
C
100
AcDbDictionary
281
     1
  3
DIMASSOC
350
366
  0
LAYOUT
  5
1D
102
{ACAD_REACTORS
330
19
102
}
330
19
100
AcDbPlotSettings
  1

  2
hp deskjet 980c series
  4

  6

 40
0.0
 41
0.0
 42
0.0
 43
0.0
 44
0.0
 45
0.0
 46
0.0
 47
0.0
 48
0.0
 49
0.0
140
0.0
141
0.0
142
1.0
143
1.0
 70
   688
 72
     0
 73
     0
 74
     5
  7

 75
    16
147
1.0
148
0.0
149
0.0
100
AcDbLayout
  1
Layout1
 70
     1
 71
     1
 10
0.0
 20
0.0
 11
12.0
 21
9.0
 12
0.0
 22
0.0
 32
0.0
 14
1.000000000000000E+20
 24
1.000000000000000E+20
 34
1.000000000000000E+20
 15
-1.000000000000000E+20
 25
-1.000000000000000E+20
 35
-1.000000000000000E+20
146
0.0
 13
0.0
 23
0.0
 33
0.0
 16
1.0
 26
0.0
 36
0.0
 17
0.0
 27
1.0
 37
0.0
 76
     0
330
1A
  0
LAYOUT
  5
21
102
{ACAD_REACTORS
330
19
102
}
330
19
100
AcDbPlotSettings
  1

  2
hp deskjet 980c series
  4

  6

 40
0.0
 41
0.0
 42
0.0
 43
0.0
 44
0.0
 45
0.0
 46
0.0
 47
0.0
 48
0.0
 49
0.0
140
0.0
141
0.0
142
1.0
143
1.0
 70
  1712
 72
     0
 73
     0
 74
     0
  7

 75
     0
147
1.0
148
0.0
149
0.0
100
AcDbLayout
  1
Model
 70
     1
 71
     0
 10
0.0
 20
0.0
 11
12.0
 21
9.0
 12
0.0
 22
0.0
 32
0.0
 14
0.0
 24
0.0
 34
0.0
 15
0.0
 25
0.0
 35
0.0
146
0.0
 13
0.0
 23
0.0
 33
0.0
 16
1.0
 26
0.0
 36
0.0
 17
0.0
 27
1.0
 37
0.0
 76
     0
330
1E
  0
MLINESTYLE
  5
17
102
{ACAD_REACTORS
330
16
102
}
330
16
100
AcDbMlineStyle
  2
STANDARD
 70
     0
  3

 62
   256
 51
90.0
 52
90.0
 71
     2
 49
0.5
 62
   256
  6
BYLAYER
 49
-0.5
 62
   256
  6
BYLAYER
  0
ACDBPLACEHOLDER
  5
F
102
{ACAD_REACTORS
330
E
102
}
330
E
  0
DICTIONARYVAR
  5
366
102
{ACAD_REACTORS
330
365
102
}
330
365
100
DictionaryVariables
280
     0
  1
1
  0
ENDSEC
  0
EOF
