  0
SECTION
  2
HEADER
  9
$ACADVER
  1
AC1015
  9
$ACADMAINTVER
 70
    13
  9
$DWGCODEPAGE
  3
ANSI_1252
  9
$INSBASE
 10
0.0
 20
0.0
 30
0.0
  9
$EXTMIN
 10
0.0000000000000019
 20
0.0499999999999956
 30
0.0
  9
$EXTMAX
 10
272.0
 20
184.9499999999999
 30
0.0
  9
$LIMMIN
 10
0.0
 20
0.0
  9
$LIMMAX
 10
12.0
 20
9.0
  9
$ORTHOMODE
 70
     0
  9
$REGENMODE
 70
     1
  9
$FILLMODE
 70
     1
  9
$QTEXTMODE
 70
     0
  9
$MIRRTEXT
 70
     1
  9
$LTSCALE
 40
1.0
  9
$ATTMODE
 70
     1
  9
$TEXTSIZE
 40
0.2
  9
$TRACEWID
 40
0.05
  9
$TEXTSTYLE
  7
Standard
  9
$CLAYER
  8
0
  9
$CELTYPE
  6
Continuous
  9
$CECOLOR
 62
   256
  9
$CELTSCALE
 40
1.0
  9
$DISPSILH
 70
     0
  9
$DIMSCALE
 40
1.0
  9
$DIMASZ
 40
0.18
  9
$DIMEXO
 40
0.0625
  9
$DIMDLI
 40
0.38
  9
$DIMRND
 40
0.0
  9
$DIMDLE
 40
0.0
  9
$DIMEXE
 40
0.18
  9
$DIMTP
 40
0.0
  9
$DIMTM
 40
0.0
  9
$DIMTXT
 40
0.18
  9
$DIMCEN
 40
0.09
  9
$DIMTSZ
 40
0.0
  9
$DIMTOL
 70
     0
  9
$DIMLIM
 70
     0
  9
$DIMTIH
 70
     1
  9
$DIMTOH
 70
     1
  9
$DIMSE1
 70
     0
  9
$DIMSE2
 70
     0
  9
$DIMTAD
 70
     0
  9
$DIMZIN
 70
     0
  9
$DIMBLK
  1

  9
$DIMASO
 70
     1
  9
$DIMSHO
 70
     1
  9
$DIMPOST
  1

  9
$DIMAPOST
  1

  9
$DIMALT
 70
     0
  9
$DIMALTD
 70
     2
  9
$DIMALTF
 40
25.4
  9
$DIMLFAC
 40
1.0
  9
$DIMTOFL
 70
     0
  9
$DIMTVP
 40
0.0
  9
$DIMTIX
 70
     0
  9
$DIMSOXD
 70
     0
  9
$DIMSAH
 70
     0
  9
$DIMBLK1
  1

  9
$DIMBLK2
  1

  9
$DIMSTYLE
  2
Standard
  9
$DIMCLRD
 70
     0
  9
$DIMCLRE
 70
     0
  9
$DIMCLRT
 70
     0
  9
$DIMTFAC
 40
1.0
  9
$DIMGAP
 40
0.09
  9
$DIMJUST
 70
     0
  9
$DIMSD1
 70
     0
  9
$DIMSD2
 70
     0
  9
$DIMTOLJ
 70
     1
  9
$DIMTZIN
 70
     0
  9
$DIMALTZ
 70
     0
  9
$DIMALTTZ
 70
     0
  9
$DIMUPT
 70
     0
  9
$DIMDEC
 70
     4
  9
$DIMTDEC
 70
     4
  9
$DIMALTU
 70
     2
  9
$DIMALTTD
 70
     2
  9
$DIMTXSTY
  7
Standard
  9
$DIMAUNIT
 70
     0
  9
$DIMADEC
 70
     0
  9
$DIMALTRND
 40
0.0
  9
$DIMAZIN
 70
     0
  9
$DIMDSEP
 70
    46
  9
$DIMATFIT
 70
     3
  9
$DIMFRAC
 70
     0
  9
$DIMLDRBLK
  1

  9
$DIMLUNIT
 70
     2
  9
$DIMLWD
 70
    -2
  9
$DIMLWE
 70
    -2
  9
$DIMTMOVE
 70
     0
  9
$LUNITS
 70
     2
  9
$LUPREC
 70
     4
  9
$SKETCHINC
 40
0.1
  9
$FILLETRAD
 40
0.0
  9
$AUNITS
 70
     0
  9
$AUPREC
 70
     0
  9
$MENU
  1
.
  9
$ELEVATION
 40
0.0
  9
$PELEVATION
 40
0.0
  9
$THICKNESS
 40
0.0
  9
$LIMCHECK
 70
     0
  9
$CHAMFERA
 40
0.0
  9
$CHAMFERB
 40
0.0
  9
$CHAMFERC
 40
0.0
  9
$CHAMFERD
 40
0.0
  9
$SKPOLY
 70
     0
  9
$TDCREATE
 40
2454752.824246053
  9
$TDUCREATE
 40
2454752.740912720
  9
$TDUPDATE
 40
2454752.826682581
  9
$TDUUPDATE
 40
2454752.743349247
  9
$TDINDWG
 40
0.0024367014
  9
$TDUSRTIMER
 40
0.0024367014
  9
$USRTIMER
 70
     1
  9
$ANGBASE
 50
0.0
  9
$ANGDIR
 70
     0
  9
$PDMODE
 70
     0
  9
$PDSIZE
 40
0.0
  9
$PLINEWID
 40
0.0
  9
$SPLFRAME
 70
     0
  9
$SPLINETYPE
 70
     6
  9
$SPLINESEGS
 70
     8
  9
$HANDSEED
  5
335
  9
$SURFTAB1
 70
     6
  9
$SURFTAB2
 70
     6
  9
$SURFTYPE
 70
     6
  9
$SURFU
 70
     6
  9
$SURFV
 70
     6
  9
$UCSBASE
  2

  9
$UCSNAME
  2

  9
$UCSORG
 10
0.0
 20
0.0
 30
0.0
  9
$UCSXDIR
 10
1.0
 20
0.0
 30
0.0
  9
$UCSYDIR
 10
0.0
 20
1.0
 30
0.0
  9
$UCSORTHOREF
  2

  9
$UCSORTHOVIEW
 70
     1
  9
$UCSORGTOP
 10
0.0
 20
0.0
 30
0.0
  9
$UCSORGBOTTOM
 10
0.0
 20
0.0
 30
0.0
  9
$UCSORGLEFT
 10
0.0
 20
0.0
 30
0.0
  9
$UCSORGRIGHT
 10
0.0
 20
0.0
 30
0.0
  9
$UCSORGFRONT
 10
0.0
 20
0.0
 30
0.0
  9
$UCSORGBACK
 10
0.0
 20
0.0
 30
0.0
  9
$PUCSBASE
  2

  9
$PUCSNAME
  2

  9
$PUCSORG
 10
0.0
 20
0.0
 30
0.0
  9
$PUCSXDIR
 10
1.0
 20
0.0
 30
0.0
  9
$PUCSYDIR
 10
0.0
 20
1.0
 30
0.0
  9
$PUCSORTHOREF
  2

  9
$PUCSORTHOVIEW
 70
     0
  9
$PUCSORGTOP
 10
0.0
 20
0.0
 30
0.0
  9
$PUCSORGBOTTOM
 10
0.0
 20
0.0
 30
0.0
  9
$PUCSORGLEFT
 10
0.0
 20
0.0
 30
0.0
  9
$PUCSORGRIGHT
 10
0.0
 20
0.0
 30
0.0
  9
$PUCSORGFRONT
 10
0.0
 20
0.0
 30
0.0
  9
$PUCSORGBACK
 10
0.0
 20
0.0
 30
0.0
  9
$USERI1
 70
     0
  9
$USERI2
 70
     0
  9
$USERI3
 70
     0
  9
$USERI4
 70
     0
  9
$USERI5
 70
     0
  9
$USERR1
 40
0.0
  9
$USERR2
 40
0.0
  9
$USERR3
 40
0.0
  9
$USERR4
 40
0.0
  9
$USERR5
 40
0.0
  9
$WORLDVIEW
 70
     1
  9
$SHADEDGE
 70
     3
  9
$SHADEDIF
 70
    70
  9
$TILEMODE
 70
     1
  9
$MAXACTVP
 70
    64
  9
$PINSBASE
 10
0.0
 20
0.0
 30
0.0
  9
$PLIMCHECK
 70
     0
  9
$PEXTMIN
 10
1.000000000000000E+20
 20
1.000000000000000E+20
 30
1.000000000000000E+20
  9
$PEXTMAX
 10
-1.000000000000000E+20
 20
-1.000000000000000E+20
 30
-1.000000000000000E+20
  9
$PLIMMIN
 10
0.0
 20
0.0
  9
$PLIMMAX
 10
12.0
 20
9.0
  9
$UNITMODE
 70
     0
  9
$VISRETAIN
 70
     1
  9
$PLINEGEN
 70
     0
  9
$PSLTSCALE
 70
     1
  9
$TREEDEPTH
 70
  3020
  9
$CMLSTYLE
  2
Standard
  9
$CMLJUST
 70
     0
  9
$CMLSCALE
 40
1.0
  9
$PROXYGRAPHICS
 70
     1
  9
$MEASUREMENT
 70
     0
  9
$CELWEIGHT
370
    -1
  9
$ENDCAPS
280
     0
  9
$JOINSTYLE
280
     0
  9
$LWDISPLAY
290
     0
  9
$INSUNITS
 70
     0
  9
$HYPERLINKBASE
  1

  9
$STYLESHEET
  1

  9
$XEDIT
290
     1
  9
$CEPSNTYPE
380
     0
  9
$PSTYLEMODE
290
     1
  9
$FINGERPRINTGUID
  2
{CABF72A2-5855-49AD-BF2F-ED96B299717A}
  9
$VERSIONGUID
  2
{AFF96723-FA4B-47E8-82CD-42A19EB39DB4}
  9
$EXTNAMES
290
     1
  9
$PSVPSCALE
 40
0.0
  9
$OLESTARTUP
290
     0
  0
ENDSEC
  0
SECTION
  2
CLASSES
  0
CLASS
  1
ACDBDICTIONARYWDFLT
  2
AcDbDictionaryWithDefault
  3
AutoCAD 2000
 90
        0
280
     0
281
     0
  0
CLASS
  1
ACDBPLACEHOLDER
  2
AcDbPlaceHolder
  3
AutoCAD 2000
 90
        0
280
     0
281
     0
  0
CLASS
  1
LAYOUT
  2
AcDbLayout
  3
AutoCAD 2000
 90
        0
280
     0
281
     0
  0
CLASS
  1
DICTIONARYVAR
  2
AcDbDictionaryVar
  3
AutoCAD 2000
 90
        0
280
     0
281
     0
  0
ENDSEC
  0
SECTION
  2
TABLES
  0
TABLE
  2
VPORT
  5
8
330
0
100
AcDbSymbolTable
 70
     2
  0
VPORT
  5
334
330
8
100
AcDbSymbolTableRecord
100
AcDbViewportTableRecord
  2
*Active
 70
     0
 10
0.0
 20
0.0
 11
1.0
 21
1.0
 12
136.0
 22
92.5
 13
0.0
 23
0.0
 14
1.0
 24
1.0
 15
0.0
 25
0.0
 16
0.0
 26
0.0
 36
1.0
 17
0.0
 27
0.0
 37
0.0
 40
186.3186700767263
 41
2.078104993597951
 42
50.0
 43
0.0
 44
0.0
 50
0.0
 51
0.0
 71
     0
 72
   100
 73
     1
 74
     3
 75
     0
 76
     0
 77
     0
 78
     0
281
     0
 65
     1
110
0.0
120
0.0
130
0.0
111
1.0
121
0.0
131
0.0
112
0.0
122
1.0
132
0.0
 79
     1
146
0.0
  0
ENDTAB
  0
TABLE
  2
LTYPE
  5
5
330
0
100
AcDbSymbolTable
 70
     1
  0
LTYPE
  5
13
330
5
100
AcDbSymbolTableRecord
100
AcDbLinetypeTableRecord
  2
ByBlock
 70
     0
  3

 72
    65
 73
     0
 40
0.0
  0
LTYPE
  5
14
330
5
100
AcDbSymbolTableRecord
100
AcDbLinetypeTableRecord
  2
ByLayer
 70
     0
  3

 72
    65
 73
     0
 40
0.0
  0
LTYPE
  5
15
330
5
100
AcDbSymbolTableRecord
100
AcDbLinetypeTableRecord
  2
Continuous
 70
     0
  3
Solid line
 72
    65
 73
     0
 40
0.0
  0
ENDTAB
  0
TABLE
  2
LAYER
  5
2
330
0
100
AcDbSymbolTable
 70
     1
  0
LAYER
  5
10
330
2
100
AcDbSymbolTableRecord
100
AcDbLayerTableRecord
  2
0
 70
     0
 62
     7
  6
Continuous
370
    -3
390
F
  0
ENDTAB
  0
TABLE
  2
STYLE
  5
3
330
0
100
AcDbSymbolTable
 70
     1
  0
STYLE
  5
11
330
3
100
AcDbSymbolTableRecord
100
AcDbTextStyleTableRecord
  2
Standard
 70
     0
 40
0.0
 41
1.0
 50
0.0
 71
     0
 42
0.2
  3
txt
  4

  0
ENDTAB
  0
TABLE
  2
VIEW
  5
6
330
0
100
AcDbSymbolTable
 70
     0
  0
ENDTAB
  0
TABLE
  2
UCS
  5
7
330
0
100
AcDbSymbolTable
 70
     0
  0
ENDTAB
  0
TABLE
  2
APPID
  5
9
330
0
100
AcDbSymbolTable
 70
     1
  0
APPID
  5
12
330
9
100
AcDbSymbolTableRecord
100
AcDbRegAppTableRecord
  2
ACAD
 70
     0
  0
ENDTAB
  0
TABLE
  2
DIMSTYLE
  5
A
330
0
100
AcDbSymbolTable
 70
     1
100
AcDbDimStyleTable
 71
     0
  0
DIMSTYLE
105
25F
330
A
100
AcDbSymbolTableRecord
100
AcDbDimStyleTableRecord
  2
Standard
 70
     0
340
11
  0
ENDTAB
  0
TABLE
  2
BLOCK_RECORD
  5
1
330
0
100
AcDbSymbolTable
 70
     0
  0
BLOCK_RECORD
  5
1E
330
1
100
AcDbSymbolTableRecord
100
AcDbBlockTableRecord
  2
*Model_Space
340
21
  0
BLOCK_RECORD
  5
1A
330
1
100
AcDbSymbolTableRecord
100
AcDbBlockTableRecord
  2
*Paper_Space
340
1D
  0
ENDTAB
  0
ENDSEC
  0
SECTION
  2
BLOCKS
  0
BLOCK
  5
1F
330
1E
100
AcDbEntity
  8
0
100
AcDbBlockBegin
  2
*Model_Space
 70
     0
 10
0.0
 20
0.0
 30
0.0
  3
*Model_Space
  1

  0
ENDBLK
  5
20
330
1E
100
AcDbEntity
  8
0
100
AcDbBlockEnd
  0
BLOCK
  5
1B
330
1A
100
AcDbEntity
 67
     1
  8
0
100
AcDbBlockBegin
  2
*Paper_Space
 70
     0
 10
0.0
 20
0.0
 30
0.0
  3
*Paper_Space
  1

  0
ENDBLK
  5
1C
330
1A
100
AcDbEntity
 67
     1
  8
0
100
AcDbBlockEnd
  0
ENDSEC
  0
SECTION
  2
ENTITIES
  0
LINE
  5
22
330
1E
100
AcDbEntity
  8
0
100
AcDbLine
 10
10.0
 20
141.4499999999999
 30
0.0
 11
14.0
 21
141.7499999999999
 31
0.0
  0
LINE
  5
23
330
1E
100
AcDbEntity
  8
0
100
AcDbLine
 10
29.0
 20
119.45
 30
0.0
 11
30.0
 21
116.9499999999999
 31
0.0
  0
LINE
  5
24
330
1E
100
AcDbEntity
  8
0
100
AcDbLine
 10
30.0
 20
116.9499999999999
 30
0.0
 11
31.5
 21
114.9499999999999
 31
0.0
  0
LINE
  5
25
330
1E
100
AcDbEntity
  8
0
100
AcDbLine
 10
31.5
 20
114.9499999999999
 30
0.0
 11
33.5
 21
113.45
 31
0.0
  0
LINE
  5
26
330
1E
100
AcDbEntity
  8
0
100
AcDbLine
 10
33.5
 20
113.45
 30
0.0
 11
36.0
 21
112.9499999999999
 31
0.0
  0
LINE
  5
27
330
1E
100
AcDbEntity
  8
0
100
AcDbLine
 10
43.0
 20
119.45
 30
0.0
 11
43.5
 21
122.95
 31
0.0
  0
LINE
  5
28
330
1E
100
AcDbEntity
  8
0
100
AcDbLine
 10
42.0
 20
116.9499999999999
 30
0.0
 11
43.0
 21
119.45
 31
0.0
  0
LINE
  5
29
330
1E
100
AcDbEntity
  8
0
100
AcDbLine
 10
40.49999999999999
 20
114.9499999999999
 30
0.0
 11
42.0
 21
116.9499999999999
 31
0.0
  0
LINE
  5
2A
330
1E
100
AcDbEntity
  8
0
100
AcDbLine
 10
38.5
 20
113.45
 30
0.0
 11
40.49999999999999
 21
114.9499999999999
 31
0.0
  0
LINE
  5
2B
330
1E
100
AcDbEntity
  8
0
100
AcDbLine
 10
36.0
 20
112.9499999999999
 30
0.0
 11
38.5
 21
113.45
 31
0.0
  0
LINE
  5
2C
330
1E
100
AcDbEntity
  8
0
100
AcDbLine
 10
28.5
 20
122.95
 30
0.0
 11
29.0
 21
119.45
 31
0.0
  0
LINE
  5
2D
330
1E
100
AcDbEntity
  8
0
100
AcDbLine
 10
28.5
 20
122.95
 30
0.0
 11
28.8
 21
126.95
 31
0.0
  0
LINE
  5
2E
330
1E
100
AcDbEntity
  8
0
100
AcDbLine
 10
28.8
 20
126.95
 30
0.0
 11
29.19999999999999
 21
129.9499999999999
 31
0.0
  0
LINE
  5
2F
330
1E
100
AcDbEntity
  8
0
100
AcDbLine
 10
43.2
 20
126.95
 30
0.0
 11
43.5
 21
122.95
 31
0.0
  0
LINE
  5
30
330
1E
100
AcDbEntity
  8
0
100
AcDbLine
 10
43.2512348262872
 20
126.266868982838
 30
0.0
 11
48.0
 21
128.15
 31
0.0
  0
LINE
  5
31
330
1E
100
AcDbEntity
  8
0
100
AcDbLine
 10
48.0
 20
128.15
 30
0.0
 11
52.9
 21
132.05
 31
0.0
  0
LINE
  5
32
330
1E
100
AcDbEntity
  8
0
100
AcDbLine
 10
43.4489655172414
 20
122.5927586206899
 30
0.0
 11
49.7
 21
125.15
 31
0.0
  0
LINE
  5
33
330
1E
100
AcDbEntity
  8
0
100
AcDbLine
 10
49.7
 20
125.15
 30
0.0
 11
55.4
 21
129.55
 31
0.0
  0
LINE
  5
35
330
1E
100
AcDbEntity
  8
0
100
AcDbLine
 10
43.0234169653525
 20
128.274372759857
 30
0.0
 11
47.0
 21
129.8499999999999
 31
0.0
  0
LINE
  5
36
330
1E
100
AcDbEntity
  8
0
100
AcDbLine
 10
55.4
 20
129.55
 30
0.0
 11
59.8
 21
135.25
 31
0.0
  0
LINE
  5
37
330
1E
100
AcDbEntity
  8
0
100
AcDbLine
 10
24.0
 20
128.15
 30
0.0
 11
28.74876517371289
 21
126.266868982838
 31
0.0
  0
LINE
  5
38
330
1E
100
AcDbEntity
  8
0
100
AcDbLine
 10
22.29999999999999
 20
125.15
 30
0.0
 11
28.5510344827586
 21
122.5927586206899
 31
0.0
  0
LINE
  5
3A
330
1E
100
AcDbEntity
  8
0
100
AcDbLine
 10
25.0
 20
129.8499999999999
 30
0.0
 11
28.9765830346476
 21
128.274372759857
 31
0.0
  0
LINE
  5
3B
330
1E
100
AcDbEntity
  8
0
100
AcDbLine
 10
25.0
 20
129.8499999999999
 30
0.0
 11
28.9765830346476
 21
128.274372759857
 31
0.0
  0
LINE
  5
3C
330
1E
100
AcDbEntity
  8
0
100
AcDbLine
 10
29.19999999999999
 20
129.9499999999999
 30
0.0
 11
30.0
 21
133.9499999999999
 31
0.0
  0
LINE
  5
3D
330
1E
100
AcDbEntity
  8
0
100
AcDbLine
 10
42.8
 20
129.9499999999999
 30
0.0
 11
43.2
 21
126.95
 31
0.0
  0
LINE
  5
3E
330
1E
100
AcDbEntity
  8
0
100
AcDbLine
 10
42.7323076923077
 20
130.288461538462
 30
0.0
 11
46.0
 21
131.65
 31
0.0
  0
LINE
  5
40
330
1E
100
AcDbEntity
  8
0
100
AcDbLine
 10
47.0
 20
129.8499999999999
 30
0.0
 11
51.5
 21
133.45
 31
0.0
  0
LINE
  5
41
330
1E
100
AcDbEntity
  8
0
100
AcDbLine
 10
46.0
 20
131.65
 30
0.0
 11
50.1
 21
134.85
 31
0.0
  0
LINE
  5
42
330
1E
100
AcDbEntity
  8
0
100
AcDbLine
 10
52.9
 20
132.05
 30
0.0
 11
56.79999999999999
 21
136.9499999999999
 31
0.0
  0
LINE
  5
43
330
1E
100
AcDbEntity
  8
0
100
AcDbLine
 10
26.0
 20
131.65
 30
0.0
 11
29.2676923076923
 21
130.288461538462
 31
0.0
  0
LINE
  5
45
330
1E
100
AcDbEntity
  8
0
100
AcDbLine
 10
16.89999999999999
 20
137.9499999999999
 30
0.0
 11
20.5
 21
133.45
 31
0.0
  0
LINE
  5
46
330
1E
100
AcDbEntity
  8
0
100
AcDbLine
 10
20.5
 20
133.45
 30
0.0
 11
25.0
 21
129.8499999999999
 31
0.0
  0
LINE
  5
47
330
1E
100
AcDbEntity
  8
0
100
AcDbLine
 10
30.0
 20
133.9499999999999
 30
0.0
 11
31.2978260869565
 21
137.410869565217
 31
0.0
  0
LINE
  5
49
330
1E
100
AcDbEntity
  8
0
100
AcDbLine
 10
42.0
 20
133.9499999999999
 30
0.0
 11
42.8
 21
129.9499999999999
 31
0.0
  0
LINE
  5
4B
330
1E
100
AcDbEntity
  8
0
100
AcDbLine
 10
51.5
 20
133.45
 30
0.0
 11
55.1
 21
137.9499999999999
 31
0.0
  0
LINE
  5
4C
330
1E
100
AcDbEntity
  8
0
100
AcDbLine
 10
50.1
 20
134.85
 30
0.0
 11
53.3
 21
138.9499999999999
 31
0.0
  0
LINE
  5
4D
330
1E
100
AcDbEntity
  8
0
100
AcDbLine
 10
36.0
 20
137.4499999999999
 30
0.0
 11
39.0
 21
137.85
 31
0.0
  0
LINE
  5
4E
330
1E
100
AcDbEntity
  8
0
100
AcDbLine
 10
36.0
 20
137.9499999999999
 30
0.0
 11
38.79999999999999
 21
138.3499999999999
 31
0.0
  0
LINE
  5
4F
330
1E
100
AcDbEntity
  8
0
100
AcDbLine
 10
39.0
 20
137.85
 30
0.0
 11
41.7
 21
138.9499999999999
 31
0.0
  0
LINE
  5
50
330
1E
100
AcDbEntity
  8
0
100
AcDbLine
 10
33.0
 20
137.85
 30
0.0
 11
36.0
 21
137.4499999999999
 31
0.0
  0
LINE
  5
51
330
1E
100
AcDbEntity
  8
0
100
AcDbLine
 10
40.7021739130435
 20
137.410869565217
 30
0.0
 11
42.29999999999999
 21
138.05
 31
0.0
  0
LINE
  5
52
330
1E
100
AcDbEntity
  8
0
100
AcDbLine
 10
40.7021739130435
 20
137.410869565217
 30
0.0
 11
42.0
 21
133.9499999999999
 31
0.0
  0
LINE
  5
53
330
1E
100
AcDbEntity
  8
0
100
AcDbLine
 10
55.1
 20
137.9499999999999
 30
0.0
 11
56.67562724014339
 21
141.9265830346479
 31
0.0
  0
LINE
  5
54
330
1E
100
AcDbEntity
  8
0
100
AcDbLine
 10
42.29999999999999
 20
138.05
 30
0.0
 11
44.9
 21
140.05
 31
0.0
  0
LINE
  5
55
330
1E
100
AcDbEntity
  8
0
100
AcDbLine
 10
56.79999999999999
 20
136.9499999999999
 30
0.0
 11
58.683131017162
 21
141.6987651737129
 31
0.0
  0
LINE
  5
56
330
1E
100
AcDbEntity
  8
0
100
AcDbLine
 10
59.8
 20
135.25
 30
0.0
 11
62.35724137931029
 21
141.5010344827589
 31
0.0
  0
LINE
  5
57
330
1E
100
AcDbEntity
  8
0
100
AcDbLine
 10
38.79999999999999
 20
138.3499999999999
 30
0.0
 11
41.5
 21
139.4499999999999
 31
0.0
  0
LINE
  5
58
330
1E
100
AcDbEntity
  8
0
100
AcDbLine
 10
41.5
 20
139.4499999999999
 30
0.0
 11
43.79999999999999
 21
141.15
 31
0.0
  0
LINE
  5
59
330
1E
100
AcDbEntity
  8
0
100
AcDbLine
 10
41.7
 20
138.9499999999999
 30
0.0
 11
44.1
 21
140.8499999999999
 31
0.0
  0
LINE
  5
5A
330
1E
100
AcDbEntity
  8
0
100
AcDbLine
 10
33.2
 20
138.3499999999999
 30
0.0
 11
36.0
 21
137.9499999999999
 31
0.0
  0
LINE
  5
5B
330
1E
100
AcDbEntity
  8
0
100
AcDbLine
 10
30.5
 20
139.4499999999999
 30
0.0
 11
33.2
 21
138.3499999999999
 31
0.0
  0
LINE
  5
5C
330
1E
100
AcDbEntity
  8
0
100
AcDbLine
 10
30.3
 20
138.9499999999999
 30
0.0
 11
33.0
 21
137.85
 31
0.0
  0
LINE
  5
5D
330
1E
100
AcDbEntity
  8
0
100
AcDbLine
 10
43.79999999999999
 20
141.15
 30
0.0
 11
45.49999999999999
 21
143.4499999999999
 31
0.0
  0
LINE
  5
5E
330
1E
100
AcDbEntity
  8
0
100
AcDbLine
 10
44.1
 20
140.8499999999999
 30
0.0
 11
46.0
 21
143.25
 31
0.0
  0
LINE
  5
5F
330
1E
100
AcDbEntity
  8
0
100
AcDbLine
 10
28.2
 20
141.15
 30
0.0
 11
30.5
 21
139.4499999999999
 31
0.0
  0
LINE
  5
60
330
1E
100
AcDbEntity
  8
0
100
AcDbLine
 10
27.9
 20
140.8499999999999
 30
0.0
 11
30.3
 21
138.9499999999999
 31
0.0
  0
LINE
  5
61
330
1E
100
AcDbEntity
  8
0
100
AcDbLine
 10
44.9
 20
140.05
 30
0.0
 11
46.9
 21
142.65
 31
0.0
  0
LINE
  5
63
330
1E
100
AcDbEntity
  8
0
100
AcDbLine
 10
62.0
 20
141.4499999999999
 30
0.0
 11
65.5
 21
141.95
 31
0.0
  0
LINE
  5
64
330
1E
100
AcDbEntity
  8
0
100
AcDbLine
 10
53.3
 20
138.9499999999999
 30
0.0
 11
54.6615384615385
 21
142.217692307692
 31
0.0
  0
LINE
  5
65
330
1E
100
AcDbEntity
  8
0
100
AcDbLine
 10
29.7
 20
138.05
 30
0.0
 11
31.3216814159292
 21
137.401327433628
 31
0.0
  0
LINE
  5
66
330
1E
100
AcDbEntity
  8
0
100
AcDbLine
 10
27.1
 20
140.05
 30
0.0
 11
29.7
 21
138.05
 31
0.0
  0
LINE
  5
67
330
1E
100
AcDbEntity
  8
0
100
AcDbLine
 10
21.89999999999999
 20
134.85
 30
0.0
 11
26.0
 21
131.65
 31
0.0
  0
LINE
  5
68
330
1E
100
AcDbEntity
  8
0
100
AcDbLine
 10
18.7
 20
138.9499999999999
 30
0.0
 11
21.89999999999999
 21
134.85
 31
0.0
  0
LINE
  5
69
330
1E
100
AcDbEntity
  8
0
100
AcDbLine
 10
19.1
 20
132.05
 30
0.0
 11
24.0
 21
128.15
 31
0.0
  0
LINE
  5
6A
330
1E
100
AcDbEntity
  8
0
100
AcDbLine
 10
15.2
 20
136.9499999999999
 30
0.0
 11
19.1
 21
132.05
 31
0.0
  0
LINE
  5
6B
330
1E
100
AcDbEntity
  8
0
100
AcDbLine
 10
16.6
 20
129.55
 30
0.0
 11
22.29999999999999
 21
125.15
 31
0.0
  0
LINE
  5
6C
330
1E
100
AcDbEntity
  8
0
100
AcDbLine
 10
12.19999999999999
 20
135.25
 30
0.0
 11
16.6
 21
129.55
 31
0.0
  0
LINE
  5
6D
330
1E
100
AcDbEntity
  8
0
100
AcDbLine
 10
0.500000000000002
 20
146.4499999999999
 30
0.0
 11
2.0
 21
144.4499999999999
 31
0.0
  0
LINE
  5
6E
330
1E
100
AcDbEntity
  8
0
100
AcDbLine
 10
6.5
 20
141.95
 30
0.0
 11
10.0
 21
141.4499999999999
 31
0.0
  0
LINE
  5
6F
330
1E
100
AcDbEntity
  8
0
100
AcDbLine
 10
4.0
 20
142.9499999999999
 30
0.0
 11
6.5
 21
141.95
 31
0.0
  0
LINE
  5
70
330
1E
100
AcDbEntity
  8
0
100
AcDbLine
 10
2.0
 20
144.4499999999999
 30
0.0
 11
4.0
 21
142.9499999999999
 31
0.0
  0
LINE
  5
71
330
1E
100
AcDbEntity
  8
0
100
AcDbLine
 10
0.500000000000002
 20
151.4499999999999
 30
0.0
 11
2.0
 21
153.4499999999999
 31
0.0
  0
LINE
  5
72
330
1E
100
AcDbEntity
  8
0
100
AcDbLine
 10
6.5
 20
155.9499999999999
 30
0.0
 11
10.0
 21
156.4499999999999
 31
0.0
  0
LINE
  5
73
330
1E
100
AcDbEntity
  8
0
100
AcDbLine
 10
4.0
 20
154.9499999999999
 30
0.0
 11
6.5
 21
155.9499999999999
 31
0.0
  0
LINE
  5
74
330
1E
100
AcDbEntity
  8
0
100
AcDbLine
 10
2.0
 20
153.4499999999999
 30
0.0
 11
4.0
 21
154.9499999999999
 31
0.0
  0
LINE
  5
75
330
1E
100
AcDbEntity
  8
0
100
AcDbLine
 10
0.500000000000002
 20
151.4499999999999
 30
0.0
 11
2.0
 21
153.4499999999999
 31
0.0
  0
LINE
  5
76
330
1E
100
AcDbEntity
  8
0
100
AcDbLine
 10
0.500000000000002
 20
146.4499999999999
 30
0.0
 11
2.0
 21
144.4499999999999
 31
0.0
  0
LINE
  5
77
330
1E
100
AcDbEntity
  8
0
100
AcDbLine
 10
0.0000000000000019
 20
148.9499999999999
 30
0.0
 11
0.500000000000002
 21
146.4499999999999
 31
0.0
  0
LINE
  5
78
330
1E
100
AcDbEntity
  8
0
100
AcDbLine
 10
0.0000000000000019
 20
148.9499999999999
 30
0.0
 11
0.500000000000002
 21
151.4499999999999
 31
0.0
  0
LINE
  5
79
330
1E
100
AcDbEntity
  8
0
100
AcDbLine
 10
10.0
 20
156.4499999999999
 30
0.0
 11
14.0
 21
156.15
 31
0.0
  0
LINE
  5
7A
330
1E
100
AcDbEntity
  8
0
100
AcDbLine
 10
12.19999999999999
 20
162.65
 30
0.0
 11
16.6
 21
168.3499999999999
 31
0.0
  0
LINE
  5
7B
330
1E
100
AcDbEntity
  8
0
100
AcDbLine
 10
9.64275862068966
 20
156.398965517241
 30
0.0
 11
12.19999999999999
 21
162.65
 31
0.0
  0
LINE
  5
7D
330
1E
100
AcDbEntity
  8
0
100
AcDbLine
 10
15.3243727598566
 20
141.9265830346479
 30
0.0
 11
16.89999999999999
 21
137.9499999999999
 31
0.0
  0
LINE
  5
7E
330
1E
100
AcDbEntity
  8
0
100
AcDbLine
 10
55.0
 20
142.1499999999999
 30
0.0
 11
58.0
 21
141.7499999999999
 31
0.0
  0
LINE
  5
7F
330
1E
100
AcDbEntity
  8
0
100
AcDbLine
 10
58.0
 20
141.7499999999999
 30
0.0
 11
62.0
 21
141.4499999999999
 31
0.0
  0
LINE
  5
80
330
1E
100
AcDbEntity
  8
0
100
AcDbLine
 10
65.5
 20
141.95
 30
0.0
 11
68.0
 21
142.9499999999999
 31
0.0
  0
LINE
  5
81
330
1E
100
AcDbEntity
  8
0
100
AcDbLine
 10
17.0
 20
142.1499999999999
 30
0.0
 11
21.0
 21
142.9499999999999
 31
0.0
  0
LINE
  5
82
330
1E
100
AcDbEntity
  8
0
100
AcDbLine
 10
14.0
 20
141.7499999999999
 30
0.0
 11
17.0
 21
142.1499999999999
 31
0.0
  0
LINE
  5
84
330
1E
100
AcDbEntity
  8
0
100
AcDbLine
 10
15.3243727598566
 20
155.9734169653519
 30
0.0
 11
16.89999999999999
 21
159.9499999999999
 31
0.0
  0
LINE
  5
85
330
1E
100
AcDbEntity
  8
0
100
AcDbLine
 10
17.0
 20
155.75
 30
0.0
 11
21.0
 21
154.9499999999999
 31
0.0
  0
LINE
  5
86
330
1E
100
AcDbEntity
  8
0
100
AcDbLine
 10
16.89999999999999
 20
159.9499999999999
 30
0.0
 11
20.5
 21
164.4499999999999
 31
0.0
  0
LINE
  5
87
330
1E
100
AcDbEntity
  8
0
100
AcDbLine
 10
14.0
 20
156.15
 30
0.0
 11
17.0
 21
155.75
 31
0.0
  0
LINE
  5
88
330
1E
100
AcDbEntity
  8
0
100
AcDbLine
 10
21.0
 20
154.9499999999999
 30
0.0
 11
24.4608695652174
 21
153.6521739130439
 31
0.0
  0
LINE
  5
89
330
1E
100
AcDbEntity
  8
0
100
AcDbLine
 10
21.0
 20
142.9499999999999
 30
0.0
 11
24.4608695652174
 21
144.2478260869569
 31
0.0
  0
LINE
  5
8B
330
1E
100
AcDbEntity
  8
0
100
AcDbLine
 10
18.7
 20
158.9499999999999
 30
0.0
 11
21.89999999999999
 21
163.05
 31
0.0
  0
LINE
  5
8C
330
1E
100
AcDbEntity
  8
0
100
AcDbLine
 10
17.33846153846149
 20
155.6823076923079
 30
0.0
 11
18.7
 21
158.9499999999999
 31
0.0
  0
LINE
  5
8E
330
1E
100
AcDbEntity
  8
0
100
AcDbLine
 10
20.5
 20
164.4499999999999
 30
0.0
 11
25.0
 21
168.05
 31
0.0
  0
LINE
  5
8F
330
1E
100
AcDbEntity
  8
0
100
AcDbLine
 10
21.89999999999999
 20
163.05
 30
0.0
 11
26.0
 21
166.25
 31
0.0
  0
LINE
  5
90
330
1E
100
AcDbEntity
  8
0
100
AcDbLine
 10
19.1
 20
165.85
 30
0.0
 11
24.0
 21
169.7499999999999
 31
0.0
  0
LINE
  5
91
330
1E
100
AcDbEntity
  8
0
100
AcDbLine
 10
15.2
 20
160.9499999999999
 30
0.0
 11
19.1
 21
165.85
 31
0.0
  0
LINE
  5
92
330
1E
100
AcDbEntity
  8
0
100
AcDbLine
 10
13.31686898283799
 20
156.201234826287
 30
0.0
 11
15.2
 21
160.9499999999999
 31
0.0
  0
LINE
  5
93
330
1E
100
AcDbEntity
  8
0
100
AcDbLine
 10
24.0
 20
169.7499999999999
 30
0.0
 11
28.74876517371289
 21
171.633131017162
 31
0.0
  0
LINE
  5
94
330
1E
100
AcDbEntity
  8
0
100
AcDbLine
 10
22.29999999999999
 20
172.75
 30
0.0
 11
28.5510344827586
 21
175.3072413793099
 31
0.0
  0
LINE
  5
95
330
1E
100
AcDbEntity
  8
0
100
AcDbLine
 10
16.6
 20
168.3499999999999
 30
0.0
 11
22.29999999999999
 21
172.75
 31
0.0
  0
LINE
  5
96
330
1E
100
AcDbEntity
  8
0
100
AcDbLine
 10
46.9
 20
142.65
 30
0.0
 11
47.53913043478259
 21
144.2478260869569
 31
0.0
  0
LINE
  5
97
330
1E
100
AcDbEntity
  8
0
100
AcDbLine
 10
26.0
 20
143.25
 30
0.0
 11
27.9
 21
140.8499999999999
 31
0.0
  0
LINE
  5
98
330
1E
100
AcDbEntity
  8
0
100
AcDbLine
 10
24.9
 20
151.9499999999999
 30
0.0
 11
26.0
 21
154.6499999999999
 31
0.0
  0
LINE
  5
99
330
1E
100
AcDbEntity
  8
0
100
AcDbLine
 10
25.4
 20
151.75
 30
0.0
 11
26.5
 21
154.45
 31
0.0
  0
LINE
  5
9A
330
1E
100
AcDbEntity
  8
0
100
AcDbLine
 10
25.4
 20
146.15
 30
0.0
 11
26.5
 21
143.4499999999999
 31
0.0
  0
LINE
  5
9B
330
1E
100
AcDbEntity
  8
0
100
AcDbLine
 10
25.0
 20
148.9499999999999
 30
0.0
 11
25.4
 21
146.15
 31
0.0
  0
LINE
  5
9C
330
1E
100
AcDbEntity
  8
0
100
AcDbLine
 10
25.0
 20
148.9499999999999
 30
0.0
 11
25.4
 21
151.75
 31
0.0
  0
LINE
  5
9D
330
1E
100
AcDbEntity
  8
0
100
AcDbLine
 10
24.9
 20
145.95
 30
0.0
 11
26.0
 21
143.25
 31
0.0
  0
LINE
  5
9E
330
1E
100
AcDbEntity
  8
0
100
AcDbLine
 10
24.5
 20
148.9499999999999
 30
0.0
 11
24.9
 21
145.95
 31
0.0
  0
LINE
  5
9F
330
1E
100
AcDbEntity
  8
0
100
AcDbLine
 10
24.5
 20
148.9499999999999
 30
0.0
 11
24.9
 21
151.9499999999999
 31
0.0
  0
LINE
  5
A0
330
1E
100
AcDbEntity
  8
0
100
AcDbLine
 10
25.0
 20
168.05
 30
0.0
 11
28.9765830346476
 21
169.6256272401429
 31
0.0
  0
LINE
  5
A1
330
1E
100
AcDbEntity
  8
0
100
AcDbLine
 10
26.0
 20
154.6499999999999
 30
0.0
 11
27.9
 21
157.05
 31
0.0
  0
LINE
  5
A3
330
1E
100
AcDbEntity
  8
0
100
AcDbLine
 10
25.1
 20
155.25
 30
0.0
 11
27.1
 21
157.85
 31
0.0
  0
LINE
  5
A4
330
1E
100
AcDbEntity
  8
0
100
AcDbLine
 10
24.4608695652174
 20
153.6521739130439
 30
0.0
 11
25.1
 21
155.25
 31
0.0
  0
LINE
  5
A5
330
1E
100
AcDbEntity
  8
0
100
AcDbLine
 10
26.5
 20
154.45
 30
0.0
 11
28.2
 21
156.75
 31
0.0
  0
LINE
  5
A6
330
1E
100
AcDbEntity
  8
0
100
AcDbLine
 10
26.5
 20
143.4499999999999
 30
0.0
 11
28.2
 21
141.15
 31
0.0
  0
LINE
  5
A7
330
1E
100
AcDbEntity
  8
0
100
AcDbLine
 10
28.2
 20
156.75
 30
0.0
 11
30.5
 21
158.45
 31
0.0
  0
LINE
  5
A8
330
1E
100
AcDbEntity
  8
0
100
AcDbLine
 10
27.9
 20
157.05
 30
0.0
 11
30.3
 21
158.9499999999999
 31
0.0
  0
LINE
  5
A9
330
1E
100
AcDbEntity
  8
0
100
AcDbLine
 10
43.79999999999999
 20
156.75
 30
0.0
 11
45.49999999999999
 21
154.45
 31
0.0
  0
LINE
  5
AA
330
1E
100
AcDbEntity
  8
0
100
AcDbLine
 10
45.49999999999999
 20
154.45
 30
0.0
 11
46.6
 21
151.75
 31
0.0
  0
LINE
  5
AB
330
1E
100
AcDbEntity
  8
0
100
AcDbLine
 10
44.1
 20
157.05
 30
0.0
 11
46.0
 21
154.6499999999999
 31
0.0
  0
LINE
  5
AC
330
1E
100
AcDbEntity
  8
0
100
AcDbLine
 10
46.6
 20
151.75
 30
0.0
 11
47.0
 21
148.9499999999999
 31
0.0
  0
LINE
  5
AD
330
1E
100
AcDbEntity
  8
0
100
AcDbLine
 10
46.0
 20
154.6499999999999
 30
0.0
 11
47.09999999999999
 21
151.9499999999999
 31
0.0
  0
LINE
  5
AE
330
1E
100
AcDbEntity
  8
0
100
AcDbLine
 10
45.49999999999999
 20
143.4499999999999
 30
0.0
 11
46.6
 21
146.15
 31
0.0
  0
LINE
  5
AF
330
1E
100
AcDbEntity
  8
0
100
AcDbLine
 10
46.6
 20
146.15
 30
0.0
 11
47.0
 21
148.9499999999999
 31
0.0
  0
LINE
  5
B0
330
1E
100
AcDbEntity
  8
0
100
AcDbLine
 10
46.0
 20
143.25
 30
0.0
 11
47.09999999999999
 21
145.95
 31
0.0
  0
LINE
  5
B1
330
1E
100
AcDbEntity
  8
0
100
AcDbLine
 10
27.1
 20
157.85
 30
0.0
 11
29.7
 21
159.85
 31
0.0
  0
LINE
  5
B2
330
1E
100
AcDbEntity
  8
0
100
AcDbLine
 10
30.5
 20
158.45
 30
0.0
 11
33.2
 21
159.55
 31
0.0
  0
LINE
  5
B3
330
1E
100
AcDbEntity
  8
0
100
AcDbLine
 10
41.5
 20
158.45
 30
0.0
 11
43.79999999999999
 21
156.75
 31
0.0
  0
LINE
  5
B4
330
1E
100
AcDbEntity
  8
0
100
AcDbLine
 10
44.9
 20
157.85
 30
0.0
 11
46.9
 21
155.25
 31
0.0
  0
LINE
  5
B5
330
1E
100
AcDbEntity
  8
0
100
AcDbLine
 10
51.0
 20
142.9499999999999
 30
0.0
 11
55.0
 21
142.1499999999999
 31
0.0
  0
LINE
  5
B6
330
1E
100
AcDbEntity
  8
0
100
AcDbLine
 10
47.09999999999999
 20
145.95
 30
0.0
 11
47.5
 21
148.9499999999999
 31
0.0
  0
LINE
  5
B7
330
1E
100
AcDbEntity
  8
0
100
AcDbLine
 10
47.53913043478259
 20
144.2478260869569
 30
0.0
 11
51.0
 21
142.9499999999999
 31
0.0
  0
LINE
  5
B8
330
1E
100
AcDbEntity
  8
0
100
AcDbLine
 10
68.0
 20
142.9499999999999
 30
0.0
 11
70.0
 21
144.4499999999999
 31
0.0
  0
LINE
  5
B9
330
1E
100
AcDbEntity
  8
0
100
AcDbLine
 10
70.0
 20
144.4499999999999
 30
0.0
 11
71.5
 21
146.4499999999999
 31
0.0
  0
LINE
  5
BA
330
1E
100
AcDbEntity
  8
0
100
AcDbLine
 10
47.09999999999999
 20
151.9499999999999
 30
0.0
 11
47.5
 21
148.9499999999999
 31
0.0
  0
LINE
  5
BB
330
1E
100
AcDbEntity
  8
0
100
AcDbLine
 10
47.53913043478259
 20
153.6521739130439
 30
0.0
 11
51.0
 21
154.9499999999999
 31
0.0
  0
LINE
  5
BC
330
1E
100
AcDbEntity
  8
0
100
AcDbLine
 10
51.0
 20
154.9499999999999
 30
0.0
 11
55.0
 21
155.75
 31
0.0
  0
LINE
  5
BD
330
1E
100
AcDbEntity
  8
0
100
AcDbLine
 10
55.0
 20
155.75
 30
0.0
 11
58.0
 21
156.15
 31
0.0
  0
LINE
  5
BE
330
1E
100
AcDbEntity
  8
0
100
AcDbLine
 10
58.0
 20
156.15
 30
0.0
 11
62.0
 21
156.4499999999999
 31
0.0
  0
LINE
  5
BF
330
1E
100
AcDbEntity
  8
0
100
AcDbLine
 10
62.0
 20
156.4499999999999
 30
0.0
 11
65.5
 21
155.9499999999999
 31
0.0
  0
LINE
  5
C0
330
1E
100
AcDbEntity
  8
0
100
AcDbLine
 10
65.5
 20
155.9499999999999
 30
0.0
 11
68.0
 21
154.9499999999999
 31
0.0
  0
LINE
  5
C1
330
1E
100
AcDbEntity
  8
0
100
AcDbLine
 10
68.0
 20
154.9499999999999
 30
0.0
 11
70.0
 21
153.4499999999999
 31
0.0
  0
LINE
  5
C2
330
1E
100
AcDbEntity
  8
0
100
AcDbLine
 10
70.0
 20
153.4499999999999
 30
0.0
 11
71.5
 21
151.4499999999999
 31
0.0
  0
LINE
  5
C3
330
1E
100
AcDbEntity
  8
0
100
AcDbLine
 10
71.5
 20
151.4499999999999
 30
0.0
 11
72.0
 21
148.9499999999999
 31
0.0
  0
LINE
  5
C4
330
1E
100
AcDbEntity
  8
0
100
AcDbLine
 10
71.5
 20
146.4499999999999
 30
0.0
 11
72.0
 21
148.9499999999999
 31
0.0
  0
LINE
  5
C5
330
1E
100
AcDbEntity
  8
0
100
AcDbLine
 10
46.9
 20
155.25
 30
0.0
 11
47.53913043478259
 21
153.6521739130439
 31
0.0
  0
LINE
  5
C6
330
1E
100
AcDbEntity
  8
0
100
AcDbLine
 10
33.2
 20
159.55
 30
0.0
 11
36.0
 21
159.9499999999999
 31
0.0
  0
LINE
  5
C7
330
1E
100
AcDbEntity
  8
0
100
AcDbLine
 10
30.3
 20
158.9499999999999
 30
0.0
 11
33.0
 21
160.05
 31
0.0
  0
LINE
  5
C8
330
1E
100
AcDbEntity
  8
0
100
AcDbLine
 10
33.0
 20
160.05
 30
0.0
 11
36.0
 21
160.4499999999999
 31
0.0
  0
LINE
  5
C9
330
1E
100
AcDbEntity
  8
0
100
AcDbLine
 10
36.0
 20
159.9499999999999
 30
0.0
 11
38.79999999999999
 21
159.55
 31
0.0
  0
LINE
  5
CA
330
1E
100
AcDbEntity
  8
0
100
AcDbLine
 10
38.79999999999999
 20
159.55
 30
0.0
 11
41.5
 21
158.45
 31
0.0
  0
LINE
  5
CB
330
1E
100
AcDbEntity
  8
0
100
AcDbLine
 10
36.0
 20
160.4499999999999
 30
0.0
 11
39.0
 21
160.05
 31
0.0
  0
LINE
  5
CC
330
1E
100
AcDbEntity
  8
0
100
AcDbLine
 10
41.7
 20
158.9499999999999
 30
0.0
 11
44.1
 21
157.05
 31
0.0
  0
LINE
  5
CD
330
1E
100
AcDbEntity
  8
0
100
AcDbLine
 10
39.0
 20
160.05
 30
0.0
 11
41.7
 21
158.9499999999999
 31
0.0
  0
LINE
  5
CE
330
1E
100
AcDbEntity
  8
0
100
AcDbLine
 10
40.7021739130435
 20
160.4891304347829
 30
0.0
 11
42.0
 21
163.9499999999999
 31
0.0
  0
LINE
  5
CF
330
1E
100
AcDbEntity
  8
0
100
AcDbLine
 10
29.7
 20
159.85
 30
0.0
 11
31.2978260869565
 21
160.4891304347829
 31
0.0
  0
LINE
  5
D0
330
1E
100
AcDbEntity
  8
0
100
AcDbLine
 10
29.7
 20
159.85
 30
0.0
 11
31.2978260869565
 21
160.4891304347829
 31
0.0
  0
LINE
  5
D1
330
1E
100
AcDbEntity
  8
0
100
AcDbLine
 10
30.0
 20
163.9499999999999
 30
0.0
 11
31.2978260869565
 21
160.4891304347829
 31
0.0
  0
LINE
  5
D2
330
1E
100
AcDbEntity
  8
0
100
AcDbLine
 10
42.0
 20
163.9499999999999
 30
0.0
 11
42.8
 21
167.9499999999999
 31
0.0
  0
LINE
  5
D3
330
1E
100
AcDbEntity
  8
0
100
AcDbLine
 10
40.67831858407079
 20
160.498672566372
 30
0.0
 11
42.29999999999999
 21
159.85
 31
0.0
  0
LINE
  5
D4
330
1E
100
AcDbEntity
  8
0
100
AcDbLine
 10
42.29999999999999
 20
159.85
 30
0.0
 11
44.9
 21
157.85
 31
0.0
  0
LINE
  5
D5
330
1E
100
AcDbEntity
  8
0
100
AcDbLine
 10
28.8
 20
170.95
 30
0.0
 11
29.19999999999999
 21
167.9499999999999
 31
0.0
  0
LINE
  5
D6
330
1E
100
AcDbEntity
  8
0
100
AcDbLine
 10
28.5
 20
174.9499999999999
 30
0.0
 11
29.0
 21
178.4499999999999
 31
0.0
  0
LINE
  5
D7
330
1E
100
AcDbEntity
  8
0
100
AcDbLine
 10
28.5
 20
174.9499999999999
 30
0.0
 11
28.8
 21
170.95
 31
0.0
  0
LINE
  5
D8
330
1E
100
AcDbEntity
  8
0
100
AcDbLine
 10
29.19999999999999
 20
167.9499999999999
 30
0.0
 11
30.0
 21
163.9499999999999
 31
0.0
  0
LINE
  5
D9
330
1E
100
AcDbEntity
  8
0
100
AcDbLine
 10
29.0
 20
178.4499999999999
 30
0.0
 11
30.0
 21
180.9499999999999
 31
0.0
  0
LINE
  5
DA
330
1E
100
AcDbEntity
  8
0
100
AcDbLine
 10
30.0
 20
180.9499999999999
 30
0.0
 11
31.5
 21
182.9499999999999
 31
0.0
  0
LINE
  5
DB
330
1E
100
AcDbEntity
  8
0
100
AcDbLine
 10
31.5
 20
182.9499999999999
 30
0.0
 11
33.5
 21
184.45
 31
0.0
  0
LINE
  5
DC
330
1E
100
AcDbEntity
  8
0
100
AcDbLine
 10
33.5
 20
184.45
 30
0.0
 11
36.0
 21
184.9499999999999
 31
0.0
  0
LINE
  5
DD
330
1E
100
AcDbEntity
  8
0
100
AcDbLine
 10
42.0
 20
180.9499999999999
 30
0.0
 11
43.0
 21
178.4499999999999
 31
0.0
  0
LINE
  5
DE
330
1E
100
AcDbEntity
  8
0
100
AcDbLine
 10
40.49999999999999
 20
182.9499999999999
 30
0.0
 11
42.0
 21
180.9499999999999
 31
0.0
  0
LINE
  5
DF
330
1E
100
AcDbEntity
  8
0
100
AcDbLine
 10
38.5
 20
184.45
 30
0.0
 11
40.49999999999999
 21
182.9499999999999
 31
0.0
  0
LINE
  5
E0
330
1E
100
AcDbEntity
  8
0
100
AcDbLine
 10
36.0
 20
184.9499999999999
 30
0.0
 11
38.5
 21
184.45
 31
0.0
  0
LINE
  5
E2
330
1E
100
AcDbEntity
  8
0
100
AcDbLine
 10
43.0234169653525
 20
169.6256272401429
 30
0.0
 11
47.0
 21
168.05
 31
0.0
  0
LINE
  5
E3
330
1E
100
AcDbEntity
  8
0
100
AcDbLine
 10
42.8
 20
167.9499999999999
 30
0.0
 11
43.2
 21
170.95
 31
0.0
  0
LINE
  5
E5
330
1E
100
AcDbEntity
  8
0
100
AcDbLine
 10
47.0
 20
168.05
 30
0.0
 11
51.5
 21
164.4499999999999
 31
0.0
  0
LINE
  5
E6
330
1E
100
AcDbEntity
  8
0
100
AcDbLine
 10
43.2
 20
170.95
 30
0.0
 11
43.5
 21
174.9499999999999
 31
0.0
  0
LINE
  5
E7
330
1E
100
AcDbEntity
  8
0
100
AcDbLine
 10
43.2512348262872
 20
171.633131017162
 30
0.0
 11
48.0
 21
169.7499999999999
 31
0.0
  0
LINE
  5
E8
330
1E
100
AcDbEntity
  8
0
100
AcDbLine
 10
48.0
 20
169.7499999999999
 30
0.0
 11
52.9
 21
165.85
 31
0.0
  0
LINE
  5
E9
330
1E
100
AcDbEntity
  8
0
100
AcDbLine
 10
43.0
 20
178.4499999999999
 30
0.0
 11
43.5
 21
174.9499999999999
 31
0.0
  0
LINE
  5
EA
330
1E
100
AcDbEntity
  8
0
100
AcDbLine
 10
43.4489655172414
 20
175.3072413793099
 30
0.0
 11
49.7
 21
172.75
 31
0.0
  0
LINE
  5
EB
330
1E
100
AcDbEntity
  8
0
100
AcDbLine
 10
49.7
 20
172.75
 30
0.0
 11
55.4
 21
168.3499999999999
 31
0.0
  0
LINE
  5
EC
330
1E
100
AcDbEntity
  8
0
100
AcDbLine
 10
42.7323076923077
 20
167.6115384615379
 30
0.0
 11
46.0
 21
166.25
 31
0.0
  0
LINE
  5
ED
330
1E
100
AcDbEntity
  8
0
100
AcDbLine
 10
46.0
 20
166.25
 30
0.0
 11
50.1
 21
163.05
 31
0.0
  0
LINE
  5
EF
330
1E
100
AcDbEntity
  8
0
100
AcDbLine
 10
55.1
 20
159.9499999999999
 30
0.0
 11
56.67562724014339
 21
155.9734169653519
 31
0.0
  0
LINE
  5
F0
330
1E
100
AcDbEntity
  8
0
100
AcDbLine
 10
56.79999999999999
 20
160.9499999999999
 30
0.0
 11
58.683131017162
 21
156.201234826287
 31
0.0
  0
LINE
  5
F2
330
1E
100
AcDbEntity
  8
0
100
AcDbLine
 10
51.5
 20
164.4499999999999
 30
0.0
 11
55.1
 21
159.9499999999999
 31
0.0
  0
LINE
  5
F3
330
1E
100
AcDbEntity
  8
0
100
AcDbLine
 10
52.9
 20
165.85
 30
0.0
 11
56.79999999999999
 21
160.9499999999999
 31
0.0
  0
LINE
  5
F4
330
1E
100
AcDbEntity
  8
0
100
AcDbLine
 10
55.4
 20
168.3499999999999
 30
0.0
 11
59.8
 21
162.65
 31
0.0
  0
LINE
  5
F5
330
1E
100
AcDbEntity
  8
0
100
AcDbLine
 10
59.8
 20
162.65
 30
0.0
 11
62.35724137931029
 21
156.398965517241
 31
0.0
  0
LINE
  5
F6
330
1E
100
AcDbEntity
  8
0
100
AcDbLine
 10
50.1
 20
163.05
 30
0.0
 11
53.3
 21
158.9499999999999
 31
0.0
  0
LINE
  5
F7
330
1E
100
AcDbEntity
  8
0
100
AcDbLine
 10
53.3
 20
158.9499999999999
 30
0.0
 11
54.6615384615385
 21
155.6823076923079
 31
0.0
  0
LINE
  5
F8
330
1E
100
AcDbEntity
  8
0
100
AcDbLine
 10
26.0
 20
166.25
 30
0.0
 11
29.2676923076923
 21
167.6115384615379
 31
0.0
  0
LINE
  5
F9
330
1E
100
AcDbEntity
  8
0
100
AcDbLine
 10
25.1
 20
142.65
 30
0.0
 11
27.1
 21
140.05
 31
0.0
  0
LINE
  5
FA
330
1E
100
AcDbEntity
  8
0
100
AcDbLine
 10
24.4608695652174
 20
144.2478260869569
 30
0.0
 11
25.1
 21
142.65
 31
0.0
  0
LINE
  5
FB
330
1E
100
AcDbEntity
  8
0
100
AcDbLine
 10
17.33846153846149
 20
142.217692307692
 30
0.0
 11
18.7
 21
138.9499999999999
 31
0.0
  0
LINE
  5
FC
330
1E
100
AcDbEntity
  8
0
100
AcDbLine
 10
13.31686898283799
 20
141.6987651737129
 30
0.0
 11
15.2
 21
136.9499999999999
 31
0.0
  0
LINE
  5
FD
330
1E
100
AcDbEntity
  8
0
100
AcDbLine
 10
9.642758620689651
 20
141.5010344827589
 30
0.0
 11
12.19999999999999
 21
135.25
 31
0.0
  0
LINE
  5
FE
330
1E
100
AcDbEntity
  8
0
100
AcDbLine
 10
117.0
 20
21.85
 30
0.0
 11
117.0
 21
16.55
 31
0.0
  0
LINE
  5
FF
330
1E
100
AcDbEntity
  8
0
100
AcDbLine
 10
136.0
 20
0.0499999999999956
 30
0.0
 11
140.8999999999999
 21
0.649999999999996
 31
0.0
  0
LINE
  5
100
330
1E
100
AcDbEntity
  8
0
100
AcDbLine
 10
140.8999999999999
 20
0.649999999999996
 30
0.0
 11
145.5
 21
2.25
 31
0.0
  0
LINE
  5
101
330
1E
100
AcDbEntity
  8
0
100
AcDbLine
 10
136.0
 20
0.0499999999999956
 30
0.0
 11
140.8999999999999
 21
0.649999999999996
 31
0.0
  0
LINE
  5
102
330
1E
100
AcDbEntity
  8
0
100
AcDbLine
 10
140.8999999999999
 20
0.649999999999996
 30
0.0
 11
145.5
 21
2.25
 31
0.0
  0
LINE
  5
103
330
1E
100
AcDbEntity
  8
0
100
AcDbLine
 10
145.5
 20
2.25
 30
0.0
 11
149.3999999999999
 21
4.849999999999999
 31
0.0
  0
LINE
  5
104
330
1E
100
AcDbEntity
  8
0
100
AcDbLine
 10
149.3999999999999
 20
4.849999999999999
 30
0.0
 11
152.5
 21
8.349999999999999
 31
0.0
  0
LINE
  5
105
330
1E
100
AcDbEntity
  8
0
100
AcDbLine
 10
131.0999999999999
 20
0.649999999999996
 30
0.0
 11
136.0
 21
0.0499999999999956
 31
0.0
  0
LINE
  5
106
330
1E
100
AcDbEntity
  8
0
100
AcDbLine
 10
131.0999999999999
 20
0.649999999999996
 30
0.0
 11
136.0
 21
0.0499999999999956
 31
0.0
  0
LINE
  5
107
330
1E
100
AcDbEntity
  8
0
100
AcDbLine
 10
126.5
 20
2.25
 30
0.0
 11
131.0999999999999
 21
0.649999999999996
 31
0.0
  0
LINE
  5
108
330
1E
100
AcDbEntity
  8
0
100
AcDbLine
 10
126.5
 20
2.25
 30
0.0
 11
131.0999999999999
 21
0.649999999999996
 31
0.0
  0
LINE
  5
109
330
1E
100
AcDbEntity
  8
0
100
AcDbLine
 10
152.5
 20
8.349999999999999
 30
0.0
 11
154.3
 21
12.25
 31
0.0
  0
LINE
  5
10A
330
1E
100
AcDbEntity
  8
0
100
AcDbLine
 10
154.3
 20
12.25
 30
0.0
 11
155.0
 21
16.55
 31
0.0
  0
LINE
  5
10B
330
1E
100
AcDbEntity
  8
0
100
AcDbLine
 10
122.5999999999999
 20
4.849999999999999
 30
0.0
 11
126.5
 21
2.25
 31
0.0
  0
LINE
  5
10C
330
1E
100
AcDbEntity
  8
0
100
AcDbLine
 10
119.5
 20
8.349999999999999
 30
0.0
 11
122.5999999999999
 21
4.849999999999999
 31
0.0
  0
LINE
  5
10D
330
1E
100
AcDbEntity
  8
0
100
AcDbLine
 10
155.0
 20
16.55
 30
0.0
 11
155.0
 21
21.85
 31
0.0
  0
LINE
  5
10E
330
1E
100
AcDbEntity
  8
0
100
AcDbLine
 10
155.0
 20
21.85
 30
0.0
 11
155.1999999999999
 21
27.55
 31
0.0
  0
LINE
  5
10F
330
1E
100
AcDbEntity
  8
0
100
AcDbLine
 10
155.0
 20
21.85
 30
0.0
 11
155.0
 21
16.55
 31
0.0
  0
LINE
  5
110
330
1E
100
AcDbEntity
  8
0
100
AcDbLine
 10
155.1999999999999
 20
27.55
 30
0.0
 11
155.4
 21
34.15
 31
0.0
  0
LINE
  5
111
330
1E
100
AcDbEntity
  8
0
100
AcDbLine
 10
117.7
 20
12.25
 30
0.0
 11
119.5
 21
8.349999999999999
 31
0.0
  0
LINE
  5
112
330
1E
100
AcDbEntity
  8
0
100
AcDbLine
 10
117.0
 20
16.55
 30
0.0
 11
117.0
 21
21.85
 31
0.0
  0
LINE
  5
113
330
1E
100
AcDbEntity
  8
0
100
AcDbLine
 10
117.0
 20
16.55
 30
0.0
 11
117.7
 21
12.25
 31
0.0
  0
LINE
  5
114
330
1E
100
AcDbEntity
  8
0
100
AcDbLine
 10
155.4
 20
34.15
 30
0.0
 11
155.6999999999999
 21
42.75
 31
0.0
  0
LINE
  5
115
330
1E
100
AcDbEntity
  8
0
100
AcDbLine
 10
155.6999999999999
 20
42.75
 30
0.0
 11
155.8
 21
52.54999999999999
 31
0.0
  0
LINE
  5
116
330
1E
100
AcDbEntity
  8
0
100
AcDbLine
 10
116.7999999999999
 20
27.55
 30
0.0
 11
117.0
 21
21.85
 31
0.0
  0
LINE
  5
117
330
1E
100
AcDbEntity
  8
0
100
AcDbLine
 10
116.5999999999999
 20
34.15
 30
0.0
 11
116.7999999999999
 21
27.55
 31
0.0
  0
LINE
  5
118
330
1E
100
AcDbEntity
  8
0
100
AcDbLine
 10
156.0
 20
61.95
 30
0.0
 11
156.3
 21
71.95
 31
0.0
  0
LINE
  5
119
330
1E
100
AcDbEntity
  8
0
100
AcDbLine
 10
155.8
 20
52.54999999999999
 30
0.0
 11
156.0
 21
61.95
 31
0.0
  0
LINE
  5
11A
330
1E
100
AcDbEntity
  8
0
100
AcDbLine
 10
116.3
 20
42.75
 30
0.0
 11
116.5999999999999
 21
34.15
 31
0.0
  0
LINE
  5
11B
330
1E
100
AcDbEntity
  8
0
100
AcDbLine
 10
116.2
 20
52.54999999999999
 30
0.0
 11
116.3
 21
42.75
 31
0.0
  0
LINE
  5
11C
330
1E
100
AcDbEntity
  8
0
100
AcDbLine
 10
156.3
 20
71.95
 30
0.0
 11
156.4999999999999
 21
85.35
 31
0.0
  0
LINE
  5
11D
330
1E
100
AcDbEntity
  8
0
100
AcDbLine
 10
156.4999999999999
 20
85.35
 30
0.0
 11
156.9
 21
99.05000000000001
 31
0.0
  0
LINE
  5
11E
330
1E
100
AcDbEntity
  8
0
100
AcDbLine
 10
116.0
 20
61.95
 30
0.0
 11
116.2
 21
52.54999999999999
 31
0.0
  0
LINE
  5
11F
330
1E
100
AcDbEntity
  8
0
100
AcDbLine
 10
115.7
 20
71.95
 30
0.0
 11
116.0
 21
61.95
 31
0.0
  0
LINE
  5
120
330
1E
100
AcDbEntity
  8
0
100
AcDbLine
 10
156.9
 20
99.05000000000001
 30
0.0
 11
157.0999999999999
 21
111.45
 31
0.0
  0
LINE
  5
121
330
1E
100
AcDbEntity
  8
0
100
AcDbLine
 10
157.0999999999999
 20
111.45
 30
0.0
 11
157.3
 21
124.35
 31
0.0
  0
LINE
  5
122
330
1E
100
AcDbEntity
  8
0
100
AcDbLine
 10
115.5
 20
85.35
 30
0.0
 11
115.7
 21
71.95
 31
0.0
  0
LINE
  5
123
330
1E
100
AcDbEntity
  8
0
100
AcDbLine
 10
115.1
 20
99.05000000000001
 30
0.0
 11
115.5
 21
85.35
 31
0.0
  0
LINE
  5
135
330
1E
100
AcDbEntity
  8
0
100
AcDbLine
 10
157.4143133462279
 20
127.207833655706
 30
0.0
 11
157.6
 21
127.35
 31
0.0
  0
LINE
  5
136
330
1E
100
AcDbEntity
  8
0
100
AcDbLine
 10
157.6
 20
127.35
 30
0.0
 11
162.5
 21
133.75
 31
0.0
  0
LINE
  5
137
330
1E
100
AcDbEntity
  8
0
100
AcDbLine
 10
157.3
 20
124.35
 30
0.0
 11
157.8
 21
136.85
 31
0.0
  0
LINE
  5
138
330
1E
100
AcDbEntity
  8
0
100
AcDbLine
 10
114.9
 20
111.45
 30
0.0
 11
115.1
 21
99.05000000000001
 31
0.0
  0
LINE
  5
139
330
1E
100
AcDbEntity
  8
0
100
AcDbLine
 10
114.7
 20
124.35
 30
0.0
 11
114.9
 21
111.45
 31
0.0
  0
LINE
  5
13A
330
1E
100
AcDbEntity
  8
0
100
AcDbLine
 10
114.2
 20
136.85
 30
0.0
 11
114.7
 21
124.35
 31
0.0
  0
LINE
  5
157
330
1E
100
AcDbEntity
  8
0
100
AcDbLine
 10
162.5
 20
133.75
 30
0.0
 11
165.5
 21
141.05
 31
0.0
  0
LINE
  5
159
330
1E
100
AcDbEntity
  8
0
100
AcDbLine
 10
136.0
 20
138.9499999999999
 30
0.0
 11
138.5999999999999
 21
139.25
 31
0.0
  0
LINE
  5
15A
330
1E
100
AcDbEntity
  8
0
100
AcDbLine
 10
138.5999999999999
 20
139.25
 30
0.0
 11
141.0
 21
140.25
 31
0.0
  0
LINE
  5
170
330
1E
100
AcDbEntity
  8
0
100
AcDbLine
 10
157.8
 20
136.85
 30
0.0
 11
158.0
 21
144.35
 31
0.0
  0
LINE
  5
172
330
1E
100
AcDbEntity
  8
0
100
AcDbLine
 10
157.871733966746
 20
139.540023752969
 30
0.0
 11
159.1999999999999
 21
142.75
 31
0.0
  0
LINE
  5
173
330
1E
100
AcDbEntity
  8
0
100
AcDbLine
 10
141.0
 20
140.25
 30
0.0
 11
143.1
 21
141.8499999999999
 31
0.0
  0
LINE
  5
17A
330
1E
100
AcDbEntity
  8
0
100
AcDbLine
 10
165.5
 20
141.05
 30
0.0
 11
166.5
 21
148.9499999999999
 31
0.0
  0
LINE
  5
17B
330
1E
100
AcDbEntity
  8
0
100
AcDbLine
 10
133.4
 20
139.25
 30
0.0
 11
136.0
 21
138.9499999999999
 31
0.0
  0
LINE
  5
17C
330
1E
100
AcDbEntity
  8
0
100
AcDbLine
 10
131.0
 20
140.25
 30
0.0
 11
133.4
 21
139.25
 31
0.0
  0
LINE
  5
17D
330
1E
100
AcDbEntity
  8
0
100
AcDbLine
 10
114.4
 20
127.35
 30
0.0
 11
114.5856866537719
 21
127.207833655706
 31
0.0
  0
LINE
  5
17E
330
1E
100
AcDbEntity
  8
0
100
AcDbLine
 10
109.4999999999999
 20
133.75
 30
0.0
 11
114.4
 21
127.35
 31
0.0
  0
LINE
  5
17F
330
1E
100
AcDbEntity
  8
0
100
AcDbLine
 10
113.7999999999999
 20
142.9499999999999
 30
0.0
 11
114.054285714286
 21
142.3142857142859
 31
0.0
  0
LINE
  5
180
330
1E
100
AcDbEntity
  8
0
100
AcDbLine
 10
113.0
 20
148.9499999999999
 30
0.0
 11
113.7999999999999
 21
142.9499999999999
 31
0.0
  0
LINE
  5
181
330
1E
100
AcDbEntity
  8
0
100
AcDbLine
 10
113.0
 20
148.9499999999999
 30
0.0
 11
113.7999999999999
 21
154.9499999999999
 31
0.0
  0
LINE
  5
182
330
1E
100
AcDbEntity
  8
0
100
AcDbLine
 10
112.7999999999999
 20
142.75
 30
0.0
 11
114.1282660332539
 21
139.540023752969
 31
0.0
  0
LINE
  5
183
330
1E
100
AcDbEntity
  8
0
100
AcDbLine
 10
112.0
 20
148.9499999999999
 30
0.0
 11
112.7999999999999
 21
142.75
 31
0.0
  0
LINE
  5
184
330
1E
100
AcDbEntity
  8
0
100
AcDbLine
 10
112.0
 20
148.9499999999999
 30
0.0
 11
112.7999999999999
 21
155.15
 31
0.0
  0
LINE
  5
185
330
1E
100
AcDbEntity
  8
0
100
AcDbLine
 10
114.0
 20
144.35
 30
0.0
 11
114.2
 21
136.85
 31
0.0
  0
LINE
  5
186
330
1E
100
AcDbEntity
  8
0
100
AcDbLine
 10
114.0
 20
144.35
 30
0.0
 11
114.0
 21
148.9499999999999
 31
0.0
  0
LINE
  5
187
330
1E
100
AcDbEntity
  8
0
100
AcDbLine
 10
113.7999999999999
 20
154.9499999999999
 30
0.0
 11
116.0
 21
160.4499999999999
 31
0.0
  0
LINE
  5
188
330
1E
100
AcDbEntity
  8
0
100
AcDbLine
 10
112.7999999999999
 20
155.15
 30
0.0
 11
115.2
 21
160.9499999999999
 31
0.0
  0
LINE
  5
189
330
1E
100
AcDbEntity
  8
0
100
AcDbLine
 10
114.4
 20
170.55
 30
0.0
 11
120.7999999999999
 21
175.4499999999999
 31
0.0
  0
LINE
  5
18A
330
1E
100
AcDbEntity
  8
0
100
AcDbLine
 10
109.4999999999999
 20
164.15
 30
0.0
 11
114.4
 21
170.55
 31
0.0
  0
LINE
  5
18B
330
1E
100
AcDbEntity
  8
0
100
AcDbLine
 10
106.4999999999999
 20
156.85
 30
0.0
 11
109.4999999999999
 21
164.15
 31
0.0
  0
LINE
  5
18C
330
1E
100
AcDbEntity
  8
0
100
AcDbLine
 10
116.0
 20
160.4499999999999
 30
0.0
 11
119.7
 21
165.25
 31
0.0
  0
LINE
  5
18D
330
1E
100
AcDbEntity
  8
0
100
AcDbLine
 10
119.7
 20
165.25
 30
0.0
 11
124.5
 21
168.9499999999999
 31
0.0
  0
LINE
  5
18E
330
1E
100
AcDbEntity
  8
0
100
AcDbLine
 10
119.0
 20
165.9499999999999
 30
0.0
 11
124.0
 21
169.7499999999999
 31
0.0
  0
LINE
  5
18F
330
1E
100
AcDbEntity
  8
0
100
AcDbLine
 10
115.2
 20
160.9499999999999
 30
0.0
 11
119.0
 21
165.9499999999999
 31
0.0
  0
LINE
  5
190
330
1E
100
AcDbEntity
  8
0
100
AcDbLine
 10
124.5
 20
168.9499999999999
 30
0.0
 11
130.0
 21
171.15
 31
0.0
  0
LINE
  5
191
330
1E
100
AcDbEntity
  8
0
100
AcDbLine
 10
124.0
 20
169.7499999999999
 30
0.0
 11
129.8
 21
172.1499999999999
 31
0.0
  0
LINE
  5
192
330
1E
100
AcDbEntity
  8
0
100
AcDbLine
 10
120.7999999999999
 20
175.4499999999999
 30
0.0
 11
128.0999999999999
 21
178.4499999999999
 31
0.0
  0
LINE
  5
193
330
1E
100
AcDbEntity
  8
0
100
AcDbLine
 10
120.4
 20
164.55
 30
0.0
 11
125.0
 21
168.05
 31
0.0
  0
LINE
  5
194
330
1E
100
AcDbEntity
  8
0
100
AcDbLine
 10
116.9
 20
159.9499999999999
 30
0.0
 11
120.4
 21
164.55
 31
0.0
  0
LINE
  5
195
330
1E
100
AcDbEntity
  8
0
100
AcDbLine
 10
114.7999999999999
 20
154.6499999999999
 30
0.0
 11
116.9
 21
159.9499999999999
 31
0.0
  0
LINE
  5
196
330
1E
100
AcDbEntity
  8
0
100
AcDbLine
 10
114.0
 20
148.9499999999999
 30
0.0
 11
114.7999999999999
 21
154.6499999999999
 31
0.0
  0
LINE
  5
197
330
1E
100
AcDbEntity
  8
0
100
AcDbLine
 10
114.0
 20
148.9499999999999
 30
0.0
 11
114.0
 21
144.35
 31
0.0
  0
LINE
  5
1A0
330
1E
100
AcDbEntity
  8
0
100
AcDbLine
 10
143.1
 20
141.8499999999999
 30
0.0
 11
144.6999999999999
 21
143.9499999999999
 31
0.0
  0
LINE
  5
1A1
330
1E
100
AcDbEntity
  8
0
100
AcDbLine
 10
157.945714285714
 20
142.3142857142859
 30
0.0
 11
158.1999999999999
 21
142.9499999999999
 31
0.0
  0
LINE
  5
1A2
330
1E
100
AcDbEntity
  8
0
100
AcDbLine
 10
144.6999999999999
 20
143.9499999999999
 30
0.0
 11
145.6999999999999
 21
146.3499999999999
 31
0.0
  0
LINE
  5
1A3
330
1E
100
AcDbEntity
  8
0
100
AcDbLine
 10
145.6999999999999
 20
146.3499999999999
 30
0.0
 11
146.0
 21
148.9499999999999
 31
0.0
  0
LINE
  5
1A4
330
1E
100
AcDbEntity
  8
0
100
AcDbLine
 10
158.1999999999999
 20
142.9499999999999
 30
0.0
 11
159.0
 21
148.9499999999999
 31
0.0
  0
LINE
  5
1A5
330
1E
100
AcDbEntity
  8
0
100
AcDbLine
 10
159.1999999999999
 20
142.75
 30
0.0
 11
160.0
 21
148.9499999999999
 31
0.0
  0
LINE
  5
1BF
330
1E
100
AcDbEntity
  8
0
100
AcDbLine
 10
158.0
 20
144.35
 30
0.0
 11
158.0
 21
148.9499999999999
 31
0.0
  0
LINE
  5
1C0
330
1E
100
AcDbEntity
  8
0
100
AcDbLine
 10
128.9
 20
141.8499999999999
 30
0.0
 11
131.0
 21
140.25
 31
0.0
  0
LINE
  5
1C1
330
1E
100
AcDbEntity
  8
0
100
AcDbLine
 10
127.2999999999999
 20
143.9499999999999
 30
0.0
 11
128.9
 21
141.8499999999999
 31
0.0
  0
LINE
  5
1C2
330
1E
100
AcDbEntity
  8
0
100
AcDbLine
 10
128.9
 20
156.05
 30
0.0
 11
131.0
 21
157.65
 31
0.0
  0
LINE
  5
1C3
330
1E
100
AcDbEntity
  8
0
100
AcDbLine
 10
127.2999999999999
 20
153.9499999999999
 30
0.0
 11
128.9
 21
156.05
 31
0.0
  0
LINE
  5
1C4
330
1E
100
AcDbEntity
  8
0
100
AcDbLine
 10
126.2999999999999
 20
151.55
 30
0.0
 11
127.2999999999999
 21
153.9499999999999
 31
0.0
  0
LINE
  5
1C5
330
1E
100
AcDbEntity
  8
0
100
AcDbLine
 10
130.0
 20
171.15
 30
0.0
 11
136.0
 21
171.95
 31
0.0
  0
LINE
  5
1C6
330
1E
100
AcDbEntity
  8
0
100
AcDbLine
 10
129.8
 20
172.1499999999999
 30
0.0
 11
136.0
 21
172.9499999999999
 31
0.0
  0
LINE
  5
1C7
330
1E
100
AcDbEntity
  8
0
100
AcDbLine
 10
128.0999999999999
 20
178.4499999999999
 30
0.0
 11
136.0
 21
179.45
 31
0.0
  0
LINE
  5
1C8
330
1E
100
AcDbEntity
  8
0
100
AcDbLine
 10
141.0
 20
157.65
 30
0.0
 11
143.1
 21
156.05
 31
0.0
  0
LINE
  5
1C9
330
1E
100
AcDbEntity
  8
0
100
AcDbLine
 10
143.1
 20
156.05
 30
0.0
 11
144.6999999999999
 21
153.9499999999999
 31
0.0
  0
LINE
  5
1CA
330
1E
100
AcDbEntity
  8
0
100
AcDbLine
 10
144.6999999999999
 20
153.9499999999999
 30
0.0
 11
145.6999999999999
 21
151.55
 31
0.0
  0
LINE
  5
1CB
330
1E
100
AcDbEntity
  8
0
100
AcDbLine
 10
158.1999999999999
 20
154.9499999999999
 30
0.0
 11
159.0
 21
148.9499999999999
 31
0.0
  0
LINE
  5
1CC
330
1E
100
AcDbEntity
  8
0
100
AcDbLine
 10
159.1999999999999
 20
155.15
 30
0.0
 11
160.0
 21
148.9499999999999
 31
0.0
  0
LINE
  5
1CD
330
1E
100
AcDbEntity
  8
0
100
AcDbLine
 10
145.6999999999999
 20
151.55
 30
0.0
 11
146.0
 21
148.9499999999999
 31
0.0
  0
LINE
  5
1CE
330
1E
100
AcDbEntity
  8
0
100
AcDbLine
 10
158.0
 20
148.9499999999999
 30
0.0
 11
158.0
 21
144.35
 31
0.0
  0
LINE
  5
1FC
330
1E
100
AcDbEntity
  8
0
100
AcDbLine
 10
165.5
 20
156.85
 30
0.0
 11
166.5
 21
148.9499999999999
 31
0.0
  0
LINE
  5
1FD
330
1E
100
AcDbEntity
  8
0
100
AcDbLine
 10
136.0
 20
158.9499999999999
 30
0.0
 11
138.5999999999999
 21
158.65
 31
0.0
  0
LINE
  5
1FE
330
1E
100
AcDbEntity
  8
0
100
AcDbLine
 10
138.5999999999999
 20
158.65
 30
0.0
 11
141.0
 21
157.65
 31
0.0
  0
LINE
  5
202
330
1E
100
AcDbEntity
  8
0
100
AcDbLine
 10
156.0
 20
160.4499999999999
 30
0.0
 11
158.1999999999999
 21
154.9499999999999
 31
0.0
  0
LINE
  5
210
330
1E
100
AcDbEntity
  8
0
100
AcDbLine
 10
156.8
 20
160.9499999999999
 30
0.0
 11
159.1999999999999
 21
155.15
 31
0.0
  0
LINE
  5
221
330
1E
100
AcDbEntity
  8
0
100
AcDbLine
 10
155.0999999999999
 20
159.9499999999999
 30
0.0
 11
157.1999999999999
 21
154.6499999999999
 31
0.0
  0
LINE
  5
222
330
1E
100
AcDbEntity
  8
0
100
AcDbLine
 10
136.0
 20
171.95
 30
0.0
 11
142.0
 21
171.15
 31
0.0
  0
LINE
  5
223
330
1E
100
AcDbEntity
  8
0
100
AcDbLine
 10
136.0
 20
172.9499999999999
 30
0.0
 11
142.1999999999999
 21
172.1499999999999
 31
0.0
  0
LINE
  5
224
330
1E
100
AcDbEntity
  8
0
100
AcDbLine
 10
142.0
 20
171.15
 30
0.0
 11
147.5
 21
168.9499999999999
 31
0.0
  0
LINE
  5
225
330
1E
100
AcDbEntity
  8
0
100
AcDbLine
 10
147.5
 20
168.9499999999999
 30
0.0
 11
152.3
 21
165.25
 31
0.0
  0
LINE
  5
226
330
1E
100
AcDbEntity
  8
0
100
AcDbLine
 10
148.0
 20
169.7499999999999
 30
0.0
 11
153.0
 21
165.9499999999999
 31
0.0
  0
LINE
  5
227
330
1E
100
AcDbEntity
  8
0
100
AcDbLine
 10
142.1999999999999
 20
172.1499999999999
 30
0.0
 11
148.0
 21
169.7499999999999
 31
0.0
  0
LINE
  5
228
330
1E
100
AcDbEntity
  8
0
100
AcDbLine
 10
136.0
 20
170.95
 30
0.0
 11
141.6999999999999
 21
170.15
 31
0.0
  0
LINE
  5
229
330
1E
100
AcDbEntity
  8
0
100
AcDbLine
 10
147.0
 20
168.05
 30
0.0
 11
151.6
 21
164.55
 31
0.0
  0
LINE
  5
22A
330
1E
100
AcDbEntity
  8
0
100
AcDbLine
 10
152.3
 20
165.25
 30
0.0
 11
156.0
 21
160.4499999999999
 31
0.0
  0
LINE
  5
22B
330
1E
100
AcDbEntity
  8
0
100
AcDbLine
 10
153.0
 20
165.9499999999999
 30
0.0
 11
156.8
 21
160.9499999999999
 31
0.0
  0
LINE
  5
22C
330
1E
100
AcDbEntity
  8
0
100
AcDbLine
 10
151.6
 20
164.55
 30
0.0
 11
155.0999999999999
 21
159.9499999999999
 31
0.0
  0
LINE
  5
22D
330
1E
100
AcDbEntity
  8
0
100
AcDbLine
 10
136.0
 20
179.45
 30
0.0
 11
143.9
 21
178.4499999999999
 31
0.0
  0
LINE
  5
22E
330
1E
100
AcDbEntity
  8
0
100
AcDbLine
 10
143.9
 20
178.4499999999999
 30
0.0
 11
151.2
 21
175.4499999999999
 31
0.0
  0
LINE
  5
22F
330
1E
100
AcDbEntity
  8
0
100
AcDbLine
 10
151.2
 20
175.4499999999999
 30
0.0
 11
157.6
 21
170.55
 31
0.0
  0
LINE
  5
254
330
1E
100
AcDbEntity
  8
0
100
AcDbLine
 10
157.6
 20
170.55
 30
0.0
 11
162.5
 21
164.15
 31
0.0
  0
LINE
  5
255
330
1E
100
AcDbEntity
  8
0
100
AcDbLine
 10
162.5
 20
164.15
 30
0.0
 11
165.5
 21
156.85
 31
0.0
  0
LINE
  5
256
330
1E
100
AcDbEntity
  8
0
100
AcDbLine
 10
133.4
 20
158.65
 30
0.0
 11
136.0
 21
158.9499999999999
 31
0.0
  0
LINE
  5
257
330
1E
100
AcDbEntity
  8
0
100
AcDbLine
 10
131.0
 20
157.65
 30
0.0
 11
133.4
 21
158.65
 31
0.0
  0
LINE
  5
258
330
1E
100
AcDbEntity
  8
0
100
AcDbLine
 10
130.3
 20
170.15
 30
0.0
 11
136.0
 21
170.95
 31
0.0
  0
LINE
  5
259
330
1E
100
AcDbEntity
  8
0
100
AcDbLine
 10
126.2999999999999
 20
146.3499999999999
 30
0.0
 11
127.2999999999999
 21
143.9499999999999
 31
0.0
  0
LINE
  5
25A
330
1E
100
AcDbEntity
  8
0
100
AcDbLine
 10
126.0
 20
148.9499999999999
 30
0.0
 11
126.2999999999999
 21
146.3499999999999
 31
0.0
  0
LINE
  5
25B
330
1E
100
AcDbEntity
  8
0
100
AcDbLine
 10
126.0
 20
148.9499999999999
 30
0.0
 11
126.2999999999999
 21
151.55
 31
0.0
  0
LINE
  5
25C
330
1E
100
AcDbEntity
  8
0
100
AcDbLine
 10
106.4999999999999
 20
141.05
 30
0.0
 11
109.4999999999999
 21
133.75
 31
0.0
  0
LINE
  5
25D
330
1E
100
AcDbEntity
  8
0
100
AcDbLine
 10
105.4999999999999
 20
148.9499999999999
 30
0.0
 11
106.4999999999999
 21
141.05
 31
0.0
  0
LINE
  5
25E
330
1E
100
AcDbEntity
  8
0
100
AcDbLine
 10
105.4999999999999
 20
148.9499999999999
 30
0.0
 11
106.4999999999999
 21
156.85
 31
0.0
  0
LINE
  5
263
330
1E
100
AcDbEntity
  8
0
100
AcDbLine
 10
158.0
 20
148.9499999999999
 30
0.0
 11
157.1999999999999
 21
154.6499999999999
 31
0.0
  0
LINE
  5
264
330
1E
100
AcDbEntity
  8
0
100
AcDbLine
 10
130.3
 20
170.15
 30
0.0
 11
125.0
 21
168.05
 31
0.0
  0
LINE
  5
265
330
1E
100
AcDbEntity
  8
0
100
AcDbLine
 10
141.6999999999999
 20
170.15
 30
0.0
 11
147.0
 21
168.05
 31
0.0
  0
LINE
  5
266
330
1E
100
AcDbEntity
  8
0
100
AcDbLine
 10
221.9
 20
163.05
 30
0.0
 11
218.6999999999999
 21
158.9499999999999
 31
0.0
  0
LINE
  5
267
330
1E
100
AcDbEntity
  8
0
100
AcDbLine
 10
222.3
 20
172.75
 30
0.0
 11
216.5999999999999
 21
168.3499999999999
 31
0.0
  0
LINE
  5
268
330
1E
100
AcDbEntity
  8
0
100
AcDbLine
 10
224.0
 20
169.7499999999999
 30
0.0
 11
219.0999999999999
 21
165.85
 31
0.0
  0
LINE
  5
269
330
1E
100
AcDbEntity
  8
0
100
AcDbLine
 10
225.0
 20
168.05
 30
0.0
 11
220.5
 21
164.4499999999999
 31
0.0
  0
LINE
  5
26A
330
1E
100
AcDbEntity
  8
0
100
AcDbLine
 10
221.0
 20
154.9499999999999
 30
0.0
 11
217.0
 21
155.75
 31
0.0
  0
LINE
  5
26B
330
1E
100
AcDbEntity
  8
0
100
AcDbLine
 10
221.0
 20
142.9499999999999
 30
0.0
 11
217.0
 21
142.1499999999999
 31
0.0
  0
LINE
  5
26C
330
1E
100
AcDbEntity
  8
0
100
AcDbLine
 10
221.9
 20
134.85
 30
0.0
 11
218.6999999999999
 21
138.9499999999999
 31
0.0
  0
LINE
  5
26D
330
1E
100
AcDbEntity
  8
0
100
AcDbLine
 10
225.0
 20
129.8499999999999
 30
0.0
 11
220.5
 21
133.45
 31
0.0
  0
LINE
  5
26E
330
1E
100
AcDbEntity
  8
0
100
AcDbLine
 10
222.3
 20
125.15
 30
0.0
 11
216.5999999999999
 21
129.55
 31
0.0
  0
LINE
  5
26F
330
1E
100
AcDbEntity
  8
0
100
AcDbLine
 10
224.0
 20
128.15
 30
0.0
 11
219.0999999999999
 21
132.05
 31
0.0
  0
LINE
  5
270
330
1E
100
AcDbEntity
  8
0
100
AcDbLine
 10
224.9
 20
151.9499999999999
 30
0.0
 11
224.5
 21
148.9499999999999
 31
0.0
  0
LINE
  5
271
330
1E
100
AcDbEntity
  8
0
100
AcDbLine
 10
225.4
 20
151.75
 30
0.0
 11
225.0
 21
148.9499999999999
 31
0.0
  0
LINE
  5
272
330
1E
100
AcDbEntity
  8
0
100
AcDbLine
 10
247.5
 20
148.9499999999999
 30
0.0
 11
247.1
 21
151.9499999999999
 31
0.0
  0
LINE
  5
273
330
1E
100
AcDbEntity
  8
0
100
AcDbLine
 10
247.0
 20
148.9499999999999
 30
0.0
 11
246.6
 21
151.75
 31
0.0
  0
LINE
  5
274
330
1E
100
AcDbEntity
  8
0
100
AcDbLine
 10
272.0
 20
148.9499999999999
 30
0.0
 11
271.4999999999999
 21
151.4499999999999
 31
0.0
  0
LINE
  5
275
330
1E
100
AcDbEntity
  8
0
100
AcDbLine
 10
265.5
 20
141.95
 30
0.0
 11
262.0
 21
141.4499999999999
 31
0.0
  0
LINE
  5
276
330
1E
100
AcDbEntity
  8
0
100
AcDbLine
 10
270.0
 20
144.4499999999999
 30
0.0
 11
268.0
 21
142.9499999999999
 31
0.0
  0
LINE
  5
277
330
1E
100
AcDbEntity
  8
0
100
AcDbLine
 10
268.0
 20
142.9499999999999
 30
0.0
 11
265.5
 21
141.95
 31
0.0
  0
LINE
  5
278
330
1E
100
AcDbEntity
  8
0
100
AcDbLine
 10
272.0
 20
148.9499999999999
 30
0.0
 11
271.4999999999999
 21
146.4499999999999
 31
0.0
  0
LINE
  5
279
330
1E
100
AcDbEntity
  8
0
100
AcDbLine
 10
271.4999999999999
 20
146.4499999999999
 30
0.0
 11
270.0
 21
144.4499999999999
 31
0.0
  0
LINE
  5
27A
330
1E
100
AcDbEntity
  8
0
100
AcDbLine
 10
271.4999999999999
 20
146.4499999999999
 30
0.0
 11
270.0
 21
144.4499999999999
 31
0.0
  0
LINE
  5
27B
330
1E
100
AcDbEntity
  8
0
100
AcDbLine
 10
243.5
 20
122.95
 30
0.0
 11
243.0
 21
119.45
 31
0.0
  0
LINE
  5
27C
330
1E
100
AcDbEntity
  8
0
100
AcDbLine
 10
229.0
 20
119.45
 30
0.0
 11
228.5
 21
122.95
 31
0.0
  0
LINE
  5
27D
330
1E
100
AcDbEntity
  8
0
100
AcDbLine
 10
243.0
 20
119.45
 30
0.0
 11
242.0
 21
116.9499999999999
 31
0.0
  0
LINE
  5
27E
330
1E
100
AcDbEntity
  8
0
100
AcDbLine
 10
233.4999999999999
 20
113.45
 30
0.0
 11
231.4999999999999
 21
114.9499999999999
 31
0.0
  0
LINE
  5
27F
330
1E
100
AcDbEntity
  8
0
100
AcDbLine
 10
240.5
 20
114.9499999999999
 30
0.0
 11
238.5
 21
113.45
 31
0.0
  0
LINE
  5
280
330
1E
100
AcDbEntity
  8
0
100
AcDbLine
 10
238.5
 20
113.45
 30
0.0
 11
236.0
 21
112.9499999999999
 31
0.0
  0
LINE
  5
281
330
1E
100
AcDbEntity
  8
0
100
AcDbLine
 10
236.0
 20
112.9499999999999
 30
0.0
 11
233.4999999999999
 21
113.45
 31
0.0
  0
LINE
  5
282
330
1E
100
AcDbEntity
  8
0
100
AcDbLine
 10
242.0
 20
116.9499999999999
 30
0.0
 11
240.5
 21
114.9499999999999
 31
0.0
  0
LINE
  5
283
330
1E
100
AcDbEntity
  8
0
100
AcDbLine
 10
230.0
 20
116.9499999999999
 30
0.0
 11
229.0
 21
119.45
 31
0.0
  0
LINE
  5
284
330
1E
100
AcDbEntity
  8
0
100
AcDbLine
 10
231.4999999999999
 20
114.9499999999999
 30
0.0
 11
230.0
 21
116.9499999999999
 31
0.0
  0
LINE
  5
285
330
1E
100
AcDbEntity
  8
0
100
AcDbLine
 10
242.3
 20
138.05
 30
0.0
 11
240.6783185840708
 21
137.401327433628
 31
0.0
  0
LINE
  5
286
330
1E
100
AcDbEntity
  8
0
100
AcDbLine
 10
244.0999999999999
 20
140.8499999999999
 30
0.0
 11
241.6999999999999
 21
138.9499999999999
 31
0.0
  0
LINE
  5
287
330
1E
100
AcDbEntity
  8
0
100
AcDbLine
 10
243.8
 20
141.15
 30
0.0
 11
241.5
 21
139.4499999999999
 31
0.0
  0
LINE
  5
288
330
1E
100
AcDbEntity
  8
0
100
AcDbLine
 10
242.8
 20
129.9499999999999
 30
0.0
 11
242.0
 21
133.9499999999999
 31
0.0
  0
LINE
  5
289
330
1E
100
AcDbEntity
  8
0
100
AcDbLine
 10
262.3572413793103
 20
141.5010344827589
 30
0.0
 11
259.8
 21
135.25
 31
0.0
  0
LINE
  5
28A
330
1E
100
AcDbEntity
  8
0
100
AcDbLine
 10
256.8
 20
136.9499999999999
 30
0.0
 11
252.8999999999999
 21
132.05
 31
0.0
  0
LINE
  5
28B
330
1E
100
AcDbEntity
  8
0
100
AcDbLine
 10
253.3
 20
138.9499999999999
 30
0.0
 11
250.0999999999999
 21
134.85
 31
0.0
  0
LINE
  5
28C
330
1E
100
AcDbEntity
  8
0
100
AcDbLine
 10
255.1
 20
137.9499999999999
 30
0.0
 11
251.5
 21
133.45
 31
0.0
  0
LINE
  5
28D
330
1E
100
AcDbEntity
  8
0
100
AcDbLine
 10
255.4
 20
129.55
 30
0.0
 11
249.6999999999999
 21
125.15
 31
0.0
  0
LINE
  5
28E
330
1E
100
AcDbEntity
  8
0
100
AcDbLine
 10
252.8999999999999
 20
132.05
 30
0.0
 11
248.0
 21
128.15
 31
0.0
  0
LINE
  5
28F
330
1E
100
AcDbEntity
  8
0
100
AcDbLine
 10
259.8
 20
135.25
 30
0.0
 11
255.4
 21
129.55
 31
0.0
  0
LINE
  5
290
330
1E
100
AcDbEntity
  8
0
100
AcDbLine
 10
247.0
 20
129.8499999999999
 30
0.0
 11
243.0234169653524
 21
128.274372759857
 31
0.0
  0
LINE
  5
291
330
1E
100
AcDbEntity
  8
0
100
AcDbLine
 10
247.0
 20
129.8499999999999
 30
0.0
 11
243.0234169653524
 21
128.274372759857
 31
0.0
  0
LINE
  5
292
330
1E
100
AcDbEntity
  8
0
100
AcDbLine
 10
243.1999999999999
 20
126.95
 30
0.0
 11
242.8
 21
129.9499999999999
 31
0.0
  0
LINE
  5
293
330
1E
100
AcDbEntity
  8
0
100
AcDbLine
 10
249.6999999999999
 20
125.15
 30
0.0
 11
243.4489655172413
 21
122.5927586206899
 31
0.0
  0
LINE
  5
294
330
1E
100
AcDbEntity
  8
0
100
AcDbLine
 10
248.0
 20
128.15
 30
0.0
 11
243.251234826287
 21
126.266868982838
 31
0.0
  0
LINE
  5
295
330
1E
100
AcDbEntity
  8
0
100
AcDbLine
 10
243.5
 20
122.95
 30
0.0
 11
243.1999999999999
 21
126.95
 31
0.0
  0
LINE
  5
296
330
1E
100
AcDbEntity
  8
0
100
AcDbLine
 10
250.0999999999999
 20
134.85
 30
0.0
 11
246.0
 21
131.65
 31
0.0
  0
LINE
  5
297
330
1E
100
AcDbEntity
  8
0
100
AcDbLine
 10
251.5
 20
133.45
 30
0.0
 11
247.0
 21
129.8499999999999
 31
0.0
  0
LINE
  5
298
330
1E
100
AcDbEntity
  8
0
100
AcDbLine
 10
246.0
 20
131.65
 30
0.0
 11
242.7323076923077
 21
130.288461538462
 31
0.0
  0
LINE
  5
299
330
1E
100
AcDbEntity
  8
0
100
AcDbLine
 10
255.0
 20
142.1499999999999
 30
0.0
 11
251.0
 21
142.9499999999999
 31
0.0
  0
LINE
  5
29A
330
1E
100
AcDbEntity
  8
0
100
AcDbLine
 10
258.683131017162
 20
141.6987651737129
 30
0.0
 11
256.8
 21
136.9499999999999
 31
0.0
  0
LINE
  5
29B
330
1E
100
AcDbEntity
  8
0
100
AcDbLine
 10
262.0
 20
141.4499999999999
 30
0.0
 11
258.0
 21
141.7499999999999
 31
0.0
  0
LINE
  5
29C
330
1E
100
AcDbEntity
  8
0
100
AcDbLine
 10
254.6615384615384
 20
142.217692307692
 30
0.0
 11
253.3
 21
138.9499999999999
 31
0.0
  0
LINE
  5
29D
330
1E
100
AcDbEntity
  8
0
100
AcDbLine
 10
256.6756272401434
 20
141.9265830346479
 30
0.0
 11
255.1
 21
137.9499999999999
 31
0.0
  0
LINE
  5
29E
330
1E
100
AcDbEntity
  8
0
100
AcDbLine
 10
258.0
 20
141.7499999999999
 30
0.0
 11
255.0
 21
142.1499999999999
 31
0.0
  0
LINE
  5
29F
330
1E
100
AcDbEntity
  8
0
100
AcDbLine
 10
247.5391304347826
 20
144.2478260869569
 30
0.0
 11
246.9
 21
142.65
 31
0.0
  0
LINE
  5
2A0
330
1E
100
AcDbEntity
  8
0
100
AcDbLine
 10
245.5
 20
143.4499999999999
 30
0.0
 11
243.8
 21
141.15
 31
0.0
  0
LINE
  5
2A1
330
1E
100
AcDbEntity
  8
0
100
AcDbLine
 10
246.0
 20
143.25
 30
0.0
 11
244.0999999999999
 21
140.8499999999999
 31
0.0
  0
LINE
  5
2A2
330
1E
100
AcDbEntity
  8
0
100
AcDbLine
 10
251.0
 20
142.9499999999999
 30
0.0
 11
247.5391304347826
 21
144.2478260869569
 31
0.0
  0
LINE
  5
2A3
330
1E
100
AcDbEntity
  8
0
100
AcDbLine
 10
244.9
 20
140.05
 30
0.0
 11
242.3
 21
138.05
 31
0.0
  0
LINE
  5
2A4
330
1E
100
AcDbEntity
  8
0
100
AcDbLine
 10
246.9
 20
142.65
 30
0.0
 11
244.9
 21
140.05
 31
0.0
  0
LINE
  5
2A5
330
1E
100
AcDbEntity
  8
0
100
AcDbLine
 10
247.5
 20
148.9499999999999
 30
0.0
 11
247.1
 21
145.95
 31
0.0
  0
LINE
  5
2A6
330
1E
100
AcDbEntity
  8
0
100
AcDbLine
 10
247.0
 20
148.9499999999999
 30
0.0
 11
246.6
 21
146.15
 31
0.0
  0
LINE
  5
2A7
330
1E
100
AcDbEntity
  8
0
100
AcDbLine
 10
247.1
 20
145.95
 30
0.0
 11
246.0
 21
143.25
 31
0.0
  0
LINE
  5
2A8
330
1E
100
AcDbEntity
  8
0
100
AcDbLine
 10
246.6
 20
146.15
 30
0.0
 11
245.5
 21
143.4499999999999
 31
0.0
  0
LINE
  5
2A9
330
1E
100
AcDbEntity
  8
0
100
AcDbLine
 10
231.2978260869564
 20
137.410869565217
 30
0.0
 11
230.0
 21
133.9499999999999
 31
0.0
  0
LINE
  5
2AA
330
1E
100
AcDbEntity
  8
0
100
AcDbLine
 10
242.0
 20
133.9499999999999
 30
0.0
 11
240.7021739130434
 21
137.410869565217
 31
0.0
  0
LINE
  5
2AB
330
1E
100
AcDbEntity
  8
0
100
AcDbLine
 10
229.1999999999999
 20
129.9499999999999
 30
0.0
 11
228.8
 21
126.95
 31
0.0
  0
LINE
  5
2AC
330
1E
100
AcDbEntity
  8
0
100
AcDbLine
 10
228.9765830346474
 20
128.274372759857
 30
0.0
 11
225.0
 21
129.8499999999999
 31
0.0
  0
LINE
  5
2AD
330
1E
100
AcDbEntity
  8
0
100
AcDbLine
 10
228.5510344827585
 20
122.5927586206899
 30
0.0
 11
222.3
 21
125.15
 31
0.0
  0
LINE
  5
2AE
330
1E
100
AcDbEntity
  8
0
100
AcDbLine
 10
228.7487651737127
 20
126.266868982838
 30
0.0
 11
224.0
 21
128.15
 31
0.0
  0
LINE
  5
2AF
330
1E
100
AcDbEntity
  8
0
100
AcDbLine
 10
228.8
 20
126.95
 30
0.0
 11
228.5
 21
122.95
 31
0.0
  0
LINE
  5
2B0
330
1E
100
AcDbEntity
  8
0
100
AcDbLine
 10
229.2676923076923
 20
130.288461538462
 30
0.0
 11
226.0
 21
131.65
 31
0.0
  0
LINE
  5
2B1
330
1E
100
AcDbEntity
  8
0
100
AcDbLine
 10
230.0
 20
133.9499999999999
 30
0.0
 11
229.1999999999999
 21
129.9499999999999
 31
0.0
  0
LINE
  5
2B2
330
1E
100
AcDbEntity
  8
0
100
AcDbLine
 10
226.0
 20
131.65
 30
0.0
 11
221.9
 21
134.85
 31
0.0
  0
LINE
  5
2B3
330
1E
100
AcDbEntity
  8
0
100
AcDbLine
 10
233.1999999999999
 20
138.3499999999999
 30
0.0
 11
230.5
 21
139.4499999999999
 31
0.0
  0
LINE
  5
2B4
330
1E
100
AcDbEntity
  8
0
100
AcDbLine
 10
233.0
 20
137.85
 30
0.0
 11
230.3
 21
138.9499999999999
 31
0.0
  0
LINE
  5
2B5
330
1E
100
AcDbEntity
  8
0
100
AcDbLine
 10
238.8
 20
138.3499999999999
 30
0.0
 11
236.0
 21
137.9499999999999
 31
0.0
  0
LINE
  5
2B6
330
1E
100
AcDbEntity
  8
0
100
AcDbLine
 10
239.0
 20
137.85
 30
0.0
 11
236.0
 21
137.4499999999999
 31
0.0
  0
LINE
  5
2B7
330
1E
100
AcDbEntity
  8
0
100
AcDbLine
 10
241.5
 20
139.4499999999999
 30
0.0
 11
238.8
 21
138.3499999999999
 31
0.0
  0
LINE
  5
2B8
330
1E
100
AcDbEntity
  8
0
100
AcDbLine
 10
241.6999999999999
 20
138.9499999999999
 30
0.0
 11
239.0
 21
137.85
 31
0.0
  0
LINE
  5
2B9
330
1E
100
AcDbEntity
  8
0
100
AcDbLine
 10
236.0
 20
137.9499999999999
 30
0.0
 11
233.1999999999999
 21
138.3499999999999
 31
0.0
  0
LINE
  5
2BA
330
1E
100
AcDbEntity
  8
0
100
AcDbLine
 10
236.0
 20
137.4499999999999
 30
0.0
 11
233.0
 21
137.85
 31
0.0
  0
LINE
  5
2BB
330
1E
100
AcDbEntity
  8
0
100
AcDbLine
 10
224.4608695652174
 20
144.2478260869569
 30
0.0
 11
221.0
 21
142.9499999999999
 31
0.0
  0
LINE
  5
2BC
330
1E
100
AcDbEntity
  8
0
100
AcDbLine
 10
225.0999999999999
 20
142.65
 30
0.0
 11
224.4608695652174
 21
144.2478260869569
 31
0.0
  0
LINE
  5
2BD
330
1E
100
AcDbEntity
  8
0
100
AcDbLine
 10
227.8999999999999
 20
140.8499999999999
 30
0.0
 11
226.0
 21
143.25
 31
0.0
  0
LINE
  5
2BE
330
1E
100
AcDbEntity
  8
0
100
AcDbLine
 10
228.2
 20
141.15
 30
0.0
 11
226.5
 21
143.4499999999999
 31
0.0
  0
LINE
  5
2BF
330
1E
100
AcDbEntity
  8
0
100
AcDbLine
 10
227.0999999999999
 20
140.05
 30
0.0
 11
225.0999999999999
 21
142.65
 31
0.0
  0
LINE
  5
2C0
330
1E
100
AcDbEntity
  8
0
100
AcDbLine
 10
230.3
 20
138.9499999999999
 30
0.0
 11
227.8999999999999
 21
140.8499999999999
 31
0.0
  0
LINE
  5
2C1
330
1E
100
AcDbEntity
  8
0
100
AcDbLine
 10
229.7
 20
138.05
 30
0.0
 11
227.0999999999999
 21
140.05
 31
0.0
  0
LINE
  5
2C2
330
1E
100
AcDbEntity
  8
0
100
AcDbLine
 10
231.2978260869564
 20
137.410869565217
 30
0.0
 11
229.7
 21
138.05
 31
0.0
  0
LINE
  5
2C3
330
1E
100
AcDbEntity
  8
0
100
AcDbLine
 10
230.5
 20
139.4499999999999
 30
0.0
 11
228.2
 21
141.15
 31
0.0
  0
LINE
  5
2C4
330
1E
100
AcDbEntity
  8
0
100
AcDbLine
 10
226.5
 20
143.4499999999999
 30
0.0
 11
225.4
 21
146.15
 31
0.0
  0
LINE
  5
2C5
330
1E
100
AcDbEntity
  8
0
100
AcDbLine
 10
224.9
 20
145.95
 30
0.0
 11
224.5
 21
148.9499999999999
 31
0.0
  0
LINE
  5
2C6
330
1E
100
AcDbEntity
  8
0
100
AcDbLine
 10
225.4
 20
146.15
 30
0.0
 11
225.0
 21
148.9499999999999
 31
0.0
  0
LINE
  5
2C7
330
1E
100
AcDbEntity
  8
0
100
AcDbLine
 10
226.0
 20
143.25
 30
0.0
 11
224.9
 21
145.95
 31
0.0
  0
LINE
  5
2C8
330
1E
100
AcDbEntity
  8
0
100
AcDbLine
 10
265.5
 20
155.9499999999999
 30
0.0
 11
262.0
 21
156.4499999999999
 31
0.0
  0
LINE
  5
2C9
330
1E
100
AcDbEntity
  8
0
100
AcDbLine
 10
270.0
 20
153.4499999999999
 30
0.0
 11
268.0
 21
154.9499999999999
 31
0.0
  0
LINE
  5
2CA
330
1E
100
AcDbEntity
  8
0
100
AcDbLine
 10
271.4999999999999
 20
151.4499999999999
 30
0.0
 11
270.0
 21
153.4499999999999
 31
0.0
  0
LINE
  5
2CB
330
1E
100
AcDbEntity
  8
0
100
AcDbLine
 10
271.4999999999999
 20
151.4499999999999
 30
0.0
 11
270.0
 21
153.4499999999999
 31
0.0
  0
LINE
  5
2CC
330
1E
100
AcDbEntity
  8
0
100
AcDbLine
 10
268.0
 20
154.9499999999999
 30
0.0
 11
265.5
 21
155.9499999999999
 31
0.0
  0
LINE
  5
2CD
330
1E
100
AcDbEntity
  8
0
100
AcDbLine
 10
230.0
 20
180.9499999999999
 30
0.0
 11
229.0
 21
178.4499999999999
 31
0.0
  0
LINE
  5
2CE
330
1E
100
AcDbEntity
  8
0
100
AcDbLine
 10
243.0
 20
178.4499999999999
 30
0.0
 11
242.0
 21
180.9499999999999
 31
0.0
  0
LINE
  5
2CF
330
1E
100
AcDbEntity
  8
0
100
AcDbLine
 10
242.8
 20
167.9499999999999
 30
0.0
 11
242.0
 21
163.9499999999999
 31
0.0
  0
LINE
  5
2D0
330
1E
100
AcDbEntity
  8
0
100
AcDbLine
 10
242.3
 20
159.85
 30
0.0
 11
240.7021739130434
 21
160.4891304347829
 31
0.0
  0
LINE
  5
2D1
330
1E
100
AcDbEntity
  8
0
100
AcDbLine
 10
242.3
 20
159.85
 30
0.0
 11
240.7021739130434
 21
160.4891304347829
 31
0.0
  0
LINE
  5
2D2
330
1E
100
AcDbEntity
  8
0
100
AcDbLine
 10
244.0999999999999
 20
157.05
 30
0.0
 11
241.6999999999999
 21
158.9499999999999
 31
0.0
  0
LINE
  5
2D3
330
1E
100
AcDbEntity
  8
0
100
AcDbLine
 10
243.8
 20
156.75
 30
0.0
 11
241.5
 21
158.45
 31
0.0
  0
LINE
  5
2D4
330
1E
100
AcDbEntity
  8
0
100
AcDbLine
 10
256.8
 20
160.9499999999999
 30
0.0
 11
252.8999999999999
 21
165.85
 31
0.0
  0
LINE
  5
2D5
330
1E
100
AcDbEntity
  8
0
100
AcDbLine
 10
250.0999999999999
 20
163.05
 30
0.0
 11
246.0
 21
166.25
 31
0.0
  0
LINE
  5
2D6
330
1E
100
AcDbEntity
  8
0
100
AcDbLine
 10
251.5
 20
164.4499999999999
 30
0.0
 11
247.0
 21
168.05
 31
0.0
  0
LINE
  5
2D7
330
1E
100
AcDbEntity
  8
0
100
AcDbLine
 10
259.8
 20
162.65
 30
0.0
 11
255.4
 21
168.3499999999999
 31
0.0
  0
LINE
  5
2D8
330
1E
100
AcDbEntity
  8
0
100
AcDbLine
 10
253.3
 20
158.9499999999999
 30
0.0
 11
250.0999999999999
 21
163.05
 31
0.0
  0
LINE
  5
2D9
330
1E
100
AcDbEntity
  8
0
100
AcDbLine
 10
255.1
 20
159.9499999999999
 30
0.0
 11
251.5
 21
164.4499999999999
 31
0.0
  0
LINE
  5
2DA
330
1E
100
AcDbEntity
  8
0
100
AcDbLine
 10
255.0
 20
155.75
 30
0.0
 11
251.0
 21
154.9499999999999
 31
0.0
  0
LINE
  5
2DB
330
1E
100
AcDbEntity
  8
0
100
AcDbLine
 10
258.683131017162
 20
156.201234826287
 30
0.0
 11
256.8
 21
160.9499999999999
 31
0.0
  0
LINE
  5
2DC
330
1E
100
AcDbEntity
  8
0
100
AcDbLine
 10
254.6615384615384
 20
155.6823076923079
 30
0.0
 11
253.3
 21
158.9499999999999
 31
0.0
  0
LINE
  5
2DD
330
1E
100
AcDbEntity
  8
0
100
AcDbLine
 10
256.6756272401434
 20
155.9734169653519
 30
0.0
 11
255.1
 21
159.9499999999999
 31
0.0
  0
LINE
  5
2DE
330
1E
100
AcDbEntity
  8
0
100
AcDbLine
 10
262.3572413793103
 20
156.398965517241
 30
0.0
 11
259.8
 21
162.65
 31
0.0
  0
LINE
  5
2DF
330
1E
100
AcDbEntity
  8
0
100
AcDbLine
 10
262.0
 20
156.4499999999999
 30
0.0
 11
258.0
 21
156.15
 31
0.0
  0
LINE
  5
2E0
330
1E
100
AcDbEntity
  8
0
100
AcDbLine
 10
258.0
 20
156.15
 30
0.0
 11
255.0
 21
155.75
 31
0.0
  0
LINE
  5
2E1
330
1E
100
AcDbEntity
  8
0
100
AcDbLine
 10
246.9
 20
155.25
 30
0.0
 11
244.9
 21
157.85
 31
0.0
  0
LINE
  5
2E2
330
1E
100
AcDbEntity
  8
0
100
AcDbLine
 10
251.0
 20
154.9499999999999
 30
0.0
 11
247.5391304347826
 21
153.6521739130439
 31
0.0
  0
LINE
  5
2E3
330
1E
100
AcDbEntity
  8
0
100
AcDbLine
 10
247.5391304347826
 20
153.6521739130439
 30
0.0
 11
246.9
 21
155.25
 31
0.0
  0
LINE
  5
2E4
330
1E
100
AcDbEntity
  8
0
100
AcDbLine
 10
246.6
 20
151.75
 30
0.0
 11
245.5
 21
154.45
 31
0.0
  0
LINE
  5
2E5
330
1E
100
AcDbEntity
  8
0
100
AcDbLine
 10
247.1
 20
151.9499999999999
 30
0.0
 11
246.0
 21
154.6499999999999
 31
0.0
  0
LINE
  5
2E6
330
1E
100
AcDbEntity
  8
0
100
AcDbLine
 10
245.5
 20
154.45
 30
0.0
 11
243.8
 21
156.75
 31
0.0
  0
LINE
  5
2E7
330
1E
100
AcDbEntity
  8
0
100
AcDbLine
 10
246.0
 20
154.6499999999999
 30
0.0
 11
244.0999999999999
 21
157.05
 31
0.0
  0
LINE
  5
2E8
330
1E
100
AcDbEntity
  8
0
100
AcDbLine
 10
244.9
 20
157.85
 30
0.0
 11
242.3
 21
159.85
 31
0.0
  0
LINE
  5
2E9
330
1E
100
AcDbEntity
  8
0
100
AcDbLine
 10
255.4
 20
168.3499999999999
 30
0.0
 11
249.6999999999999
 21
172.75
 31
0.0
  0
LINE
  5
2EA
330
1E
100
AcDbEntity
  8
0
100
AcDbLine
 10
252.8999999999999
 20
165.85
 30
0.0
 11
248.0
 21
169.7499999999999
 31
0.0
  0
LINE
  5
2EB
330
1E
100
AcDbEntity
  8
0
100
AcDbLine
 10
243.5
 20
174.9499999999999
 30
0.0
 11
243.1999999999999
 21
170.95
 31
0.0
  0
LINE
  5
2EC
330
1E
100
AcDbEntity
  8
0
100
AcDbLine
 10
248.0
 20
169.7499999999999
 30
0.0
 11
243.251234826287
 21
171.633131017162
 31
0.0
  0
LINE
  5
2ED
330
1E
100
AcDbEntity
  8
0
100
AcDbLine
 10
243.1999999999999
 20
170.95
 30
0.0
 11
242.8
 21
167.9499999999999
 31
0.0
  0
LINE
  5
2EE
330
1E
100
AcDbEntity
  8
0
100
AcDbLine
 10
247.0
 20
168.05
 30
0.0
 11
243.0234169653524
 21
169.6256272401429
 31
0.0
  0
LINE
  5
2EF
330
1E
100
AcDbEntity
  8
0
100
AcDbLine
 10
246.0
 20
166.25
 30
0.0
 11
242.7323076923077
 21
167.6115384615379
 31
0.0
  0
LINE
  5
2F0
330
1E
100
AcDbEntity
  8
0
100
AcDbLine
 10
249.6999999999999
 20
172.75
 30
0.0
 11
243.4489655172413
 21
175.3072413793099
 31
0.0
  0
LINE
  5
2F1
330
1E
100
AcDbEntity
  8
0
100
AcDbLine
 10
243.5
 20
174.9499999999999
 30
0.0
 11
243.0
 21
178.4499999999999
 31
0.0
  0
LINE
  5
2F2
330
1E
100
AcDbEntity
  8
0
100
AcDbLine
 10
226.0
 20
166.25
 30
0.0
 11
221.9
 21
163.05
 31
0.0
  0
LINE
  5
2F3
330
1E
100
AcDbEntity
  8
0
100
AcDbLine
 10
230.0
 20
163.9499999999999
 30
0.0
 11
229.1999999999999
 21
167.9499999999999
 31
0.0
  0
LINE
  5
2F4
330
1E
100
AcDbEntity
  8
0
100
AcDbLine
 10
233.0
 20
160.05
 30
0.0
 11
230.3
 21
158.9499999999999
 31
0.0
  0
LINE
  5
2F5
330
1E
100
AcDbEntity
  8
0
100
AcDbLine
 10
233.1999999999999
 20
159.55
 30
0.0
 11
230.5
 21
158.45
 31
0.0
  0
LINE
  5
2F6
330
1E
100
AcDbEntity
  8
0
100
AcDbLine
 10
239.0
 20
160.05
 30
0.0
 11
236.0
 21
160.4499999999999
 31
0.0
  0
LINE
  5
2F7
330
1E
100
AcDbEntity
  8
0
100
AcDbLine
 10
238.8
 20
159.55
 30
0.0
 11
236.0
 21
159.9499999999999
 31
0.0
  0
LINE
  5
2F8
330
1E
100
AcDbEntity
  8
0
100
AcDbLine
 10
242.0
 20
163.9499999999999
 30
0.0
 11
240.7021739130434
 21
160.4891304347829
 31
0.0
  0
LINE
  5
2F9
330
1E
100
AcDbEntity
  8
0
100
AcDbLine
 10
241.6999999999999
 20
158.9499999999999
 30
0.0
 11
239.0
 21
160.05
 31
0.0
  0
LINE
  5
2FA
330
1E
100
AcDbEntity
  8
0
100
AcDbLine
 10
241.5
 20
158.45
 30
0.0
 11
238.8
 21
159.55
 31
0.0
  0
LINE
  5
2FB
330
1E
100
AcDbEntity
  8
0
100
AcDbLine
 10
236.0
 20
160.4499999999999
 30
0.0
 11
233.0
 21
160.05
 31
0.0
  0
LINE
  5
2FC
330
1E
100
AcDbEntity
  8
0
100
AcDbLine
 10
236.0
 20
159.9499999999999
 30
0.0
 11
233.1999999999999
 21
159.55
 31
0.0
  0
LINE
  5
2FD
330
1E
100
AcDbEntity
  8
0
100
AcDbLine
 10
230.3
 20
158.9499999999999
 30
0.0
 11
227.8999999999999
 21
157.05
 31
0.0
  0
LINE
  5
2FE
330
1E
100
AcDbEntity
  8
0
100
AcDbLine
 10
227.0999999999999
 20
157.85
 30
0.0
 11
225.0999999999999
 21
155.25
 31
0.0
  0
LINE
  5
2FF
330
1E
100
AcDbEntity
  8
0
100
AcDbLine
 10
230.5
 20
158.45
 30
0.0
 11
228.2
 21
156.75
 31
0.0
  0
LINE
  5
300
330
1E
100
AcDbEntity
  8
0
100
AcDbLine
 10
227.8999999999999
 20
157.05
 30
0.0
 11
226.0
 21
154.6499999999999
 31
0.0
  0
LINE
  5
301
330
1E
100
AcDbEntity
  8
0
100
AcDbLine
 10
226.5
 20
154.45
 30
0.0
 11
225.4
 21
151.75
 31
0.0
  0
LINE
  5
302
330
1E
100
AcDbEntity
  8
0
100
AcDbLine
 10
228.2
 20
156.75
 30
0.0
 11
226.5
 21
154.45
 31
0.0
  0
LINE
  5
303
330
1E
100
AcDbEntity
  8
0
100
AcDbLine
 10
225.0999999999999
 20
155.25
 30
0.0
 11
224.4608695652174
 21
153.6521739130439
 31
0.0
  0
LINE
  5
304
330
1E
100
AcDbEntity
  8
0
100
AcDbLine
 10
224.4608695652174
 20
153.6521739130439
 30
0.0
 11
221.0
 21
154.9499999999999
 31
0.0
  0
LINE
  5
305
330
1E
100
AcDbEntity
  8
0
100
AcDbLine
 10
226.0
 20
154.6499999999999
 30
0.0
 11
224.9
 21
151.9499999999999
 31
0.0
  0
LINE
  5
306
330
1E
100
AcDbEntity
  8
0
100
AcDbLine
 10
231.2978260869564
 20
160.4891304347829
 30
0.0
 11
230.0
 21
163.9499999999999
 31
0.0
  0
LINE
  5
307
330
1E
100
AcDbEntity
  8
0
100
AcDbLine
 10
229.7
 20
159.85
 30
0.0
 11
227.0999999999999
 21
157.85
 31
0.0
  0
LINE
  5
308
330
1E
100
AcDbEntity
  8
0
100
AcDbLine
 10
231.3216814159292
 20
160.498672566372
 30
0.0
 11
229.7
 21
159.85
 31
0.0
  0
LINE
  5
309
330
1E
100
AcDbEntity
  8
0
100
AcDbLine
 10
228.8
 20
170.95
 30
0.0
 11
228.5
 21
174.9499999999999
 31
0.0
  0
LINE
  5
30A
330
1E
100
AcDbEntity
  8
0
100
AcDbLine
 10
229.2676923076923
 20
167.6115384615379
 30
0.0
 11
226.0
 21
166.25
 31
0.0
  0
LINE
  5
30B
330
1E
100
AcDbEntity
  8
0
100
AcDbLine
 10
228.7487651737127
 20
171.633131017162
 30
0.0
 11
224.0
 21
169.7499999999999
 31
0.0
  0
LINE
  5
30C
330
1E
100
AcDbEntity
  8
0
100
AcDbLine
 10
228.9765830346474
 20
169.6256272401429
 30
0.0
 11
225.0
 21
168.05
 31
0.0
  0
LINE
  5
30D
330
1E
100
AcDbEntity
  8
0
100
AcDbLine
 10
229.1999999999999
 20
167.9499999999999
 30
0.0
 11
228.8
 21
170.95
 31
0.0
  0
LINE
  5
30E
330
1E
100
AcDbEntity
  8
0
100
AcDbLine
 10
228.5510344827585
 20
175.3072413793099
 30
0.0
 11
222.3
 21
172.75
 31
0.0
  0
LINE
  5
30F
330
1E
100
AcDbEntity
  8
0
100
AcDbLine
 10
229.0
 20
178.4499999999999
 30
0.0
 11
228.5
 21
174.9499999999999
 31
0.0
  0
LINE
  5
310
330
1E
100
AcDbEntity
  8
0
100
AcDbLine
 10
233.4999999999999
 20
184.45
 30
0.0
 11
231.4999999999999
 21
182.9499999999999
 31
0.0
  0
LINE
  5
311
330
1E
100
AcDbEntity
  8
0
100
AcDbLine
 10
238.5
 20
184.45
 30
0.0
 11
236.0
 21
184.9499999999999
 31
0.0
  0
LINE
  5
312
330
1E
100
AcDbEntity
  8
0
100
AcDbLine
 10
242.0
 20
180.9499999999999
 30
0.0
 11
240.5
 21
182.9499999999999
 31
0.0
  0
LINE
  5
313
330
1E
100
AcDbEntity
  8
0
100
AcDbLine
 10
240.5
 20
182.9499999999999
 30
0.0
 11
238.5
 21
184.45
 31
0.0
  0
LINE
  5
314
330
1E
100
AcDbEntity
  8
0
100
AcDbLine
 10
236.0
 20
184.9499999999999
 30
0.0
 11
233.4999999999999
 21
184.45
 31
0.0
  0
LINE
  5
315
330
1E
100
AcDbEntity
  8
0
100
AcDbLine
 10
231.4999999999999
 20
182.9499999999999
 30
0.0
 11
230.0
 21
180.9499999999999
 31
0.0
  0
LINE
  5
316
330
1E
100
AcDbEntity
  8
0
100
AcDbLine
 10
200.4999999999999
 20
151.4499999999999
 30
0.0
 11
200.0
 21
148.9499999999999
 31
0.0
  0
LINE
  5
317
330
1E
100
AcDbEntity
  8
0
100
AcDbLine
 10
212.1999999999999
 20
135.25
 30
0.0
 11
209.6427586206897
 21
141.5010344827589
 31
0.0
  0
LINE
  5
318
330
1E
100
AcDbEntity
  8
0
100
AcDbLine
 10
220.5
 20
133.45
 30
0.0
 11
216.9
 21
137.9499999999999
 31
0.0
  0
LINE
  5
319
330
1E
100
AcDbEntity
  8
0
100
AcDbLine
 10
219.0999999999999
 20
132.05
 30
0.0
 11
215.2
 21
136.9499999999999
 31
0.0
  0
LINE
  5
31A
330
1E
100
AcDbEntity
  8
0
100
AcDbLine
 10
216.5999999999999
 20
129.55
 30
0.0
 11
212.1999999999999
 21
135.25
 31
0.0
  0
LINE
  5
31B
330
1E
100
AcDbEntity
  8
0
100
AcDbLine
 10
214.0
 20
141.7499999999999
 30
0.0
 11
210.0
 21
141.4499999999999
 31
0.0
  0
LINE
  5
31C
330
1E
100
AcDbEntity
  8
0
100
AcDbLine
 10
217.0
 20
142.1499999999999
 30
0.0
 11
214.0
 21
141.7499999999999
 31
0.0
  0
LINE
  5
31D
330
1E
100
AcDbEntity
  8
0
100
AcDbLine
 10
216.9
 20
137.9499999999999
 30
0.0
 11
215.3243727598566
 21
141.9265830346479
 31
0.0
  0
LINE
  5
31E
330
1E
100
AcDbEntity
  8
0
100
AcDbLine
 10
218.6999999999999
 20
138.9499999999999
 30
0.0
 11
217.3384615384615
 21
142.217692307692
 31
0.0
  0
LINE
  5
31F
330
1E
100
AcDbEntity
  8
0
100
AcDbLine
 10
215.2
 20
136.9499999999999
 30
0.0
 11
213.316868982838
 21
141.6987651737129
 31
0.0
  0
LINE
  5
320
330
1E
100
AcDbEntity
  8
0
100
AcDbLine
 10
204.0
 20
142.9499999999999
 30
0.0
 11
202.0
 21
144.4499999999999
 31
0.0
  0
LINE
  5
321
330
1E
100
AcDbEntity
  8
0
100
AcDbLine
 10
206.4999999999999
 20
141.95
 30
0.0
 11
204.0
 21
142.9499999999999
 31
0.0
  0
LINE
  5
322
330
1E
100
AcDbEntity
  8
0
100
AcDbLine
 10
210.0
 20
141.4499999999999
 30
0.0
 11
206.4999999999999
 21
141.95
 31
0.0
  0
LINE
  5
323
330
1E
100
AcDbEntity
  8
0
100
AcDbLine
 10
200.4999999999999
 20
146.4499999999999
 30
0.0
 11
200.0
 21
148.9499999999999
 31
0.0
  0
LINE
  5
324
330
1E
100
AcDbEntity
  8
0
100
AcDbLine
 10
202.0
 20
144.4499999999999
 30
0.0
 11
200.4999999999999
 21
146.4499999999999
 31
0.0
  0
LINE
  5
325
330
1E
100
AcDbEntity
  8
0
100
AcDbLine
 10
216.5999999999999
 20
168.3499999999999
 30
0.0
 11
212.1999999999999
 21
162.65
 31
0.0
  0
LINE
  5
326
330
1E
100
AcDbEntity
  8
0
100
AcDbLine
 10
219.0999999999999
 20
165.85
 30
0.0
 11
215.2
 21
160.9499999999999
 31
0.0
  0
LINE
  5
327
330
1E
100
AcDbEntity
  8
0
100
AcDbLine
 10
212.1999999999999
 20
162.65
 30
0.0
 11
209.6427586206897
 21
156.398965517241
 31
0.0
  0
LINE
  5
328
330
1E
100
AcDbEntity
  8
0
100
AcDbLine
 10
214.0
 20
156.15
 30
0.0
 11
210.0
 21
156.4499999999999
 31
0.0
  0
LINE
  5
329
330
1E
100
AcDbEntity
  8
0
100
AcDbLine
 10
218.6999999999999
 20
158.9499999999999
 30
0.0
 11
217.3384615384615
 21
155.6823076923079
 31
0.0
  0
LINE
  5
32A
330
1E
100
AcDbEntity
  8
0
100
AcDbLine
 10
215.2
 20
160.9499999999999
 30
0.0
 11
213.316868982838
 21
156.201234826287
 31
0.0
  0
LINE
  5
32B
330
1E
100
AcDbEntity
  8
0
100
AcDbLine
 10
216.9
 20
159.9499999999999
 30
0.0
 11
215.3243727598566
 21
155.9734169653519
 31
0.0
  0
LINE
  5
32C
330
1E
100
AcDbEntity
  8
0
100
AcDbLine
 10
217.0
 20
155.75
 30
0.0
 11
214.0
 21
156.15
 31
0.0
  0
LINE
  5
32D
330
1E
100
AcDbEntity
  8
0
100
AcDbLine
 10
220.5
 20
164.4499999999999
 30
0.0
 11
216.9
 21
159.9499999999999
 31
0.0
  0
LINE
  5
32E
330
1E
100
AcDbEntity
  8
0
100
AcDbLine
 10
206.4999999999999
 20
155.9499999999999
 30
0.0
 11
204.0
 21
154.9499999999999
 31
0.0
  0
LINE
  5
32F
330
1E
100
AcDbEntity
  8
0
100
AcDbLine
 10
210.0
 20
156.4499999999999
 30
0.0
 11
206.4999999999999
 21
155.9499999999999
 31
0.0
  0
LINE
  5
330
330
1E
100
AcDbEntity
  8
0
100
AcDbLine
 10
204.0
 20
154.9499999999999
 30
0.0
 11
202.0
 21
153.4499999999999
 31
0.0
  0
LINE
  5
331
330
1E
100
AcDbEntity
  8
0
100
AcDbLine
 10
202.0
 20
153.4499999999999
 30
0.0
 11
200.4999999999999
 21
151.4499999999999
 31
0.0
  0
ENDSEC
  0
SECTION
  2
OBJECTS
  0
DICTIONARY
  5
C
330
0
100
AcDbDictionary
281
     1
  3
ACAD_GROUP
350
D
  3
ACAD_LAYOUT
350
19
  3
ACAD_MLINESTYLE
350
16
  3
ACAD_PLOTSETTINGS
350
18
  3
ACAD_PLOTSTYLENAME
350
E
  3
AcDbVariableDictionary
350
332
  0
DICTIONARY
  5
D
102
{ACAD_REACTORS
330
C
102
}
330
C
100
AcDbDictionary
281
     1
  0
DICTIONARY
  5
19
102
{ACAD_REACTORS
330
C
102
}
330
C
100
AcDbDictionary
281
     1
  3
Layout1
350
1D
  3
Model
350
21
  0
DICTIONARY
  5
16
102
{ACAD_REACTORS
330
C
102
}
330
C
100
AcDbDictionary
281
     1
  3
Standard
350
17
  0
DICTIONARY
  5
18
102
{ACAD_REACTORS
330
C
102
}
330
C
100
AcDbDictionary
281
     1
  0
ACDBDICTIONARYWDFLT
  5
E
102
{ACAD_REACTORS
330
C
102
}
330
C
100
AcDbDictionary
281
     1
  3
Normal
350
F
100
AcDbDictionaryWithDefault
340
F
  0
DICTIONARY
  5
332
102
{ACAD_REACTORS
330
C
102
}
330
C
100
AcDbDictionary
281
     1
  3
DIMASSOC
350
333
  0
LAYOUT
  5
1D
102
{ACAD_REACTORS
330
19
102
}
330
19
100
AcDbPlotSettings
  1

  2
hp deskjet 980c series
  4

  6

 40
0.0
 41
0.0
 42
0.0
 43
0.0
 44
0.0
 45
0.0
 46
0.0
 47
0.0
 48
0.0
 49
0.0
140
0.0
141
0.0
142
1.0
143
1.0
 70
   688
 72
     0
 73
     0
 74
     5
  7

 75
    16
147
1.0
148
0.0
149
0.0
100
AcDbLayout
  1
Layout1
 70
     1
 71
     1
 10
0.0
 20
0.0
 11
12.0
 21
9.0
 12
0.0
 22
0.0
 32
0.0
 14
1.000000000000000E+20
 24
1.000000000000000E+20
 34
1.000000000000000E+20
 15
-1.000000000000000E+20
 25
-1.000000000000000E+20
 35
-1.000000000000000E+20
146
0.0
 13
0.0
 23
0.0
 33
0.0
 16
1.0
 26
0.0
 36
0.0
 17
0.0
 27
1.0
 37
0.0
 76
     0
330
1A
  0
LAYOUT
  5
21
102
{ACAD_REACTORS
330
19
102
}
330
19
100
AcDbPlotSettings
  1

  2
hp deskjet 980c series
  4

  6

 40
0.0
 41
0.0
 42
0.0
 43
0.0
 44
0.0
 45
0.0
 46
0.0
 47
0.0
 48
0.0
 49
0.0
140
0.0
141
0.0
142
1.0
143
1.0
 70
  1712
 72
     0
 73
     0
 74
     0
  7

 75
     0
147
1.0
148
0.0
149
0.0
100
AcDbLayout
  1
Model
 70
     1
 71
     0
 10
0.0
 20
0.0
 11
12.0
 21
9.0
 12
0.0
 22
0.0
 32
0.0
 14
0.0
 24
0.0
 34
0.0
 15
0.0
 25
0.0
 35
0.0
146
0.0
 13
0.0
 23
0.0
 33
0.0
 16
1.0
 26
0.0
 36
0.0
 17
0.0
 27
1.0
 37
0.0
 76
     0
330
1E
  0
MLINESTYLE
  5
17
102
{ACAD_REACTORS
330
16
102
}
330
16
100
AcDbMlineStyle
  2
STANDARD
 70
     0
  3

 62
   256
 51
90.0
 52
90.0
 71
     2
 49
0.5
 62
   256
  6
BYLAYER
 49
-0.5
 62
   256
  6
BYLAYER
  0
ACDBPLACEHOLDER
  5
F
102
{ACAD_REACTORS
330
E
102
}
330
E
  0
DICTIONARYVAR
  5
333
102
{ACAD_REACTORS
330
332
102
}
330
332
100
DictionaryVariables
280
     0
  1
1
  0
ENDSEC
  0
EOF
