  0
SECTION
  2
HEADER
  9
$ACADVER
  1
AC1015
  9
$ACADMAINTVER
 70
    13
  9
$DWGCODEPAGE
  3
ANSI_1252
  9
$INSBASE
 10
0.0
 20
0.0
 30
0.0
  9
$EXTMIN
 10
0.0499999999999956
 20
-0.0000000000000017
 30
0.0
  9
$EXTMAX
 10
184.9499999999999
 20
84.0
 30
0.0
  9
$LIMMIN
 10
0.0
 20
0.0
  9
$LIMMAX
 10
12.0
 20
9.0
  9
$ORTHOMODE
 70
     0
  9
$REGENMODE
 70
     1
  9
$FILLMODE
 70
     1
  9
$QTEXTMODE
 70
     0
  9
$MIRRTEXT
 70
     1
  9
$LTSCALE
 40
1.0
  9
$ATTMODE
 70
     1
  9
$TEXTSIZE
 40
0.2
  9
$TRACEWID
 40
0.05
  9
$TEXTSTYLE
  7
Standard
  9
$CLAYER
  8
0
  9
$CELTYPE
  6
Continuous
  9
$CECOLOR
 62
   256
  9
$CELTSCALE
 40
1.0
  9
$DISPSILH
 70
     0
  9
$DIMSCALE
 40
1.0
  9
$DIMASZ
 40
0.18
  9
$DIMEXO
 40
0.0625
  9
$DIMDLI
 40
0.38
  9
$DIMRND
 40
0.0
  9
$DIMDLE
 40
0.0
  9
$DIMEXE
 40
0.18
  9
$DIMTP
 40
0.0
  9
$DIMTM
 40
0.0
  9
$DIMTXT
 40
0.18
  9
$DIMCEN
 40
0.09
  9
$DIMTSZ
 40
0.0
  9
$DIMTOL
 70
     0
  9
$DIMLIM
 70
     0
  9
$DIMTIH
 70
     1
  9
$DIMTOH
 70
     1
  9
$DIMSE1
 70
     0
  9
$DIMSE2
 70
     0
  9
$DIMTAD
 70
     0
  9
$DIMZIN
 70
     0
  9
$DIMBLK
  1

  9
$DIMASO
 70
     1
  9
$DIMSHO
 70
     1
  9
$DIMPOST
  1

  9
$DIMAPOST
  1

  9
$DIMALT
 70
     0
  9
$DIMALTD
 70
     2
  9
$DIMALTF
 40
25.4
  9
$DIMLFAC
 40
1.0
  9
$DIMTOFL
 70
     0
  9
$DIMTVP
 40
0.0
  9
$DIMTIX
 70
     0
  9
$DIMSOXD
 70
     0
  9
$DIMSAH
 70
     0
  9
$DIMBLK1
  1

  9
$DIMBLK2
  1

  9
$DIMSTYLE
  2
Standard
  9
$DIMCLRD
 70
     0
  9
$DIMCLRE
 70
     0
  9
$DIMCLRT
 70
     0
  9
$DIMTFAC
 40
1.0
  9
$DIMGAP
 40
0.09
  9
$DIMJUST
 70
     0
  9
$DIMSD1
 70
     0
  9
$DIMSD2
 70
     0
  9
$DIMTOLJ
 70
     1
  9
$DIMTZIN
 70
     0
  9
$DIMALTZ
 70
     0
  9
$DIMALTTZ
 70
     0
  9
$DIMUPT
 70
     0
  9
$DIMDEC
 70
     4
  9
$DIMTDEC
 70
     4
  9
$DIMALTU
 70
     2
  9
$DIMALTTD
 70
     2
  9
$DIMTXSTY
  7
Standard
  9
$DIMAUNIT
 70
     0
  9
$DIMADEC
 70
     0
  9
$DIMALTRND
 40
0.0
  9
$DIMAZIN
 70
     0
  9
$DIMDSEP
 70
    46
  9
$DIMATFIT
 70
     3
  9
$DIMFRAC
 70
     0
  9
$DIMLDRBLK
  1

  9
$DIMLUNIT
 70
     2
  9
$DIMLWD
 70
    -2
  9
$DIMLWE
 70
    -2
  9
$DIMTMOVE
 70
     0
  9
$LUNITS
 70
     2
  9
$LUPREC
 70
     4
  9
$SKETCHINC
 40
0.1
  9
$FILLETRAD
 40
0.0
  9
$AUNITS
 70
     0
  9
$AUPREC
 70
     0
  9
$MENU
  1
.
  9
$ELEVATION
 40
0.0
  9
$PELEVATION
 40
0.0
  9
$THICKNESS
 40
0.0
  9
$LIMCHECK
 70
     0
  9
$CHAMFERA
 40
0.0
  9
$CHAMFERB
 40
0.0
  9
$CHAMFERC
 40
0.0
  9
$CHAMFERD
 40
0.0
  9
$SKPOLY
 70
     0
  9
$TDCREATE
 40
2454752.824243518
  9
$TDUCREATE
 40
2454752.740910185
  9
$TDUPDATE
 40
2454752.827618634
  9
$TDUUPDATE
 40
2454752.744285300
  9
$TDINDWG
 40
0.0033752894
  9
$TDUSRTIMER
 40
0.0033752894
  9
$USRTIMER
 70
     1
  9
$ANGBASE
 50
0.0
  9
$ANGDIR
 70
     0
  9
$PDMODE
 70
     0
  9
$PDSIZE
 40
0.0
  9
$PLINEWID
 40
0.0
  9
$SPLFRAME
 70
     0
  9
$SPLINETYPE
 70
     6
  9
$SPLINESEGS
 70
     8
  9
$HANDSEED
  5
20F
  9
$SURFTAB1
 70
     6
  9
$SURFTAB2
 70
     6
  9
$SURFTYPE
 70
     6
  9
$SURFU
 70
     6
  9
$SURFV
 70
     6
  9
$UCSBASE
  2

  9
$UCSNAME
  2

  9
$UCSORG
 10
0.0
 20
0.0
 30
0.0
  9
$UCSXDIR
 10
1.0
 20
0.0
 30
0.0
  9
$UCSYDIR
 10
0.0
 20
1.0
 30
0.0
  9
$UCSORTHOREF
  2

  9
$UCSORTHOVIEW
 70
     1
  9
$UCSORGTOP
 10
0.0
 20
0.0
 30
0.0
  9
$UCSORGBOTTOM
 10
0.0
 20
0.0
 30
0.0
  9
$UCSORGLEFT
 10
0.0
 20
0.0
 30
0.0
  9
$UCSORGRIGHT
 10
0.0
 20
0.0
 30
0.0
  9
$UCSORGFRONT
 10
0.0
 20
0.0
 30
0.0
  9
$UCSORGBACK
 10
0.0
 20
0.0
 30
0.0
  9
$PUCSBASE
  2

  9
$PUCSNAME
  2

  9
$PUCSORG
 10
0.0
 20
0.0
 30
0.0
  9
$PUCSXDIR
 10
1.0
 20
0.0
 30
0.0
  9
$PUCSYDIR
 10
0.0
 20
1.0
 30
0.0
  9
$PUCSORTHOREF
  2

  9
$PUCSORTHOVIEW
 70
     0
  9
$PUCSORGTOP
 10
0.0
 20
0.0
 30
0.0
  9
$PUCSORGBOTTOM
 10
0.0
 20
0.0
 30
0.0
  9
$PUCSORGLEFT
 10
0.0
 20
0.0
 30
0.0
  9
$PUCSORGRIGHT
 10
0.0
 20
0.0
 30
0.0
  9
$PUCSORGFRONT
 10
0.0
 20
0.0
 30
0.0
  9
$PUCSORGBACK
 10
0.0
 20
0.0
 30
0.0
  9
$USERI1
 70
     0
  9
$USERI2
 70
     0
  9
$USERI3
 70
     0
  9
$USERI4
 70
     0
  9
$USERI5
 70
     0
  9
$USERR1
 40
0.0
  9
$USERR2
 40
0.0
  9
$USERR3
 40
0.0
  9
$USERR4
 40
0.0
  9
$USERR5
 40
0.0
  9
$WORLDVIEW
 70
     1
  9
$SHADEDGE
 70
     3
  9
$SHADEDIF
 70
    70
  9
$TILEMODE
 70
     1
  9
$MAXACTVP
 70
    64
  9
$PINSBASE
 10
0.0
 20
0.0
 30
0.0
  9
$PLIMCHECK
 70
     0
  9
$PEXTMIN
 10
1.000000000000000E+20
 20
1.000000000000000E+20
 30
1.000000000000000E+20
  9
$PEXTMAX
 10
-1.000000000000000E+20
 20
-1.000000000000000E+20
 30
-1.000000000000000E+20
  9
$PLIMMIN
 10
0.0
 20
0.0
  9
$PLIMMAX
 10
12.0
 20
9.0
  9
$UNITMODE
 70
     0
  9
$VISRETAIN
 70
     1
  9
$PLINEGEN
 70
     0
  9
$PSLTSCALE
 70
     1
  9
$TREEDEPTH
 70
  3020
  9
$CMLSTYLE
  2
Standard
  9
$CMLJUST
 70
     0
  9
$CMLSCALE
 40
1.0
  9
$PROXYGRAPHICS
 70
     1
  9
$MEASUREMENT
 70
     0
  9
$CELWEIGHT
370
    -1
  9
$ENDCAPS
280
     0
  9
$JOINSTYLE
280
     0
  9
$LWDISPLAY
290
     0
  9
$INSUNITS
 70
     0
  9
$HYPERLINKBASE
  1

  9
$STYLESHEET
  1

  9
$XEDIT
290
     1
  9
$CEPSNTYPE
380
     0
  9
$PSTYLEMODE
290
     1
  9
$FINGERPRINTGUID
  2
{30DE0222-7494-469B-8B75-6049CD9C708A}
  9
$VERSIONGUID
  2
{D317AE8D-E358-41C6-B473-E49988791066}
  9
$EXTNAMES
290
     1
  9
$PSVPSCALE
 40
0.0
  9
$OLESTARTUP
290
     0
  0
ENDSEC
  0
SECTION
  2
CLASSES
  0
CLASS
  1
ACDBDICTIONARYWDFLT
  2
AcDbDictionaryWithDefault
  3
AutoCAD 2000
 90
        0
280
     0
281
     0
  0
CLASS
  1
ACDBPLACEHOLDER
  2
AcDbPlaceHolder
  3
AutoCAD 2000
 90
        0
280
     0
281
     0
  0
CLASS
  1
LAYOUT
  2
AcDbLayout
  3
AutoCAD 2000
 90
        0
280
     0
281
     0
  0
CLASS
  1
DICTIONARYVAR
  2
AcDbDictionaryVar
  3
AutoCAD 2000
 90
        0
280
     0
281
     0
  0
ENDSEC
  0
SECTION
  2
TABLES
  0
TABLE
  2
VPORT
  5
8
330
0
100
AcDbSymbolTable
 70
     2
  0
VPORT
  5
20E
330
8
100
AcDbSymbolTableRecord
100
AcDbViewportTableRecord
  2
*Active
 70
     0
 10
0.0
 20
0.0
 11
1.0
 21
1.0
 12
92.5
 22
42.0
 13
0.0
 23
0.0
 14
1.0
 24
1.0
 15
0.0
 25
0.0
 16
0.0
 26
0.0
 36
1.0
 17
0.0
 27
0.0
 37
0.0
 40
89.30401911864242
 41
2.078104993597951
 42
50.0
 43
0.0
 44
0.0
 50
0.0
 51
0.0
 71
     0
 72
   100
 73
     1
 74
     3
 75
     0
 76
     0
 77
     0
 78
     0
281
     0
 65
     1
110
0.0
120
0.0
130
0.0
111
1.0
121
0.0
131
0.0
112
0.0
122
1.0
132
0.0
 79
     1
146
0.0
  0
ENDTAB
  0
TABLE
  2
LTYPE
  5
5
330
0
100
AcDbSymbolTable
 70
     1
  0
LTYPE
  5
13
330
5
100
AcDbSymbolTableRecord
100
AcDbLinetypeTableRecord
  2
ByBlock
 70
     0
  3

 72
    65
 73
     0
 40
0.0
  0
LTYPE
  5
14
330
5
100
AcDbSymbolTableRecord
100
AcDbLinetypeTableRecord
  2
ByLayer
 70
     0
  3

 72
    65
 73
     0
 40
0.0
  0
LTYPE
  5
15
330
5
100
AcDbSymbolTableRecord
100
AcDbLinetypeTableRecord
  2
Continuous
 70
     0
  3
Solid line
 72
    65
 73
     0
 40
0.0
  0
ENDTAB
  0
TABLE
  2
LAYER
  5
2
330
0
100
AcDbSymbolTable
 70
     1
  0
LAYER
  5
10
330
2
100
AcDbSymbolTableRecord
100
AcDbLayerTableRecord
  2
0
 70
     0
 62
     7
  6
Continuous
370
    -3
390
F
  0
ENDTAB
  0
TABLE
  2
STYLE
  5
3
330
0
100
AcDbSymbolTable
 70
     1
  0
STYLE
  5
11
330
3
100
AcDbSymbolTableRecord
100
AcDbTextStyleTableRecord
  2
Standard
 70
     0
 40
0.0
 41
1.0
 50
0.0
 71
     0
 42
0.2
  3
txt
  4

  0
ENDTAB
  0
TABLE
  2
VIEW
  5
6
330
0
100
AcDbSymbolTable
 70
     0
  0
ENDTAB
  0
TABLE
  2
UCS
  5
7
330
0
100
AcDbSymbolTable
 70
     0
  0
ENDTAB
  0
TABLE
  2
APPID
  5
9
330
0
100
AcDbSymbolTable
 70
     1
  0
APPID
  5
12
330
9
100
AcDbSymbolTableRecord
100
AcDbRegAppTableRecord
  2
ACAD
 70
     0
  0
ENDTAB
  0
TABLE
  2
DIMSTYLE
  5
A
330
0
100
AcDbSymbolTable
 70
     1
100
AcDbDimStyleTable
 71
     0
  0
DIMSTYLE
105
208
330
A
100
AcDbSymbolTableRecord
100
AcDbDimStyleTableRecord
  2
Standard
 70
     0
340
11
  0
ENDTAB
  0
TABLE
  2
BLOCK_RECORD
  5
1
330
0
100
AcDbSymbolTable
 70
     0
  0
BLOCK_RECORD
  5
1E
330
1
100
AcDbSymbolTableRecord
100
AcDbBlockTableRecord
  2
*Model_Space
340
21
  0
BLOCK_RECORD
  5
1A
330
1
100
AcDbSymbolTableRecord
100
AcDbBlockTableRecord
  2
*Paper_Space
340
1D
  0
ENDTAB
  0
ENDSEC
  0
SECTION
  2
BLOCKS
  0
BLOCK
  5
1F
330
1E
100
AcDbEntity
  8
0
100
AcDbBlockBegin
  2
*Model_Space
 70
     0
 10
0.0
 20
0.0
 30
0.0
  3
*Model_Space
  1

  0
ENDBLK
  5
20
330
1E
100
AcDbEntity
  8
0
100
AcDbBlockEnd
  0
BLOCK
  5
1B
330
1A
100
AcDbEntity
 67
     1
  8
0
100
AcDbBlockBegin
  2
*Paper_Space
 70
     0
 10
0.0
 20
0.0
 30
0.0
  3
*Paper_Space
  1

  0
ENDBLK
  5
1C
330
1A
100
AcDbEntity
 67
     1
  8
0
100
AcDbBlockEnd
  0
ENDSEC
  0
SECTION
  2
ENTITIES
  0
LINE
  5
22
330
1E
100
AcDbEntity
  8
0
100
AcDbLine
 10
121.45
 20
0.0000000000000017
 30
0.0
 11
121.95
 21
3.0
 31
0.0
  0
LINE
  5
23
330
1E
100
AcDbEntity
  8
0
100
AcDbLine
 10
125.15
 20
0.0000000000000018
 30
0.0
 11
129.55
 21
0.0000000000000015
 31
0.0
  0
LINE
  5
24
330
1E
100
AcDbEntity
  8
0
100
AcDbLine
 10
121.45
 20
0.000000000000002
 30
0.0
 11
122.45
 21
0.0000000000000019
 31
0.0
  0
LINE
  5
25
330
1E
100
AcDbEntity
  8
0
100
AcDbLine
 10
121.45
 20
0.000000000000002
 30
0.0
 11
121.95
 21
3.0
 31
0.0
  0
LINE
  5
26
330
1E
100
AcDbEntity
  8
0
100
AcDbLine
 10
119.45
 20
0.0000000000000021
 30
0.0
 11
122.45
 21
0.0000000000000019
 31
0.0
  0
LINE
  5
27
330
1E
100
AcDbEntity
  8
0
100
AcDbLine
 10
122.45
 20
0.0000000000000019
 30
0.0
 11
127.35
 21
0.0000000000000016
 31
0.0
  0
LINE
  5
28
330
1E
100
AcDbEntity
  8
0
100
AcDbLine
 10
122.45
 20
0.0000000000000019
 30
0.0
 11
125.15
 21
0.0000000000000018
 31
0.0
  0
LINE
  5
29
330
1E
100
AcDbEntity
  8
0
100
AcDbLine
 10
129.55
 20
0.0000000000000015
 30
0.0
 11
135.25
 21
0.0000000000000012
 31
0.0
  0
LINE
  5
2A
330
1E
100
AcDbEntity
  8
0
100
AcDbLine
 10
127.35
 20
0.0000000000000016
 30
0.0
 11
129.55
 21
0.0000000000000015
 31
0.0
  0
LINE
  5
2B
330
1E
100
AcDbEntity
  8
0
100
AcDbLine
 10
127.35
 20
0.0000000000000016
 30
0.0
 11
129.55
 21
0.0000000000000015
 31
0.0
  0
LINE
  5
2C
330
1E
100
AcDbEntity
  8
0
100
AcDbLine
 10
22.0567
 20
37.67
 30
0.0
 11
23.0959
 21
37.07
 31
0.0
  0
LINE
  5
2D
330
1E
100
AcDbEntity
  8
0
100
AcDbLine
 10
23.4423
 20
36.86999999999999
 30
0.0
 11
25.93877278982239
 21
41.1939907308839
 31
0.0
  0
LINE
  5
2E
330
1E
100
AcDbEntity
  8
0
100
AcDbLine
 10
23.0959
 20
37.07
 30
0.0
 11
23.4423
 21
36.86999999999999
 31
0.0
  0
LINE
  5
2F
330
1E
100
AcDbEntity
  8
0
100
AcDbLine
 10
20.4112
 20
38.62
 30
0.0
 11
22.0567
 21
37.67
 31
0.0
  0
LINE
  5
30
330
1E
100
AcDbEntity
  8
0
100
AcDbLine
 10
30.25
 20
38.7
 30
0.0
 11
33.04999999999999
 21
39.39999999999999
 31
0.0
  0
LINE
  5
31
330
1E
100
AcDbEntity
  8
0
100
AcDbLine
 10
18.2462
 20
39.87
 30
0.0
 11
20.4112
 21
38.62
 31
0.0
  0
LINE
  5
33
330
1E
100
AcDbEntity
  8
0
100
AcDbLine
 10
0.7499999999999965
 20
55.7
 30
0.0
 11
30.25
 21
38.7
 31
0.0
  0
LINE
  5
34
330
1E
100
AcDbEntity
  8
0
100
AcDbLine
 10
33.04999999999999
 20
39.39999999999999
 30
0.0
 11
36.35
 21
41.0
 31
0.0
  0
LINE
  5
35
330
1E
100
AcDbEntity
  8
0
100
AcDbLine
 10
15.7347
 20
41.32
 30
0.0
 11
18.2462
 21
39.87
 31
0.0
  0
LINE
  5
3C
330
1E
100
AcDbEntity
  8
0
100
AcDbLine
 10
36.35
 20
41.0
 30
0.0
 11
39.75
 21
42.09999999999999
 31
0.0
  0
LINE
  5
3D
330
1E
100
AcDbEntity
  8
0
100
AcDbLine
 10
39.75
 20
42.09999999999999
 30
0.0
 11
43.65
 21
43.3
 31
0.0
  0
LINE
  5
3F
330
1E
100
AcDbEntity
  8
0
100
AcDbLine
 10
13.05
 20
42.86999999999999
 30
0.0
 11
15.7347
 21
41.32
 31
0.0
  0
LINE
  5
40
330
1E
100
AcDbEntity
  8
0
100
AcDbLine
 10
10.36529999999999
 20
44.42
 30
0.0
 11
13.05
 21
42.86999999999999
 31
0.0
  0
LINE
  5
44
330
1E
100
AcDbEntity
  8
0
100
AcDbLine
 10
43.65
 20
43.3
 30
0.0
 11
49.25
 21
44.79999999999999
 31
0.0
  0
LINE
  5
46
330
1E
100
AcDbEntity
  8
0
100
AcDbLine
 10
49.25
 20
44.79999999999999
 30
0.0
 11
55.85
 21
45.7
 31
0.0
  0
LINE
  5
47
330
1E
100
AcDbEntity
  8
0
100
AcDbLine
 10
55.85
 20
45.7
 30
0.0
 11
61.95
 21
46.0
 31
0.0
  0
LINE
  5
48
330
1E
100
AcDbEntity
  8
0
100
AcDbLine
 10
7.85385
 20
45.86999999999999
 30
0.0
 11
10.36529999999999
 21
44.42
 31
0.0
  0
LINE
  5
49
330
1E
100
AcDbEntity
  8
0
100
AcDbLine
 10
0.649999999999996
 20
58.1
 30
0.0
 11
2.25
 21
57.2
 31
0.0
  0
LINE
  5
4A
330
1E
100
AcDbEntity
  8
0
100
AcDbLine
 10
0.649999999999996
 20
58.1
 30
0.0
 11
2.25
 21
57.2
 31
0.0
  0
LINE
  5
4B
330
1E
100
AcDbEntity
  8
0
100
AcDbLine
 10
2.6577
 20
48.87
 30
0.0
 11
3.00409999999999
 21
48.67
 31
0.0
  0
LINE
  5
4C
330
1E
100
AcDbEntity
  8
0
100
AcDbLine
 10
2.6577
 20
48.87
 30
0.0
 11
5.144020754274769
 21
53.1764069992341
 31
0.0
  0
LINE
  5
4D
330
1E
100
AcDbEntity
  8
0
100
AcDbLine
 10
3.00409999999999
 20
48.67
 30
0.0
 11
4.043339999999999
 21
48.07
 31
0.0
  0
LINE
  5
4F
330
1E
100
AcDbEntity
  8
0
100
AcDbLine
 10
4.043339999999999
 20
48.07
 30
0.0
 11
5.68878
 21
47.11999999999999
 31
0.0
  0
LINE
  5
50
330
1E
100
AcDbEntity
  8
0
100
AcDbLine
 10
5.68878
 20
47.11999999999999
 30
0.0
 11
7.85385
 21
45.86999999999999
 31
0.0
  0
LINE
  5
5C
330
1E
100
AcDbEntity
  8
0
100
AcDbLine
 10
2.25
 20
57.2
 30
0.0
 11
4.849999999999999
 21
55.8
 31
0.0
  0
LINE
  5
5D
330
1E
100
AcDbEntity
  8
0
100
AcDbLine
 10
4.849999999999999
 20
55.8
 30
0.0
 11
8.349999999999999
 21
53.7
 31
0.0
  0
LINE
  5
5E
330
1E
100
AcDbEntity
  8
0
100
AcDbLine
 10
8.349999999999999
 20
53.7
 30
0.0
 11
12.25
 21
51.4
 31
0.0
  0
LINE
  5
5F
330
1E
100
AcDbEntity
  8
0
100
AcDbLine
 10
12.25
 20
51.4
 30
0.0
 11
16.55
 21
49.0
 31
0.0
  0
LINE
  5
61
330
1E
100
AcDbEntity
  8
0
100
AcDbLine
 10
0.0499999999999956
 20
58.5
 30
0.0
 11
0.749999999999996
 21
55.7
 31
0.0
  0
LINE
  5
62
330
1E
100
AcDbEntity
  8
0
100
AcDbLine
 10
0.0499999999999956
 20
58.5
 30
0.0
 11
7.25
 21
65.4
 31
0.0
  0
LINE
  5
63
330
1E
100
AcDbEntity
  8
0
100
AcDbLine
 10
0.0499999999999956
 20
58.5
 30
0.0
 11
0.649999999999996
 21
58.1
 31
0.0
  0
LINE
  5
64
330
1E
100
AcDbEntity
  8
0
100
AcDbLine
 10
0.0499999999999956
 20
58.5
 30
0.0
 11
7.25
 21
65.4
 31
0.0
  0
LINE
  5
65
330
1E
100
AcDbEntity
  8
0
100
AcDbLine
 10
0.0499999999999956
 20
58.5
 30
0.0
 11
0.649999999999996
 21
58.1
 31
0.0
  0
LINE
  5
66
330
1E
100
AcDbEntity
  8
0
100
AcDbLine
 10
0.0499999999999956
 20
58.5
 30
0.0
 11
0.749999999999996
 21
55.7
 31
0.0
  0
LINE
  5
67
330
1E
100
AcDbEntity
  8
0
100
AcDbLine
 10
7.25
 20
65.4
 30
0.0
 11
15.35
 21
71.2
 31
0.0
  0
LINE
  5
69
330
1E
100
AcDbEntity
  8
0
100
AcDbLine
 10
16.55
 20
49.0
 30
0.0
 11
20.85
 21
46.5
 31
0.0
  0
LINE
  5
6A
330
1E
100
AcDbEntity
  8
0
100
AcDbLine
 10
20.85
 20
46.5
 30
0.0
 11
33.04999999999999
 21
39.39999999999999
 31
0.0
  0
LINE
  5
6B
330
1E
100
AcDbEntity
  8
0
100
AcDbLine
 10
15.35
 20
71.2
 30
0.0
 11
24.64999999999999
 21
76.2
 31
0.0
  0
LINE
  5
6C
330
1E
100
AcDbEntity
  8
0
100
AcDbLine
 10
24.64999999999999
 20
76.2
 30
0.0
 11
36.25
 21
80.5
 31
0.0
  0
LINE
  5
6D
330
1E
100
AcDbEntity
  8
0
100
AcDbLine
 10
36.25
 20
80.5
 30
0.0
 11
49.25
 21
83.0
 31
0.0
  0
LINE
  5
6E
330
1E
100
AcDbEntity
  8
0
100
AcDbLine
 10
49.25
 20
83.0
 30
0.0
 11
61.95
 21
84.0
 31
0.0
  0
LINE
  5
6F
330
1E
100
AcDbEntity
  8
0
100
AcDbLine
 10
61.95
 20
84.0
 30
0.0
 11
75.25
 21
83.1
 31
0.0
  0
LINE
  5
70
330
1E
100
AcDbEntity
  8
0
100
AcDbLine
 10
61.95
 20
46.0
 30
0.0
 11
68.65000000000001
 21
45.7
 31
0.0
  0
LINE
  5
71
330
1E
100
AcDbEntity
  8
0
100
AcDbLine
 10
75.25
 20
83.1
 30
0.0
 11
91.85
 21
80.4
 31
0.0
  0
LINE
  5
72
330
1E
100
AcDbEntity
  8
0
100
AcDbLine
 10
68.65000000000001
 20
45.7
 30
0.0
 11
78.84999999999999
 21
44.7
 31
0.0
  0
LINE
  5
73
330
1E
100
AcDbEntity
  8
0
100
AcDbLine
 10
91.85
 20
80.4
 30
0.0
 11
108.65
 21
76.0
 31
0.0
  0
LINE
  5
74
330
1E
100
AcDbEntity
  8
0
100
AcDbLine
 10
78.84999999999999
 20
44.7
 30
0.0
 11
89.45
 21
42.6
 31
0.0
  0
LINE
  5
75
330
1E
100
AcDbEntity
  8
0
100
AcDbLine
 10
89.45
 20
42.6
 30
0.0
 11
98.95000000000001
 21
39.9
 31
0.0
  0
LINE
  5
76
330
1E
100
AcDbEntity
  8
0
100
AcDbLine
 10
116.9499999999999
 20
45.0
 30
0.0
 11
119.45
 21
44.0
 31
0.0
  0
LINE
  5
77
330
1E
100
AcDbEntity
  8
0
100
AcDbLine
 10
114.9499999999999
 20
46.5
 30
0.0
 11
116.9499999999999
 21
45.0
 31
0.0
  0
LINE
  5
78
330
1E
100
AcDbEntity
  8
0
100
AcDbLine
 10
113.45
 20
48.5
 30
0.0
 11
114.9499999999999
 21
46.5
 31
0.0
  0
LINE
  5
79
330
1E
100
AcDbEntity
  8
0
100
AcDbLine
 10
116.9499999999999
 20
57.0
 30
0.0
 11
119.45
 21
58.0
 31
0.0
  0
LINE
  5
7A
330
1E
100
AcDbEntity
  8
0
100
AcDbLine
 10
114.9499999999999
 20
55.5
 30
0.0
 11
116.9499999999999
 21
57.0
 31
0.0
  0
LINE
  5
7B
330
1E
100
AcDbEntity
  8
0
100
AcDbLine
 10
113.45
 20
53.5
 30
0.0
 11
114.9499999999999
 21
55.5
 31
0.0
  0
LINE
  5
7C
330
1E
100
AcDbEntity
  8
0
100
AcDbLine
 10
112.9499999999999
 20
51.0
 30
0.0
 11
113.45
 21
53.5
 31
0.0
  0
LINE
  5
7D
330
1E
100
AcDbEntity
  8
0
100
AcDbLine
 10
112.9499999999999
 20
51.0
 30
0.0
 11
113.45
 21
48.5
 31
0.0
  0
LINE
  5
7E
330
1E
100
AcDbEntity
  8
0
100
AcDbLine
 10
108.65
 20
76.0
 30
0.0
 11
124.0499999999999
 21
69.8
 31
0.0
  0
LINE
  5
7F
330
1E
100
AcDbEntity
  8
0
100
AcDbLine
 10
98.95000000000001
 20
39.9
 30
0.0
 11
109.05
 21
35.2
 31
0.0
  0
LINE
  5
80
330
1E
100
AcDbEntity
  8
0
100
AcDbLine
 10
109.05
 20
35.2
 30
0.0
 11
118.8499999999999
 21
27.7
 31
0.0
  0
LINE
  5
81
330
1E
100
AcDbEntity
  8
0
100
AcDbLine
 10
121.95
 20
3.0
 30
0.0
 11
122.95
 21
5.0
 31
0.0
  0
LINE
  5
82
330
1E
100
AcDbEntity
  8
0
100
AcDbLine
 10
119.45
 20
44.0
 30
0.0
 11
122.95
 21
43.5
 31
0.0
  0
LINE
  5
83
330
1E
100
AcDbEntity
  8
0
100
AcDbLine
 10
119.45
 20
58.0
 30
0.0
 11
122.95
 21
58.5
 31
0.0
  0
LINE
  5
84
330
1E
100
AcDbEntity
  8
0
100
AcDbLine
 10
118.8499999999999
 20
27.7
 30
0.0
 11
124.15
 21
20.89999999999999
 31
0.0
  0
LINE
  5
85
330
1E
100
AcDbEntity
  8
0
100
AcDbLine
 10
122.95
 20
5.0
 30
0.0
 11
124.95
 21
7.0
 31
0.0
  0
LINE
  5
86
330
1E
100
AcDbEntity
  8
0
100
AcDbLine
 10
125.8499999999999
 20
7.0
 30
0.0
 11
128.15
 21
7.0
 31
0.0
  0
LINE
  5
87
330
1E
100
AcDbEntity
  8
0
100
AcDbLine
 10
124.95
 20
9.5
 30
0.0
 11
125.95
 21
10.5
 31
0.0
  0
LINE
  5
88
330
1E
100
AcDbEntity
  8
0
100
AcDbLine
 10
124.95
 20
9.5
 30
0.0
 11
124.95
 21
8.0
 31
0.0
  0
LINE
  5
8A
330
1E
100
AcDbEntity
  8
0
100
AcDbLine
 10
124.95
 20
8.0
 30
0.0
 11
125.95
 21
7.0
 31
0.0
  0
LINE
  5
8B
330
1E
100
AcDbEntity
  8
0
100
AcDbLine
 10
124.95
 20
8.0
 30
0.0
 11
124.95
 21
9.5
 31
0.0
  0
LINE
  5
8D
330
1E
100
AcDbEntity
  8
0
100
AcDbLine
 10
126.95
 20
8.0
 30
0.0
 11
127.95
 21
7.0
 31
0.0
  0
LINE
  5
8F
330
1E
100
AcDbEntity
  8
0
100
AcDbLine
 10
126.95
 20
8.0
 30
0.0
 11
126.95
 21
9.5
 31
0.0
  0
LINE
  5
91
330
1E
100
AcDbEntity
  8
0
100
AcDbLine
 10
126.95
 20
9.5
 30
0.0
 11
126.95
 21
8.0
 31
0.0
  0
LINE
  5
93
330
1E
100
AcDbEntity
  8
0
100
AcDbLine
 10
126.95
 20
9.5
 30
0.0
 11
127.95
 21
10.5
 31
0.0
  0
LINE
  5
94
330
1E
100
AcDbEntity
  8
0
100
AcDbLine
 10
127.95
 20
10.5
 30
0.0
 11
128.75
 21
10.5
 31
0.0
  0
LINE
  5
95
330
1E
100
AcDbEntity
  8
0
100
AcDbLine
 10
128.75
 20
10.5
 30
0.0
 11
130.75
 21
10.5
 31
0.0
  0
LINE
  5
97
330
1E
100
AcDbEntity
  8
0
100
AcDbLine
 10
125.95
 20
10.5
 30
0.0
 11
126.75
 21
10.5
 31
0.0
  0
LINE
  5
98
330
1E
100
AcDbEntity
  8
0
100
AcDbLine
 10
126.75
 20
10.5
 30
0.0
 11
127.95
 21
10.5
 31
0.0
  0
LINE
  5
9B
330
1E
100
AcDbEntity
  8
0
100
AcDbLine
 10
124.45
 20
7.0
 30
0.0
 11
125.8499999999999
 21
7.0
 31
0.0
  0
LINE
  5
9C
330
1E
100
AcDbEntity
  8
0
100
AcDbLine
 10
128.15
 20
7.0
 30
0.0
 11
132.05
 21
7.0
 31
0.0
  0
LINE
  5
9D
330
1E
100
AcDbEntity
  8
0
100
AcDbLine
 10
130.75
 20
10.5
 30
0.0
 11
134.15
 21
10.5
 31
0.0
  0
LINE
  5
A2
330
1E
100
AcDbEntity
  8
0
100
AcDbLine
 10
132.05
 20
7.0
 30
0.0
 11
136.9499999999999
 21
7.0
 31
0.0
  0
LINE
  5
A3
330
1E
100
AcDbEntity
  8
0
100
AcDbLine
 10
128.9499999999999
 20
10.5
 30
0.0
 11
129.9499999999999
 21
16.5
 31
0.0
  0
LINE
  5
A4
330
1E
100
AcDbEntity
  8
0
100
AcDbLine
 10
122.95
 20
43.5
 30
0.0
 11
126.95
 21
43.79999999999999
 31
0.0
  0
LINE
  5
A5
330
1E
100
AcDbEntity
  8
0
100
AcDbLine
 10
122.95
 20
58.5
 30
0.0
 11
126.95
 21
58.2
 31
0.0
  0
LINE
  5
A6
330
1E
100
AcDbEntity
  8
0
100
AcDbLine
 10
124.0499999999999
 20
69.8
 30
0.0
 11
138.4499999999999
 21
64.0
 31
0.0
  0
LINE
  5
A7
330
1E
100
AcDbEntity
  8
0
100
AcDbLine
 10
129.9499999999999
 20
44.0
 30
0.0
 11
133.9499999999999
 21
45.0
 31
0.0
  0
LINE
  5
A8
330
1E
100
AcDbEntity
  8
0
100
AcDbLine
 10
126.95
 20
43.79999999999999
 30
0.0
 11
129.9499999999999
 21
44.0
 31
0.0
  0
LINE
  5
A9
330
1E
100
AcDbEntity
  8
0
100
AcDbLine
 10
129.9499999999999
 20
58.0
 30
0.0
 11
133.9499999999999
 21
57.0
 31
0.0
  0
LINE
  5
AA
330
1E
100
AcDbEntity
  8
0
100
AcDbLine
 10
126.95
 20
58.2
 30
0.0
 11
129.9499999999999
 21
58.0
 31
0.0
  0
LINE
  5
AB
330
1E
100
AcDbEntity
  8
0
100
AcDbLine
 10
131.9499999999999
 20
23.0
 30
0.0
 11
134.4499999999999
 21
29.0
 31
0.0
  0
LINE
  5
AC
330
1E
100
AcDbEntity
  8
0
100
AcDbLine
 10
129.9499999999999
 20
16.5
 30
0.0
 11
131.9499999999999
 21
23.0
 31
0.0
  0
LINE
  5
AD
330
1E
100
AcDbEntity
  8
0
100
AcDbLine
 10
124.15
 20
20.89999999999999
 30
0.0
 11
125.8499999999999
 21
15.8
 31
0.0
  0
LINE
  5
AE
330
1E
100
AcDbEntity
  8
0
100
AcDbLine
 10
125.8499999999999
 20
15.8
 30
0.0
 11
126.95
 21
10.5
 31
0.0
  0
LINE
  5
AF
330
1E
100
AcDbEntity
  8
0
100
AcDbLine
 10
121.95
 20
5.5
 30
0.0
 11
124.45
 21
7.0
 31
0.0
  0
LINE
  5
B0
330
1E
100
AcDbEntity
  8
0
100
AcDbLine
 10
119.95
 20
3.0
 30
0.0
 11
121.95
 21
5.5
 31
0.0
  0
LINE
  5
B1
330
1E
100
AcDbEntity
  8
0
100
AcDbLine
 10
118.45
 20
0.0000000000000023
 30
0.0
 11
119.95
 21
3.0
 31
0.0
  0
LINE
  5
B2
330
1E
100
AcDbEntity
  8
0
100
AcDbLine
 10
118.45
 20
0.0000000000000022
 30
0.0
 11
119.45
 21
0.0000000000000021
 31
0.0
  0
LINE
  5
B3
330
1E
100
AcDbEntity
  8
0
100
AcDbLine
 10
118.45
 20
0.0000000000000022
 30
0.0
 11
119.95
 21
3.0
 31
0.0
  0
LINE
  5
B4
330
1E
100
AcDbEntity
  8
0
100
AcDbLine
 10
141.8499999999999
 20
0.0000000000000008
 30
0.0
 11
148.9499999999999
 21
0.0000000000000003
 31
0.0
  0
LINE
  5
B5
330
1E
100
AcDbEntity
  8
0
100
AcDbLine
 10
136.9499999999999
 20
7.0
 30
0.0
 11
142.75
 21
7.0
 31
0.0
  0
LINE
  5
B6
330
1E
100
AcDbEntity
  8
0
100
AcDbLine
 10
135.25
 20
0.0000000000000012
 30
0.0
 11
141.8499999999999
 21
0.0000000000000008
 31
0.0
  0
LINE
  5
B7
330
1E
100
AcDbEntity
  8
0
100
AcDbLine
 10
143.55
 20
7.0
 30
0.0
 11
148.9499999999999
 21
7.0
 31
0.0
  0
LINE
  5
B8
330
1E
100
AcDbEntity
  8
0
100
AcDbLine
 10
148.9499999999999
 20
7.0
 30
0.0
 11
155.15
 21
7.0
 31
0.0
  0
LINE
  5
B9
330
1E
100
AcDbEntity
  8
0
100
AcDbLine
 10
142.9499999999999
 20
7.0
 30
0.0
 11
148.9499999999999
 21
7.0
 31
0.0
  0
LINE
  5
BA
330
1E
100
AcDbEntity
  8
0
100
AcDbLine
 10
141.05
 20
0.0000000000000008
 30
0.0
 11
148.9499999999999
 21
0.0000000000000003
 31
0.0
  0
LINE
  5
BB
330
1E
100
AcDbEntity
  8
0
100
AcDbLine
 10
175.4499999999999
 20
-0.0000000000000013
 30
0.0
 11
176.4499999999999
 21
-0.0000000000000014
 31
0.0
  0
LINE
  5
BC
330
1E
100
AcDbEntity
  8
0
100
AcDbLine
 10
172.75
 20
-0.0000000000000011
 30
0.0
 11
175.4499999999999
 21
-0.0000000000000013
 31
0.0
  0
LINE
  5
BD
330
1E
100
AcDbEntity
  8
0
100
AcDbLine
 10
176.4499999999999
 20
-0.0000000000000014
 30
0.0
 11
178.4499999999999
 21
-0.0000000000000015
 31
0.0
  0
LINE
  5
BE
330
1E
100
AcDbEntity
  8
0
100
AcDbLine
 10
178.4499999999999
 20
-0.0000000000000015
 30
0.0
 11
179.45
 21
-0.0000000000000015
 31
0.0
  0
LINE
  5
BF
330
1E
100
AcDbEntity
  8
0
100
AcDbLine
 10
156.05
 20
-0.0000000000000001
 30
0.0
 11
162.65
 21
-0.0000000000000005
 31
0.0
  0
LINE
  5
C0
330
1E
100
AcDbEntity
  8
0
100
AcDbLine
 10
156.05
 20
-0.0000000000000001
 30
0.0
 11
156.85
 21
-0.0000000000000002
 31
0.0
  0
LINE
  5
C1
330
1E
100
AcDbEntity
  8
0
100
AcDbLine
 10
156.05
 20
-0.0000000000000001
 30
0.0
 11
162.65
 21
-0.0000000000000005
 31
0.0
  0
LINE
  5
C2
330
1E
100
AcDbEntity
  8
0
100
AcDbLine
 10
168.3499999999999
 20
-0.0000000000000009
 30
0.0
 11
172.75
 21
-0.0000000000000011
 31
0.0
  0
LINE
  5
C3
330
1E
100
AcDbEntity
  8
0
100
AcDbLine
 10
174.9499999999999
 20
5.0
 30
0.0
 11
175.9499999999999
 21
3.0
 31
0.0
  0
LINE
  5
C4
330
1E
100
AcDbEntity
  8
0
100
AcDbLine
 10
175.9499999999999
 20
3.0
 30
0.0
 11
176.4499999999999
 21
-0.0000000000000012
 31
0.0
  0
LINE
  5
C5
330
1E
100
AcDbEntity
  8
0
100
AcDbLine
 10
175.9499999999999
 20
3.0
 30
0.0
 11
176.4499999999999
 21
-0.0000000000000014
 31
0.0
  0
LINE
  5
C6
330
1E
100
AcDbEntity
  8
0
100
AcDbLine
 10
162.65
 20
-0.0000000000000005
 30
0.0
 11
168.3499999999999
 21
-0.0000000000000009
 31
0.0
  0
LINE
  5
C7
330
1E
100
AcDbEntity
  8
0
100
AcDbLine
 10
156.85
 20
-0.0000000000000002
 30
0.0
 11
164.15
 21
-0.0000000000000006
 31
0.0
  0
LINE
  5
C8
330
1E
100
AcDbEntity
  8
0
100
AcDbLine
 10
169.95
 20
7.0
 30
0.0
 11
170.95
 21
8.0
 31
0.0
  0
LINE
  5
C9
330
1E
100
AcDbEntity
  8
0
100
AcDbLine
 10
171.95
 20
7.0
 30
0.0
 11
172.9499999999999
 21
8.0
 31
0.0
  0
LINE
  5
CA
330
1E
100
AcDbEntity
  8
0
100
AcDbLine
 10
172.05
 20
7.0
 30
0.0
 11
173.4499999999999
 21
7.0
 31
0.0
  0
LINE
  5
CB
330
1E
100
AcDbEntity
  8
0
100
AcDbLine
 10
172.9499999999999
 20
7.0
 30
0.0
 11
174.9499999999999
 21
5.0
 31
0.0
  0
LINE
  5
CC
330
1E
100
AcDbEntity
  8
0
100
AcDbLine
 10
169.7499999999999
 20
7.0
 30
0.0
 11
172.05
 21
7.0
 31
0.0
  0
LINE
  5
CD
330
1E
100
AcDbEntity
  8
0
100
AcDbLine
 10
165.85
 20
7.0
 30
0.0
 11
169.7499999999999
 21
7.0
 31
0.0
  0
LINE
  5
CE
330
1E
100
AcDbEntity
  8
0
100
AcDbLine
 10
160.9499999999999
 20
7.0
 30
0.0
 11
165.85
 21
7.0
 31
0.0
  0
LINE
  5
CF
330
1E
100
AcDbEntity
  8
0
100
AcDbLine
 10
155.15
 20
7.0
 30
0.0
 11
160.9499999999999
 21
7.0
 31
0.0
  0
LINE
  5
D0
330
1E
100
AcDbEntity
  8
0
100
AcDbLine
 10
173.4499999999999
 20
7.0
 30
0.0
 11
175.9499999999999
 21
5.5
 31
0.0
  0
LINE
  5
D1
330
1E
100
AcDbEntity
  8
0
100
AcDbLine
 10
175.9499999999999
 20
5.5
 30
0.0
 11
177.9499999999999
 21
3.0
 31
0.0
  0
LINE
  5
D2
330
1E
100
AcDbEntity
  8
0
100
AcDbLine
 10
177.9499999999999
 20
3.0
 30
0.0
 11
179.45
 21
-0.0000000000000015
 31
0.0
  0
LINE
  5
D3
330
1E
100
AcDbEntity
  8
0
100
AcDbLine
 10
177.9499999999999
 20
3.0
 30
0.0
 11
179.45
 21
-0.0000000000000017
 31
0.0
  0
LINE
  5
D4
330
1E
100
AcDbEntity
  8
0
100
AcDbLine
 10
172.75
 20
-0.0000000000000011
 30
0.0
 11
175.4499999999999
 21
-0.0000000000000013
 31
0.0
  0
LINE
  5
D5
330
1E
100
AcDbEntity
  8
0
100
AcDbLine
 10
148.9499999999999
 20
0.0000000000000003
 30
0.0
 11
156.85
 21
-0.0000000000000002
 31
0.0
  0
LINE
  5
D6
330
1E
100
AcDbEntity
  8
0
100
AcDbLine
 10
148.9499999999999
 20
0.0000000000000003
 30
0.0
 11
156.85
 21
-0.0000000000000002
 31
0.0
  0
LINE
  5
D7
330
1E
100
AcDbEntity
  8
0
100
AcDbLine
 10
148.9499999999999
 20
0.0000000000000003
 30
0.0
 11
156.05
 21
-0.0000000000000001
 31
0.0
  0
LINE
  5
D8
330
1E
100
AcDbEntity
  8
0
100
AcDbLine
 10
148.9499999999999
 20
0.0000000000000003
 30
0.0
 11
156.05
 21
-0.0000000000000001
 31
0.0
  0
LINE
  5
D9
330
1E
100
AcDbEntity
  8
0
100
AcDbLine
 10
134.15
 20
10.5
 30
0.0
 11
138.4499999999999
 21
10.5
 31
0.0
  0
LINE
  5
DC
330
1E
100
AcDbEntity
  8
0
100
AcDbLine
 10
136.9499999999999
 20
34.0
 30
0.0
 11
139.9499999999999
 21
37.0
 31
0.0
  0
LINE
  5
DD
330
1E
100
AcDbEntity
  8
0
100
AcDbLine
 10
134.4499999999999
 20
29.0
 30
0.0
 11
136.9499999999999
 21
34.0
 31
0.0
  0
LINE
  5
DE
330
1E
100
AcDbEntity
  8
0
100
AcDbLine
 10
133.9499999999999
 20
45.0
 30
0.0
 11
136.930392156863
 21
46.11764705882349
 31
0.0
  0
LINE
  5
DF
330
1E
100
AcDbEntity
  8
0
100
AcDbLine
 10
133.9499999999999
 20
57.0
 30
0.0
 11
136.9499999999999
 21
55.875
 31
0.0
  0
LINE
  5
E0
330
1E
100
AcDbEntity
  8
0
100
AcDbLine
 10
136.9499999999999
 20
56.0
 30
0.0
 11
137.9499999999999
 21
59.0
 31
0.0
  0
LINE
  5
E1
330
1E
100
AcDbEntity
  8
0
100
AcDbLine
 10
136.930392156863
 20
55.8823529411765
 30
0.0
 11
136.9499999999999
 21
56.0
 31
0.0
  0
LINE
  5
E2
330
1E
100
AcDbEntity
  8
0
100
AcDbLine
 10
136.930392156863
 20
46.11764705882349
 30
0.0
 11
136.9499999999999
 21
46.0
 31
0.0
  0
LINE
  5
E3
330
1E
100
AcDbEntity
  8
0
100
AcDbLine
 10
137.4499999999999
 20
60.5
 30
0.0
 11
137.4499999999999
 21
59.5
 31
0.0
  0
LINE
  5
E5
330
1E
100
AcDbEntity
  8
0
100
AcDbLine
 10
137.4499999999999
 20
60.5
 30
0.0
 11
137.9499999999999
 21
61.0
 31
0.0
  0
LINE
  5
E7
330
1E
100
AcDbEntity
  8
0
100
AcDbLine
 10
137.4499999999999
 20
59.5
 30
0.0
 11
137.9499999999999
 21
59.0
 31
0.0
  0
LINE
  5
E9
330
1E
100
AcDbEntity
  8
0
100
AcDbLine
 10
137.4499999999999
 20
59.5
 30
0.0
 11
137.4499999999999
 21
60.5
 31
0.0
  0
LINE
  5
EA
330
1E
100
AcDbEntity
  8
0
100
AcDbLine
 10
137.9499999999999
 20
61.0
 30
0.0
 11
138.3499999999999
 21
61.0
 31
0.0
  0
LINE
  5
EB
330
1E
100
AcDbEntity
  8
0
100
AcDbLine
 10
137.9499999999999
 20
61.0
 30
0.0
 11
141.7499999999999
 21
63.5
 31
0.0
  0
LINE
  5
ED
330
1E
100
AcDbEntity
  8
0
100
AcDbLine
 10
137.9499999999999
 20
59.0
 30
0.0
 11
138.3499999999999
 21
59.0
 31
0.0
  0
LINE
  5
EE
330
1E
100
AcDbEntity
  8
0
100
AcDbLine
 10
136.9499999999999
 20
46.0
 30
0.0
 11
137.9499999999999
 21
43.0
 31
0.0
  0
LINE
  5
EF
330
1E
100
AcDbEntity
  8
0
100
AcDbLine
 10
137.9499999999999
 20
43.0
 30
0.0
 11
139.9499999999999
 21
40.0
 31
0.0
  0
LINE
  5
F0
330
1E
100
AcDbEntity
  8
0
100
AcDbLine
 10
138.3499999999999
 20
61.0
 30
0.0
 11
139.4499999999999
 21
61.0
 31
0.0
  0
LINE
  5
F1
330
1E
100
AcDbEntity
  8
0
100
AcDbLine
 10
138.4499999999999
 20
10.5
 30
0.0
 11
143.55
 21
10.5
 31
0.0
  0
LINE
  5
F2
330
1E
100
AcDbEntity
  8
0
100
AcDbLine
 10
138.9499999999999
 20
38.0
 30
0.0
 11
139.9499999999999
 21
37.0
 31
0.0
  0
LINE
  5
F4
330
1E
100
AcDbEntity
  8
0
100
AcDbLine
 10
138.9499999999999
 20
38.0
 30
0.0
 11
138.9499999999999
 21
39.0
 31
0.0
  0
LINE
  5
F7
330
1E
100
AcDbEntity
  8
0
100
AcDbLine
 10
138.9499999999999
 20
39.0
 30
0.0
 11
138.9499999999999
 21
38.0
 31
0.0
  0
LINE
  5
F9
330
1E
100
AcDbEntity
  8
0
100
AcDbLine
 10
138.9499999999999
 20
39.0
 30
0.0
 11
139.9499999999999
 21
40.0
 31
0.0
  0
LINE
  5
FC
330
1E
100
AcDbEntity
  8
0
100
AcDbLine
 10
138.3499999999999
 20
59.0
 30
0.0
 11
139.4499999999999
 21
59.0
 31
0.0
  0
LINE
  5
FD
330
1E
100
AcDbEntity
  8
0
100
AcDbLine
 10
138.4499999999999
 20
64.0
 30
0.0
 11
139.3429618768329
 21
61.91642228739
 31
0.0
  0
LINE
  5
FE
330
1E
100
AcDbEntity
  8
0
100
AcDbLine
 10
138.2067567567569
 20
64.09797297297299
 30
0.0
 11
140.4499999999999
 21
65.5
 31
0.0
  0
LINE
  5
FF
330
1E
100
AcDbEntity
  8
0
100
AcDbLine
 10
139.3499999999999
 20
75.0
 30
0.0
 11
140.4499999999999
 21
77.40000000000001
 31
0.0
  0
LINE
  5
100
330
1E
100
AcDbEntity
  8
0
100
AcDbLine
 10
138.9499999999999
 20
72.5
 30
0.0
 11
139.3499999999999
 21
70.0
 31
0.0
  0
LINE
  5
101
330
1E
100
AcDbEntity
  8
0
100
AcDbLine
 10
138.9499999999999
 20
72.5
 30
0.0
 11
139.3499999999999
 21
75.0
 31
0.0
  0
LINE
  5
104
330
1E
100
AcDbEntity
  8
0
100
AcDbLine
 10
139.9499999999999
 20
37.0
 30
0.0
 11
140.25
 21
37.0
 31
0.0
  0
LINE
  5
105
330
1E
100
AcDbEntity
  8
0
100
AcDbLine
 10
140.25
 20
37.0
 30
0.0
 11
141.15
 21
37.0
 31
0.0
  0
LINE
  5
106
330
1E
100
AcDbEntity
  8
0
100
AcDbLine
 10
139.9499999999999
 20
40.0
 30
0.0
 11
140.25
 21
40.0
 31
0.0
  0
LINE
  5
107
330
1E
100
AcDbEntity
  8
0
100
AcDbLine
 10
141.15
 20
37.0
 30
0.0
 11
142.55
 21
37.0
 31
0.0
  0
LINE
  5
10A
330
1E
100
AcDbEntity
  8
0
100
AcDbLine
 10
142.55
 20
37.0
 30
0.0
 11
144.4499999999999
 21
37.0
 31
0.0
  0
LINE
  5
10B
330
1E
100
AcDbEntity
  8
0
100
AcDbLine
 10
140.25
 20
40.0
 30
0.0
 11
141.15
 21
40.0
 31
0.0
  0
LINE
  5
10C
330
1E
100
AcDbEntity
  8
0
100
AcDbLine
 10
141.15
 20
40.0
 30
0.0
 11
142.55
 21
40.0
 31
0.0
  0
LINE
  5
10D
330
1E
100
AcDbEntity
  8
0
100
AcDbLine
 10
143.55
 20
10.5
 30
0.0
 11
148.9499999999999
 21
10.5
 31
0.0
  0
LINE
  5
110
330
1E
100
AcDbEntity
  8
0
100
AcDbLine
 10
144.4499999999999
 20
37.0
 30
0.0
 11
146.65
 21
37.0
 31
0.0
  0
LINE
  5
115
330
1E
100
AcDbEntity
  8
0
100
AcDbLine
 10
146.65
 20
37.0
 30
0.0
 11
148.9499999999999
 21
37.0
 31
0.0
  0
LINE
  5
116
330
1E
100
AcDbEntity
  8
0
100
AcDbLine
 10
142.55
 20
40.0
 30
0.0
 11
144.4499999999999
 21
40.0
 31
0.0
  0
LINE
  5
117
330
1E
100
AcDbEntity
  8
0
100
AcDbLine
 10
144.4499999999999
 20
40.0
 30
0.0
 11
146.65
 21
40.0
 31
0.0
  0
LINE
  5
11C
330
1E
100
AcDbEntity
  8
0
100
AcDbLine
 10
148.9499999999999
 20
37.0
 30
0.0
 11
151.25
 21
37.0
 31
0.0
  0
LINE
  5
11D
330
1E
100
AcDbEntity
  8
0
100
AcDbLine
 10
146.65
 20
40.0
 30
0.0
 11
148.9499999999999
 21
40.0
 31
0.0
  0
LINE
  5
11E
330
1E
100
AcDbEntity
  8
0
100
AcDbLine
 10
139.4499999999999
 20
59.0
 30
0.0
 11
141.15
 21
59.0
 31
0.0
  0
LINE
  5
11F
330
1E
100
AcDbEntity
  8
0
100
AcDbLine
 10
145.15
 20
44.5
 30
0.0
 11
146.9499999999999
 21
43.79999999999999
 31
0.0
  0
LINE
  5
120
330
1E
100
AcDbEntity
  8
0
100
AcDbLine
 10
143.65
 20
45.7
 30
0.0
 11
145.15
 21
44.5
 31
0.0
  0
LINE
  5
121
330
1E
100
AcDbEntity
  8
0
100
AcDbLine
 10
142.4499999999999
 20
47.2
 30
0.0
 11
143.65
 21
45.7
 31
0.0
  0
LINE
  5
122
330
1E
100
AcDbEntity
  8
0
100
AcDbLine
 10
141.7499999999999
 20
49.0
 30
0.0
 11
142.4499999999999
 21
47.2
 31
0.0
  0
LINE
  5
123
330
1E
100
AcDbEntity
  8
0
100
AcDbLine
 10
145.15
 20
57.5
 30
0.0
 11
146.9499999999999
 21
58.2
 31
0.0
  0
LINE
  5
124
330
1E
100
AcDbEntity
  8
0
100
AcDbLine
 10
143.65
 20
56.29999999999999
 30
0.0
 11
145.15
 21
57.5
 31
0.0
  0
LINE
  5
125
330
1E
100
AcDbEntity
  8
0
100
AcDbLine
 10
142.4499999999999
 20
54.8
 30
0.0
 11
143.65
 21
56.29999999999999
 31
0.0
  0
LINE
  5
126
330
1E
100
AcDbEntity
  8
0
100
AcDbLine
 10
141.7499999999999
 20
53.0
 30
0.0
 11
142.4499999999999
 21
54.8
 31
0.0
  0
LINE
  5
127
330
1E
100
AcDbEntity
  8
0
100
AcDbLine
 10
141.4499999999999
 20
51.0
 30
0.0
 11
141.7499999999999
 21
49.0
 31
0.0
  0
LINE
  5
128
330
1E
100
AcDbEntity
  8
0
100
AcDbLine
 10
141.4499999999999
 20
51.0
 30
0.0
 11
141.7499999999999
 21
53.0
 31
0.0
  0
LINE
  5
129
330
1E
100
AcDbEntity
  8
0
100
AcDbLine
 10
141.15
 20
59.0
 30
0.0
 11
143.4499999999999
 21
59.0
 31
0.0
  0
LINE
  5
130
330
1E
100
AcDbEntity
  8
0
100
AcDbLine
 10
143.4499999999999
 20
59.0
 30
0.0
 11
146.15
 21
59.0
 31
0.0
  0
LINE
  5
131
330
1E
100
AcDbEntity
  8
0
100
AcDbLine
 10
146.9499999999999
 20
58.2
 30
0.0
 11
148.9499999999999
 21
58.5
 31
0.0
  0
LINE
  5
132
330
1E
100
AcDbEntity
  8
0
100
AcDbLine
 10
146.9499999999999
 20
43.79999999999999
 30
0.0
 11
148.9499999999999
 21
43.5
 31
0.0
  0
LINE
  5
133
330
1E
100
AcDbEntity
  8
0
100
AcDbLine
 10
148.9499999999999
 20
43.5
 30
0.0
 11
150.9499999999999
 21
43.79999999999999
 31
0.0
  0
LINE
  5
134
330
1E
100
AcDbEntity
  8
0
100
AcDbLine
 10
146.15
 20
59.0
 30
0.0
 11
148.9499999999999
 21
59.0
 31
0.0
  0
LINE
  5
135
330
1E
100
AcDbEntity
  8
0
100
AcDbLine
 10
148.9499999999999
 20
40.0
 30
0.0
 11
151.25
 21
40.0
 31
0.0
  0
LINE
  5
137
330
1E
100
AcDbEntity
  8
0
100
AcDbLine
 10
154.3499999999999
 20
10.5
 30
0.0
 11
159.45
 21
10.5
 31
0.0
  0
LINE
  5
139
330
1E
100
AcDbEntity
  8
0
100
AcDbLine
 10
163.75
 20
10.5
 30
0.0
 11
167.1499999999999
 21
10.5
 31
0.0
  0
LINE
  5
13A
330
1E
100
AcDbEntity
  8
0
100
AcDbLine
 10
159.45
 20
10.5
 30
0.0
 11
163.75
 21
10.5
 31
0.0
  0
LINE
  5
140
330
1E
100
AcDbEntity
  8
0
100
AcDbLine
 10
167.1499999999999
 20
10.5
 30
0.0
 11
169.15
 21
10.5
 31
0.0
  0
LINE
  5
141
330
1E
100
AcDbEntity
  8
0
100
AcDbLine
 10
169.15
 20
10.5
 30
0.0
 11
169.95
 21
10.5
 31
0.0
  0
LINE
  5
144
330
1E
100
AcDbEntity
  8
0
100
AcDbLine
 10
169.95
 20
10.5
 30
0.0
 11
171.15
 21
10.5
 31
0.0
  0
LINE
  5
145
330
1E
100
AcDbEntity
  8
0
100
AcDbLine
 10
169.95
 20
10.5
 30
0.0
 11
170.95
 21
9.5
 31
0.0
  0
LINE
  5
147
330
1E
100
AcDbEntity
  8
0
100
AcDbLine
 10
170.95
 20
9.5
 30
0.0
 11
170.95
 21
8.0
 31
0.0
  0
LINE
  5
149
330
1E
100
AcDbEntity
  8
0
100
AcDbLine
 10
170.95
 20
8.0
 30
0.0
 11
170.95
 21
9.5
 31
0.0
  0
LINE
  5
14C
330
1E
100
AcDbEntity
  8
0
100
AcDbLine
 10
150.9499999999999
 20
43.79999999999999
 30
0.0
 11
152.75
 21
44.5
 31
0.0
  0
LINE
  5
14D
330
1E
100
AcDbEntity
  8
0
100
AcDbLine
 10
151.25
 20
37.0
 30
0.0
 11
153.4499999999999
 21
37.0
 31
0.0
  0
LINE
  5
152
330
1E
100
AcDbEntity
  8
0
100
AcDbLine
 10
155.3499999999999
 20
37.0
 30
0.0
 11
156.75
 21
37.0
 31
0.0
  0
LINE
  5
153
330
1E
100
AcDbEntity
  8
0
100
AcDbLine
 10
153.4499999999999
 20
37.0
 30
0.0
 11
155.3499999999999
 21
37.0
 31
0.0
  0
LINE
  5
154
330
1E
100
AcDbEntity
  8
0
100
AcDbLine
 10
154.15
 20
10.5
 30
0.0
 11
158.9499999999999
 21
10.5
 31
0.0
  0
LINE
  5
155
330
1E
100
AcDbEntity
  8
0
100
AcDbLine
 10
157.65
 20
37.0
 30
0.0
 11
157.9499999999999
 21
37.0
 31
0.0
  0
LINE
  5
15A
330
1E
100
AcDbEntity
  8
0
100
AcDbLine
 10
156.75
 20
37.0
 30
0.0
 11
157.65
 21
37.0
 31
0.0
  0
LINE
  5
15B
330
1E
100
AcDbEntity
  8
0
100
AcDbLine
 10
158.9499999999999
 20
38.0
 30
0.0
 11
158.9499999999999
 21
39.0
 31
0.0
  0
LINE
  5
15C
330
1E
100
AcDbEntity
  8
0
100
AcDbLine
 10
158.9499999999999
 20
39.0
 30
0.0
 11
158.9499999999999
 21
38.0
 31
0.0
  0
LINE
  5
15F
330
1E
100
AcDbEntity
  8
0
100
AcDbLine
 10
157.9499999999999
 20
37.0
 30
0.0
 11
160.9499999999999
 21
34.0
 31
0.0
  0
LINE
  5
160
330
1E
100
AcDbEntity
  8
0
100
AcDbLine
 10
157.9499999999999
 20
37.0
 30
0.0
 11
158.9499999999999
 21
38.0
 31
0.0
  0
LINE
  5
161
330
1E
100
AcDbEntity
  8
0
100
AcDbLine
 10
160.9499999999999
 20
34.0
 30
0.0
 11
163.4499999999999
 21
29.0
 31
0.0
  0
LINE
  5
162
330
1E
100
AcDbEntity
  8
0
100
AcDbLine
 10
163.4499999999999
 20
29.0
 30
0.0
 11
165.9499999999999
 21
23.0
 31
0.0
  0
LINE
  5
163
330
1E
100
AcDbEntity
  8
0
100
AcDbLine
 10
165.9499999999999
 20
23.0
 30
0.0
 11
167.9499999999999
 21
16.5
 31
0.0
  0
LINE
  5
164
330
1E
100
AcDbEntity
  8
0
100
AcDbLine
 10
167.9499999999999
 20
16.5
 30
0.0
 11
168.9499999999999
 21
10.5
 31
0.0
  0
LINE
  5
165
330
1E
100
AcDbEntity
  8
0
100
AcDbLine
 10
157.9499999999999
 20
40.0
 30
0.0
 11
159.9499999999999
 21
43.0
 31
0.0
  0
LINE
  5
166
330
1E
100
AcDbEntity
  8
0
100
AcDbLine
 10
157.9499999999999
 20
40.0
 30
0.0
 11
158.9499999999999
 21
39.0
 31
0.0
  0
LINE
  5
167
330
1E
100
AcDbEntity
  8
0
100
AcDbLine
 10
157.65
 20
40.0
 30
0.0
 11
157.9499999999999
 21
40.0
 31
0.0
  0
LINE
  5
168
330
1E
100
AcDbEntity
  8
0
100
AcDbLine
 10
156.75
 20
40.0
 30
0.0
 11
157.65
 21
40.0
 31
0.0
  0
LINE
  5
169
330
1E
100
AcDbEntity
  8
0
100
AcDbLine
 10
155.3499999999999
 20
40.0
 30
0.0
 11
156.75
 21
40.0
 31
0.0
  0
LINE
  5
16A
330
1E
100
AcDbEntity
  8
0
100
AcDbLine
 10
152.75
 20
44.5
 30
0.0
 11
154.2499999999999
 21
45.7
 31
0.0
  0
LINE
  5
16B
330
1E
100
AcDbEntity
  8
0
100
AcDbLine
 10
154.2499999999999
 20
45.7
 30
0.0
 11
155.4499999999999
 21
47.2
 31
0.0
  0
LINE
  5
16C
330
1E
100
AcDbEntity
  8
0
100
AcDbLine
 10
155.4499999999999
 20
47.2
 30
0.0
 11
156.15
 21
49.0
 31
0.0
  0
LINE
  5
16D
330
1E
100
AcDbEntity
  8
0
100
AcDbLine
 10
156.15
 20
49.0
 30
0.0
 11
156.4499999999999
 21
51.0
 31
0.0
  0
LINE
  5
16E
330
1E
100
AcDbEntity
  8
0
100
AcDbLine
 10
152.75
 20
57.5
 30
0.0
 11
154.2499999999999
 21
56.29999999999999
 31
0.0
  0
LINE
  5
16F
330
1E
100
AcDbEntity
  8
0
100
AcDbLine
 10
154.2499999999999
 20
56.29999999999999
 30
0.0
 11
155.4499999999999
 21
54.8
 31
0.0
  0
LINE
  5
170
330
1E
100
AcDbEntity
  8
0
100
AcDbLine
 10
155.4499999999999
 20
54.8
 30
0.0
 11
156.15
 21
53.0
 31
0.0
  0
LINE
  5
171
330
1E
100
AcDbEntity
  8
0
100
AcDbLine
 10
156.15
 20
53.0
 30
0.0
 11
156.4499999999999
 21
51.0
 31
0.0
  0
LINE
  5
172
330
1E
100
AcDbEntity
  8
0
100
AcDbLine
 10
163.9499999999999
 20
45.0
 30
0.0
 11
167.9499999999999
 21
44.0
 31
0.0
  0
LINE
  5
173
330
1E
100
AcDbEntity
  8
0
100
AcDbLine
 10
167.9499999999999
 20
44.0
 30
0.0
 11
170.95
 21
43.79999999999999
 31
0.0
  0
LINE
  5
174
330
1E
100
AcDbEntity
  8
0
100
AcDbLine
 10
160.9499999999999
 20
46.12499999999999
 30
0.0
 11
163.9499999999999
 21
45.0
 31
0.0
  0
LINE
  5
175
330
1E
100
AcDbEntity
  8
0
100
AcDbLine
 10
160.969607843137
 20
55.8823529411765
 30
0.0
 11
163.9499999999999
 21
57.0
 31
0.0
  0
LINE
  5
176
330
1E
100
AcDbEntity
  8
0
100
AcDbLine
 10
163.9499999999999
 20
57.0
 30
0.0
 11
167.9499999999999
 21
58.0
 31
0.0
  0
LINE
  5
177
330
1E
100
AcDbEntity
  8
0
100
AcDbLine
 10
160.9499999999999
 20
56.0
 30
0.0
 11
160.969607843137
 21
55.8823529411765
 31
0.0
  0
LINE
  5
178
330
1E
100
AcDbEntity
  8
0
100
AcDbLine
 10
160.9499999999999
 20
46.0
 30
0.0
 11
160.969607843137
 21
46.11764705882349
 31
0.0
  0
LINE
  5
179
330
1E
100
AcDbEntity
  8
0
100
AcDbLine
 10
159.9499999999999
 20
43.0
 30
0.0
 11
160.9499999999999
 21
46.0
 31
0.0
  0
LINE
  5
17A
330
1E
100
AcDbEntity
  8
0
100
AcDbLine
 10
153.4499999999999
 20
40.0
 30
0.0
 11
155.3499999999999
 21
40.0
 31
0.0
  0
LINE
  5
17B
330
1E
100
AcDbEntity
  8
0
100
AcDbLine
 10
151.25
 20
40.0
 30
0.0
 11
153.4499999999999
 21
40.0
 31
0.0
  0
LINE
  5
17E
330
1E
100
AcDbEntity
  8
0
100
AcDbLine
 10
148.9499999999999
 20
58.5
 30
0.0
 11
150.9499999999999
 21
58.2
 31
0.0
  0
LINE
  5
17F
330
1E
100
AcDbEntity
  8
0
100
AcDbLine
 10
150.9499999999999
 20
58.2
 30
0.0
 11
152.75
 21
57.5
 31
0.0
  0
LINE
  5
180
330
1E
100
AcDbEntity
  8
0
100
AcDbLine
 10
159.55
 20
59.0
 30
0.0
 11
159.9499999999999
 21
59.0
 31
0.0
  0
LINE
  5
181
330
1E
100
AcDbEntity
  8
0
100
AcDbLine
 10
159.9499999999999
 20
59.0
 30
0.0
 11
160.9499999999999
 21
56.0
 31
0.0
  0
LINE
  5
182
330
1E
100
AcDbEntity
  8
0
100
AcDbLine
 10
159.9499999999999
 20
59.0
 30
0.0
 11
160.4499999999999
 21
59.5
 31
0.0
  0
LINE
  5
183
330
1E
100
AcDbEntity
  8
0
100
AcDbLine
 10
158.45
 20
59.0
 30
0.0
 11
159.55
 21
59.0
 31
0.0
  0
LINE
  5
184
330
1E
100
AcDbEntity
  8
0
100
AcDbLine
 10
156.75
 20
59.0
 30
0.0
 11
158.45
 21
59.0
 31
0.0
  0
LINE
  5
185
330
1E
100
AcDbEntity
  8
0
100
AcDbLine
 10
154.45
 20
59.0
 30
0.0
 11
156.75
 21
59.0
 31
0.0
  0
LINE
  5
187
330
1E
100
AcDbEntity
  8
0
100
AcDbLine
 10
160.4499999999999
 20
59.5
 30
0.0
 11
160.4499999999999
 21
60.5
 31
0.0
  0
LINE
  5
18B
330
1E
100
AcDbEntity
  8
0
100
AcDbLine
 10
160.4499999999999
 20
60.5
 30
0.0
 11
160.4499999999999
 21
59.5
 31
0.0
  0
LINE
  5
192
330
1E
100
AcDbEntity
  8
0
100
AcDbLine
 10
151.75
 20
59.0
 30
0.0
 11
154.45
 21
59.0
 31
0.0
  0
LINE
  5
193
330
1E
100
AcDbEntity
  8
0
100
AcDbLine
 10
148.9499999999999
 20
59.0
 30
0.0
 11
151.75
 21
59.0
 31
0.0
  0
LINE
  5
194
330
1E
100
AcDbEntity
  8
0
100
AcDbLine
 10
166.6075342465749
 20
57.6643835616438
 30
0.0
 11
167.9499999999999
 21
58.0
 31
0.0
  0
LINE
  5
195
330
1E
100
AcDbEntity
  8
0
100
AcDbLine
 10
167.9499999999999
 20
58.0
 30
0.0
 11
170.95
 21
58.2
 31
0.0
  0
LINE
  5
196
330
1E
100
AcDbEntity
  8
0
100
AcDbLine
 10
170.95
 20
10.5
 30
0.0
 11
170.95
 21
43.79999999999999
 31
0.0
  0
LINE
  5
197
330
1E
100
AcDbEntity
  8
0
100
AcDbLine
 10
148.9499999999999
 20
10.5
 30
0.0
 11
154.3499999999999
 21
10.5
 31
0.0
  0
LINE
  5
198
330
1E
100
AcDbEntity
  8
0
100
AcDbLine
 10
148.9499999999999
 20
10.5
 30
0.0
 11
154.15
 21
10.5
 31
0.0
  0
LINE
  5
199
330
1E
100
AcDbEntity
  8
0
100
AcDbLine
 10
139.4499999999999
 20
61.0
 30
0.0
 11
141.15
 21
61.0
 31
0.0
  0
LINE
  5
19A
330
1E
100
AcDbEntity
  8
0
100
AcDbLine
 10
140.4499999999999
 20
65.5
 30
0.0
 11
140.7499999999999
 21
65.5
 31
0.0
  0
LINE
  5
19B
330
1E
100
AcDbEntity
  8
0
100
AcDbLine
 10
141.7499999999999
 20
63.5
 30
0.0
 11
145.65
 21
64.8
 31
0.0
  0
LINE
  5
19C
330
1E
100
AcDbEntity
  8
0
100
AcDbLine
 10
141.15
 20
61.0
 30
0.0
 11
143.4499999999999
 21
61.0
 31
0.0
  0
LINE
  5
19D
330
1E
100
AcDbEntity
  8
0
100
AcDbLine
 10
140.7499999999999
 20
65.5
 30
0.0
 11
141.55
 21
65.5
 31
0.0
  0
LINE
  5
19E
330
1E
100
AcDbEntity
  8
0
100
AcDbLine
 10
141.55
 20
65.5
 30
0.0
 11
142.9499999999999
 21
65.5
 31
0.0
  0
LINE
  5
19F
330
1E
100
AcDbEntity
  8
0
100
AcDbLine
 10
143.4499999999999
 20
61.0
 30
0.0
 11
146.15
 21
61.0
 31
0.0
  0
LINE
  5
1A0
330
1E
100
AcDbEntity
  8
0
100
AcDbLine
 10
145.65
 20
64.8
 30
0.0
 11
148.9499999999999
 21
65.0
 31
0.0
  0
LINE
  5
1A1
330
1E
100
AcDbEntity
  8
0
100
AcDbLine
 10
146.15
 20
61.0
 30
0.0
 11
148.9499999999999
 21
61.0
 31
0.0
  0
LINE
  5
1A2
330
1E
100
AcDbEntity
  8
0
100
AcDbLine
 10
142.9499999999999
 20
65.5
 30
0.0
 11
144.7499999999999
 21
65.5
 31
0.0
  0
LINE
  5
1A3
330
1E
100
AcDbEntity
  8
0
100
AcDbLine
 10
144.7499999999999
 20
65.5
 30
0.0
 11
146.75
 21
65.5
 31
0.0
  0
LINE
  5
1A4
330
1E
100
AcDbEntity
  8
0
100
AcDbLine
 10
148.9499999999999
 20
65.0
 30
0.0
 11
152.2499999999999
 21
64.8
 31
0.0
  0
LINE
  5
1A5
330
1E
100
AcDbEntity
  8
0
100
AcDbLine
 10
148.9499999999999
 20
61.0
 30
0.0
 11
151.75
 21
61.0
 31
0.0
  0
LINE
  5
1A6
330
1E
100
AcDbEntity
  8
0
100
AcDbLine
 10
154.45
 20
61.0
 30
0.0
 11
156.75
 21
61.0
 31
0.0
  0
LINE
  5
1A7
330
1E
100
AcDbEntity
  8
0
100
AcDbLine
 10
152.2499999999999
 20
64.8
 30
0.0
 11
156.15
 21
63.5
 31
0.0
  0
LINE
  5
1A8
330
1E
100
AcDbEntity
  8
0
100
AcDbLine
 10
151.75
 20
61.0
 30
0.0
 11
154.45
 21
61.0
 31
0.0
  0
LINE
  5
1A9
330
1E
100
AcDbEntity
  8
0
100
AcDbLine
 10
156.15
 20
63.5
 30
0.0
 11
159.9499999999999
 21
61.0
 31
0.0
  0
LINE
  5
1AA
330
1E
100
AcDbEntity
  8
0
100
AcDbLine
 10
156.75
 20
61.0
 30
0.0
 11
158.45
 21
61.0
 31
0.0
  0
LINE
  5
1AB
330
1E
100
AcDbEntity
  8
0
100
AcDbLine
 10
159.55
 20
61.0
 30
0.0
 11
159.9499999999999
 21
61.0
 31
0.0
  0
LINE
  5
1AC
330
1E
100
AcDbEntity
  8
0
100
AcDbLine
 10
158.45
 20
61.0
 30
0.0
 11
159.55
 21
61.0
 31
0.0
  0
LINE
  5
1AD
330
1E
100
AcDbEntity
  8
0
100
AcDbLine
 10
157.15
 20
65.5
 30
0.0
 11
157.45
 21
65.5
 31
0.0
  0
LINE
  5
1AE
330
1E
100
AcDbEntity
  8
0
100
AcDbLine
 10
156.3499999999999
 20
65.5
 30
0.0
 11
157.15
 21
65.5
 31
0.0
  0
LINE
  5
1AF
330
1E
100
AcDbEntity
  8
0
100
AcDbLine
 10
154.9499999999999
 20
65.5
 30
0.0
 11
156.3499999999999
 21
65.5
 31
0.0
  0
LINE
  5
1B0
330
1E
100
AcDbEntity
  8
0
100
AcDbLine
 10
153.15
 20
65.5
 30
0.0
 11
154.9499999999999
 21
65.5
 31
0.0
  0
LINE
  5
1B1
330
1E
100
AcDbEntity
  8
0
100
AcDbLine
 10
151.15
 20
65.5
 30
0.0
 11
153.15
 21
65.5
 31
0.0
  0
LINE
  5
1B2
330
1E
100
AcDbEntity
  8
0
100
AcDbLine
 10
148.9499999999999
 20
65.5
 30
0.0
 11
151.15
 21
65.5
 31
0.0
  0
LINE
  5
1B3
330
1E
100
AcDbEntity
  8
0
100
AcDbLine
 10
146.75
 20
65.5
 30
0.0
 11
148.9499999999999
 21
65.5
 31
0.0
  0
LINE
  5
1B6
330
1E
100
AcDbEntity
  8
0
100
AcDbLine
 10
139.9499999999999
 20
67.0
 30
0.0
 11
140.4499999999999
 21
67.5
 31
0.0
  0
LINE
  5
1B7
330
1E
100
AcDbEntity
  8
0
100
AcDbLine
 10
139.9499999999999
 20
67.0
 30
0.0
 11
139.9499999999999
 21
66.0
 31
0.0
  0
LINE
  5
1B9
330
1E
100
AcDbEntity
  8
0
100
AcDbLine
 10
139.9499999999999
 20
66.0
 30
0.0
 11
140.4499999999999
 21
65.5
 31
0.0
  0
LINE
  5
1BA
330
1E
100
AcDbEntity
  8
0
100
AcDbLine
 10
139.9499999999999
 20
66.0
 30
0.0
 11
139.9499999999999
 21
67.0
 31
0.0
  0
LINE
  5
1BE
330
1E
100
AcDbEntity
  8
0
100
AcDbLine
 10
140.4499999999999
 20
67.5
 30
0.0
 11
140.7499999999999
 21
67.5
 31
0.0
  0
LINE
  5
1BF
330
1E
100
AcDbEntity
  8
0
100
AcDbLine
 10
140.7499999999999
 20
67.5
 30
0.0
 11
141.55
 21
67.5
 31
0.0
  0
LINE
  5
1C4
330
1E
100
AcDbEntity
  8
0
100
AcDbLine
 10
141.55
 20
67.5
 30
0.0
 11
142.9499999999999
 21
67.5
 31
0.0
  0
LINE
  5
1C5
330
1E
100
AcDbEntity
  8
0
100
AcDbLine
 10
142.9499999999999
 20
67.5
 30
0.0
 11
144.7499999999999
 21
67.5
 31
0.0
  0
LINE
  5
1CA
330
1E
100
AcDbEntity
  8
0
100
AcDbLine
 10
144.7499999999999
 20
67.5
 30
0.0
 11
146.75
 21
67.5
 31
0.0
  0
LINE
  5
1CB
330
1E
100
AcDbEntity
  8
0
100
AcDbLine
 10
146.75
 20
67.5
 30
0.0
 11
148.9499999999999
 21
67.5
 31
0.0
  0
LINE
  5
1D4
330
1E
100
AcDbEntity
  8
0
100
AcDbLine
 10
157.15
 20
67.5
 30
0.0
 11
157.45
 21
67.5
 31
0.0
  0
LINE
  5
1D5
330
1E
100
AcDbEntity
  8
0
100
AcDbLine
 10
156.3499999999999
 20
67.5
 30
0.0
 11
157.15
 21
67.5
 31
0.0
  0
LINE
  5
1D6
330
1E
100
AcDbEntity
  8
0
100
AcDbLine
 10
154.9499999999999
 20
67.5
 30
0.0
 11
156.3499999999999
 21
67.5
 31
0.0
  0
LINE
  5
1D7
330
1E
100
AcDbEntity
  8
0
100
AcDbLine
 10
153.15
 20
67.5
 30
0.0
 11
154.9499999999999
 21
67.5
 31
0.0
  0
LINE
  5
1D8
330
1E
100
AcDbEntity
  8
0
100
AcDbLine
 10
151.15
 20
67.5
 30
0.0
 11
153.15
 21
67.5
 31
0.0
  0
LINE
  5
1D9
330
1E
100
AcDbEntity
  8
0
100
AcDbLine
 10
148.9499999999999
 20
67.5
 30
0.0
 11
151.15
 21
67.5
 31
0.0
  0
LINE
  5
1DA
330
1E
100
AcDbEntity
  8
0
100
AcDbLine
 10
157.45
 20
77.40000000000001
 30
0.0
 11
158.55
 21
75.0
 31
0.0
  0
LINE
  5
1DB
330
1E
100
AcDbEntity
  8
0
100
AcDbLine
 10
157.9499999999999
 20
66.0
 30
0.0
 11
157.9499999999999
 21
67.0
 31
0.0
  0
LINE
  5
1DE
330
1E
100
AcDbEntity
  8
0
100
AcDbLine
 10
157.9499999999999
 20
67.0
 30
0.0
 11
157.9499999999999
 21
66.0
 31
0.0
  0
LINE
  5
1DF
330
1E
100
AcDbEntity
  8
0
100
AcDbLine
 10
158.55
 20
75.0
 30
0.0
 11
158.9499999999999
 21
72.5
 31
0.0
  0
LINE
  5
1E0
330
1E
100
AcDbEntity
  8
0
100
AcDbLine
 10
158.55
 20
70.0
 30
0.0
 11
158.9499999999999
 21
72.5
 31
0.0
  0
LINE
  5
1E1
330
1E
100
AcDbEntity
  8
0
100
AcDbLine
 10
157.45
 20
67.5
 30
0.0
 11
158.55
 21
70.0
 31
0.0
  0
LINE
  5
1E2
330
1E
100
AcDbEntity
  8
0
100
AcDbLine
 10
157.45
 20
67.5
 30
0.0
 11
157.9499999999999
 21
67.0
 31
0.0
  0
LINE
  5
1E3
330
1E
100
AcDbEntity
  8
0
100
AcDbLine
 10
157.45
 20
65.5
 30
0.0
 11
159.85
 21
64.0
 31
0.0
  0
LINE
  5
1E4
330
1E
100
AcDbEntity
  8
0
100
AcDbLine
 10
157.45
 20
65.5
 30
0.0
 11
157.9499999999999
 21
66.0
 31
0.0
  0
LINE
  5
1E5
330
1E
100
AcDbEntity
  8
0
100
AcDbLine
 10
159.9499999999999
 20
61.0
 30
0.0
 11
160.4499999999999
 21
60.5
 31
0.0
  0
LINE
  5
1E6
330
1E
100
AcDbEntity
  8
0
100
AcDbLine
 10
159.85
 20
64.0
 30
0.0
 11
164.4499999999999
 21
60.5
 31
0.0
  0
LINE
  5
1E7
330
1E
100
AcDbEntity
  8
0
100
AcDbLine
 10
164.4499999999999
 20
60.5
 30
0.0
 11
166.6075342465749
 21
57.6643835616438
 31
0.0
  0
LINE
  5
1E8
330
1E
100
AcDbEntity
  8
0
100
AcDbLine
 10
171.15
 20
10.5
 30
0.0
 11
171.95
 21
10.5
 31
0.0
  0
LINE
  5
1EA
330
1E
100
AcDbEntity
  8
0
100
AcDbLine
 10
172.9499999999999
 20
8.0
 30
0.0
 11
172.9499999999999
 21
9.5
 31
0.0
  0
LINE
  5
1EC
330
1E
100
AcDbEntity
  8
0
100
AcDbLine
 10
171.95
 20
10.5
 30
0.0
 11
172.9499999999999
 21
9.5
 31
0.0
  0
LINE
  5
1ED
330
1E
100
AcDbEntity
  8
0
100
AcDbLine
 10
172.9499999999999
 20
9.5
 30
0.0
 11
172.9499999999999
 21
8.0
 31
0.0
  0
LINE
  5
1EE
330
1E
100
AcDbEntity
  8
0
100
AcDbLine
 10
174.9499999999999
 20
43.5
 30
0.0
 11
178.4499999999999
 21
44.0
 31
0.0
  0
LINE
  5
1EF
330
1E
100
AcDbEntity
  8
0
100
AcDbLine
 10
180.9499999999999
 20
45.0
 30
0.0
 11
182.9499999999999
 21
46.5
 31
0.0
  0
LINE
  5
1F0
330
1E
100
AcDbEntity
  8
0
100
AcDbLine
 10
182.9499999999999
 20
46.5
 30
0.0
 11
184.45
 21
48.5
 31
0.0
  0
LINE
  5
1F1
330
1E
100
AcDbEntity
  8
0
100
AcDbLine
 10
180.9499999999999
 20
57.0
 30
0.0
 11
182.9499999999999
 21
55.5
 31
0.0
  0
LINE
  5
1F2
330
1E
100
AcDbEntity
  8
0
100
AcDbLine
 10
182.9499999999999
 20
55.5
 30
0.0
 11
184.45
 21
53.5
 31
0.0
  0
LINE
  5
1F3
330
1E
100
AcDbEntity
  8
0
100
AcDbLine
 10
184.45
 20
53.5
 30
0.0
 11
184.9499999999999
 21
51.0
 31
0.0
  0
LINE
  5
1F4
330
1E
100
AcDbEntity
  8
0
100
AcDbLine
 10
184.45
 20
48.5
 30
0.0
 11
184.9499999999999
 21
51.0
 31
0.0
  0
LINE
  5
1F5
330
1E
100
AcDbEntity
  8
0
100
AcDbLine
 10
178.4499999999999
 20
44.0
 30
0.0
 11
180.9499999999999
 21
45.0
 31
0.0
  0
LINE
  5
1F6
330
1E
100
AcDbEntity
  8
0
100
AcDbLine
 10
174.9499999999999
 20
58.5
 30
0.0
 11
178.4499999999999
 21
58.0
 31
0.0
  0
LINE
  5
1F7
330
1E
100
AcDbEntity
  8
0
100
AcDbLine
 10
170.95
 20
58.2
 30
0.0
 11
174.9499999999999
 21
58.5
 31
0.0
  0
LINE
  5
1F8
330
1E
100
AcDbEntity
  8
0
100
AcDbLine
 10
178.4499999999999
 20
58.0
 30
0.0
 11
180.9499999999999
 21
57.0
 31
0.0
  0
LINE
  5
1F9
330
1E
100
AcDbEntity
  8
0
100
AcDbLine
 10
170.95
 20
43.79999999999999
 30
0.0
 11
170.95
 21
10.5
 31
0.0
  0
LINE
  5
1FA
330
1E
100
AcDbEntity
  8
0
100
AcDbLine
 10
170.95
 20
43.79999999999999
 30
0.0
 11
174.9499999999999
 21
43.5
 31
0.0
  0
LINE
  5
1FB
330
1E
100
AcDbEntity
  8
0
100
AcDbLine
 10
153.8499999999999
 20
81.09999999999999
 30
0.0
 11
155.9499999999999
 21
79.5
 31
0.0
  0
LINE
  5
1FC
330
1E
100
AcDbEntity
  8
0
100
AcDbLine
 10
155.9499999999999
 20
79.5
 30
0.0
 11
157.45
 21
77.40000000000001
 31
0.0
  0
LINE
  5
1FD
330
1E
100
AcDbEntity
  8
0
100
AcDbLine
 10
148.9499999999999
 20
82.5
 30
0.0
 11
151.4499999999999
 21
82.09999999999999
 31
0.0
  0
LINE
  5
1FE
330
1E
100
AcDbEntity
  8
0
100
AcDbLine
 10
151.4499999999999
 20
82.09999999999999
 30
0.0
 11
153.8499999999999
 21
81.09999999999999
 31
0.0
  0
LINE
  5
1FF
330
1E
100
AcDbEntity
  8
0
100
AcDbLine
 10
146.4499999999999
 20
82.09999999999999
 30
0.0
 11
148.9499999999999
 21
82.5
 31
0.0
  0
LINE
  5
200
330
1E
100
AcDbEntity
  8
0
100
AcDbLine
 10
144.05
 20
81.09999999999999
 30
0.0
 11
146.4499999999999
 21
82.09999999999999
 31
0.0
  0
LINE
  5
201
330
1E
100
AcDbEntity
  8
0
100
AcDbLine
 10
141.95
 20
79.5
 30
0.0
 11
144.05
 21
81.09999999999999
 31
0.0
  0
LINE
  5
202
330
1E
100
AcDbEntity
  8
0
100
AcDbLine
 10
140.4499999999999
 20
77.40000000000001
 30
0.0
 11
141.95
 21
79.5
 31
0.0
  0
LINE
  5
203
330
1E
100
AcDbEntity
  8
0
100
AcDbLine
 10
139.3499999999999
 20
70.0
 30
0.0
 11
140.4499999999999
 21
67.5
 31
0.0
  0
LINE
  5
204
330
1E
100
AcDbEntity
  8
0
100
AcDbLine
 10
142.75
 20
7.0
 30
0.0
 11
142.9499999999999
 21
7.0
 31
0.0
  0
LINE
  5
205
330
1E
100
AcDbEntity
  8
0
100
AcDbLine
 10
142.75
 20
7.0
 30
0.0
 11
148.9499999999999
 21
7.0
 31
0.0
  0
LINE
  5
206
330
1E
100
AcDbEntity
  8
0
100
AcDbLine
 10
142.75
 20
7.0
 30
0.0
 11
143.55
 21
7.0
 31
0.0
  0
LINE
  5
207
330
1E
100
AcDbEntity
  8
0
100
AcDbLine
 10
133.75
 20
0.0000000000000013
 30
0.0
 11
141.05
 21
0.0000000000000008
 31
0.0
  0
ENDSEC
  0
SECTION
  2
OBJECTS
  0
DICTIONARY
  5
C
330
0
100
AcDbDictionary
281
     1
  3
ACAD_GROUP
350
D
  3
ACAD_LAYOUT
350
19
  3
ACAD_MLINESTYLE
350
16
  3
ACAD_PLOTSETTINGS
350
18
  3
ACAD_PLOTSTYLENAME
350
E
  3
AcDbVariableDictionary
350
20C
  0
DICTIONARY
  5
D
102
{ACAD_REACTORS
330
C
102
}
330
C
100
AcDbDictionary
281
     1
  0
DICTIONARY
  5
19
102
{ACAD_REACTORS
330
C
102
}
330
C
100
AcDbDictionary
281
     1
  3
Layout1
350
1D
  3
Model
350
21
  0
DICTIONARY
  5
16
102
{ACAD_REACTORS
330
C
102
}
330
C
100
AcDbDictionary
281
     1
  3
Standard
350
17
  0
DICTIONARY
  5
18
102
{ACAD_REACTORS
330
C
102
}
330
C
100
AcDbDictionary
281
     1
  0
ACDBDICTIONARYWDFLT
  5
E
102
{ACAD_REACTORS
330
C
102
}
330
C
100
AcDbDictionary
281
     1
  3
Normal
350
F
100
AcDbDictionaryWithDefault
340
F
  0
DICTIONARY
  5
20C
102
{ACAD_REACTORS
330
C
102
}
330
C
100
AcDbDictionary
281
     1
  3
DIMASSOC
350
20D
  0
LAYOUT
  5
1D
102
{ACAD_REACTORS
330
19
102
}
330
19
100
AcDbPlotSettings
  1

  2
hp deskjet 980c series
  4

  6

 40
0.0
 41
0.0
 42
0.0
 43
0.0
 44
0.0
 45
0.0
 46
0.0
 47
0.0
 48
0.0
 49
0.0
140
0.0
141
0.0
142
1.0
143
1.0
 70
   688
 72
     0
 73
     0
 74
     5
  7

 75
    16
147
1.0
148
0.0
149
0.0
100
AcDbLayout
  1
Layout1
 70
     1
 71
     1
 10
0.0
 20
0.0
 11
12.0
 21
9.0
 12
0.0
 22
0.0
 32
0.0
 14
1.000000000000000E+20
 24
1.000000000000000E+20
 34
1.000000000000000E+20
 15
-1.000000000000000E+20
 25
-1.000000000000000E+20
 35
-1.000000000000000E+20
146
0.0
 13
0.0
 23
0.0
 33
0.0
 16
1.0
 26
0.0
 36
0.0
 17
0.0
 27
1.0
 37
0.0
 76
     0
330
1A
  0
LAYOUT
  5
21
102
{ACAD_REACTORS
330
19
102
}
330
19
100
AcDbPlotSettings
  1

  2
hp deskjet 980c series
  4

  6

 40
0.0
 41
0.0
 42
0.0
 43
0.0
 44
0.0
 45
0.0
 46
0.0
 47
0.0
 48
0.0
 49
0.0
140
0.0
141
0.0
142
1.0
143
1.0
 70
  1712
 72
     0
 73
     0
 74
     0
  7

 75
     0
147
1.0
148
0.0
149
0.0
100
AcDbLayout
  1
Model
 70
     1
 71
     0
 10
0.0
 20
0.0
 11
12.0
 21
9.0
 12
0.0
 22
0.0
 32
0.0
 14
0.0
 24
0.0
 34
0.0
 15
0.0
 25
0.0
 35
0.0
146
0.0
 13
0.0
 23
0.0
 33
0.0
 16
1.0
 26
0.0
 36
0.0
 17
0.0
 27
1.0
 37
0.0
 76
     0
330
1E
  0
MLINESTYLE
  5
17
102
{ACAD_REACTORS
330
16
102
}
330
16
100
AcDbMlineStyle
  2
STANDARD
 70
     0
  3

 62
   256
 51
90.0
 52
90.0
 71
     2
 49
0.5
 62
   256
  6
BYLAYER
 49
-0.5
 62
   256
  6
BYLAYER
  0
ACDBPLACEHOLDER
  5
F
102
{ACAD_REACTORS
330
E
102
}
330
E
  0
DICTIONARYVAR
  5
20D
102
{ACAD_REACTORS
330
20C
102
}
330
20C
100
DictionaryVariables
280
     0
  1
1
  0
ENDSEC
  0
EOF
