  0
SECTION
  2
HEADER
  9
$ACADVER
  1
AC1015
  9
$ACADMAINTVER
 70
    13
  9
$DWGCODEPAGE
  3
ANSI_1252
  9
$INSBASE
 10
0.0
 20
0.0
 30
0.0
  9
$EXTMIN
 10
0.0000000000000019
 20
-0.0000000000000015
 30
0.0
  9
$EXTMAX
 10
272.0
 20
84.0
 30
0.0
  9
$LIMMIN
 10
0.0
 20
0.0
  9
$LIMMAX
 10
12.0
 20
9.0
  9
$ORTHOMODE
 70
     0
  9
$REGENMODE
 70
     1
  9
$FILLMODE
 70
     1
  9
$QTEXTMODE
 70
     0
  9
$MIRRTEXT
 70
     1
  9
$LTSCALE
 40
1.0
  9
$ATTMODE
 70
     1
  9
$TEXTSIZE
 40
0.2
  9
$TRACEWID
 40
0.05
  9
$TEXTSTYLE
  7
Standard
  9
$CLAYER
  8
0
  9
$CELTYPE
  6
Continuous
  9
$CECOLOR
 62
   256
  9
$CELTSCALE
 40
1.0
  9
$DISPSILH
 70
     0
  9
$DIMSCALE
 40
1.0
  9
$DIMASZ
 40
0.18
  9
$DIMEXO
 40
0.0625
  9
$DIMDLI
 40
0.38
  9
$DIMRND
 40
0.0
  9
$DIMDLE
 40
0.0
  9
$DIMEXE
 40
0.18
  9
$DIMTP
 40
0.0
  9
$DIMTM
 40
0.0
  9
$DIMTXT
 40
0.18
  9
$DIMCEN
 40
0.09
  9
$DIMTSZ
 40
0.0
  9
$DIMTOL
 70
     0
  9
$DIMLIM
 70
     0
  9
$DIMTIH
 70
     1
  9
$DIMTOH
 70
     1
  9
$DIMSE1
 70
     0
  9
$DIMSE2
 70
     0
  9
$DIMTAD
 70
     0
  9
$DIMZIN
 70
     0
  9
$DIMBLK
  1

  9
$DIMASO
 70
     1
  9
$DIMSHO
 70
     1
  9
$DIMPOST
  1

  9
$DIMAPOST
  1

  9
$DIMALT
 70
     0
  9
$DIMALTD
 70
     2
  9
$DIMALTF
 40
25.4
  9
$DIMLFAC
 40
1.0
  9
$DIMTOFL
 70
     0
  9
$DIMTVP
 40
0.0
  9
$DIMTIX
 70
     0
  9
$DIMSOXD
 70
     0
  9
$DIMSAH
 70
     0
  9
$DIMBLK1
  1

  9
$DIMBLK2
  1

  9
$DIMSTYLE
  2
Standard
  9
$DIMCLRD
 70
     0
  9
$DIMCLRE
 70
     0
  9
$DIMCLRT
 70
     0
  9
$DIMTFAC
 40
1.0
  9
$DIMGAP
 40
0.09
  9
$DIMJUST
 70
     0
  9
$DIMSD1
 70
     0
  9
$DIMSD2
 70
     0
  9
$DIMTOLJ
 70
     1
  9
$DIMTZIN
 70
     0
  9
$DIMALTZ
 70
     0
  9
$DIMALTTZ
 70
     0
  9
$DIMUPT
 70
     0
  9
$DIMDEC
 70
     4
  9
$DIMTDEC
 70
     4
  9
$DIMALTU
 70
     2
  9
$DIMALTTD
 70
     2
  9
$DIMTXSTY
  7
Standard
  9
$DIMAUNIT
 70
     0
  9
$DIMADEC
 70
     0
  9
$DIMALTRND
 40
0.0
  9
$DIMAZIN
 70
     0
  9
$DIMDSEP
 70
    46
  9
$DIMATFIT
 70
     3
  9
$DIMFRAC
 70
     0
  9
$DIMLDRBLK
  1

  9
$DIMLUNIT
 70
     2
  9
$DIMLWD
 70
    -2
  9
$DIMLWE
 70
    -2
  9
$DIMTMOVE
 70
     0
  9
$LUNITS
 70
     2
  9
$LUPREC
 70
     4
  9
$SKETCHINC
 40
0.1
  9
$FILLETRAD
 40
0.0
  9
$AUNITS
 70
     0
  9
$AUPREC
 70
     0
  9
$MENU
  1
.
  9
$ELEVATION
 40
0.0
  9
$PELEVATION
 40
0.0
  9
$THICKNESS
 40
0.0
  9
$LIMCHECK
 70
     0
  9
$CHAMFERA
 40
0.0
  9
$CHAMFERB
 40
0.0
  9
$CHAMFERC
 40
0.0
  9
$CHAMFERD
 40
0.0
  9
$SKPOLY
 70
     0
  9
$TDCREATE
 40
2454752.824241169
  9
$TDUCREATE
 40
2454752.740907836
  9
$TDUPDATE
 40
2454752.828498796
  9
$TDUUPDATE
 40
2454752.745165463
  9
$TDINDWG
 40
0.0042578125
  9
$TDUSRTIMER
 40
0.0042578125
  9
$USRTIMER
 70
     1
  9
$ANGBASE
 50
0.0
  9
$ANGDIR
 70
     0
  9
$PDMODE
 70
     0
  9
$PDSIZE
 40
0.0
  9
$PLINEWID
 40
0.0
  9
$SPLFRAME
 70
     0
  9
$SPLINETYPE
 70
     6
  9
$SPLINESEGS
 70
     8
  9
$HANDSEED
  5
411
  9
$SURFTAB1
 70
     6
  9
$SURFTAB2
 70
     6
  9
$SURFTYPE
 70
     6
  9
$SURFU
 70
     6
  9
$SURFV
 70
     6
  9
$UCSBASE
  2

  9
$UCSNAME
  2

  9
$UCSORG
 10
0.0
 20
0.0
 30
0.0
  9
$UCSXDIR
 10
1.0
 20
0.0
 30
0.0
  9
$UCSYDIR
 10
0.0
 20
1.0
 30
0.0
  9
$UCSORTHOREF
  2

  9
$UCSORTHOVIEW
 70
     1
  9
$UCSORGTOP
 10
0.0
 20
0.0
 30
0.0
  9
$UCSORGBOTTOM
 10
0.0
 20
0.0
 30
0.0
  9
$UCSORGLEFT
 10
0.0
 20
0.0
 30
0.0
  9
$UCSORGRIGHT
 10
0.0
 20
0.0
 30
0.0
  9
$UCSORGFRONT
 10
0.0
 20
0.0
 30
0.0
  9
$UCSORGBACK
 10
0.0
 20
0.0
 30
0.0
  9
$PUCSBASE
  2

  9
$PUCSNAME
  2

  9
$PUCSORG
 10
0.0
 20
0.0
 30
0.0
  9
$PUCSXDIR
 10
1.0
 20
0.0
 30
0.0
  9
$PUCSYDIR
 10
0.0
 20
1.0
 30
0.0
  9
$PUCSORTHOREF
  2

  9
$PUCSORTHOVIEW
 70
     0
  9
$PUCSORGTOP
 10
0.0
 20
0.0
 30
0.0
  9
$PUCSORGBOTTOM
 10
0.0
 20
0.0
 30
0.0
  9
$PUCSORGLEFT
 10
0.0
 20
0.0
 30
0.0
  9
$PUCSORGRIGHT
 10
0.0
 20
0.0
 30
0.0
  9
$PUCSORGFRONT
 10
0.0
 20
0.0
 30
0.0
  9
$PUCSORGBACK
 10
0.0
 20
0.0
 30
0.0
  9
$USERI1
 70
     0
  9
$USERI2
 70
     0
  9
$USERI3
 70
     0
  9
$USERI4
 70
     0
  9
$USERI5
 70
     0
  9
$USERR1
 40
0.0
  9
$USERR2
 40
0.0
  9
$USERR3
 40
0.0
  9
$USERR4
 40
0.0
  9
$USERR5
 40
0.0
  9
$WORLDVIEW
 70
     1
  9
$SHADEDGE
 70
     3
  9
$SHADEDIF
 70
    70
  9
$TILEMODE
 70
     1
  9
$MAXACTVP
 70
    64
  9
$PINSBASE
 10
0.0
 20
0.0
 30
0.0
  9
$PLIMCHECK
 70
     0
  9
$PEXTMIN
 10
1.000000000000000E+20
 20
1.000000000000000E+20
 30
1.000000000000000E+20
  9
$PEXTMAX
 10
-1.000000000000000E+20
 20
-1.000000000000000E+20
 30
-1.000000000000000E+20
  9
$PLIMMIN
 10
0.0
 20
0.0
  9
$PLIMMAX
 10
12.0
 20
9.0
  9
$UNITMODE
 70
     0
  9
$VISRETAIN
 70
     1
  9
$PLINEGEN
 70
     0
  9
$PSLTSCALE
 70
     1
  9
$TREEDEPTH
 70
  3020
  9
$CMLSTYLE
  2
Standard
  9
$CMLJUST
 70
     0
  9
$CMLSCALE
 40
1.0
  9
$PROXYGRAPHICS
 70
     1
  9
$MEASUREMENT
 70
     0
  9
$CELWEIGHT
370
    -1
  9
$ENDCAPS
280
     0
  9
$JOINSTYLE
280
     0
  9
$LWDISPLAY
290
     0
  9
$INSUNITS
 70
     0
  9
$HYPERLINKBASE
  1

  9
$STYLESHEET
  1

  9
$XEDIT
290
     1
  9
$CEPSNTYPE
380
     0
  9
$PSTYLEMODE
290
     1
  9
$FINGERPRINTGUID
  2
{9DF080BD-B2C7-4B99-AC2F-BDE0AEE559C9}
  9
$VERSIONGUID
  2
{10373F25-AAFB-4123-8D62-2141E81FCF67}
  9
$EXTNAMES
290
     1
  9
$PSVPSCALE
 40
0.0
  9
$OLESTARTUP
290
     0
  0
ENDSEC
  0
SECTION
  2
CLASSES
  0
CLASS
  1
ACDBDICTIONARYWDFLT
  2
AcDbDictionaryWithDefault
  3
AutoCAD 2000
 90
        0
280
     0
281
     0
  0
CLASS
  1
ACDBPLACEHOLDER
  2
AcDbPlaceHolder
  3
AutoCAD 2000
 90
        0
280
     0
281
     0
  0
CLASS
  1
LAYOUT
  2
AcDbLayout
  3
AutoCAD 2000
 90
        0
280
     0
281
     0
  0
CLASS
  1
DICTIONARYVAR
  2
AcDbDictionaryVar
  3
AutoCAD 2000
 90
        0
280
     0
281
     0
  0
ENDSEC
  0
SECTION
  2
TABLES
  0
TABLE
  2
VPORT
  5
8
330
0
100
AcDbSymbolTable
 70
     2
  0
VPORT
  5
410
330
8
100
AcDbSymbolTableRecord
100
AcDbViewportTableRecord
  2
*Active
 70
     0
 10
0.0
 20
0.0
 11
1.0
 21
1.0
 12
136.0
 22
42.0
 13
0.0
 23
0.0
 14
1.0
 24
1.0
 15
0.0
 25
0.0
 16
0.0
 26
0.0
 36
1.0
 17
0.0
 27
0.0
 37
0.0
 40
131.372056248084
 41
2.078104993597951
 42
50.0
 43
0.0
 44
0.0
 50
0.0
 51
0.0
 71
     0
 72
   100
 73
     1
 74
     3
 75
     0
 76
     0
 77
     0
 78
     0
281
     0
 65
     1
110
0.0
120
0.0
130
0.0
111
1.0
121
0.0
131
0.0
112
0.0
122
1.0
132
0.0
 79
     1
146
0.0
  0
ENDTAB
  0
TABLE
  2
LTYPE
  5
5
330
0
100
AcDbSymbolTable
 70
     1
  0
LTYPE
  5
13
330
5
100
AcDbSymbolTableRecord
100
AcDbLinetypeTableRecord
  2
ByBlock
 70
     0
  3

 72
    65
 73
     0
 40
0.0
  0
LTYPE
  5
14
330
5
100
AcDbSymbolTableRecord
100
AcDbLinetypeTableRecord
  2
ByLayer
 70
     0
  3

 72
    65
 73
     0
 40
0.0
  0
LTYPE
  5
15
330
5
100
AcDbSymbolTableRecord
100
AcDbLinetypeTableRecord
  2
Continuous
 70
     0
  3
Solid line
 72
    65
 73
     0
 40
0.0
  0
ENDTAB
  0
TABLE
  2
LAYER
  5
2
330
0
100
AcDbSymbolTable
 70
     1
  0
LAYER
  5
10
330
2
100
AcDbSymbolTableRecord
100
AcDbLayerTableRecord
  2
0
 70
     0
 62
     7
  6
Continuous
370
    -3
390
F
  0
ENDTAB
  0
TABLE
  2
STYLE
  5
3
330
0
100
AcDbSymbolTable
 70
     1
  0
STYLE
  5
11
330
3
100
AcDbSymbolTableRecord
100
AcDbTextStyleTableRecord
  2
Standard
 70
     0
 40
0.0
 41
1.0
 50
0.0
 71
     0
 42
0.2
  3
txt
  4

  0
ENDTAB
  0
TABLE
  2
VIEW
  5
6
330
0
100
AcDbSymbolTable
 70
     0
  0
ENDTAB
  0
TABLE
  2
UCS
  5
7
330
0
100
AcDbSymbolTable
 70
     0
  0
ENDTAB
  0
TABLE
  2
APPID
  5
9
330
0
100
AcDbSymbolTable
 70
     1
  0
APPID
  5
12
330
9
100
AcDbSymbolTableRecord
100
AcDbRegAppTableRecord
  2
ACAD
 70
     0
  0
ENDTAB
  0
TABLE
  2
DIMSTYLE
  5
A
330
0
100
AcDbSymbolTable
 70
     1
100
AcDbDimStyleTable
 71
     0
  0
DIMSTYLE
105
330
330
A
100
AcDbSymbolTableRecord
100
AcDbDimStyleTableRecord
  2
Standard
 70
     0
340
11
  0
ENDTAB
  0
TABLE
  2
BLOCK_RECORD
  5
1
330
0
100
AcDbSymbolTable
 70
     0
  0
BLOCK_RECORD
  5
1E
330
1
100
AcDbSymbolTableRecord
100
AcDbBlockTableRecord
  2
*Model_Space
340
21
  0
BLOCK_RECORD
  5
1A
330
1
100
AcDbSymbolTableRecord
100
AcDbBlockTableRecord
  2
*Paper_Space
340
1D
  0
ENDTAB
  0
ENDSEC
  0
SECTION
  2
BLOCKS
  0
BLOCK
  5
1F
330
1E
100
AcDbEntity
  8
0
100
AcDbBlockBegin
  2
*Model_Space
 70
     0
 10
0.0
 20
0.0
 30
0.0
  3
*Model_Space
  1

  0
ENDBLK
  5
20
330
1E
100
AcDbEntity
  8
0
100
AcDbBlockEnd
  0
BLOCK
  5
1B
330
1A
100
AcDbEntity
 67
     1
  8
0
100
AcDbBlockBegin
  2
*Paper_Space
 70
     0
 10
0.0
 20
0.0
 30
0.0
  3
*Paper_Space
  1

  0
ENDBLK
  5
1C
330
1A
100
AcDbEntity
 67
     1
  8
0
100
AcDbBlockEnd
  0
ENDSEC
  0
SECTION
  2
ENTITIES
  0
LINE
  5
22
330
1E
100
AcDbEntity
  8
0
100
AcDbLine
 10
8.5
 20
0.0000000000000006
 30
0.0
 11
9.0
 21
3.0
 31
0.0
  0
LINE
  5
23
330
1E
100
AcDbEntity
  8
0
100
AcDbLine
 10
36.0
 20
-0.0000000000000014
 30
0.0
 11
43.1
 21
-0.0000000000000013
 31
0.0
  0
LINE
  5
24
330
1E
100
AcDbEntity
  8
0
100
AcDbLine
 10
43.1
 20
-0.0000000000000013
 30
0.0
 11
49.7
 21
-0.0000000000000011
 31
0.0
  0
LINE
  5
25
330
1E
100
AcDbEntity
  8
0
100
AcDbLine
 10
49.7
 20
-0.0000000000000011
 30
0.0
 11
55.4
 21
-0.0000000000000009
 31
0.0
  0
LINE
  5
26
330
1E
100
AcDbEntity
  8
0
100
AcDbLine
 10
55.4
 20
-0.0000000000000009
 30
0.0
 11
59.8
 21
-0.0000000000000005
 31
0.0
  0
LINE
  5
27
330
1E
100
AcDbEntity
  8
0
100
AcDbLine
 10
28.9
 20
-0.0000000000000013
 30
0.0
 11
36.0
 21
-0.0000000000000014
 31
0.0
  0
LINE
  5
28
330
1E
100
AcDbEntity
  8
0
100
AcDbLine
 10
22.29999999999999
 20
-0.0000000000000011
 30
0.0
 11
28.9
 21
-0.0000000000000013
 31
0.0
  0
LINE
  5
29
330
1E
100
AcDbEntity
  8
0
100
AcDbLine
 10
59.8
 20
-0.0000000000000005
 30
0.0
 11
62.5
 21
-0.0000000000000001
 31
0.0
  0
LINE
  5
2A
330
1E
100
AcDbEntity
  8
0
100
AcDbLine
 10
62.5
 20
-0.0000000000000001
 30
0.0
 11
63.5
 21
0.0000000000000003
 31
0.0
  0
LINE
  5
2B
330
1E
100
AcDbEntity
  8
0
100
AcDbLine
 10
16.6
 20
-0.0000000000000009
 30
0.0
 11
22.29999999999999
 21
-0.0000000000000011
 31
0.0
  0
LINE
  5
2C
330
1E
100
AcDbEntity
  8
0
100
AcDbLine
 10
12.19999999999999
 20
-0.0000000000000005
 30
0.0
 11
16.6
 21
-0.0000000000000009
 31
0.0
  0
LINE
  5
2D
330
1E
100
AcDbEntity
  8
0
100
AcDbLine
 10
9.5
 20
-0.0000000000000001
 30
0.0
 11
12.19999999999999
 21
-0.0000000000000005
 31
0.0
  0
LINE
  5
2E
330
1E
100
AcDbEntity
  8
0
100
AcDbLine
 10
8.5
 20
0.0000000000000003
 30
0.0
 11
9.0
 21
3.0
 31
0.0
  0
LINE
  5
2F
330
1E
100
AcDbEntity
  8
0
100
AcDbLine
 10
8.5
 20
0.0000000000000003
 30
0.0
 11
9.5
 21
0.0000000000000008
 31
0.0
  0
LINE
  5
30
330
1E
100
AcDbEntity
  8
0
100
AcDbLine
 10
8.5
 20
0.0000000000000003
 30
0.0
 11
9.5
 21
-0.0000000000000001
 31
0.0
  0
LINE
  5
31
330
1E
100
AcDbEntity
  8
0
100
AcDbLine
 10
0.500000000000002
 20
53.5
 30
0.0
 11
2.0
 21
55.5
 31
0.0
  0
LINE
  5
32
330
1E
100
AcDbEntity
  8
0
100
AcDbLine
 10
6.5
 20
44.0
 30
0.0
 11
10.0
 21
43.5
 31
0.0
  0
LINE
  5
33
330
1E
100
AcDbEntity
  8
0
100
AcDbLine
 10
4.0
 20
45.0
 30
0.0
 11
6.5
 21
44.0
 31
0.0
  0
LINE
  5
34
330
1E
100
AcDbEntity
  8
0
100
AcDbLine
 10
0.500000000000002
 20
48.5
 30
0.0
 11
2.0
 21
46.5
 31
0.0
  0
LINE
  5
35
330
1E
100
AcDbEntity
  8
0
100
AcDbLine
 10
2.0
 20
46.5
 30
0.0
 11
4.0
 21
45.0
 31
0.0
  0
LINE
  5
36
330
1E
100
AcDbEntity
  8
0
100
AcDbLine
 10
0.500000000000002
 20
48.5
 30
0.0
 11
2.0
 21
46.5
 31
0.0
  0
LINE
  5
37
330
1E
100
AcDbEntity
  8
0
100
AcDbLine
 10
6.5
 20
58.0
 30
0.0
 11
10.0
 21
58.5
 31
0.0
  0
LINE
  5
38
330
1E
100
AcDbEntity
  8
0
100
AcDbLine
 10
4.0
 20
57.0
 30
0.0
 11
6.5
 21
58.0
 31
0.0
  0
LINE
  5
39
330
1E
100
AcDbEntity
  8
0
100
AcDbLine
 10
2.0
 20
55.5
 30
0.0
 11
4.0
 21
57.0
 31
0.0
  0
LINE
  5
3A
330
1E
100
AcDbEntity
  8
0
100
AcDbLine
 10
0.500000000000002
 20
53.5
 30
0.0
 11
2.0
 21
55.5
 31
0.0
  0
LINE
  5
3B
330
1E
100
AcDbEntity
  8
0
100
AcDbLine
 10
0.0000000000000019
 20
51.0
 30
0.0
 11
0.500000000000002
 21
53.5
 31
0.0
  0
LINE
  5
3C
330
1E
100
AcDbEntity
  8
0
100
AcDbLine
 10
0.0000000000000019
 20
51.0
 30
0.0
 11
0.500000000000002
 21
48.5
 31
0.0
  0
LINE
  5
3D
330
1E
100
AcDbEntity
  8
0
100
AcDbLine
 10
9.0
 20
3.0
 30
0.0
 11
10.0
 21
5.0
 31
0.0
  0
LINE
  5
3E
330
1E
100
AcDbEntity
  8
0
100
AcDbLine
 10
59.8
 20
0.0000000000000012
 30
0.0
 11
62.5
 21
0.0000000000000008
 31
0.0
  0
LINE
  5
3F
330
1E
100
AcDbEntity
  8
0
100
AcDbLine
 10
62.5
 20
0.0000000000000008
 30
0.0
 11
63.5
 21
0.0000000000000003
 31
0.0
  0
LINE
  5
40
330
1E
100
AcDbEntity
  8
0
100
AcDbLine
 10
10.0
 20
43.5
 30
0.0
 11
14.0
 21
43.79999999999999
 31
0.0
  0
LINE
  5
41
330
1E
100
AcDbEntity
  8
0
100
AcDbLine
 10
10.0
 20
58.5
 30
0.0
 11
14.0
 21
58.2
 31
0.0
  0
LINE
  5
42
330
1E
100
AcDbEntity
  8
0
100
AcDbLine
 10
15.2
 20
7.0
 30
0.0
 11
19.1
 21
7.0
 31
0.0
  0
LINE
  5
43
330
1E
100
AcDbEntity
  8
0
100
AcDbLine
 10
14.0
 20
9.5
 30
0.0
 11
14.0
 21
8.0
 31
0.0
  0
LINE
  5
45
330
1E
100
AcDbEntity
  8
0
100
AcDbLine
 10
14.0
 20
9.5
 30
0.0
 11
15.0
 21
10.5
 31
0.0
  0
LINE
  5
46
330
1E
100
AcDbEntity
  8
0
100
AcDbLine
 10
14.0
 20
8.0
 30
0.0
 11
15.0
 21
7.0
 31
0.0
  0
LINE
  5
48
330
1E
100
AcDbEntity
  8
0
100
AcDbLine
 10
14.0
 20
8.0
 30
0.0
 11
14.0
 21
9.5
 31
0.0
  0
LINE
  5
49
330
1E
100
AcDbEntity
  8
0
100
AcDbLine
 10
15.8
 20
10.5
 30
0.0
 11
17.8
 21
10.5
 31
0.0
  0
LINE
  5
4A
330
1E
100
AcDbEntity
  8
0
100
AcDbLine
 10
15.0
 20
10.5
 30
0.0
 11
15.8
 21
10.5
 31
0.0
  0
LINE
  5
4D
330
1E
100
AcDbEntity
  8
0
100
AcDbLine
 10
14.0
 20
43.79999999999999
 30
0.0
 11
17.0
 21
44.0
 31
0.0
  0
LINE
  5
4E
330
1E
100
AcDbEntity
  8
0
100
AcDbLine
 10
14.0
 20
58.2
 30
0.0
 11
17.0
 21
58.0
 31
0.0
  0
LINE
  5
4F
330
1E
100
AcDbEntity
  8
0
100
AcDbLine
 10
16.0
 20
10.5
 30
0.0
 11
17.0
 21
16.5
 31
0.0
  0
LINE
  5
50
330
1E
100
AcDbEntity
  8
0
100
AcDbLine
 10
12.9
 20
7.0
 30
0.0
 11
15.2
 21
7.0
 31
0.0
  0
LINE
  5
51
330
1E
100
AcDbEntity
  8
0
100
AcDbLine
 10
12.0
 20
7.0
 30
0.0
 11
12.9
 21
7.0
 31
0.0
  0
LINE
  5
52
330
1E
100
AcDbEntity
  8
0
100
AcDbLine
 10
10.0
 20
5.0
 30
0.0
 11
12.0
 21
7.0
 31
0.0
  0
LINE
  5
53
330
1E
100
AcDbEntity
  8
0
100
AcDbLine
 10
49.7
 20
0.0000000000000018
 30
0.0
 11
55.4
 21
0.0000000000000015
 31
0.0
  0
LINE
  5
54
330
1E
100
AcDbEntity
  8
0
100
AcDbLine
 10
55.4
 20
0.0000000000000015
 30
0.0
 11
59.8
 21
0.0000000000000012
 31
0.0
  0
LINE
  5
55
330
1E
100
AcDbEntity
  8
0
100
AcDbLine
 10
24.0
 20
7.0
 30
0.0
 11
29.8
 21
7.0
 31
0.0
  0
LINE
  5
58
330
1E
100
AcDbEntity
  8
0
100
AcDbLine
 10
17.0
 20
44.0
 30
0.0
 11
21.0
 21
45.0
 31
0.0
  0
LINE
  5
59
330
1E
100
AcDbEntity
  8
0
100
AcDbLine
 10
17.0
 20
58.0
 30
0.0
 11
21.0
 21
57.0
 31
0.0
  0
LINE
  5
5B
330
1E
100
AcDbEntity
  8
0
100
AcDbLine
 10
17.8
 20
10.5
 30
0.0
 11
21.2
 21
10.5
 31
0.0
  0
LINE
  5
5C
330
1E
100
AcDbEntity
  8
0
100
AcDbLine
 10
25.5
 20
10.5
 30
0.0
 11
30.6
 21
10.5
 31
0.0
  0
LINE
  5
5D
330
1E
100
AcDbEntity
  8
0
100
AcDbLine
 10
21.2
 20
10.5
 30
0.0
 11
25.5
 21
10.5
 31
0.0
  0
LINE
  5
61
330
1E
100
AcDbEntity
  8
0
100
AcDbLine
 10
21.0
 20
45.0
 30
0.0
 11
23.98039215686269
 21
46.11764705882349
 31
0.0
  0
LINE
  5
62
330
1E
100
AcDbEntity
  8
0
100
AcDbLine
 10
21.0
 20
57.0
 30
0.0
 11
24.0
 21
55.875
 31
0.0
  0
LINE
  5
65
330
1E
100
AcDbEntity
  8
0
100
AcDbLine
 10
26.0
 20
39.0
 30
0.0
 11
26.0
 21
38.0
 31
0.0
  0
LINE
  5
67
330
1E
100
AcDbEntity
  8
0
100
AcDbLine
 10
26.0
 20
39.0
 30
0.0
 11
27.0
 21
40.0
 31
0.0
  0
LINE
  5
68
330
1E
100
AcDbEntity
  8
0
100
AcDbLine
 10
26.0
 20
38.0
 30
0.0
 11
27.0
 21
37.0
 31
0.0
  0
LINE
  5
6A
330
1E
100
AcDbEntity
  8
0
100
AcDbLine
 10
26.0
 20
38.0
 30
0.0
 11
26.0
 21
39.0
 31
0.0
  0
LINE
  5
6B
330
1E
100
AcDbEntity
  8
0
100
AcDbLine
 10
27.0
 20
40.0
 30
0.0
 11
27.3
 21
40.0
 31
0.0
  0
LINE
  5
6C
330
1E
100
AcDbEntity
  8
0
100
AcDbLine
 10
24.0
 20
56.0
 30
0.0
 11
25.0
 21
59.0
 31
0.0
  0
LINE
  5
6D
330
1E
100
AcDbEntity
  8
0
100
AcDbLine
 10
23.98039215686269
 20
55.8823529411765
 30
0.0
 11
24.0
 21
56.0
 31
0.0
  0
LINE
  5
6E
330
1E
100
AcDbEntity
  8
0
100
AcDbLine
 10
23.98039215686269
 20
46.11764705882349
 30
0.0
 11
24.0
 21
46.0
 31
0.0
  0
LINE
  5
6F
330
1E
100
AcDbEntity
  8
0
100
AcDbLine
 10
26.5
 20
59.0
 30
0.0
 11
28.2
 21
59.0
 31
0.0
  0
LINE
  5
70
330
1E
100
AcDbEntity
  8
0
100
AcDbLine
 10
25.4
 20
59.0
 30
0.0
 11
26.5
 21
59.0
 31
0.0
  0
LINE
  5
71
330
1E
100
AcDbEntity
  8
0
100
AcDbLine
 10
24.5
 20
60.5
 30
0.0
 11
24.5
 21
59.5
 31
0.0
  0
LINE
  5
73
330
1E
100
AcDbEntity
  8
0
100
AcDbLine
 10
24.5
 20
60.5
 30
0.0
 11
25.0
 21
61.0
 31
0.0
  0
LINE
  5
75
330
1E
100
AcDbEntity
  8
0
100
AcDbLine
 10
26.5
 20
61.0
 30
0.0
 11
28.2
 21
61.0
 31
0.0
  0
LINE
  5
76
330
1E
100
AcDbEntity
  8
0
100
AcDbLine
 10
25.4
 20
61.0
 30
0.0
 11
26.5
 21
61.0
 31
0.0
  0
LINE
  5
77
330
1E
100
AcDbEntity
  8
0
100
AcDbLine
 10
25.0
 20
61.0
 30
0.0
 11
25.4
 21
61.0
 31
0.0
  0
LINE
  5
78
330
1E
100
AcDbEntity
  8
0
100
AcDbLine
 10
25.0
 20
61.0
 30
0.0
 11
28.8
 21
63.5
 31
0.0
  0
LINE
  5
7C
330
1E
100
AcDbEntity
  8
0
100
AcDbLine
 10
24.5
 20
59.5
 30
0.0
 11
25.0
 21
59.0
 31
0.0
  0
LINE
  5
7E
330
1E
100
AcDbEntity
  8
0
100
AcDbLine
 10
24.5
 20
59.5
 30
0.0
 11
24.5
 21
60.5
 31
0.0
  0
LINE
  5
7F
330
1E
100
AcDbEntity
  8
0
100
AcDbLine
 10
25.0
 20
59.0
 30
0.0
 11
25.4
 21
59.0
 31
0.0
  0
LINE
  5
80
330
1E
100
AcDbEntity
  8
0
100
AcDbLine
 10
24.0
 20
46.0
 30
0.0
 11
25.0
 21
43.0
 31
0.0
  0
LINE
  5
81
330
1E
100
AcDbEntity
  8
0
100
AcDbLine
 10
25.0
 20
43.0
 30
0.0
 11
27.0
 21
40.0
 31
0.0
  0
LINE
  5
82
330
1E
100
AcDbEntity
  8
0
100
AcDbLine
 10
28.2
 20
37.0
 30
0.0
 11
29.6
 21
37.0
 31
0.0
  0
LINE
  5
87
330
1E
100
AcDbEntity
  8
0
100
AcDbLine
 10
28.2
 20
61.0
 30
0.0
 11
30.5
 21
61.0
 31
0.0
  0
LINE
  5
8A
330
1E
100
AcDbEntity
  8
0
100
AcDbLine
 10
28.8
 20
49.0
 30
0.0
 11
29.5
 21
47.2
 31
0.0
  0
LINE
  5
8B
330
1E
100
AcDbEntity
  8
0
100
AcDbLine
 10
28.8
 20
63.5
 30
0.0
 11
32.7
 21
64.8
 31
0.0
  0
LINE
  5
8C
330
1E
100
AcDbEntity
  8
0
100
AcDbLine
 10
28.8
 20
53.0
 30
0.0
 11
29.5
 21
54.8
 31
0.0
  0
LINE
  5
8D
330
1E
100
AcDbEntity
  8
0
100
AcDbLine
 10
28.5
 20
51.0
 30
0.0
 11
28.8
 21
53.0
 31
0.0
  0
LINE
  5
8E
330
1E
100
AcDbEntity
  8
0
100
AcDbLine
 10
28.5
 20
51.0
 30
0.0
 11
28.8
 21
49.0
 31
0.0
  0
LINE
  5
8F
330
1E
100
AcDbEntity
  8
0
100
AcDbLine
 10
28.2
 20
59.0
 30
0.0
 11
30.5
 21
59.0
 31
0.0
  0
LINE
  5
90
330
1E
100
AcDbEntity
  8
0
100
AcDbLine
 10
28.2
 20
40.0
 30
0.0
 11
29.6
 21
40.0
 31
0.0
  0
LINE
  5
91
330
1E
100
AcDbEntity
  8
0
100
AcDbLine
 10
27.3
 20
40.0
 30
0.0
 11
28.2
 21
40.0
 31
0.0
  0
LINE
  5
92
330
1E
100
AcDbEntity
  8
0
100
AcDbLine
 10
27.3
 20
37.0
 30
0.0
 11
28.2
 21
37.0
 31
0.0
  0
LINE
  5
93
330
1E
100
AcDbEntity
  8
0
100
AcDbLine
 10
27.0
 20
37.0
 30
0.0
 11
27.3
 21
37.0
 31
0.0
  0
LINE
  5
94
330
1E
100
AcDbEntity
  8
0
100
AcDbLine
 10
24.0
 20
34.0
 30
0.0
 11
27.0
 21
37.0
 31
0.0
  0
LINE
  5
95
330
1E
100
AcDbEntity
  8
0
100
AcDbLine
 10
21.49999999999999
 20
29.0
 30
0.0
 11
24.0
 21
34.0
 31
0.0
  0
LINE
  5
96
330
1E
100
AcDbEntity
  8
0
100
AcDbLine
 10
19.0
 20
23.0
 30
0.0
 11
21.49999999999999
 21
29.0
 31
0.0
  0
LINE
  5
97
330
1E
100
AcDbEntity
  8
0
100
AcDbLine
 10
17.0
 20
16.5
 30
0.0
 11
19.0
 21
23.0
 31
0.0
  0
LINE
  5
98
330
1E
100
AcDbEntity
  8
0
100
AcDbLine
 10
19.1
 20
7.0
 30
0.0
 11
24.0
 21
7.0
 31
0.0
  0
LINE
  5
99
330
1E
100
AcDbEntity
  8
0
100
AcDbLine
 10
42.2
 20
7.0
 30
0.0
 11
48.0
 21
7.0
 31
0.0
  0
LINE
  5
9A
330
1E
100
AcDbEntity
  8
0
100
AcDbLine
 10
48.0
 20
7.0
 30
0.0
 11
52.9
 21
7.0
 31
0.0
  0
LINE
  5
9B
330
1E
100
AcDbEntity
  8
0
100
AcDbLine
 10
52.9
 20
7.0
 30
0.0
 11
56.79999999999999
 21
7.0
 31
0.0
  0
LINE
  5
9C
330
1E
100
AcDbEntity
  8
0
100
AcDbLine
 10
57.0
 20
7.0
 30
0.0
 11
58.0
 21
8.0
 31
0.0
  0
LINE
  5
9D
330
1E
100
AcDbEntity
  8
0
100
AcDbLine
 10
56.79999999999999
 20
7.0
 30
0.0
 11
59.1
 21
7.0
 31
0.0
  0
LINE
  5
9E
330
1E
100
AcDbEntity
  8
0
100
AcDbLine
 10
59.1
 20
7.0
 30
0.0
 11
60.0
 21
7.0
 31
0.0
  0
LINE
  5
9F
330
1E
100
AcDbEntity
  8
0
100
AcDbLine
 10
60.0
 20
7.0
 30
0.0
 11
62.0
 21
5.0
 31
0.0
  0
LINE
  5
A0
330
1E
100
AcDbEntity
  8
0
100
AcDbLine
 10
62.0
 20
5.0
 30
0.0
 11
63.0
 21
3.0
 31
0.0
  0
LINE
  5
A1
330
1E
100
AcDbEntity
  8
0
100
AcDbLine
 10
36.0
 20
0.000000000000002
 30
0.0
 11
43.1
 21
0.0000000000000019
 31
0.0
  0
LINE
  5
A2
330
1E
100
AcDbEntity
  8
0
100
AcDbLine
 10
43.1
 20
0.0000000000000019
 30
0.0
 11
49.7
 21
0.0000000000000018
 31
0.0
  0
LINE
  5
A3
330
1E
100
AcDbEntity
  8
0
100
AcDbLine
 10
63.0
 20
3.0
 30
0.0
 11
63.5
 21
0.0000000000000006
 31
0.0
  0
LINE
  5
A4
330
1E
100
AcDbEntity
  8
0
100
AcDbLine
 10
63.0
 20
3.0
 30
0.0
 11
63.5
 21
0.0000000000000003
 31
0.0
  0
LINE
  5
A5
330
1E
100
AcDbEntity
  8
0
100
AcDbLine
 10
29.5
 20
47.2
 30
0.0
 11
30.7
 21
45.7
 31
0.0
  0
LINE
  5
A6
330
1E
100
AcDbEntity
  8
0
100
AcDbLine
 10
29.5
 20
54.8
 30
0.0
 11
30.7
 21
56.29999999999999
 31
0.0
  0
LINE
  5
A7
330
1E
100
AcDbEntity
  8
0
100
AcDbLine
 10
29.6
 20
40.0
 30
0.0
 11
31.5
 21
40.0
 31
0.0
  0
LINE
  5
A8
330
1E
100
AcDbEntity
  8
0
100
AcDbLine
 10
30.6
 20
10.5
 30
0.0
 11
36.0
 21
10.5
 31
0.0
  0
LINE
  5
AB
330
1E
100
AcDbEntity
  8
0
100
AcDbLine
 10
36.0
 20
10.5
 30
0.0
 11
41.39999999999999
 21
10.5
 31
0.0
  0
LINE
  5
B1
330
1E
100
AcDbEntity
  8
0
100
AcDbLine
 10
41.39999999999999
 20
10.5
 30
0.0
 11
46.5
 21
10.5
 31
0.0
  0
LINE
  5
B2
330
1E
100
AcDbEntity
  8
0
100
AcDbLine
 10
46.5
 20
10.5
 30
0.0
 11
50.8
 21
10.5
 31
0.0
  0
LINE
  5
B3
330
1E
100
AcDbEntity
  8
0
100
AcDbLine
 10
50.8
 20
10.5
 30
0.0
 11
54.2
 21
10.5
 31
0.0
  0
LINE
  5
B5
330
1E
100
AcDbEntity
  8
0
100
AcDbLine
 10
54.2
 20
10.5
 30
0.0
 11
56.2
 21
10.5
 31
0.0
  0
LINE
  5
B8
330
1E
100
AcDbEntity
  8
0
100
AcDbLine
 10
36.0
 20
37.0
 30
0.0
 11
38.3
 21
37.0
 31
0.0
  0
LINE
  5
B9
330
1E
100
AcDbEntity
  8
0
100
AcDbLine
 10
38.3
 20
37.0
 30
0.0
 11
40.49999999999999
 21
37.0
 31
0.0
  0
LINE
  5
BA
330
1E
100
AcDbEntity
  8
0
100
AcDbLine
 10
40.49999999999999
 20
37.0
 30
0.0
 11
42.4
 21
37.0
 31
0.0
  0
LINE
  5
BB
330
1E
100
AcDbEntity
  8
0
100
AcDbLine
 10
42.4
 20
37.0
 30
0.0
 11
43.79999999999999
 21
37.0
 31
0.0
  0
LINE
  5
BC
330
1E
100
AcDbEntity
  8
0
100
AcDbLine
 10
43.79999999999999
 20
37.0
 30
0.0
 11
44.7
 21
37.0
 31
0.0
  0
LINE
  5
BD
330
1E
100
AcDbEntity
  8
0
100
AcDbLine
 10
44.7
 20
37.0
 30
0.0
 11
45.0
 21
37.0
 31
0.0
  0
LINE
  5
BE
330
1E
100
AcDbEntity
  8
0
100
AcDbLine
 10
45.0
 20
37.0
 30
0.0
 11
48.0
 21
34.0
 31
0.0
  0
LINE
  5
BF
330
1E
100
AcDbEntity
  8
0
100
AcDbLine
 10
45.0
 20
37.0
 30
0.0
 11
46.0
 21
38.0
 31
0.0
  0
LINE
  5
C0
330
1E
100
AcDbEntity
  8
0
100
AcDbLine
 10
48.0
 20
34.0
 30
0.0
 11
50.5
 21
29.0
 31
0.0
  0
LINE
  5
C1
330
1E
100
AcDbEntity
  8
0
100
AcDbLine
 10
50.5
 20
29.0
 30
0.0
 11
53.0
 21
23.0
 31
0.0
  0
LINE
  5
C2
330
1E
100
AcDbEntity
  8
0
100
AcDbLine
 10
53.0
 20
23.0
 30
0.0
 11
55.0
 21
16.5
 31
0.0
  0
LINE
  5
C3
330
1E
100
AcDbEntity
  8
0
100
AcDbLine
 10
58.0
 20
8.0
 30
0.0
 11
58.0
 21
9.5
 31
0.0
  0
LINE
  5
C5
330
1E
100
AcDbEntity
  8
0
100
AcDbLine
 10
56.2
 20
10.5
 30
0.0
 11
57.0
 21
10.5
 31
0.0
  0
LINE
  5
C6
330
1E
100
AcDbEntity
  8
0
100
AcDbLine
 10
57.0
 20
10.5
 30
0.0
 11
58.0
 21
9.5
 31
0.0
  0
LINE
  5
C8
330
1E
100
AcDbEntity
  8
0
100
AcDbLine
 10
58.0
 20
9.5
 30
0.0
 11
58.0
 21
8.0
 31
0.0
  0
LINE
  5
CB
330
1E
100
AcDbEntity
  8
0
100
AcDbLine
 10
55.0
 20
16.5
 30
0.0
 11
56.0
 21
10.5
 31
0.0
  0
LINE
  5
CC
330
1E
100
AcDbEntity
  8
0
100
AcDbLine
 10
36.0
 20
7.0
 30
0.0
 11
42.2
 21
7.0
 31
0.0
  0
LINE
  5
CD
330
1E
100
AcDbEntity
  8
0
100
AcDbLine
 10
33.7
 20
37.0
 30
0.0
 11
36.0
 21
37.0
 31
0.0
  0
LINE
  5
CE
330
1E
100
AcDbEntity
  8
0
100
AcDbLine
 10
30.7
 20
45.7
 30
0.0
 11
32.2
 21
44.5
 31
0.0
  0
LINE
  5
D1
330
1E
100
AcDbEntity
  8
0
100
AcDbLine
 10
30.7
 20
56.29999999999999
 30
0.0
 11
32.2
 21
57.5
 31
0.0
  0
LINE
  5
D3
330
1E
100
AcDbEntity
  8
0
100
AcDbLine
 10
30.5
 20
61.0
 30
0.0
 11
33.2
 21
61.0
 31
0.0
  0
LINE
  5
D5
330
1E
100
AcDbEntity
  8
0
100
AcDbLine
 10
30.5
 20
59.0
 30
0.0
 11
33.2
 21
59.0
 31
0.0
  0
LINE
  5
DA
330
1E
100
AcDbEntity
  8
0
100
AcDbLine
 10
36.0
 20
40.0
 30
0.0
 11
38.3
 21
40.0
 31
0.0
  0
LINE
  5
DF
330
1E
100
AcDbEntity
  8
0
100
AcDbLine
 10
38.3
 20
40.0
 30
0.0
 11
40.49999999999999
 21
40.0
 31
0.0
  0
LINE
  5
E0
330
1E
100
AcDbEntity
  8
0
100
AcDbLine
 10
40.49999999999999
 20
40.0
 30
0.0
 11
42.4
 21
40.0
 31
0.0
  0
LINE
  5
E5
330
1E
100
AcDbEntity
  8
0
100
AcDbLine
 10
42.4
 20
40.0
 30
0.0
 11
43.79999999999999
 21
40.0
 31
0.0
  0
LINE
  5
E6
330
1E
100
AcDbEntity
  8
0
100
AcDbLine
 10
43.79999999999999
 20
40.0
 30
0.0
 11
44.7
 21
40.0
 31
0.0
  0
LINE
  5
E8
330
1E
100
AcDbEntity
  8
0
100
AcDbLine
 10
46.0
 20
39.0
 30
0.0
 11
46.0
 21
38.0
 31
0.0
  0
LINE
  5
E9
330
1E
100
AcDbEntity
  8
0
100
AcDbLine
 10
46.0
 20
38.0
 30
0.0
 11
46.0
 21
39.0
 31
0.0
  0
LINE
  5
EB
330
1E
100
AcDbEntity
  8
0
100
AcDbLine
 10
45.0
 20
40.0
 30
0.0
 11
47.0
 21
43.0
 31
0.0
  0
LINE
  5
EC
330
1E
100
AcDbEntity
  8
0
100
AcDbLine
 10
45.0
 20
40.0
 30
0.0
 11
46.0
 21
39.0
 31
0.0
  0
LINE
  5
ED
330
1E
100
AcDbEntity
  8
0
100
AcDbLine
 10
44.7
 20
40.0
 30
0.0
 11
45.0
 21
40.0
 31
0.0
  0
LINE
  5
EE
330
1E
100
AcDbEntity
  8
0
100
AcDbLine
 10
32.2
 20
44.5
 30
0.0
 11
34.0
 21
43.79999999999999
 31
0.0
  0
LINE
  5
EF
330
1E
100
AcDbEntity
  8
0
100
AcDbLine
 10
32.7
 20
64.8
 30
0.0
 11
36.0
 21
65.0
 31
0.0
  0
LINE
  5
F1
330
1E
100
AcDbEntity
  8
0
100
AcDbLine
 10
33.2
 20
61.0
 30
0.0
 11
36.0
 21
61.0
 31
0.0
  0
LINE
  5
F3
330
1E
100
AcDbEntity
  8
0
100
AcDbLine
 10
32.2
 20
57.5
 30
0.0
 11
34.0
 21
58.2
 31
0.0
  0
LINE
  5
F4
330
1E
100
AcDbEntity
  8
0
100
AcDbLine
 10
34.0
 20
43.79999999999999
 30
0.0
 11
36.0
 21
43.5
 31
0.0
  0
LINE
  5
F5
330
1E
100
AcDbEntity
  8
0
100
AcDbLine
 10
36.0
 20
43.5
 30
0.0
 11
38.0
 21
43.79999999999999
 31
0.0
  0
LINE
  5
F6
330
1E
100
AcDbEntity
  8
0
100
AcDbLine
 10
38.0
 20
43.79999999999999
 30
0.0
 11
39.8
 21
44.5
 31
0.0
  0
LINE
  5
F7
330
1E
100
AcDbEntity
  8
0
100
AcDbLine
 10
39.8
 20
44.5
 30
0.0
 11
41.29999999999999
 21
45.7
 31
0.0
  0
LINE
  5
F8
330
1E
100
AcDbEntity
  8
0
100
AcDbLine
 10
41.29999999999999
 20
45.7
 30
0.0
 11
42.5
 21
47.2
 31
0.0
  0
LINE
  5
F9
330
1E
100
AcDbEntity
  8
0
100
AcDbLine
 10
42.5
 20
54.8
 30
0.0
 11
43.2
 21
53.0
 31
0.0
  0
LINE
  5
FA
330
1E
100
AcDbEntity
  8
0
100
AcDbLine
 10
43.2
 20
53.0
 30
0.0
 11
43.5
 21
51.0
 31
0.0
  0
LINE
  5
FB
330
1E
100
AcDbEntity
  8
0
100
AcDbLine
 10
42.5
 20
47.2
 30
0.0
 11
43.2
 21
49.0
 31
0.0
  0
LINE
  5
FC
330
1E
100
AcDbEntity
  8
0
100
AcDbLine
 10
48.0
 20
46.12499999999999
 30
0.0
 11
51.0
 21
45.0
 31
0.0
  0
LINE
  5
FD
330
1E
100
AcDbEntity
  8
0
100
AcDbLine
 10
43.2
 20
49.0
 30
0.0
 11
43.5
 21
51.0
 31
0.0
  0
LINE
  5
FE
330
1E
100
AcDbEntity
  8
0
100
AcDbLine
 10
34.0
 20
58.2
 30
0.0
 11
36.0
 21
58.5
 31
0.0
  0
LINE
  5
FF
330
1E
100
AcDbEntity
  8
0
100
AcDbLine
 10
36.0
 20
58.5
 30
0.0
 11
38.0
 21
58.2
 31
0.0
  0
LINE
  5
100
330
1E
100
AcDbEntity
  8
0
100
AcDbLine
 10
38.0
 20
58.2
 30
0.0
 11
39.8
 21
57.5
 31
0.0
  0
LINE
  5
101
330
1E
100
AcDbEntity
  8
0
100
AcDbLine
 10
39.8
 20
57.5
 30
0.0
 11
41.29999999999999
 21
56.29999999999999
 31
0.0
  0
LINE
  5
102
330
1E
100
AcDbEntity
  8
0
100
AcDbLine
 10
41.29999999999999
 20
56.29999999999999
 30
0.0
 11
42.5
 21
54.8
 31
0.0
  0
LINE
  5
103
330
1E
100
AcDbEntity
  8
0
100
AcDbLine
 10
36.0
 20
59.0
 30
0.0
 11
38.79999999999999
 21
59.0
 31
0.0
  0
LINE
  5
104
330
1E
100
AcDbEntity
  8
0
100
AcDbLine
 10
38.79999999999999
 20
59.0
 30
0.0
 11
41.5
 21
59.0
 31
0.0
  0
LINE
  5
105
330
1E
100
AcDbEntity
  8
0
100
AcDbLine
 10
41.5
 20
59.0
 30
0.0
 11
43.79999999999999
 21
59.0
 31
0.0
  0
LINE
  5
106
330
1E
100
AcDbEntity
  8
0
100
AcDbLine
 10
43.79999999999999
 20
59.0
 30
0.0
 11
45.49999999999999
 21
59.0
 31
0.0
  0
LINE
  5
107
330
1E
100
AcDbEntity
  8
0
100
AcDbLine
 10
45.49999999999999
 20
59.0
 30
0.0
 11
46.6
 21
59.0
 31
0.0
  0
LINE
  5
10E
330
1E
100
AcDbEntity
  8
0
100
AcDbLine
 10
36.0
 20
61.0
 30
0.0
 11
38.79999999999999
 21
61.0
 31
0.0
  0
LINE
  5
10F
330
1E
100
AcDbEntity
  8
0
100
AcDbLine
 10
38.79999999999999
 20
61.0
 30
0.0
 11
41.5
 21
61.0
 31
0.0
  0
LINE
  5
110
330
1E
100
AcDbEntity
  8
0
100
AcDbLine
 10
41.5
 20
61.0
 30
0.0
 11
43.79999999999999
 21
61.0
 31
0.0
  0
LINE
  5
111
330
1E
100
AcDbEntity
  8
0
100
AcDbLine
 10
36.0
 20
65.0
 30
0.0
 11
39.29999999999999
 21
64.8
 31
0.0
  0
LINE
  5
112
330
1E
100
AcDbEntity
  8
0
100
AcDbLine
 10
39.29999999999999
 20
64.8
 30
0.0
 11
43.2
 21
63.5
 31
0.0
  0
LINE
  5
113
330
1E
100
AcDbEntity
  8
0
100
AcDbLine
 10
43.2
 20
63.5
 30
0.0
 11
47.0
 21
61.0
 31
0.0
  0
LINE
  5
114
330
1E
100
AcDbEntity
  8
0
100
AcDbLine
 10
43.79999999999999
 20
61.0
 30
0.0
 11
45.49999999999999
 21
61.0
 31
0.0
  0
LINE
  5
115
330
1E
100
AcDbEntity
  8
0
100
AcDbLine
 10
45.49999999999999
 20
61.0
 30
0.0
 11
46.6
 21
61.0
 31
0.0
  0
LINE
  5
119
330
1E
100
AcDbEntity
  8
0
100
AcDbLine
 10
46.6
 20
61.0
 30
0.0
 11
47.0
 21
61.0
 31
0.0
  0
LINE
  5
11A
330
1E
100
AcDbEntity
  8
0
100
AcDbLine
 10
47.0
 20
61.0
 30
0.0
 11
47.5
 21
60.5
 31
0.0
  0
LINE
  5
11C
330
1E
100
AcDbEntity
  8
0
100
AcDbLine
 10
46.6
 20
59.0
 30
0.0
 11
47.0
 21
59.0
 31
0.0
  0
LINE
  5
11D
330
1E
100
AcDbEntity
  8
0
100
AcDbLine
 10
47.5
 20
59.5
 30
0.0
 11
47.5
 21
60.5
 31
0.0
  0
LINE
  5
11E
330
1E
100
AcDbEntity
  8
0
100
AcDbLine
 10
47.5
 20
60.5
 30
0.0
 11
47.5
 21
59.5
 31
0.0
  0
LINE
  5
121
330
1E
100
AcDbEntity
  8
0
100
AcDbLine
 10
47.0
 20
59.0
 30
0.0
 11
48.0
 21
56.0
 31
0.0
  0
LINE
  5
122
330
1E
100
AcDbEntity
  8
0
100
AcDbLine
 10
47.0
 20
59.0
 30
0.0
 11
47.5
 21
59.5
 31
0.0
  0
LINE
  5
123
330
1E
100
AcDbEntity
  8
0
100
AcDbLine
 10
48.0
 20
56.0
 30
0.0
 11
48.01960784313729
 21
55.8823529411765
 31
0.0
  0
LINE
  5
124
330
1E
100
AcDbEntity
  8
0
100
AcDbLine
 10
51.0
 20
45.0
 30
0.0
 11
55.0
 21
44.0
 31
0.0
  0
LINE
  5
125
330
1E
100
AcDbEntity
  8
0
100
AcDbLine
 10
55.0
 20
44.0
 30
0.0
 11
58.0
 21
43.79999999999999
 31
0.0
  0
LINE
  5
126
330
1E
100
AcDbEntity
  8
0
100
AcDbLine
 10
58.0
 20
43.79999999999999
 30
0.0
 11
62.0
 21
43.5
 31
0.0
  0
LINE
  5
127
330
1E
100
AcDbEntity
  8
0
100
AcDbLine
 10
62.0
 20
43.5
 30
0.0
 11
65.5
 21
44.0
 31
0.0
  0
LINE
  5
128
330
1E
100
AcDbEntity
  8
0
100
AcDbLine
 10
65.5
 20
44.0
 30
0.0
 11
68.0
 21
45.0
 31
0.0
  0
LINE
  5
129
330
1E
100
AcDbEntity
  8
0
100
AcDbLine
 10
68.0
 20
45.0
 30
0.0
 11
70.0
 21
46.5
 31
0.0
  0
LINE
  5
12A
330
1E
100
AcDbEntity
  8
0
100
AcDbLine
 10
70.0
 20
46.5
 30
0.0
 11
71.5
 21
48.5
 31
0.0
  0
LINE
  5
12B
330
1E
100
AcDbEntity
  8
0
100
AcDbLine
 10
48.01960784313729
 20
55.8823529411765
 30
0.0
 11
51.0
 21
57.0
 31
0.0
  0
LINE
  5
12C
330
1E
100
AcDbEntity
  8
0
100
AcDbLine
 10
51.0
 20
57.0
 30
0.0
 11
55.0
 21
58.0
 31
0.0
  0
LINE
  5
12D
330
1E
100
AcDbEntity
  8
0
100
AcDbLine
 10
55.0
 20
58.0
 30
0.0
 11
58.0
 21
58.2
 31
0.0
  0
LINE
  5
12E
330
1E
100
AcDbEntity
  8
0
100
AcDbLine
 10
58.0
 20
58.2
 30
0.0
 11
62.0
 21
58.5
 31
0.0
  0
LINE
  5
12F
330
1E
100
AcDbEntity
  8
0
100
AcDbLine
 10
62.0
 20
58.5
 30
0.0
 11
65.5
 21
58.0
 31
0.0
  0
LINE
  5
130
330
1E
100
AcDbEntity
  8
0
100
AcDbLine
 10
65.5
 20
58.0
 30
0.0
 11
68.0
 21
57.0
 31
0.0
  0
LINE
  5
131
330
1E
100
AcDbEntity
  8
0
100
AcDbLine
 10
68.0
 20
57.0
 30
0.0
 11
70.0
 21
55.5
 31
0.0
  0
LINE
  5
132
330
1E
100
AcDbEntity
  8
0
100
AcDbLine
 10
70.0
 20
55.5
 30
0.0
 11
71.5
 21
53.5
 31
0.0
  0
LINE
  5
133
330
1E
100
AcDbEntity
  8
0
100
AcDbLine
 10
71.5
 20
53.5
 30
0.0
 11
72.0
 21
51.0
 31
0.0
  0
LINE
  5
134
330
1E
100
AcDbEntity
  8
0
100
AcDbLine
 10
71.5
 20
48.5
 30
0.0
 11
72.0
 21
51.0
 31
0.0
  0
LINE
  5
135
330
1E
100
AcDbEntity
  8
0
100
AcDbLine
 10
48.0
 20
46.0
 30
0.0
 11
48.01960784313729
 21
46.11764705882349
 31
0.0
  0
LINE
  5
136
330
1E
100
AcDbEntity
  8
0
100
AcDbLine
 10
47.0
 20
43.0
 30
0.0
 11
48.0
 21
46.0
 31
0.0
  0
LINE
  5
137
330
1E
100
AcDbEntity
  8
0
100
AcDbLine
 10
33.2
 20
59.0
 30
0.0
 11
36.0
 21
59.0
 31
0.0
  0
LINE
  5
138
330
1E
100
AcDbEntity
  8
0
100
AcDbLine
 10
33.7
 20
40.0
 30
0.0
 11
36.0
 21
40.0
 31
0.0
  0
LINE
  5
139
330
1E
100
AcDbEntity
  8
0
100
AcDbLine
 10
31.5
 20
40.0
 30
0.0
 11
33.7
 21
40.0
 31
0.0
  0
LINE
  5
13A
330
1E
100
AcDbEntity
  8
0
100
AcDbLine
 10
31.5
 20
37.0
 30
0.0
 11
33.7
 21
37.0
 31
0.0
  0
LINE
  5
13B
330
1E
100
AcDbEntity
  8
0
100
AcDbLine
 10
29.6
 20
37.0
 30
0.0
 11
31.5
 21
37.0
 31
0.0
  0
LINE
  5
13C
330
1E
100
AcDbEntity
  8
0
100
AcDbLine
 10
29.8
 20
7.0
 30
0.0
 11
36.0
 21
7.0
 31
0.0
  0
LINE
  5
13D
330
1E
100
AcDbEntity
  8
0
100
AcDbLine
 10
28.9
 20
0.0000000000000019
 30
0.0
 11
36.0
 21
0.000000000000002
 31
0.0
  0
LINE
  5
13E
330
1E
100
AcDbEntity
  8
0
100
AcDbLine
 10
22.29999999999999
 20
0.0000000000000018
 30
0.0
 11
28.9
 21
0.0000000000000019
 31
0.0
  0
LINE
  5
13F
330
1E
100
AcDbEntity
  8
0
100
AcDbLine
 10
16.6
 20
0.0000000000000015
 30
0.0
 11
22.29999999999999
 21
0.0000000000000018
 31
0.0
  0
LINE
  5
140
330
1E
100
AcDbEntity
  8
0
100
AcDbLine
 10
12.19999999999999
 20
0.0000000000000012
 30
0.0
 11
16.6
 21
0.0000000000000015
 31
0.0
  0
LINE
  5
141
330
1E
100
AcDbEntity
  8
0
100
AcDbLine
 10
9.5
 20
0.0000000000000008
 30
0.0
 11
12.19999999999999
 21
0.0000000000000012
 31
0.0
  0
LINE
  5
142
330
1E
100
AcDbEntity
  8
0
100
AcDbLine
 10
105.4999999999999
 20
0.0000000000000006
 30
0.0
 11
107.0
 21
3.0
 31
0.0
  0
LINE
  5
143
330
1E
100
AcDbEntity
  8
0
100
AcDbLine
 10
136.0
 20
-0.0000000000000015
 30
0.0
 11
143.9
 21
-0.0000000000000015
 31
0.0
  0
LINE
  5
147
330
1E
100
AcDbEntity
  8
0
100
AcDbLine
 10
143.9
 20
-0.0000000000000015
 30
0.0
 11
151.2
 21
-0.0000000000000013
 31
0.0
  0
LINE
  5
148
330
1E
100
AcDbEntity
  8
0
100
AcDbLine
 10
151.2
 20
-0.0000000000000013
 30
0.0
 11
157.6
 21
-0.000000000000001
 31
0.0
  0
LINE
  5
149
330
1E
100
AcDbEntity
  8
0
100
AcDbLine
 10
128.0999999999999
 20
-0.0000000000000015
 30
0.0
 11
136.0
 21
-0.0000000000000015
 31
0.0
  0
LINE
  5
14A
330
1E
100
AcDbEntity
  8
0
100
AcDbLine
 10
157.6
 20
-0.000000000000001
 30
0.0
 11
162.5
 21
-0.0000000000000006
 31
0.0
  0
LINE
  5
14F
330
1E
100
AcDbEntity
  8
0
100
AcDbLine
 10
162.5
 20
-0.0000000000000006
 30
0.0
 11
165.5
 21
-0.0000000000000002
 31
0.0
  0
LINE
  5
150
330
1E
100
AcDbEntity
  8
0
100
AcDbLine
 10
120.7999999999999
 20
-0.0000000000000013
 30
0.0
 11
128.0999999999999
 21
-0.0000000000000015
 31
0.0
  0
LINE
  5
151
330
1E
100
AcDbEntity
  8
0
100
AcDbLine
 10
114.4
 20
-0.000000000000001
 30
0.0
 11
120.7999999999999
 21
-0.0000000000000013
 31
0.0
  0
LINE
  5
152
330
1E
100
AcDbEntity
  8
0
100
AcDbLine
 10
165.5
 20
0.0000000000000008
 30
0.0
 11
166.5
 21
0.0000000000000003
 31
0.0
  0
LINE
  5
15D
330
1E
100
AcDbEntity
  8
0
100
AcDbLine
 10
165.5
 20
-0.0000000000000002
 30
0.0
 11
166.5
 21
0.0000000000000003
 31
0.0
  0
LINE
  5
15E
330
1E
100
AcDbEntity
  8
0
100
AcDbLine
 10
109.4999999999999
 20
-0.0000000000000006
 30
0.0
 11
114.4
 21
-0.000000000000001
 31
0.0
  0
LINE
  5
15F
330
1E
100
AcDbEntity
  8
0
100
AcDbLine
 10
106.4999999999999
 20
-0.0000000000000002
 30
0.0
 11
109.4999999999999
 21
-0.0000000000000006
 31
0.0
  0
LINE
  5
160
330
1E
100
AcDbEntity
  8
0
100
AcDbLine
 10
109.0
 20
5.5
 30
0.0
 11
111.4999999999999
 21
7.0
 31
0.0
  0
LINE
  5
161
330
1E
100
AcDbEntity
  8
0
100
AcDbLine
 10
107.0
 20
3.0
 30
0.0
 11
109.0
 21
5.5
 31
0.0
  0
LINE
  5
162
330
1E
100
AcDbEntity
  8
0
100
AcDbLine
 10
157.6
 20
0.0000000000000016
 30
0.0
 11
162.5
 21
0.0000000000000013
 31
0.0
  0
LINE
  5
167
330
1E
100
AcDbEntity
  8
0
100
AcDbLine
 10
162.5
 20
0.0000000000000013
 30
0.0
 11
165.5
 21
0.0000000000000008
 31
0.0
  0
LINE
  5
168
330
1E
100
AcDbEntity
  8
0
100
AcDbLine
 10
112.0
 20
9.5
 30
0.0
 11
112.0
 21
8.0
 31
0.0
  0
LINE
  5
16A
330
1E
100
AcDbEntity
  8
0
100
AcDbLine
 10
112.0
 20
9.5
 30
0.0
 11
113.0
 21
10.5
 31
0.0
  0
LINE
  5
16B
330
1E
100
AcDbEntity
  8
0
100
AcDbLine
 10
112.0
 20
8.0
 30
0.0
 11
113.0
 21
7.0
 31
0.0
  0
LINE
  5
16D
330
1E
100
AcDbEntity
  8
0
100
AcDbLine
 10
112.0
 20
8.0
 30
0.0
 11
112.0
 21
9.5
 31
0.0
  0
LINE
  5
16E
330
1E
100
AcDbEntity
  8
0
100
AcDbLine
 10
118.7
 20
7.0
 30
0.0
 11
123.7999999999999
 21
7.0
 31
0.0
  0
LINE
  5
16F
330
1E
100
AcDbEntity
  8
0
100
AcDbLine
 10
113.7999999999999
 20
10.5
 30
0.0
 11
116.0
 21
10.5
 31
0.0
  0
LINE
  5
170
330
1E
100
AcDbEntity
  8
0
100
AcDbLine
 10
113.0
 20
10.5
 30
0.0
 11
113.7999999999999
 21
10.5
 31
0.0
  0
LINE
  5
173
330
1E
100
AcDbEntity
  8
0
100
AcDbLine
 10
113.7999999999999
 20
10.5
 30
0.0
 11
114.2
 21
38.1
 31
0.0
  0
LINE
  5
17A
330
1E
100
AcDbEntity
  8
0
100
AcDbLine
 10
116.0
 20
10.5
 30
0.0
 11
119.7
 21
10.5
 31
0.0
  0
LINE
  5
17B
330
1E
100
AcDbEntity
  8
0
100
AcDbLine
 10
119.7
 20
10.5
 30
0.0
 11
124.5
 21
10.5
 31
0.0
  0
LINE
  5
17C
330
1E
100
AcDbEntity
  8
0
100
AcDbLine
 10
119.0
 20
47.2
 30
0.0
 11
119.5999999999999
 21
45.0
 31
0.0
  0
LINE
  5
17D
330
1E
100
AcDbEntity
  8
0
100
AcDbLine
 10
119.0
 20
47.2
 30
0.0
 11
119.5999999999999
 21
49.4
 31
0.0
  0
LINE
  5
17E
330
1E
100
AcDbEntity
  8
0
100
AcDbLine
 10
119.5999999999999
 20
45.0
 30
0.0
 11
121.3
 21
43.0
 31
0.0
  0
LINE
  5
17F
330
1E
100
AcDbEntity
  8
0
100
AcDbLine
 10
119.5
 20
44.2
 30
0.0
 11
121.3
 21
43.0
 31
0.0
  0
LINE
  5
180
330
1E
100
AcDbEntity
  8
0
100
AcDbLine
 10
117.7
 20
46.5
 30
0.0
 11
119.5
 21
44.2
 31
0.0
  0
LINE
  5
181
330
1E
100
AcDbEntity
  8
0
100
AcDbLine
 10
119.5999999999999
 20
49.4
 30
0.0
 11
121.3
 21
51.5
 31
0.0
  0
LINE
  5
182
330
1E
100
AcDbEntity
  8
0
100
AcDbLine
 10
119.5
 20
53.7
 30
0.0
 11
122.5999999999999
 21
55.8
 31
0.0
  0
LINE
  5
183
330
1E
100
AcDbEntity
  8
0
100
AcDbLine
 10
117.7
 20
51.4
 30
0.0
 11
119.5
 21
53.7
 31
0.0
  0
LINE
  5
184
330
1E
100
AcDbEntity
  8
0
100
AcDbLine
 10
117.0
 20
53.2
 30
0.0
 11
117.0
 21
49.0
 31
0.0
  0
LINE
  5
185
330
1E
100
AcDbEntity
  8
0
100
AcDbLine
 10
117.0
 20
49.0
 30
0.0
 11
117.7
 21
46.5
 31
0.0
  0
LINE
  5
186
330
1E
100
AcDbEntity
  8
0
100
AcDbLine
 10
117.0
 20
49.0
 30
0.0
 11
117.0
 21
53.2
 31
0.0
  0
LINE
  5
187
330
1E
100
AcDbEntity
  8
0
100
AcDbLine
 10
117.0
 20
49.0
 30
0.0
 11
117.7
 21
51.4
 31
0.0
  0
LINE
  5
188
330
1E
100
AcDbEntity
  8
0
100
AcDbLine
 10
116.7999999999999
 20
56.7
 30
0.0
 11
117.0
 21
53.2
 31
0.0
  0
LINE
  5
189
330
1E
100
AcDbEntity
  8
0
100
AcDbLine
 10
116.5999999999999
 20
59.8
 30
0.0
 11
116.7999999999999
 21
56.7
 31
0.0
  0
LINE
  5
18A
330
1E
100
AcDbEntity
  8
0
100
AcDbLine
 10
116.3
 20
62.6
 30
0.0
 11
116.5999999999999
 21
59.8
 31
0.0
  0
LINE
  5
18B
330
1E
100
AcDbEntity
  8
0
100
AcDbLine
 10
116.2
 20
64.29999999999999
 30
0.0
 11
116.3
 21
62.6
 31
0.0
  0
LINE
  5
18C
330
1E
100
AcDbEntity
  8
0
100
AcDbLine
 10
118.7
 20
74.5
 30
0.0
 11
121.9
 21
78.3
 31
0.0
  0
LINE
  5
18D
330
1E
100
AcDbEntity
  8
0
100
AcDbLine
 10
116.7
 20
69.90000000000001
 30
0.0
 11
118.7
 21
74.5
 31
0.0
  0
LINE
  5
18E
330
1E
100
AcDbEntity
  8
0
100
AcDbLine
 10
116.4
 20
69.2
 30
0.0
 11
116.7
 21
69.90000000000001
 31
0.0
  0
LINE
  5
18F
330
1E
100
AcDbEntity
  8
0
100
AcDbLine
 10
115.7
 20
64.40000000000001
 30
0.0
 11
116.4
 21
69.2
 31
0.0
  0
LINE
  5
190
330
1E
100
AcDbEntity
  8
0
100
AcDbLine
 10
115.5
 20
62.6
 30
0.0
 11
115.7
 21
64.40000000000001
 31
0.0
  0
LINE
  5
191
330
1E
100
AcDbEntity
  8
0
100
AcDbLine
 10
115.1
 20
59.29999999999999
 30
0.0
 11
115.5
 21
62.6
 31
0.0
  0
LINE
  5
192
330
1E
100
AcDbEntity
  8
0
100
AcDbLine
 10
114.9
 20
54.8
 30
0.0
 11
115.1
 21
59.29999999999999
 31
0.0
  0
LINE
  5
193
330
1E
100
AcDbEntity
  8
0
100
AcDbLine
 10
114.7
 20
48.1
 30
0.0
 11
114.9
 21
54.8
 31
0.0
  0
LINE
  5
194
330
1E
100
AcDbEntity
  8
0
100
AcDbLine
 10
114.2
 20
38.1
 30
0.0
 11
114.7
 21
48.1
 31
0.0
  0
LINE
  5
196
330
1E
100
AcDbEntity
  8
0
100
AcDbLine
 10
114.7
 20
7.0
 30
0.0
 11
118.7
 21
7.0
 31
0.0
  0
LINE
  5
197
330
1E
100
AcDbEntity
  8
0
100
AcDbLine
 10
112.2999999999999
 20
7.0
 30
0.0
 11
114.7
 21
7.0
 31
0.0
  0
LINE
  5
198
330
1E
100
AcDbEntity
  8
0
100
AcDbLine
 10
111.4999999999999
 20
7.0
 30
0.0
 11
112.2999999999999
 21
7.0
 31
0.0
  0
LINE
  5
199
330
1E
100
AcDbEntity
  8
0
100
AcDbLine
 10
143.9
 20
0.0000000000000021
 30
0.0
 11
151.2
 21
0.0000000000000019
 31
0.0
  0
LINE
  5
19F
330
1E
100
AcDbEntity
  8
0
100
AcDbLine
 10
151.2
 20
0.0000000000000019
 30
0.0
 11
157.6
 21
0.0000000000000016
 31
0.0
  0
LINE
  5
1A0
330
1E
100
AcDbEntity
  8
0
100
AcDbLine
 10
121.3
 20
51.5
 30
0.0
 11
124.0
 21
53.2
 31
0.0
  0
LINE
  5
1A1
330
1E
100
AcDbEntity
  8
0
100
AcDbLine
 10
121.3
 20
43.0
 30
0.0
 11
124.0
 21
41.2
 31
0.0
  0
LINE
  5
1A2
330
1E
100
AcDbEntity
  8
0
100
AcDbLine
 10
122.5999999999999
 20
55.8
 30
0.0
 11
126.5
 21
57.2
 31
0.0
  0
LINE
  5
1A3
330
1E
100
AcDbEntity
  8
0
100
AcDbLine
 10
121.9
 20
78.3
 30
0.0
 11
126.0
 21
81.5
 31
0.0
  0
LINE
  5
1A4
330
1E
100
AcDbEntity
  8
0
100
AcDbLine
 10
136.0
 20
0.0000000000000022
 30
0.0
 11
143.9
 21
0.0000000000000021
 31
0.0
  0
LINE
  5
1A5
330
1E
100
AcDbEntity
  8
0
100
AcDbLine
 10
148.2
 20
7.0
 30
0.0
 11
153.3
 21
7.0
 31
0.0
  0
LINE
  5
1A6
330
1E
100
AcDbEntity
  8
0
100
AcDbLine
 10
159.0
 20
7.0
 30
0.0
 11
160.0
 21
8.0
 31
0.0
  0
LINE
  5
1A7
330
1E
100
AcDbEntity
  8
0
100
AcDbLine
 10
153.3
 20
7.0
 30
0.0
 11
157.3
 21
7.0
 31
0.0
  0
LINE
  5
1A8
330
1E
100
AcDbEntity
  8
0
100
AcDbLine
 10
136.0
 20
7.0
 30
0.0
 11
142.4
 21
7.0
 31
0.0
  0
LINE
  5
1A9
330
1E
100
AcDbEntity
  8
0
100
AcDbLine
 10
142.4
 20
7.0
 30
0.0
 11
148.2
 21
7.0
 31
0.0
  0
LINE
  5
1AA
330
1E
100
AcDbEntity
  8
0
100
AcDbLine
 10
157.3
 20
7.0
 30
0.0
 11
159.6999999999999
 21
7.0
 31
0.0
  0
LINE
  5
1AB
330
1E
100
AcDbEntity
  8
0
100
AcDbLine
 10
159.6999999999999
 20
7.0
 30
0.0
 11
160.4999999999999
 21
7.0
 31
0.0
  0
LINE
  5
1AC
330
1E
100
AcDbEntity
  8
0
100
AcDbLine
 10
160.4999999999999
 20
7.0
 30
0.0
 11
163.0
 21
5.5
 31
0.0
  0
LINE
  5
1AD
330
1E
100
AcDbEntity
  8
0
100
AcDbLine
 10
163.0
 20
5.5
 30
0.0
 11
165.0
 21
3.0
 31
0.0
  0
LINE
  5
1C1
330
1E
100
AcDbEntity
  8
0
100
AcDbLine
 10
165.0
 20
3.0
 30
0.0
 11
166.5
 21
0.0000000000000003
 31
0.0
  0
LINE
  5
1C2
330
1E
100
AcDbEntity
  8
0
100
AcDbLine
 10
165.0
 20
3.0
 30
0.0
 11
166.5
 21
0.0000000000000006
 31
0.0
  0
LINE
  5
1C4
330
1E
100
AcDbEntity
  8
0
100
AcDbLine
 10
124.5
 20
10.5
 30
0.0
 11
130.0
 21
10.5
 31
0.0
  0
LINE
  5
1C6
330
1E
100
AcDbEntity
  8
0
100
AcDbLine
 10
124.0
 20
47.2001
 30
0.0
 11
124.0
 21
42.86999999999999
 31
0.0
  0
LINE
  5
1C7
330
1E
100
AcDbEntity
  8
0
100
AcDbLine
 10
124.0
 20
47.2001
 30
0.0
 11
124.3999999999999
 21
48.7501
 31
0.0
  0
LINE
  5
1C8
330
1E
100
AcDbEntity
  8
0
100
AcDbLine
 10
124.0
 20
42.86999999999999
 30
0.0
 11
124.3999999999999
 21
44.42
 31
0.0
  0
LINE
  5
1C9
330
1E
100
AcDbEntity
  8
0
100
AcDbLine
 10
124.0
 20
42.86999999999999
 30
0.0
 11
124.3999999999999
 21
41.32
 31
0.0
  0
LINE
  5
1CA
330
1E
100
AcDbEntity
  8
0
100
AcDbLine
 10
124.0
 20
42.86999999999999
 30
0.0
 11
124.0
 21
47.2001
 31
0.0
  0
LINE
  5
1CB
330
1E
100
AcDbEntity
  8
0
100
AcDbLine
 10
124.3999999999999
 20
41.32
 30
0.0
 11
125.6
 21
39.87
 31
0.0
  0
LINE
  5
1CC
330
1E
100
AcDbEntity
  8
0
100
AcDbLine
 10
124.3999999999999
 20
48.7501
 30
0.0
 11
125.6
 21
50.2001
 31
0.0
  0
LINE
  5
1CD
330
1E
100
AcDbEntity
  8
0
100
AcDbLine
 10
124.3999999999999
 20
44.42
 30
0.0
 11
125.6
 21
45.86999999999999
 31
0.0
  0
LINE
  5
1CE
330
1E
100
AcDbEntity
  8
0
100
AcDbLine
 10
124.0
 20
53.2
 30
0.0
 11
127.5
 21
54.6
 31
0.0
  0
LINE
  5
1CF
330
1E
100
AcDbEntity
  8
0
100
AcDbLine
 10
124.0
 20
41.2
 30
0.0
 11
124.746391752577
 21
40.9014432989691
 31
0.0
  0
LINE
  5
1D0
330
1E
100
AcDbEntity
  8
0
100
AcDbLine
 10
125.6
 20
39.87
 30
0.0
 11
127.5
 21
38.62
 31
0.0
  0
LINE
  5
1D1
330
1E
100
AcDbEntity
  8
0
100
AcDbLine
 10
125.6
 20
50.2001
 30
0.0
 11
127.5
 21
51.4501
 31
0.0
  0
LINE
  5
1D2
330
1E
100
AcDbEntity
  8
0
100
AcDbLine
 10
125.6
 20
45.86999999999999
 30
0.0
 11
127.5
 21
47.11999999999999
 31
0.0
  0
LINE
  5
1D3
330
1E
100
AcDbEntity
  8
0
100
AcDbLine
 10
127.5
 20
38.62
 30
0.0
 11
130.0
 21
37.67
 31
0.0
  0
LINE
  5
1D4
330
1E
100
AcDbEntity
  8
0
100
AcDbLine
 10
127.5
 20
51.4501
 30
0.0
 11
130.0
 21
52.4001
 31
0.0
  0
LINE
  5
1D5
330
1E
100
AcDbEntity
  8
0
100
AcDbLine
 10
127.5
 20
47.11999999999999
 30
0.0
 11
130.0
 21
48.07
 31
0.0
  0
LINE
  5
1DC
330
1E
100
AcDbEntity
  8
0
100
AcDbLine
 10
130.0
 20
37.67
 30
0.0
 11
132.9
 21
37.07
 31
0.0
  0
LINE
  5
1DD
330
1E
100
AcDbEntity
  8
0
100
AcDbLine
 10
136.0
 20
36.86999999999999
 30
0.0
 11
139.1
 21
37.07
 31
0.0
  0
LINE
  5
1DE
330
1E
100
AcDbEntity
  8
0
100
AcDbLine
 10
139.1
 20
37.07
 30
0.0
 11
142.0
 21
37.67
 31
0.0
  0
LINE
  5
1DF
330
1E
100
AcDbEntity
  8
0
100
AcDbLine
 10
136.0
 20
10.5
 30
0.0
 11
142.0
 21
10.5
 31
0.0
  0
LINE
  5
1E0
330
1E
100
AcDbEntity
  8
0
100
AcDbLine
 10
142.0
 20
10.5
 30
0.0
 11
147.5
 21
10.5
 31
0.0
  0
LINE
  5
1E1
330
1E
100
AcDbEntity
  8
0
100
AcDbLine
 10
142.0
 20
37.67
 30
0.0
 11
144.5
 21
38.62
 31
0.0
  0
LINE
  5
1E2
330
1E
100
AcDbEntity
  8
0
100
AcDbLine
 10
144.5
 20
38.62
 30
0.0
 11
146.4
 21
39.87
 31
0.0
  0
LINE
  5
1E3
330
1E
100
AcDbEntity
  8
0
100
AcDbLine
 10
146.4
 20
39.87
 30
0.0
 11
147.5999999999999
 21
41.32
 31
0.0
  0
LINE
  5
1E4
330
1E
100
AcDbEntity
  8
0
100
AcDbLine
 10
132.9
 20
37.07
 30
0.0
 11
136.0
 21
36.86999999999999
 31
0.0
  0
LINE
  5
1E5
330
1E
100
AcDbEntity
  8
0
100
AcDbLine
 10
130.0
 20
10.5
 30
0.0
 11
136.0
 21
10.5
 31
0.0
  0
LINE
  5
1E7
330
1E
100
AcDbEntity
  8
0
100
AcDbLine
 10
147.5
 20
10.5
 30
0.0
 11
152.3
 21
10.5
 31
0.0
  0
LINE
  5
1E8
330
1E
100
AcDbEntity
  8
0
100
AcDbLine
 10
152.3
 20
10.5
 30
0.0
 11
156.0
 21
10.5
 31
0.0
  0
LINE
  5
1EC
330
1E
100
AcDbEntity
  8
0
100
AcDbLine
 10
148.0
 20
42.86999999999999
 30
0.0
 11
148.0
 21
47.2001
 31
0.0
  0
LINE
  5
1ED
330
1E
100
AcDbEntity
  8
0
100
AcDbLine
 10
147.5999999999999
 20
41.32
 30
0.0
 11
148.0
 21
42.86999999999999
 31
0.0
  0
LINE
  5
1EE
330
1E
100
AcDbEntity
  8
0
100
AcDbLine
 10
150.6999999999999
 20
43.0
 30
0.0
 11
152.5
 21
44.2
 31
0.0
  0
LINE
  5
1EF
330
1E
100
AcDbEntity
  8
0
100
AcDbLine
 10
150.6999999999999
 20
43.0
 30
0.0
 11
152.4
 21
45.0
 31
0.0
  0
LINE
  5
1F0
330
1E
100
AcDbEntity
  8
0
100
AcDbLine
 10
148.0
 20
41.2
 30
0.0
 11
150.6999999999999
 21
43.0
 31
0.0
  0
LINE
  5
1F1
330
1E
100
AcDbEntity
  8
0
100
AcDbLine
 10
147.2536082474229
 20
40.9014432989691
 30
0.0
 11
148.0
 21
41.2
 31
0.0
  0
LINE
  5
1F2
330
1E
100
AcDbEntity
  8
0
100
AcDbLine
 10
139.1
 20
48.67
 30
0.0
 11
142.0
 21
48.07
 31
0.0
  0
LINE
  5
1F3
330
1E
100
AcDbEntity
  8
0
100
AcDbLine
 10
142.0
 20
48.07
 30
0.0
 11
144.5
 21
47.11999999999999
 31
0.0
  0
LINE
  5
1F4
330
1E
100
AcDbEntity
  8
0
100
AcDbLine
 10
144.5
 20
47.11999999999999
 30
0.0
 11
146.4
 21
45.86999999999999
 31
0.0
  0
LINE
  5
1F5
330
1E
100
AcDbEntity
  8
0
100
AcDbLine
 10
146.4
 20
45.86999999999999
 30
0.0
 11
147.5999999999999
 21
44.42
 31
0.0
  0
LINE
  5
1F6
330
1E
100
AcDbEntity
  8
0
100
AcDbLine
 10
147.5999999999999
 20
44.42
 30
0.0
 11
148.0
 21
42.86999999999999
 31
0.0
  0
LINE
  5
1F7
330
1E
100
AcDbEntity
  8
0
100
AcDbLine
 10
148.0
 20
47.2001
 30
0.0
 11
148.0
 21
42.86999999999999
 31
0.0
  0
LINE
  5
1F8
330
1E
100
AcDbEntity
  8
0
100
AcDbLine
 10
147.5999999999999
 20
48.7501
 30
0.0
 11
148.0
 21
47.2001
 31
0.0
  0
LINE
  5
1F9
330
1E
100
AcDbEntity
  8
0
100
AcDbLine
 10
136.0
 20
48.87
 30
0.0
 11
139.1
 21
48.67
 31
0.0
  0
LINE
  5
1FA
330
1E
100
AcDbEntity
  8
0
100
AcDbLine
 10
132.9
 20
48.67
 30
0.0
 11
136.0
 21
48.87
 31
0.0
  0
LINE
  5
1FB
330
1E
100
AcDbEntity
  8
0
100
AcDbLine
 10
130.0
 20
48.07
 30
0.0
 11
132.9
 21
48.67
 31
0.0
  0
LINE
  5
1FC
330
1E
100
AcDbEntity
  8
0
100
AcDbLine
 10
146.4
 20
50.2001
 30
0.0
 11
147.5999999999999
 21
48.7501
 31
0.0
  0
LINE
  5
1FD
330
1E
100
AcDbEntity
  8
0
100
AcDbLine
 10
152.4
 20
49.4
 30
0.0
 11
153.0
 21
47.2
 31
0.0
  0
LINE
  5
1FE
330
1E
100
AcDbEntity
  8
0
100
AcDbLine
 10
152.4
 20
45.0
 30
0.0
 11
153.0
 21
47.2
 31
0.0
  0
LINE
  5
1FF
330
1E
100
AcDbEntity
  8
0
100
AcDbLine
 10
144.5
 20
51.4501
 30
0.0
 11
146.4
 21
50.2001
 31
0.0
  0
LINE
  5
200
330
1E
100
AcDbEntity
  8
0
100
AcDbLine
 10
139.1
 20
53.0001
 30
0.0
 11
142.0
 21
52.4001
 31
0.0
  0
LINE
  5
201
330
1E
100
AcDbEntity
  8
0
100
AcDbLine
 10
142.0
 20
52.4001
 30
0.0
 11
144.5
 21
51.4501
 31
0.0
  0
LINE
  5
202
330
1E
100
AcDbEntity
  8
0
100
AcDbLine
 10
130.0
 20
52.4001
 30
0.0
 11
132.9
 21
53.0001
 31
0.0
  0
LINE
  5
203
330
1E
100
AcDbEntity
  8
0
100
AcDbLine
 10
140.4
 20
55.4
 30
0.0
 11
144.5
 21
54.6
 31
0.0
  0
LINE
  5
204
330
1E
100
AcDbEntity
  8
0
100
AcDbLine
 10
144.5
 20
54.6
 30
0.0
 11
148.0
 21
53.2
 31
0.0
  0
LINE
  5
205
330
1E
100
AcDbEntity
  8
0
100
AcDbLine
 10
148.0
 20
53.2
 30
0.0
 11
150.6999999999999
 21
51.5
 31
0.0
  0
LINE
  5
206
330
1E
100
AcDbEntity
  8
0
100
AcDbLine
 10
150.6999999999999
 20
51.5
 30
0.0
 11
152.4
 21
49.4
 31
0.0
  0
LINE
  5
207
330
1E
100
AcDbEntity
  8
0
100
AcDbLine
 10
152.5
 20
53.7
 30
0.0
 11
154.3
 21
51.4
 31
0.0
  0
LINE
  5
208
330
1E
100
AcDbEntity
  8
0
100
AcDbLine
 10
154.3
 20
51.4
 30
0.0
 11
155.0
 21
49.0
 31
0.0
  0
LINE
  5
209
330
1E
100
AcDbEntity
  8
0
100
AcDbLine
 10
155.0
 20
49.0
 30
0.0
 11
155.0
 21
53.2
 31
0.0
  0
LINE
  5
20A
330
1E
100
AcDbEntity
  8
0
100
AcDbLine
 10
154.3
 20
46.5
 30
0.0
 11
155.0
 21
49.0
 31
0.0
  0
LINE
  5
20B
330
1E
100
AcDbEntity
  8
0
100
AcDbLine
 10
152.5
 20
44.2
 30
0.0
 11
154.3
 21
46.5
 31
0.0
  0
LINE
  5
20C
330
1E
100
AcDbEntity
  8
0
100
AcDbLine
 10
156.0
 20
10.5
 30
0.0
 11
158.1999999999999
 21
10.5
 31
0.0
  0
LINE
  5
20F
330
1E
100
AcDbEntity
  8
0
100
AcDbLine
 10
158.0
 20
10.5
 30
0.0
 11
158.0
 21
28.3
 31
0.0
  0
LINE
  5
213
330
1E
100
AcDbEntity
  8
0
100
AcDbLine
 10
160.0
 20
8.0
 30
0.0
 11
160.0
 21
9.5
 31
0.0
  0
LINE
  5
214
330
1E
100
AcDbEntity
  8
0
100
AcDbLine
 10
158.1999999999999
 20
10.5
 30
0.0
 11
159.0
 21
10.5
 31
0.0
  0
LINE
  5
217
330
1E
100
AcDbEntity
  8
0
100
AcDbLine
 10
159.0
 20
10.5
 30
0.0
 11
160.0
 21
9.5
 31
0.0
  0
LINE
  5
222
330
1E
100
AcDbEntity
  8
0
100
AcDbLine
 10
160.0
 20
9.5
 30
0.0
 11
160.0
 21
8.0
 31
0.0
  0
LINE
  5
267
330
1E
100
AcDbEntity
  8
0
100
AcDbLine
 10
158.0
 20
28.3
 30
0.0
 11
158.0
 21
10.5
 31
0.0
  0
LINE
  5
269
330
1E
100
AcDbEntity
  8
0
100
AcDbLine
 10
157.0999999999999
 20
54.8
 30
0.0
 11
157.3
 21
48.1
 31
0.0
  0
LINE
  5
2B2
330
1E
100
AcDbEntity
  8
0
100
AcDbLine
 10
157.3
 20
48.1
 30
0.0
 11
157.8
 21
38.1
 31
0.0
  0
LINE
  5
2B3
330
1E
100
AcDbEntity
  8
0
100
AcDbLine
 10
157.8
 20
38.1
 30
0.0
 11
158.0
 21
28.3
 31
0.0
  0
LINE
  5
2B4
330
1E
100
AcDbEntity
  8
0
100
AcDbLine
 10
155.0
 20
53.2
 30
0.0
 11
155.1999999999999
 21
56.7
 31
0.0
  0
LINE
  5
2B5
330
1E
100
AcDbEntity
  8
0
100
AcDbLine
 10
155.0
 20
53.2
 30
0.0
 11
155.0
 21
49.0
 31
0.0
  0
LINE
  5
2B6
330
1E
100
AcDbEntity
  8
0
100
AcDbLine
 10
136.0
 20
55.7
 30
0.0
 11
140.4
 21
55.4
 31
0.0
  0
LINE
  5
2B7
330
1E
100
AcDbEntity
  8
0
100
AcDbLine
 10
140.8999999999999
 20
58.1
 30
0.0
 11
145.5
 21
57.2
 31
0.0
  0
LINE
  5
2B8
330
1E
100
AcDbEntity
  8
0
100
AcDbLine
 10
145.5
 20
57.2
 30
0.0
 11
149.3999999999999
 21
55.8
 31
0.0
  0
LINE
  5
2B9
330
1E
100
AcDbEntity
  8
0
100
AcDbLine
 10
149.3999999999999
 20
55.8
 30
0.0
 11
152.5
 21
53.7
 31
0.0
  0
LINE
  5
2CC
330
1E
100
AcDbEntity
  8
0
100
AcDbLine
 10
155.1999999999999
 20
56.7
 30
0.0
 11
155.4
 21
59.8
 31
0.0
  0
LINE
  5
2CD
330
1E
100
AcDbEntity
  8
0
100
AcDbLine
 10
131.6
 20
55.4
 30
0.0
 11
136.0
 21
55.7
 31
0.0
  0
LINE
  5
2CE
330
1E
100
AcDbEntity
  8
0
100
AcDbLine
 10
127.5
 20
54.6
 30
0.0
 11
131.6
 21
55.4
 31
0.0
  0
LINE
  5
2CF
330
1E
100
AcDbEntity
  8
0
100
AcDbLine
 10
136.0
 20
58.5
 30
0.0
 11
140.8999999999999
 21
58.1
 31
0.0
  0
LINE
  5
2D0
330
1E
100
AcDbEntity
  8
0
100
AcDbLine
 10
146.0
 20
81.5
 30
0.0
 11
150.0999999999999
 21
78.3
 31
0.0
  0
LINE
  5
2D1
330
1E
100
AcDbEntity
  8
0
100
AcDbLine
 10
150.0999999999999
 20
78.3
 30
0.0
 11
153.3
 21
74.5
 31
0.0
  0
LINE
  5
313
330
1E
100
AcDbEntity
  8
0
100
AcDbLine
 10
156.4999999999999
 20
62.6
 30
0.0
 11
156.9
 21
59.29999999999999
 31
0.0
  0
LINE
  5
314
330
1E
100
AcDbEntity
  8
0
100
AcDbLine
 10
156.9
 20
59.29999999999999
 30
0.0
 11
157.0999999999999
 21
54.8
 31
0.0
  0
LINE
  5
315
330
1E
100
AcDbEntity
  8
0
100
AcDbLine
 10
155.4
 20
59.8
 30
0.0
 11
155.6999999999999
 21
62.6
 31
0.0
  0
LINE
  5
316
330
1E
100
AcDbEntity
  8
0
100
AcDbLine
 10
155.3
 20
69.90000000000001
 30
0.0
 11
155.6
 21
69.2
 31
0.0
  0
LINE
  5
317
330
1E
100
AcDbEntity
  8
0
100
AcDbLine
 10
155.6
 20
69.2
 30
0.0
 11
156.3
 21
64.40000000000001
 31
0.0
  0
LINE
  5
31D
330
1E
100
AcDbEntity
  8
0
100
AcDbLine
 10
156.3
 20
64.40000000000001
 30
0.0
 11
156.4999999999999
 21
62.6
 31
0.0
  0
LINE
  5
31E
330
1E
100
AcDbEntity
  8
0
100
AcDbLine
 10
155.6999999999999
 20
62.6
 30
0.0
 11
155.8
 21
64.29999999999999
 31
0.0
  0
LINE
  5
31F
330
1E
100
AcDbEntity
  8
0
100
AcDbLine
 10
153.3
 20
74.5
 30
0.0
 11
155.3
 21
69.90000000000001
 31
0.0
  0
LINE
  5
320
330
1E
100
AcDbEntity
  8
0
100
AcDbLine
 10
131.0999999999999
 20
58.1
 30
0.0
 11
136.0
 21
58.5
 31
0.0
  0
LINE
  5
321
330
1E
100
AcDbEntity
  8
0
100
AcDbLine
 10
126.5
 20
57.2
 30
0.0
 11
131.0999999999999
 21
58.1
 31
0.0
  0
LINE
  5
322
330
1E
100
AcDbEntity
  8
0
100
AcDbLine
 10
136.0
 20
84.0
 30
0.0
 11
141.1999999999999
 21
83.3
 31
0.0
  0
LINE
  5
323
330
1E
100
AcDbEntity
  8
0
100
AcDbLine
 10
141.1999999999999
 20
83.3
 30
0.0
 11
146.0
 21
81.5
 31
0.0
  0
LINE
  5
324
330
1E
100
AcDbEntity
  8
0
100
AcDbLine
 10
130.8
 20
83.3
 30
0.0
 11
136.0
 21
84.0
 31
0.0
  0
LINE
  5
325
330
1E
100
AcDbEntity
  8
0
100
AcDbLine
 10
126.0
 20
81.5
 30
0.0
 11
130.8
 21
83.3
 31
0.0
  0
LINE
  5
326
330
1E
100
AcDbEntity
  8
0
100
AcDbLine
 10
129.6
 20
7.0
 30
0.0
 11
136.0
 21
7.0
 31
0.0
  0
LINE
  5
327
330
1E
100
AcDbEntity
  8
0
100
AcDbLine
 10
123.7999999999999
 20
7.0
 30
0.0
 11
129.6
 21
7.0
 31
0.0
  0
LINE
  5
328
330
1E
100
AcDbEntity
  8
0
100
AcDbLine
 10
128.0999999999999
 20
0.0000000000000021
 30
0.0
 11
136.0
 21
0.0000000000000022
 31
0.0
  0
LINE
  5
329
330
1E
100
AcDbEntity
  8
0
100
AcDbLine
 10
120.7999999999999
 20
0.0000000000000019
 30
0.0
 11
128.0999999999999
 21
0.0000000000000021
 31
0.0
  0
LINE
  5
32A
330
1E
100
AcDbEntity
  8
0
100
AcDbLine
 10
114.4
 20
0.0000000000000016
 30
0.0
 11
120.7999999999999
 21
0.0000000000000019
 31
0.0
  0
LINE
  5
32B
330
1E
100
AcDbEntity
  8
0
100
AcDbLine
 10
109.4999999999999
 20
0.0000000000000013
 30
0.0
 11
114.4
 21
0.0000000000000016
 31
0.0
  0
LINE
  5
32C
330
1E
100
AcDbEntity
  8
0
100
AcDbLine
 10
106.4999999999999
 20
0.0000000000000008
 30
0.0
 11
109.4999999999999
 21
0.0000000000000013
 31
0.0
  0
LINE
  5
32D
330
1E
100
AcDbEntity
  8
0
100
AcDbLine
 10
105.4999999999999
 20
0.0000000000000003
 30
0.0
 11
107.0
 21
3.0
 31
0.0
  0
LINE
  5
32E
330
1E
100
AcDbEntity
  8
0
100
AcDbLine
 10
105.4999999999999
 20
0.0000000000000003
 30
0.0
 11
106.4999999999999
 21
0.0000000000000008
 31
0.0
  0
LINE
  5
32F
330
1E
100
AcDbEntity
  8
0
100
AcDbLine
 10
105.4999999999999
 20
0.0000000000000003
 30
0.0
 11
106.4999999999999
 21
-0.0000000000000002
 31
0.0
  0
LINE
  5
334
330
1E
100
AcDbEntity
  8
0
100
AcDbLine
 10
132.9
 20
53.0001
 30
0.0
 11
136.0383592322321
 21
53.17168501980257
 31
0.0
  0
LINE
  5
335
330
1E
100
AcDbEntity
  8
0
100
AcDbLine
 10
136.0383592322321
 20
53.17168501980257
 30
0.0
 11
139.1
 21
53.0001
 31
0.0
  0
LINE
  5
336
330
1E
100
AcDbEntity
  8
0
100
AcDbLine
 10
227.0
 20
40.0
 30
0.0
 11
225.0
 21
43.0
 31
0.0
  0
LINE
  5
337
330
1E
100
AcDbEntity
  8
0
100
AcDbLine
 10
247.0
 20
43.0
 30
0.0
 11
245.0
 21
40.0
 31
0.0
  0
LINE
  5
338
330
1E
100
AcDbEntity
  8
0
100
AcDbLine
 10
221.4999999999999
 20
29.0
 30
0.0
 11
219.0
 21
23.0
 31
0.0
  0
LINE
  5
339
330
1E
100
AcDbEntity
  8
0
100
AcDbLine
 10
221.1999999999999
 20
10.5
 30
0.0
 11
217.8
 21
10.5
 31
0.0
  0
LINE
  5
33A
330
1E
100
AcDbEntity
  8
0
100
AcDbLine
 10
224.0
 20
7.0
 30
0.0
 11
219.0999999999999
 21
7.0
 31
0.0
  0
LINE
  5
33B
330
1E
100
AcDbEntity
  8
0
100
AcDbLine
 10
222.3
 20
0.0000000000000018
 30
0.0
 11
216.5999999999999
 21
0.0000000000000015
 31
0.0
  0
LINE
  5
33C
330
1E
100
AcDbEntity
  8
0
100
AcDbLine
 10
222.3
 20
-0.0000000000000011
 30
0.0
 11
216.5999999999999
 21
-0.0000000000000009
 31
0.0
  0
LINE
  5
33D
330
1E
100
AcDbEntity
  8
0
100
AcDbLine
 10
256.0
 20
10.5
 30
0.0
 11
255.0
 21
16.5
 31
0.0
  0
LINE
  5
33E
330
1E
100
AcDbEntity
  8
0
100
AcDbLine
 10
263.5
 20
0.0000000000000003
 30
0.0
 11
262.5
 21
-0.0000000000000001
 31
0.0
  0
LINE
  5
33F
330
1E
100
AcDbEntity
  8
0
100
AcDbLine
 10
263.5
 20
0.0000000000000003
 30
0.0
 11
262.5
 21
0.0000000000000008
 31
0.0
  0
LINE
  5
340
330
1E
100
AcDbEntity
  8
0
100
AcDbLine
 10
263.5
 20
0.0000000000000003
 30
0.0
 11
263.0
 21
3.0
 31
0.0
  0
LINE
  5
341
330
1E
100
AcDbEntity
  8
0
100
AcDbLine
 10
263.5
 20
0.0000000000000006
 30
0.0
 11
263.0
 21
3.0
 31
0.0
  0
LINE
  5
342
330
1E
100
AcDbEntity
  8
0
100
AcDbLine
 10
243.1
 20
0.0000000000000019
 30
0.0
 11
236.0
 21
0.000000000000002
 31
0.0
  0
LINE
  5
343
330
1E
100
AcDbEntity
  8
0
100
AcDbLine
 10
243.1
 20
-0.0000000000000013
 30
0.0
 11
236.0
 21
-0.0000000000000014
 31
0.0
  0
LINE
  5
344
330
1E
100
AcDbEntity
  8
0
100
AcDbLine
 10
255.4
 20
0.0000000000000015
 30
0.0
 11
249.6999999999999
 21
0.0000000000000018
 31
0.0
  0
LINE
  5
345
330
1E
100
AcDbEntity
  8
0
100
AcDbLine
 10
255.4
 20
-0.0000000000000009
 30
0.0
 11
249.6999999999999
 21
-0.0000000000000011
 31
0.0
  0
LINE
  5
346
330
1E
100
AcDbEntity
  8
0
100
AcDbLine
 10
259.8
 20
0.0000000000000012
 30
0.0
 11
255.4
 21
0.0000000000000015
 31
0.0
  0
LINE
  5
347
330
1E
100
AcDbEntity
  8
0
100
AcDbLine
 10
259.8
 20
-0.0000000000000005
 30
0.0
 11
255.4
 21
-0.0000000000000009
 31
0.0
  0
LINE
  5
348
330
1E
100
AcDbEntity
  8
0
100
AcDbLine
 10
262.5
 20
0.0000000000000008
 30
0.0
 11
259.8
 21
0.0000000000000012
 31
0.0
  0
LINE
  5
349
330
1E
100
AcDbEntity
  8
0
100
AcDbLine
 10
262.5
 20
-0.0000000000000001
 30
0.0
 11
259.8
 21
-0.0000000000000005
 31
0.0
  0
LINE
  5
34A
330
1E
100
AcDbEntity
  8
0
100
AcDbLine
 10
249.6999999999999
 20
0.0000000000000018
 30
0.0
 11
243.1
 21
0.0000000000000019
 31
0.0
  0
LINE
  5
34B
330
1E
100
AcDbEntity
  8
0
100
AcDbLine
 10
249.6999999999999
 20
-0.0000000000000011
 30
0.0
 11
243.1
 21
-0.0000000000000013
 31
0.0
  0
LINE
  5
34C
330
1E
100
AcDbEntity
  8
0
100
AcDbLine
 10
236.0
 20
0.000000000000002
 30
0.0
 11
228.9
 21
0.0000000000000019
 31
0.0
  0
LINE
  5
34D
330
1E
100
AcDbEntity
  8
0
100
AcDbLine
 10
236.0
 20
-0.0000000000000014
 30
0.0
 11
228.9
 21
-0.0000000000000013
 31
0.0
  0
LINE
  5
34E
330
1E
100
AcDbEntity
  8
0
100
AcDbLine
 10
228.9
 20
0.0000000000000019
 30
0.0
 11
222.3
 21
0.0000000000000018
 31
0.0
  0
LINE
  5
34F
330
1E
100
AcDbEntity
  8
0
100
AcDbLine
 10
228.9
 20
-0.0000000000000013
 30
0.0
 11
222.3
 21
-0.0000000000000011
 31
0.0
  0
LINE
  5
350
330
1E
100
AcDbEntity
  8
0
100
AcDbLine
 10
246.4999999999999
 20
10.5
 30
0.0
 11
241.4
 21
10.5
 31
0.0
  0
LINE
  5
351
330
1E
100
AcDbEntity
  8
0
100
AcDbLine
 10
248.0
 20
7.0
 30
0.0
 11
242.2
 21
7.0
 31
0.0
  0
LINE
  5
352
330
1E
100
AcDbEntity
  8
0
100
AcDbLine
 10
258.0
 20
8.0
 30
0.0
 11
258.0
 21
9.5
 31
0.0
  0
LINE
  5
353
330
1E
100
AcDbEntity
  8
0
100
AcDbLine
 10
258.0
 20
9.5
 30
0.0
 11
258.0
 21
8.0
 31
0.0
  0
LINE
  5
354
330
1E
100
AcDbEntity
  8
0
100
AcDbLine
 10
252.8999999999999
 20
7.0
 30
0.0
 11
248.0
 21
7.0
 31
0.0
  0
LINE
  5
355
330
1E
100
AcDbEntity
  8
0
100
AcDbLine
 10
262.0
 20
5.0
 30
0.0
 11
260.0
 21
7.0
 31
0.0
  0
LINE
  5
356
330
1E
100
AcDbEntity
  8
0
100
AcDbLine
 10
263.0
 20
3.0
 30
0.0
 11
262.0
 21
5.0
 31
0.0
  0
LINE
  5
357
330
1E
100
AcDbEntity
  8
0
100
AcDbLine
 10
259.1
 20
7.0
 30
0.0
 11
256.8
 21
7.0
 31
0.0
  0
LINE
  5
358
330
1E
100
AcDbEntity
  8
0
100
AcDbLine
 10
260.0
 20
7.0
 30
0.0
 11
259.1
 21
7.0
 31
0.0
  0
LINE
  5
359
330
1E
100
AcDbEntity
  8
0
100
AcDbLine
 10
258.0
 20
8.0
 30
0.0
 11
257.0
 21
7.0
 31
0.0
  0
LINE
  5
35A
330
1E
100
AcDbEntity
  8
0
100
AcDbLine
 10
256.8
 20
7.0
 30
0.0
 11
252.8999999999999
 21
7.0
 31
0.0
  0
LINE
  5
35B
330
1E
100
AcDbEntity
  8
0
100
AcDbLine
 10
254.1999999999999
 20
10.5
 30
0.0
 11
250.8
 21
10.5
 31
0.0
  0
LINE
  5
35C
330
1E
100
AcDbEntity
  8
0
100
AcDbLine
 10
256.1999999999999
 20
10.5
 30
0.0
 11
254.1999999999999
 21
10.5
 31
0.0
  0
LINE
  5
35D
330
1E
100
AcDbEntity
  8
0
100
AcDbLine
 10
257.0
 20
10.5
 30
0.0
 11
256.1999999999999
 21
10.5
 31
0.0
  0
LINE
  5
35E
330
1E
100
AcDbEntity
  8
0
100
AcDbLine
 10
258.0
 20
9.5
 30
0.0
 11
257.0
 21
10.5
 31
0.0
  0
LINE
  5
35F
330
1E
100
AcDbEntity
  8
0
100
AcDbLine
 10
250.8
 20
10.5
 30
0.0
 11
246.4999999999999
 21
10.5
 31
0.0
  0
LINE
  5
360
330
1E
100
AcDbEntity
  8
0
100
AcDbLine
 10
236.0
 20
7.0
 30
0.0
 11
229.8
 21
7.0
 31
0.0
  0
LINE
  5
361
330
1E
100
AcDbEntity
  8
0
100
AcDbLine
 10
242.2
 20
7.0
 30
0.0
 11
236.0
 21
7.0
 31
0.0
  0
LINE
  5
362
330
1E
100
AcDbEntity
  8
0
100
AcDbLine
 10
229.8
 20
7.0
 30
0.0
 11
224.0
 21
7.0
 31
0.0
  0
LINE
  5
363
330
1E
100
AcDbEntity
  8
0
100
AcDbLine
 10
236.0
 20
10.5
 30
0.0
 11
230.6
 21
10.5
 31
0.0
  0
LINE
  5
364
330
1E
100
AcDbEntity
  8
0
100
AcDbLine
 10
241.4
 20
10.5
 30
0.0
 11
236.0
 21
10.5
 31
0.0
  0
LINE
  5
365
330
1E
100
AcDbEntity
  8
0
100
AcDbLine
 10
230.6
 20
10.5
 30
0.0
 11
225.4999999999999
 21
10.5
 31
0.0
  0
LINE
  5
366
330
1E
100
AcDbEntity
  8
0
100
AcDbLine
 10
225.4999999999999
 20
10.5
 30
0.0
 11
221.1999999999999
 21
10.5
 31
0.0
  0
LINE
  5
367
330
1E
100
AcDbEntity
  8
0
100
AcDbLine
 10
253.0
 20
23.0
 30
0.0
 11
250.4999999999999
 21
29.0
 31
0.0
  0
LINE
  5
368
330
1E
100
AcDbEntity
  8
0
100
AcDbLine
 10
255.0
 20
16.5
 30
0.0
 11
253.0
 21
23.0
 31
0.0
  0
LINE
  5
369
330
1E
100
AcDbEntity
  8
0
100
AcDbLine
 10
242.3999999999999
 20
37.0
 30
0.0
 11
240.5
 21
37.0
 31
0.0
  0
LINE
  5
36A
330
1E
100
AcDbEntity
  8
0
100
AcDbLine
 10
242.3999999999999
 20
40.0
 30
0.0
 11
240.5
 21
40.0
 31
0.0
  0
LINE
  5
36B
330
1E
100
AcDbEntity
  8
0
100
AcDbLine
 10
248.0
 20
34.0
 30
0.0
 11
245.0
 21
37.0
 31
0.0
  0
LINE
  5
36C
330
1E
100
AcDbEntity
  8
0
100
AcDbLine
 10
250.4999999999999
 20
29.0
 30
0.0
 11
248.0
 21
34.0
 31
0.0
  0
LINE
  5
36D
330
1E
100
AcDbEntity
  8
0
100
AcDbLine
 10
246.0
 20
38.0
 30
0.0
 11
246.0
 21
39.0
 31
0.0
  0
LINE
  5
36E
330
1E
100
AcDbEntity
  8
0
100
AcDbLine
 10
246.0
 20
39.0
 30
0.0
 11
246.0
 21
38.0
 31
0.0
  0
LINE
  5
36F
330
1E
100
AcDbEntity
  8
0
100
AcDbLine
 10
246.0
 20
38.0
 30
0.0
 11
245.0
 21
37.0
 31
0.0
  0
LINE
  5
370
330
1E
100
AcDbEntity
  8
0
100
AcDbLine
 10
245.0
 20
37.0
 30
0.0
 11
244.7
 21
37.0
 31
0.0
  0
LINE
  5
371
330
1E
100
AcDbEntity
  8
0
100
AcDbLine
 10
244.7
 20
37.0
 30
0.0
 11
243.8
 21
37.0
 31
0.0
  0
LINE
  5
372
330
1E
100
AcDbEntity
  8
0
100
AcDbLine
 10
243.8
 20
37.0
 30
0.0
 11
242.3999999999999
 21
37.0
 31
0.0
  0
LINE
  5
373
330
1E
100
AcDbEntity
  8
0
100
AcDbLine
 10
245.0
 20
40.0
 30
0.0
 11
244.7
 21
40.0
 31
0.0
  0
LINE
  5
374
330
1E
100
AcDbEntity
  8
0
100
AcDbLine
 10
246.0
 20
39.0
 30
0.0
 11
245.0
 21
40.0
 31
0.0
  0
LINE
  5
375
330
1E
100
AcDbEntity
  8
0
100
AcDbLine
 10
244.7
 20
40.0
 30
0.0
 11
243.8
 21
40.0
 31
0.0
  0
LINE
  5
376
330
1E
100
AcDbEntity
  8
0
100
AcDbLine
 10
243.8
 20
40.0
 30
0.0
 11
242.3999999999999
 21
40.0
 31
0.0
  0
LINE
  5
377
330
1E
100
AcDbEntity
  8
0
100
AcDbLine
 10
227.0
 20
37.0
 30
0.0
 11
224.0
 21
34.0
 31
0.0
  0
LINE
  5
378
330
1E
100
AcDbEntity
  8
0
100
AcDbLine
 10
224.0
 20
34.0
 30
0.0
 11
221.4999999999999
 21
29.0
 31
0.0
  0
LINE
  5
379
330
1E
100
AcDbEntity
  8
0
100
AcDbLine
 10
233.6999999999999
 20
40.0
 30
0.0
 11
231.4999999999999
 21
40.0
 31
0.0
  0
LINE
  5
37A
330
1E
100
AcDbEntity
  8
0
100
AcDbLine
 10
233.6999999999999
 20
37.0
 30
0.0
 11
231.4999999999999
 21
37.0
 31
0.0
  0
LINE
  5
37B
330
1E
100
AcDbEntity
  8
0
100
AcDbLine
 10
238.3
 20
37.0
 30
0.0
 11
236.0
 21
37.0
 31
0.0
  0
LINE
  5
37C
330
1E
100
AcDbEntity
  8
0
100
AcDbLine
 10
240.5
 20
37.0
 30
0.0
 11
238.3
 21
37.0
 31
0.0
  0
LINE
  5
37D
330
1E
100
AcDbEntity
  8
0
100
AcDbLine
 10
236.0
 20
37.0
 30
0.0
 11
233.6999999999999
 21
37.0
 31
0.0
  0
LINE
  5
37E
330
1E
100
AcDbEntity
  8
0
100
AcDbLine
 10
238.3
 20
40.0
 30
0.0
 11
236.0
 21
40.0
 31
0.0
  0
LINE
  5
37F
330
1E
100
AcDbEntity
  8
0
100
AcDbLine
 10
240.5
 20
40.0
 30
0.0
 11
238.3
 21
40.0
 31
0.0
  0
LINE
  5
380
330
1E
100
AcDbEntity
  8
0
100
AcDbLine
 10
236.0
 20
40.0
 30
0.0
 11
233.6999999999999
 21
40.0
 31
0.0
  0
LINE
  5
381
330
1E
100
AcDbEntity
  8
0
100
AcDbLine
 10
226.0
 20
38.0
 30
0.0
 11
226.0
 21
39.0
 31
0.0
  0
LINE
  5
382
330
1E
100
AcDbEntity
  8
0
100
AcDbLine
 10
226.0
 20
39.0
 30
0.0
 11
226.0
 21
38.0
 31
0.0
  0
LINE
  5
383
330
1E
100
AcDbEntity
  8
0
100
AcDbLine
 10
227.0
 20
37.0
 30
0.0
 11
226.0
 21
38.0
 31
0.0
  0
LINE
  5
384
330
1E
100
AcDbEntity
  8
0
100
AcDbLine
 10
229.5999999999999
 20
37.0
 30
0.0
 11
228.2
 21
37.0
 31
0.0
  0
LINE
  5
385
330
1E
100
AcDbEntity
  8
0
100
AcDbLine
 10
231.4999999999999
 20
37.0
 30
0.0
 11
229.5999999999999
 21
37.0
 31
0.0
  0
LINE
  5
386
330
1E
100
AcDbEntity
  8
0
100
AcDbLine
 10
227.3
 20
37.0
 30
0.0
 11
227.0
 21
37.0
 31
0.0
  0
LINE
  5
387
330
1E
100
AcDbEntity
  8
0
100
AcDbLine
 10
228.2
 20
37.0
 30
0.0
 11
227.3
 21
37.0
 31
0.0
  0
LINE
  5
388
330
1E
100
AcDbEntity
  8
0
100
AcDbLine
 10
227.0
 20
40.0
 30
0.0
 11
226.0
 21
39.0
 31
0.0
  0
LINE
  5
389
330
1E
100
AcDbEntity
  8
0
100
AcDbLine
 10
229.5999999999999
 20
40.0
 30
0.0
 11
228.2
 21
40.0
 31
0.0
  0
LINE
  5
38A
330
1E
100
AcDbEntity
  8
0
100
AcDbLine
 10
231.4999999999999
 20
40.0
 30
0.0
 11
229.5999999999999
 21
40.0
 31
0.0
  0
LINE
  5
38B
330
1E
100
AcDbEntity
  8
0
100
AcDbLine
 10
227.3
 20
40.0
 30
0.0
 11
227.0
 21
40.0
 31
0.0
  0
LINE
  5
38C
330
1E
100
AcDbEntity
  8
0
100
AcDbLine
 10
228.2
 20
40.0
 30
0.0
 11
227.3
 21
40.0
 31
0.0
  0
LINE
  5
38D
330
1E
100
AcDbEntity
  8
0
100
AcDbLine
 10
217.0
 20
16.5
 30
0.0
 11
216.0
 21
10.5
 31
0.0
  0
LINE
  5
38E
330
1E
100
AcDbEntity
  8
0
100
AcDbLine
 10
209.0
 20
3.0
 30
0.0
 11
208.4999999999999
 21
0.0000000000000003
 31
0.0
  0
LINE
  5
38F
330
1E
100
AcDbEntity
  8
0
100
AcDbLine
 10
209.0
 20
3.0
 30
0.0
 11
208.4999999999999
 21
0.0000000000000006
 31
0.0
  0
LINE
  5
390
330
1E
100
AcDbEntity
  8
0
100
AcDbLine
 10
212.1999999999999
 20
0.0000000000000012
 30
0.0
 11
209.5
 21
0.0000000000000008
 31
0.0
  0
LINE
  5
391
330
1E
100
AcDbEntity
  8
0
100
AcDbLine
 10
212.1999999999999
 20
-0.0000000000000005
 30
0.0
 11
209.5
 21
-0.0000000000000001
 31
0.0
  0
LINE
  5
392
330
1E
100
AcDbEntity
  8
0
100
AcDbLine
 10
216.5999999999999
 20
0.0000000000000015
 30
0.0
 11
212.1999999999999
 21
0.0000000000000012
 31
0.0
  0
LINE
  5
393
330
1E
100
AcDbEntity
  8
0
100
AcDbLine
 10
216.5999999999999
 20
-0.0000000000000009
 30
0.0
 11
212.1999999999999
 21
-0.0000000000000005
 31
0.0
  0
LINE
  5
394
330
1E
100
AcDbEntity
  8
0
100
AcDbLine
 10
209.5
 20
0.0000000000000008
 30
0.0
 11
208.4999999999999
 21
0.0000000000000003
 31
0.0
  0
LINE
  5
395
330
1E
100
AcDbEntity
  8
0
100
AcDbLine
 10
209.5
 20
-0.0000000000000001
 30
0.0
 11
208.4999999999999
 21
0.0000000000000003
 31
0.0
  0
LINE
  5
396
330
1E
100
AcDbEntity
  8
0
100
AcDbLine
 10
214.0
 20
9.5
 30
0.0
 11
214.0
 21
8.0
 31
0.0
  0
LINE
  5
397
330
1E
100
AcDbEntity
  8
0
100
AcDbLine
 10
214.0
 20
8.0
 30
0.0
 11
214.0
 21
9.5
 31
0.0
  0
LINE
  5
398
330
1E
100
AcDbEntity
  8
0
100
AcDbLine
 10
212.0
 20
7.0
 30
0.0
 11
210.0
 21
5.0
 31
0.0
  0
LINE
  5
399
330
1E
100
AcDbEntity
  8
0
100
AcDbLine
 10
219.0999999999999
 20
7.0
 30
0.0
 11
215.2
 21
7.0
 31
0.0
  0
LINE
  5
39A
330
1E
100
AcDbEntity
  8
0
100
AcDbLine
 10
215.0
 20
7.0
 30
0.0
 11
214.0
 21
8.0
 31
0.0
  0
LINE
  5
39B
330
1E
100
AcDbEntity
  8
0
100
AcDbLine
 10
215.2
 20
7.0
 30
0.0
 11
212.9
 21
7.0
 31
0.0
  0
LINE
  5
39C
330
1E
100
AcDbEntity
  8
0
100
AcDbLine
 10
212.9
 20
7.0
 30
0.0
 11
212.0
 21
7.0
 31
0.0
  0
LINE
  5
39D
330
1E
100
AcDbEntity
  8
0
100
AcDbLine
 10
210.0
 20
5.0
 30
0.0
 11
209.0
 21
3.0
 31
0.0
  0
LINE
  5
39E
330
1E
100
AcDbEntity
  8
0
100
AcDbLine
 10
215.8
 20
10.5
 30
0.0
 11
215.0
 21
10.5
 31
0.0
  0
LINE
  5
39F
330
1E
100
AcDbEntity
  8
0
100
AcDbLine
 10
217.8
 20
10.5
 30
0.0
 11
215.8
 21
10.5
 31
0.0
  0
LINE
  5
3A0
330
1E
100
AcDbEntity
  8
0
100
AcDbLine
 10
215.0
 20
10.5
 30
0.0
 11
214.0
 21
9.5
 31
0.0
  0
LINE
  5
3A1
330
1E
100
AcDbEntity
  8
0
100
AcDbLine
 10
219.0
 20
23.0
 30
0.0
 11
217.0
 21
16.5
 31
0.0
  0
LINE
  5
3A2
330
1E
100
AcDbEntity
  8
0
100
AcDbLine
 10
221.0
 20
57.0
 30
0.0
 11
217.0
 21
58.0
 31
0.0
  0
LINE
  5
3A3
330
1E
100
AcDbEntity
  8
0
100
AcDbLine
 10
221.0
 20
45.0
 30
0.0
 11
217.0
 21
44.0
 31
0.0
  0
LINE
  5
3A4
330
1E
100
AcDbEntity
  8
0
100
AcDbLine
 10
265.5
 20
58.0
 30
0.0
 11
262.0
 21
58.5
 31
0.0
  0
LINE
  5
3A5
330
1E
100
AcDbEntity
  8
0
100
AcDbLine
 10
265.5
 20
44.0
 30
0.0
 11
262.0
 21
43.5
 31
0.0
  0
LINE
  5
3A6
330
1E
100
AcDbEntity
  8
0
100
AcDbLine
 10
271.4999999999999
 20
53.5
 30
0.0
 11
270.0
 21
55.5
 31
0.0
  0
LINE
  5
3A7
330
1E
100
AcDbEntity
  8
0
100
AcDbLine
 10
271.4999999999999
 20
53.5
 30
0.0
 11
270.0
 21
55.5
 31
0.0
  0
LINE
  5
3A8
330
1E
100
AcDbEntity
  8
0
100
AcDbLine
 10
272.0
 20
51.0
 30
0.0
 11
271.4999999999999
 21
48.5
 31
0.0
  0
LINE
  5
3A9
330
1E
100
AcDbEntity
  8
0
100
AcDbLine
 10
270.0
 20
46.5
 30
0.0
 11
268.0
 21
45.0
 31
0.0
  0
LINE
  5
3AA
330
1E
100
AcDbEntity
  8
0
100
AcDbLine
 10
268.0
 20
45.0
 30
0.0
 11
265.5
 21
44.0
 31
0.0
  0
LINE
  5
3AB
330
1E
100
AcDbEntity
  8
0
100
AcDbLine
 10
271.4999999999999
 20
48.5
 30
0.0
 11
270.0
 21
46.5
 31
0.0
  0
LINE
  5
3AC
330
1E
100
AcDbEntity
  8
0
100
AcDbLine
 10
271.4999999999999
 20
48.5
 30
0.0
 11
270.0
 21
46.5
 31
0.0
  0
LINE
  5
3AD
330
1E
100
AcDbEntity
  8
0
100
AcDbLine
 10
272.0
 20
51.0
 30
0.0
 11
271.4999999999999
 21
53.5
 31
0.0
  0
LINE
  5
3AE
330
1E
100
AcDbEntity
  8
0
100
AcDbLine
 10
270.0
 20
55.5
 30
0.0
 11
268.0
 21
57.0
 31
0.0
  0
LINE
  5
3AF
330
1E
100
AcDbEntity
  8
0
100
AcDbLine
 10
268.0
 20
57.0
 30
0.0
 11
265.5
 21
58.0
 31
0.0
  0
LINE
  5
3B0
330
1E
100
AcDbEntity
  8
0
100
AcDbLine
 10
230.6999999999999
 20
56.29999999999999
 30
0.0
 11
229.4999999999999
 21
54.8
 31
0.0
  0
LINE
  5
3B1
330
1E
100
AcDbEntity
  8
0
100
AcDbLine
 10
242.5
 20
54.8
 30
0.0
 11
241.3
 21
56.29999999999999
 31
0.0
  0
LINE
  5
3B2
330
1E
100
AcDbEntity
  8
0
100
AcDbLine
 10
242.5
 20
47.2
 30
0.0
 11
241.3
 21
45.7
 31
0.0
  0
LINE
  5
3B3
330
1E
100
AcDbEntity
  8
0
100
AcDbLine
 10
243.1999999999999
 20
49.0
 30
0.0
 11
242.5
 21
47.2
 31
0.0
  0
LINE
  5
3B4
330
1E
100
AcDbEntity
  8
0
100
AcDbLine
 10
255.0
 20
44.0
 30
0.0
 11
251.0
 21
45.0
 31
0.0
  0
LINE
  5
3B5
330
1E
100
AcDbEntity
  8
0
100
AcDbLine
 10
262.0
 20
43.5
 30
0.0
 11
258.0
 21
43.79999999999999
 31
0.0
  0
LINE
  5
3B6
330
1E
100
AcDbEntity
  8
0
100
AcDbLine
 10
258.0
 20
43.79999999999999
 30
0.0
 11
255.0
 21
44.0
 31
0.0
  0
LINE
  5
3B7
330
1E
100
AcDbEntity
  8
0
100
AcDbLine
 10
248.0
 20
46.0
 30
0.0
 11
247.0
 21
43.0
 31
0.0
  0
LINE
  5
3B8
330
1E
100
AcDbEntity
  8
0
100
AcDbLine
 10
251.0
 20
45.0
 30
0.0
 11
248.0196078431372
 21
46.11764705882349
 31
0.0
  0
LINE
  5
3B9
330
1E
100
AcDbEntity
  8
0
100
AcDbLine
 10
248.0196078431372
 20
46.11764705882349
 30
0.0
 11
248.0
 21
46.0
 31
0.0
  0
LINE
  5
3BA
330
1E
100
AcDbEntity
  8
0
100
AcDbLine
 10
243.5
 20
51.0
 30
0.0
 11
243.1999999999999
 21
53.0
 31
0.0
  0
LINE
  5
3BB
330
1E
100
AcDbEntity
  8
0
100
AcDbLine
 10
243.5
 20
51.0
 30
0.0
 11
243.1999999999999
 21
49.0
 31
0.0
  0
LINE
  5
3BC
330
1E
100
AcDbEntity
  8
0
100
AcDbLine
 10
243.1999999999999
 20
53.0
 30
0.0
 11
242.5
 21
54.8
 31
0.0
  0
LINE
  5
3BD
330
1E
100
AcDbEntity
  8
0
100
AcDbLine
 10
229.4999999999999
 20
47.2
 30
0.0
 11
228.8
 21
49.0
 31
0.0
  0
LINE
  5
3BE
330
1E
100
AcDbEntity
  8
0
100
AcDbLine
 10
232.2
 20
44.5
 30
0.0
 11
230.6999999999999
 21
45.7
 31
0.0
  0
LINE
  5
3BF
330
1E
100
AcDbEntity
  8
0
100
AcDbLine
 10
241.3
 20
45.7
 30
0.0
 11
239.8
 21
44.5
 31
0.0
  0
LINE
  5
3C0
330
1E
100
AcDbEntity
  8
0
100
AcDbLine
 10
238.0
 20
43.79999999999999
 30
0.0
 11
236.0
 21
43.5
 31
0.0
  0
LINE
  5
3C1
330
1E
100
AcDbEntity
  8
0
100
AcDbLine
 10
239.8
 20
44.5
 30
0.0
 11
238.0
 21
43.79999999999999
 31
0.0
  0
LINE
  5
3C2
330
1E
100
AcDbEntity
  8
0
100
AcDbLine
 10
236.0
 20
43.5
 30
0.0
 11
234.0
 21
43.79999999999999
 31
0.0
  0
LINE
  5
3C3
330
1E
100
AcDbEntity
  8
0
100
AcDbLine
 10
234.0
 20
43.79999999999999
 30
0.0
 11
232.2
 21
44.5
 31
0.0
  0
LINE
  5
3C4
330
1E
100
AcDbEntity
  8
0
100
AcDbLine
 10
225.0
 20
43.0
 30
0.0
 11
224.0
 21
46.0
 31
0.0
  0
LINE
  5
3C5
330
1E
100
AcDbEntity
  8
0
100
AcDbLine
 10
224.0
 20
46.12499999999999
 30
0.0
 11
221.0
 21
45.0
 31
0.0
  0
LINE
  5
3C6
330
1E
100
AcDbEntity
  8
0
100
AcDbLine
 10
230.6999999999999
 20
45.7
 30
0.0
 11
229.4999999999999
 21
47.2
 31
0.0
  0
LINE
  5
3C7
330
1E
100
AcDbEntity
  8
0
100
AcDbLine
 10
224.0
 20
46.0
 30
0.0
 11
223.9803921568626
 21
46.11764705882349
 31
0.0
  0
LINE
  5
3C8
330
1E
100
AcDbEntity
  8
0
100
AcDbLine
 10
228.8
 20
53.0
 30
0.0
 11
228.5
 21
51.0
 31
0.0
  0
LINE
  5
3C9
330
1E
100
AcDbEntity
  8
0
100
AcDbLine
 10
228.8
 20
49.0
 30
0.0
 11
228.5
 21
51.0
 31
0.0
  0
LINE
  5
3CA
330
1E
100
AcDbEntity
  8
0
100
AcDbLine
 10
229.4999999999999
 20
54.8
 30
0.0
 11
228.8
 21
53.0
 31
0.0
  0
LINE
  5
3CB
330
1E
100
AcDbEntity
  8
0
100
AcDbLine
 10
243.8
 20
59.0
 30
0.0
 11
241.5
 21
59.0
 31
0.0
  0
LINE
  5
3CC
330
1E
100
AcDbEntity
  8
0
100
AcDbLine
 10
243.1999999999999
 20
63.5
 30
0.0
 11
239.3
 21
64.8
 31
0.0
  0
LINE
  5
3CD
330
1E
100
AcDbEntity
  8
0
100
AcDbLine
 10
243.8
 20
61.0
 30
0.0
 11
241.5
 21
61.0
 31
0.0
  0
LINE
  5
3CE
330
1E
100
AcDbEntity
  8
0
100
AcDbLine
 10
247.0
 20
61.0
 30
0.0
 11
243.1999999999999
 21
63.5
 31
0.0
  0
LINE
  5
3CF
330
1E
100
AcDbEntity
  8
0
100
AcDbLine
 10
255.0
 20
58.0
 30
0.0
 11
251.0
 21
57.0
 31
0.0
  0
LINE
  5
3D0
330
1E
100
AcDbEntity
  8
0
100
AcDbLine
 10
262.0
 20
58.5
 30
0.0
 11
258.0
 21
58.2
 31
0.0
  0
LINE
  5
3D1
330
1E
100
AcDbEntity
  8
0
100
AcDbLine
 10
258.0
 20
58.2
 30
0.0
 11
255.0
 21
58.0
 31
0.0
  0
LINE
  5
3D2
330
1E
100
AcDbEntity
  8
0
100
AcDbLine
 10
248.0
 20
56.0
 30
0.0
 11
247.0
 21
59.0
 31
0.0
  0
LINE
  5
3D3
330
1E
100
AcDbEntity
  8
0
100
AcDbLine
 10
251.0
 20
57.0
 30
0.0
 11
248.0
 21
55.875
 31
0.0
  0
LINE
  5
3D4
330
1E
100
AcDbEntity
  8
0
100
AcDbLine
 10
248.0196078431372
 20
55.8823529411765
 30
0.0
 11
248.0
 21
56.0
 31
0.0
  0
LINE
  5
3D5
330
1E
100
AcDbEntity
  8
0
100
AcDbLine
 10
247.5
 20
59.5
 30
0.0
 11
247.5
 21
60.5
 31
0.0
  0
LINE
  5
3D6
330
1E
100
AcDbEntity
  8
0
100
AcDbLine
 10
247.5
 20
60.5
 30
0.0
 11
247.5
 21
59.5
 31
0.0
  0
LINE
  5
3D7
330
1E
100
AcDbEntity
  8
0
100
AcDbLine
 10
245.5
 20
59.0
 30
0.0
 11
243.8
 21
59.0
 31
0.0
  0
LINE
  5
3D8
330
1E
100
AcDbEntity
  8
0
100
AcDbLine
 10
247.0
 20
59.0
 30
0.0
 11
246.6
 21
59.0
 31
0.0
  0
LINE
  5
3D9
330
1E
100
AcDbEntity
  8
0
100
AcDbLine
 10
247.5
 20
59.5
 30
0.0
 11
247.0
 21
59.0
 31
0.0
  0
LINE
  5
3DA
330
1E
100
AcDbEntity
  8
0
100
AcDbLine
 10
246.6
 20
59.0
 30
0.0
 11
245.5
 21
59.0
 31
0.0
  0
LINE
  5
3DB
330
1E
100
AcDbEntity
  8
0
100
AcDbLine
 10
245.5
 20
61.0
 30
0.0
 11
243.8
 21
61.0
 31
0.0
  0
LINE
  5
3DC
330
1E
100
AcDbEntity
  8
0
100
AcDbLine
 10
247.0
 20
61.0
 30
0.0
 11
246.6
 21
61.0
 31
0.0
  0
LINE
  5
3DD
330
1E
100
AcDbEntity
  8
0
100
AcDbLine
 10
246.6
 20
61.0
 30
0.0
 11
245.5
 21
61.0
 31
0.0
  0
LINE
  5
3DE
330
1E
100
AcDbEntity
  8
0
100
AcDbLine
 10
247.5
 20
60.5
 30
0.0
 11
247.0
 21
61.0
 31
0.0
  0
LINE
  5
3DF
330
1E
100
AcDbEntity
  8
0
100
AcDbLine
 10
228.8
 20
63.5
 30
0.0
 11
225.0
 21
61.0
 31
0.0
  0
LINE
  5
3E0
330
1E
100
AcDbEntity
  8
0
100
AcDbLine
 10
233.1999999999999
 20
61.0
 30
0.0
 11
230.5
 21
61.0
 31
0.0
  0
LINE
  5
3E1
330
1E
100
AcDbEntity
  8
0
100
AcDbLine
 10
233.1999999999999
 20
59.0
 30
0.0
 11
230.5
 21
59.0
 31
0.0
  0
LINE
  5
3E2
330
1E
100
AcDbEntity
  8
0
100
AcDbLine
 10
232.2
 20
57.5
 30
0.0
 11
230.6999999999999
 21
56.29999999999999
 31
0.0
  0
LINE
  5
3E3
330
1E
100
AcDbEntity
  8
0
100
AcDbLine
 10
236.0
 20
58.5
 30
0.0
 11
234.0
 21
58.2
 31
0.0
  0
LINE
  5
3E4
330
1E
100
AcDbEntity
  8
0
100
AcDbLine
 10
238.0
 20
58.2
 30
0.0
 11
236.0
 21
58.5
 31
0.0
  0
LINE
  5
3E5
330
1E
100
AcDbEntity
  8
0
100
AcDbLine
 10
241.3
 20
56.29999999999999
 30
0.0
 11
239.8
 21
57.5
 31
0.0
  0
LINE
  5
3E6
330
1E
100
AcDbEntity
  8
0
100
AcDbLine
 10
239.8
 20
57.5
 30
0.0
 11
238.0
 21
58.2
 31
0.0
  0
LINE
  5
3E7
330
1E
100
AcDbEntity
  8
0
100
AcDbLine
 10
234.0
 20
58.2
 30
0.0
 11
232.2
 21
57.5
 31
0.0
  0
LINE
  5
3E8
330
1E
100
AcDbEntity
  8
0
100
AcDbLine
 10
238.8
 20
59.0
 30
0.0
 11
236.0
 21
59.0
 31
0.0
  0
LINE
  5
3E9
330
1E
100
AcDbEntity
  8
0
100
AcDbLine
 10
238.8
 20
61.0
 30
0.0
 11
236.0
 21
61.0
 31
0.0
  0
LINE
  5
3EA
330
1E
100
AcDbEntity
  8
0
100
AcDbLine
 10
241.5
 20
59.0
 30
0.0
 11
238.8
 21
59.0
 31
0.0
  0
LINE
  5
3EB
330
1E
100
AcDbEntity
  8
0
100
AcDbLine
 10
241.5
 20
61.0
 30
0.0
 11
238.8
 21
61.0
 31
0.0
  0
LINE
  5
3EC
330
1E
100
AcDbEntity
  8
0
100
AcDbLine
 10
236.0
 20
59.0
 30
0.0
 11
233.1999999999999
 21
59.0
 31
0.0
  0
LINE
  5
3ED
330
1E
100
AcDbEntity
  8
0
100
AcDbLine
 10
236.0
 20
61.0
 30
0.0
 11
233.1999999999999
 21
61.0
 31
0.0
  0
LINE
  5
3EE
330
1E
100
AcDbEntity
  8
0
100
AcDbLine
 10
225.0
 20
59.0
 30
0.0
 11
224.0
 21
56.0
 31
0.0
  0
LINE
  5
3EF
330
1E
100
AcDbEntity
  8
0
100
AcDbLine
 10
223.9803921568626
 20
55.8823529411765
 30
0.0
 11
221.0
 21
57.0
 31
0.0
  0
LINE
  5
3F0
330
1E
100
AcDbEntity
  8
0
100
AcDbLine
 10
224.0
 20
56.0
 30
0.0
 11
223.9803921568626
 21
55.8823529411765
 31
0.0
  0
LINE
  5
3F1
330
1E
100
AcDbEntity
  8
0
100
AcDbLine
 10
226.5
 20
61.0
 30
0.0
 11
225.4
 21
61.0
 31
0.0
  0
LINE
  5
3F2
330
1E
100
AcDbEntity
  8
0
100
AcDbLine
 10
226.5
 20
59.0
 30
0.0
 11
225.4
 21
59.0
 31
0.0
  0
LINE
  5
3F3
330
1E
100
AcDbEntity
  8
0
100
AcDbLine
 10
230.5
 20
59.0
 30
0.0
 11
228.2
 21
59.0
 31
0.0
  0
LINE
  5
3F4
330
1E
100
AcDbEntity
  8
0
100
AcDbLine
 10
228.2
 20
59.0
 30
0.0
 11
226.5
 21
59.0
 31
0.0
  0
LINE
  5
3F5
330
1E
100
AcDbEntity
  8
0
100
AcDbLine
 10
230.5
 20
61.0
 30
0.0
 11
228.2
 21
61.0
 31
0.0
  0
LINE
  5
3F6
330
1E
100
AcDbEntity
  8
0
100
AcDbLine
 10
228.2
 20
61.0
 30
0.0
 11
226.5
 21
61.0
 31
0.0
  0
LINE
  5
3F7
330
1E
100
AcDbEntity
  8
0
100
AcDbLine
 10
224.5
 20
60.5
 30
0.0
 11
224.5
 21
59.5
 31
0.0
  0
LINE
  5
3F8
330
1E
100
AcDbEntity
  8
0
100
AcDbLine
 10
224.5
 20
59.5
 30
0.0
 11
224.5
 21
60.5
 31
0.0
  0
LINE
  5
3F9
330
1E
100
AcDbEntity
  8
0
100
AcDbLine
 10
225.0
 20
59.0
 30
0.0
 11
224.5
 21
59.5
 31
0.0
  0
LINE
  5
3FA
330
1E
100
AcDbEntity
  8
0
100
AcDbLine
 10
225.4
 20
59.0
 30
0.0
 11
225.0
 21
59.0
 31
0.0
  0
LINE
  5
3FB
330
1E
100
AcDbEntity
  8
0
100
AcDbLine
 10
225.0
 20
61.0
 30
0.0
 11
224.5
 21
60.5
 31
0.0
  0
LINE
  5
3FC
330
1E
100
AcDbEntity
  8
0
100
AcDbLine
 10
225.4
 20
61.0
 30
0.0
 11
225.0
 21
61.0
 31
0.0
  0
LINE
  5
3FD
330
1E
100
AcDbEntity
  8
0
100
AcDbLine
 10
232.6999999999999
 20
64.8
 30
0.0
 11
228.8
 21
63.5
 31
0.0
  0
LINE
  5
3FE
330
1E
100
AcDbEntity
  8
0
100
AcDbLine
 10
236.0
 20
65.0
 30
0.0
 11
232.6999999999999
 21
64.8
 31
0.0
  0
LINE
  5
3FF
330
1E
100
AcDbEntity
  8
0
100
AcDbLine
 10
239.3
 20
64.8
 30
0.0
 11
236.0
 21
65.0
 31
0.0
  0
LINE
  5
400
330
1E
100
AcDbEntity
  8
0
100
AcDbLine
 10
202.0
 20
55.5
 30
0.0
 11
200.4999999999999
 21
53.5
 31
0.0
  0
LINE
  5
401
330
1E
100
AcDbEntity
  8
0
100
AcDbLine
 10
200.4999999999999
 20
48.5
 30
0.0
 11
200.0
 21
51.0
 31
0.0
  0
LINE
  5
402
330
1E
100
AcDbEntity
  8
0
100
AcDbLine
 10
214.0
 20
43.79999999999999
 30
0.0
 11
210.0
 21
43.5
 31
0.0
  0
LINE
  5
403
330
1E
100
AcDbEntity
  8
0
100
AcDbLine
 10
217.0
 20
44.0
 30
0.0
 11
214.0
 21
43.79999999999999
 31
0.0
  0
LINE
  5
404
330
1E
100
AcDbEntity
  8
0
100
AcDbLine
 10
204.0
 20
45.0
 30
0.0
 11
202.0
 21
46.5
 31
0.0
  0
LINE
  5
405
330
1E
100
AcDbEntity
  8
0
100
AcDbLine
 10
206.4999999999999
 20
44.0
 30
0.0
 11
204.0
 21
45.0
 31
0.0
  0
LINE
  5
406
330
1E
100
AcDbEntity
  8
0
100
AcDbLine
 10
210.0
 20
43.5
 30
0.0
 11
206.4999999999999
 21
44.0
 31
0.0
  0
LINE
  5
407
330
1E
100
AcDbEntity
  8
0
100
AcDbLine
 10
202.0
 20
46.5
 30
0.0
 11
200.4999999999999
 21
48.5
 31
0.0
  0
LINE
  5
408
330
1E
100
AcDbEntity
  8
0
100
AcDbLine
 10
200.4999999999999
 20
53.5
 30
0.0
 11
200.0
 21
51.0
 31
0.0
  0
LINE
  5
409
330
1E
100
AcDbEntity
  8
0
100
AcDbLine
 10
214.0
 20
58.2
 30
0.0
 11
210.0
 21
58.5
 31
0.0
  0
LINE
  5
40A
330
1E
100
AcDbEntity
  8
0
100
AcDbLine
 10
217.0
 20
58.0
 30
0.0
 11
214.0
 21
58.2
 31
0.0
  0
LINE
  5
40B
330
1E
100
AcDbEntity
  8
0
100
AcDbLine
 10
210.0
 20
58.5
 30
0.0
 11
206.4999999999999
 21
58.0
 31
0.0
  0
LINE
  5
40C
330
1E
100
AcDbEntity
  8
0
100
AcDbLine
 10
206.4999999999999
 20
58.0
 30
0.0
 11
204.0
 21
57.0
 31
0.0
  0
LINE
  5
40D
330
1E
100
AcDbEntity
  8
0
100
AcDbLine
 10
204.0
 20
57.0
 30
0.0
 11
202.0
 21
55.5
 31
0.0
  0
ENDSEC
  0
SECTION
  2
OBJECTS
  0
DICTIONARY
  5
C
330
0
100
AcDbDictionary
281
     1
  3
ACAD_GROUP
350
D
  3
ACAD_LAYOUT
350
19
  3
ACAD_MLINESTYLE
350
16
  3
ACAD_PLOTSETTINGS
350
18
  3
ACAD_PLOTSTYLENAME
350
E
  3
AcDbVariableDictionary
350
40E
  0
DICTIONARY
  5
D
102
{ACAD_REACTORS
330
C
102
}
330
C
100
AcDbDictionary
281
     1
  0
DICTIONARY
  5
19
102
{ACAD_REACTORS
330
C
102
}
330
C
100
AcDbDictionary
281
     1
  3
Layout1
350
1D
  3
Model
350
21
  0
DICTIONARY
  5
16
102
{ACAD_REACTORS
330
C
102
}
330
C
100
AcDbDictionary
281
     1
  3
Standard
350
17
  0
DICTIONARY
  5
18
102
{ACAD_REACTORS
330
C
102
}
330
C
100
AcDbDictionary
281
     1
  0
ACDBDICTIONARYWDFLT
  5
E
102
{ACAD_REACTORS
330
C
102
}
330
C
100
AcDbDictionary
281
     1
  3
Normal
350
F
100
AcDbDictionaryWithDefault
340
F
  0
DICTIONARY
  5
40E
102
{ACAD_REACTORS
330
C
102
}
330
C
100
AcDbDictionary
281
     1
  3
DIMASSOC
350
40F
  0
LAYOUT
  5
1D
102
{ACAD_REACTORS
330
19
102
}
330
19
100
AcDbPlotSettings
  1

  2
hp deskjet 980c series
  4

  6

 40
0.0
 41
0.0
 42
0.0
 43
0.0
 44
0.0
 45
0.0
 46
0.0
 47
0.0
 48
0.0
 49
0.0
140
0.0
141
0.0
142
1.0
143
1.0
 70
   688
 72
     0
 73
     0
 74
     5
  7

 75
    16
147
1.0
148
0.0
149
0.0
100
AcDbLayout
  1
Layout1
 70
     1
 71
     1
 10
0.0
 20
0.0
 11
12.0
 21
9.0
 12
0.0
 22
0.0
 32
0.0
 14
1.000000000000000E+20
 24
1.000000000000000E+20
 34
1.000000000000000E+20
 15
-1.000000000000000E+20
 25
-1.000000000000000E+20
 35
-1.000000000000000E+20
146
0.0
 13
0.0
 23
0.0
 33
0.0
 16
1.0
 26
0.0
 36
0.0
 17
0.0
 27
1.0
 37
0.0
 76
     0
330
1A
  0
LAYOUT
  5
21
102
{ACAD_REACTORS
330
19
102
}
330
19
100
AcDbPlotSettings
  1

  2
hp deskjet 980c series
  4

  6

 40
0.0
 41
0.0
 42
0.0
 43
0.0
 44
0.0
 45
0.0
 46
0.0
 47
0.0
 48
0.0
 49
0.0
140
0.0
141
0.0
142
1.0
143
1.0
 70
  1712
 72
     0
 73
     0
 74
     0
  7

 75
     0
147
1.0
148
0.0
149
0.0
100
AcDbLayout
  1
Model
 70
     1
 71
     0
 10
0.0
 20
0.0
 11
12.0
 21
9.0
 12
0.0
 22
0.0
 32
0.0
 14
0.0
 24
0.0
 34
0.0
 15
0.0
 25
0.0
 35
0.0
146
0.0
 13
0.0
 23
0.0
 33
0.0
 16
1.0
 26
0.0
 36
0.0
 17
0.0
 27
1.0
 37
0.0
 76
     0
330
1E
  0
MLINESTYLE
  5
17
102
{ACAD_REACTORS
330
16
102
}
330
16
100
AcDbMlineStyle
  2
STANDARD
 70
     0
  3

 62
   256
 51
90.0
 52
90.0
 71
     2
 49
0.5
 62
   256
  6
BYLAYER
 49
-0.5
 62
   256
  6
BYLAYER
  0
ACDBPLACEHOLDER
  5
F
102
{ACAD_REACTORS
330
E
102
}
330
E
  0
DICTIONARYVAR
  5
40F
102
{ACAD_REACTORS
330
40E
102
}
330
40E
100
DictionaryVariables
280
     0
  1
1
  0
ENDSEC
  0
EOF
