  0
SECTION
  2
HEADER
  9
$ACADVER
  1
AC1015
  9
$ACADMAINTVER
 70
    13
  9
$DWGCODEPAGE
  3
ANSI_1252
  9
$INSBASE
 10
0.0
 20
0.0
 30
0.0
  9
$EXTMIN
 10
-0.0125015000000063
 20
-0.0709855000000041
 30
0.0
  9
$EXTMAX
 10
177.0125015
 20
166.0709855
 30
0.0
  9
$LIMMIN
 10
0.0
 20
0.0
  9
$LIMMAX
 10
12.0
 20
9.0
  9
$ORTHOMODE
 70
     0
  9
$REGENMODE
 70
     1
  9
$FILLMODE
 70
     1
  9
$QTEXTMODE
 70
     0
  9
$MIRRTEXT
 70
     1
  9
$LTSCALE
 40
1.0
  9
$ATTMODE
 70
     1
  9
$TEXTSIZE
 40
0.2
  9
$TRACEWID
 40
0.05
  9
$TEXTSTYLE
  7
Standard
  9
$CLAYER
  8
0
  9
$CELTYPE
  6
Continuous
  9
$CECOLOR
 62
   256
  9
$CELTSCALE
 40
1.0
  9
$DISPSILH
 70
     0
  9
$DIMSCALE
 40
1.0
  9
$DIMASZ
 40
0.18
  9
$DIMEXO
 40
0.0625
  9
$DIMDLI
 40
0.38
  9
$DIMRND
 40
0.0
  9
$DIMDLE
 40
0.0
  9
$DIMEXE
 40
0.18
  9
$DIMTP
 40
0.0
  9
$DIMTM
 40
0.0
  9
$DIMTXT
 40
0.18
  9
$DIMCEN
 40
0.09
  9
$DIMTSZ
 40
0.0
  9
$DIMTOL
 70
     0
  9
$DIMLIM
 70
     0
  9
$DIMTIH
 70
     1
  9
$DIMTOH
 70
     1
  9
$DIMSE1
 70
     0
  9
$DIMSE2
 70
     0
  9
$DIMTAD
 70
     0
  9
$DIMZIN
 70
     0
  9
$DIMBLK
  1

  9
$DIMASO
 70
     1
  9
$DIMSHO
 70
     1
  9
$DIMPOST
  1

  9
$DIMAPOST
  1

  9
$DIMALT
 70
     0
  9
$DIMALTD
 70
     2
  9
$DIMALTF
 40
25.4
  9
$DIMLFAC
 40
1.0
  9
$DIMTOFL
 70
     0
  9
$DIMTVP
 40
0.0
  9
$DIMTIX
 70
     0
  9
$DIMSOXD
 70
     0
  9
$DIMSAH
 70
     0
  9
$DIMBLK1
  1

  9
$DIMBLK2
  1

  9
$DIMSTYLE
  2
Standard
  9
$DIMCLRD
 70
     0
  9
$DIMCLRE
 70
     0
  9
$DIMCLRT
 70
     0
  9
$DIMTFAC
 40
1.0
  9
$DIMGAP
 40
0.09
  9
$DIMJUST
 70
     0
  9
$DIMSD1
 70
     0
  9
$DIMSD2
 70
     0
  9
$DIMTOLJ
 70
     1
  9
$DIMTZIN
 70
     0
  9
$DIMALTZ
 70
     0
  9
$DIMALTTZ
 70
     0
  9
$DIMUPT
 70
     0
  9
$DIMDEC
 70
     4
  9
$DIMTDEC
 70
     4
  9
$DIMALTU
 70
     2
  9
$DIMALTTD
 70
     2
  9
$DIMTXSTY
  7
Standard
  9
$DIMAUNIT
 70
     0
  9
$DIMADEC
 70
     0
  9
$DIMALTRND
 40
0.0
  9
$DIMAZIN
 70
     0
  9
$DIMDSEP
 70
    46
  9
$DIMATFIT
 70
     3
  9
$DIMFRAC
 70
     0
  9
$DIMLDRBLK
  1

  9
$DIMLUNIT
 70
     2
  9
$DIMLWD
 70
    -2
  9
$DIMLWE
 70
    -2
  9
$DIMTMOVE
 70
     0
  9
$LUNITS
 70
     2
  9
$LUPREC
 70
     4
  9
$SKETCHINC
 40
0.1
  9
$FILLETRAD
 40
0.0
  9
$AUNITS
 70
     0
  9
$AUPREC
 70
     0
  9
$MENU
  1
.
  9
$ELEVATION
 40
0.0
  9
$PELEVATION
 40
0.0
  9
$THICKNESS
 40
0.0
  9
$LIMCHECK
 70
     0
  9
$CHAMFERA
 40
0.0
  9
$CHAMFERB
 40
0.0
  9
$CHAMFERC
 40
0.0
  9
$CHAMFERD
 40
0.0
  9
$SKPOLY
 70
     0
  9
$TDCREATE
 40
2454752.595276863
  9
$TDUCREATE
 40
2454752.511943530
  9
$TDUPDATE
 40
2454752.736866134
  9
$TDUUPDATE
 40
2454752.653532800
  9
$TDINDWG
 40
0.1415892708
  9
$TDUSRTIMER
 40
0.1415892708
  9
$USRTIMER
 70
     1
  9
$ANGBASE
 50
0.0
  9
$ANGDIR
 70
     0
  9
$PDMODE
 70
     0
  9
$PDSIZE
 40
0.0
  9
$PLINEWID
 40
0.0
  9
$SPLFRAME
 70
     0
  9
$SPLINETYPE
 70
     6
  9
$SPLINESEGS
 70
     8
  9
$HANDSEED
  5
3A4
  9
$SURFTAB1
 70
     6
  9
$SURFTAB2
 70
     6
  9
$SURFTYPE
 70
     6
  9
$SURFU
 70
     6
  9
$SURFV
 70
     6
  9
$UCSBASE
  2

  9
$UCSNAME
  2

  9
$UCSORG
 10
0.0
 20
0.0
 30
0.0
  9
$UCSXDIR
 10
1.0
 20
0.0
 30
0.0
  9
$UCSYDIR
 10
0.0
 20
1.0
 30
0.0
  9
$UCSORTHOREF
  2

  9
$UCSORTHOVIEW
 70
     1
  9
$UCSORGTOP
 10
0.0
 20
0.0
 30
0.0
  9
$UCSORGBOTTOM
 10
0.0
 20
0.0
 30
0.0
  9
$UCSORGLEFT
 10
0.0
 20
0.0
 30
0.0
  9
$UCSORGRIGHT
 10
0.0
 20
0.0
 30
0.0
  9
$UCSORGFRONT
 10
0.0
 20
0.0
 30
0.0
  9
$UCSORGBACK
 10
0.0
 20
0.0
 30
0.0
  9
$PUCSBASE
  2

  9
$PUCSNAME
  2

  9
$PUCSORG
 10
0.0
 20
0.0
 30
0.0
  9
$PUCSXDIR
 10
1.0
 20
0.0
 30
0.0
  9
$PUCSYDIR
 10
0.0
 20
1.0
 30
0.0
  9
$PUCSORTHOREF
  2

  9
$PUCSORTHOVIEW
 70
     0
  9
$PUCSORGTOP
 10
0.0
 20
0.0
 30
0.0
  9
$PUCSORGBOTTOM
 10
0.0
 20
0.0
 30
0.0
  9
$PUCSORGLEFT
 10
0.0
 20
0.0
 30
0.0
  9
$PUCSORGRIGHT
 10
0.0
 20
0.0
 30
0.0
  9
$PUCSORGFRONT
 10
0.0
 20
0.0
 30
0.0
  9
$PUCSORGBACK
 10
0.0
 20
0.0
 30
0.0
  9
$USERI1
 70
     0
  9
$USERI2
 70
     0
  9
$USERI3
 70
     0
  9
$USERI4
 70
     0
  9
$USERI5
 70
     0
  9
$USERR1
 40
0.0
  9
$USERR2
 40
0.0
  9
$USERR3
 40
0.0
  9
$USERR4
 40
0.0
  9
$USERR5
 40
0.0
  9
$WORLDVIEW
 70
     1
  9
$SHADEDGE
 70
     3
  9
$SHADEDIF
 70
    70
  9
$TILEMODE
 70
     1
  9
$MAXACTVP
 70
    64
  9
$PINSBASE
 10
0.0
 20
0.0
 30
0.0
  9
$PLIMCHECK
 70
     0
  9
$PEXTMIN
 10
1.000000000000000E+20
 20
1.000000000000000E+20
 30
1.000000000000000E+20
  9
$PEXTMAX
 10
-1.000000000000000E+20
 20
-1.000000000000000E+20
 30
-1.000000000000000E+20
  9
$PLIMMIN
 10
0.0
 20
0.0
  9
$PLIMMAX
 10
12.0
 20
9.0
  9
$UNITMODE
 70
     0
  9
$VISRETAIN
 70
     1
  9
$PLINEGEN
 70
     0
  9
$PSLTSCALE
 70
     1
  9
$TREEDEPTH
 70
  3020
  9
$CMLSTYLE
  2
Standard
  9
$CMLJUST
 70
     0
  9
$CMLSCALE
 40
1.0
  9
$PROXYGRAPHICS
 70
     1
  9
$MEASUREMENT
 70
     0
  9
$CELWEIGHT
370
    -1
  9
$ENDCAPS
280
     0
  9
$JOINSTYLE
280
     0
  9
$LWDISPLAY
290
     0
  9
$INSUNITS
 70
     0
  9
$HYPERLINKBASE
  1

  9
$STYLESHEET
  1

  9
$XEDIT
290
     1
  9
$CEPSNTYPE
380
     0
  9
$PSTYLEMODE
290
     1
  9
$FINGERPRINTGUID
  2
{AC177011-6813-4150-BE2F-C9787CCDB1C8}
  9
$VERSIONGUID
  2
{F22B99B5-9A9F-4663-9CDD-5B6FBC72AA80}
  9
$EXTNAMES
290
     1
  9
$PSVPSCALE
 40
0.0
  9
$OLESTARTUP
290
     0
  0
ENDSEC
  0
SECTION
  2
CLASSES
  0
CLASS
  1
ACDBDICTIONARYWDFLT
  2
AcDbDictionaryWithDefault
  3
AutoCAD 2000
 90
        0
280
     0
281
     0
  0
CLASS
  1
ACDBPLACEHOLDER
  2
AcDbPlaceHolder
  3
AutoCAD 2000
 90
        0
280
     0
281
     0
  0
CLASS
  1
LAYOUT
  2
AcDbLayout
  3
AutoCAD 2000
 90
        0
280
     0
281
     0
  0
CLASS
  1
DICTIONARYVAR
  2
AcDbDictionaryVar
  3
AutoCAD 2000
 90
        0
280
     0
281
     0
  0
ENDSEC
  0
SECTION
  2
TABLES
  0
TABLE
  2
VPORT
  5
8
330
0
100
AcDbSymbolTable
 70
     2
  0
VPORT
  5
3A3
330
8
100
AcDbSymbolTableRecord
100
AcDbViewportTableRecord
  2
*Active
 70
     0
 10
0.0
 20
0.0
 11
1.0
 21
1.0
 12
88.49999999999999
 22
83.0
 13
0.0
 23
0.0
 14
1.0
 24
1.0
 15
0.0
 25
0.0
 16
0.0
 26
0.0
 36
1.0
 17
0.0
 27
0.0
 37
0.0
 40
167.4167175805626
 41
2.078104993597951
 42
50.0
 43
0.0
 44
0.0
 50
0.0
 51
0.0
 71
     0
 72
   100
 73
     1
 74
     3
 75
     0
 76
     0
 77
     0
 78
     0
281
     0
 65
     1
110
0.0
120
0.0
130
0.0
111
1.0
121
0.0
131
0.0
112
0.0
122
1.0
132
0.0
 79
     1
146
0.0
  0
ENDTAB
  0
TABLE
  2
LTYPE
  5
5
330
0
100
AcDbSymbolTable
 70
     1
  0
LTYPE
  5
13
330
5
100
AcDbSymbolTableRecord
100
AcDbLinetypeTableRecord
  2
ByBlock
 70
     0
  3

 72
    65
 73
     0
 40
0.0
  0
LTYPE
  5
14
330
5
100
AcDbSymbolTableRecord
100
AcDbLinetypeTableRecord
  2
ByLayer
 70
     0
  3

 72
    65
 73
     0
 40
0.0
  0
LTYPE
  5
15
330
5
100
AcDbSymbolTableRecord
100
AcDbLinetypeTableRecord
  2
Continuous
 70
     0
  3
Solid line
 72
    65
 73
     0
 40
0.0
  0
ENDTAB
  0
TABLE
  2
LAYER
  5
2
330
0
100
AcDbSymbolTable
 70
     1
  0
LAYER
  5
10
330
2
100
AcDbSymbolTableRecord
100
AcDbLayerTableRecord
  2
0
 70
     0
 62
     7
  6
Continuous
370
    -3
390
F
  0
ENDTAB
  0
TABLE
  2
STYLE
  5
3
330
0
100
AcDbSymbolTable
 70
     1
  0
STYLE
  5
11
330
3
100
AcDbSymbolTableRecord
100
AcDbTextStyleTableRecord
  2
Standard
 70
     0
 40
0.0
 41
1.0
 50
0.0
 71
     0
 42
0.2
  3
txt
  4

  0
ENDTAB
  0
TABLE
  2
VIEW
  5
6
330
0
100
AcDbSymbolTable
 70
     0
  0
ENDTAB
  0
TABLE
  2
UCS
  5
7
330
0
100
AcDbSymbolTable
 70
     0
  0
ENDTAB
  0
TABLE
  2
APPID
  5
9
330
0
100
AcDbSymbolTable
 70
     1
  0
APPID
  5
12
330
9
100
AcDbSymbolTableRecord
100
AcDbRegAppTableRecord
  2
ACAD
 70
     0
  0
ENDTAB
  0
TABLE
  2
DIMSTYLE
  5
A
330
0
100
AcDbSymbolTable
 70
     1
100
AcDbDimStyleTable
 71
     0
  0
DIMSTYLE
105
29A
330
A
100
AcDbSymbolTableRecord
100
AcDbDimStyleTableRecord
  2
Standard
 70
     0
340
11
  0
ENDTAB
  0
TABLE
  2
BLOCK_RECORD
  5
1
330
0
100
AcDbSymbolTable
 70
     0
  0
BLOCK_RECORD
  5
1E
330
1
100
AcDbSymbolTableRecord
100
AcDbBlockTableRecord
  2
*Model_Space
340
21
  0
BLOCK_RECORD
  5
1A
330
1
100
AcDbSymbolTableRecord
100
AcDbBlockTableRecord
  2
*Paper_Space
340
1D
  0
ENDTAB
  0
ENDSEC
  0
SECTION
  2
BLOCKS
  0
BLOCK
  5
1F
330
1E
100
AcDbEntity
  8
0
100
AcDbBlockBegin
  2
*Model_Space
 70
     0
 10
0.0
 20
0.0
 30
0.0
  3
*Model_Space
  1

  0
ENDBLK
  5
20
330
1E
100
AcDbEntity
  8
0
100
AcDbBlockEnd
  0
BLOCK
  5
1B
330
1A
100
AcDbEntity
 67
     1
  8
0
100
AcDbBlockBegin
  2
*Paper_Space
 70
     0
 10
0.0
 20
0.0
 30
0.0
  3
*Paper_Space
  1

  0
ENDBLK
  5
1C
330
1A
100
AcDbEntity
 67
     1
  8
0
100
AcDbBlockEnd
  0
ENDSEC
  0
SECTION
  2
ENTITIES
  0
LINE
  5
22
330
1E
100
AcDbEntity
  8
0
100
AcDbLine
 10
27.8254015
 20
94.57098549999999
 30
0.0
 11
29.7977015
 21
96.07098549999999
 31
0.0
  0
LINE
  5
23
330
1E
100
AcDbEntity
  8
0
100
AcDbLine
 10
25.2895015
 20
94.07098549999998
 30
0.0
 11
27.8254015
 21
94.57098549999999
 31
0.0
  0
LINE
  5
24
330
1E
100
AcDbEntity
  8
0
100
AcDbLine
 10
18.1044015
 20
108.0709855
 30
0.0
 11
18.5271015
 21
111.0709854999999
 31
0.0
  0
LINE
  5
25
330
1E
100
AcDbEntity
  8
0
100
AcDbLine
 10
17.8227015
 20
104.0709855
 30
0.0
 11
18.2453015
 21
100.5709854999999
 31
0.0
  0
LINE
  5
26
330
1E
100
AcDbEntity
  8
0
100
AcDbLine
 10
17.8227015
 20
104.0709855
 30
0.0
 11
18.1044015
 21
108.0709855
 31
0.0
  0
LINE
  5
27
330
1E
100
AcDbEntity
  8
0
100
AcDbLine
 10
18.5271015
 20
111.0709854999999
 30
0.0
 11
19.3724015
 21
115.0709854999999
 31
0.0
  0
LINE
  5
28
330
1E
100
AcDbEntity
  8
0
100
AcDbLine
 10
18.2453015
 20
100.5709854999999
 30
0.0
 11
19.3724015
 21
98.07098549999999
 31
0.0
  0
LINE
  5
29
330
1E
100
AcDbEntity
  8
0
100
AcDbLine
 10
19.3724015
 20
98.07098549999999
 30
0.0
 11
20.7812015
 21
96.07098549999999
 31
0.0
  0
LINE
  5
2A
330
1E
100
AcDbEntity
  8
0
100
AcDbLine
 10
32.05190149999999
 20
111.0709854999999
 30
0.0
 11
32.4745015
 21
108.0709855
 31
0.0
  0
LINE
  5
2B
330
1E
100
AcDbEntity
  8
0
100
AcDbLine
 10
52.8432015
 20
109.8709855
 30
0.0
 11
56.31430149999999
 21
109.0709854999999
 31
0.0
  0
LINE
  5
2C
330
1E
100
AcDbEntity
  8
0
100
AcDbLine
 10
50.4170737959774
 20
111.351143943062
 30
0.0
 11
52.8432015
 21
109.8709855
 31
0.0
  0
LINE
  5
2D
330
1E
100
AcDbEntity
  8
0
100
AcDbLine
 10
50.0097015
 20
110.9709854999999
 30
0.0
 11
53.41640149999999
 21
108.8709855
 31
0.0
  0
LINE
  5
2E
330
1E
100
AcDbEntity
  8
0
100
AcDbLine
 10
49.5451445833333
 20
111.549152166667
 30
0.0
 11
50.0097015
 21
110.9709854999999
 31
0.0
  0
LINE
  5
2F
330
1E
100
AcDbEntity
  8
0
100
AcDbLine
 10
32.4745015
 20
108.0709855
 30
0.0
 11
32.7563015
 21
104.0709855
 31
0.0
  0
LINE
  5
30
330
1E
100
AcDbEntity
  8
0
100
AcDbLine
 10
32.3336015
 20
100.5709854999999
 30
0.0
 11
32.7563015
 21
104.0709855
 31
0.0
  0
LINE
  5
31
330
1E
100
AcDbEntity
  8
0
100
AcDbLine
 10
31.2066015
 20
98.07098549999999
 30
0.0
 11
32.3336015
 21
100.5709854999999
 31
0.0
  0
LINE
  5
32
330
1E
100
AcDbEntity
  8
0
100
AcDbLine
 10
29.7977015
 20
96.07098549999999
 30
0.0
 11
31.2066015
 21
98.07098549999999
 31
0.0
  0
LINE
  5
33
330
1E
100
AcDbEntity
  8
0
100
AcDbLine
 10
20.7812015
 20
96.07098549999999
 30
0.0
 11
22.7536015
 21
94.57098549999999
 31
0.0
  0
LINE
  5
34
330
1E
100
AcDbEntity
  8
0
100
AcDbLine
 10
22.7536015
 20
94.57098549999999
 30
0.0
 11
25.2895015
 21
94.07098549999998
 31
0.0
  0
LINE
  5
35
330
1E
100
AcDbEntity
  8
0
100
AcDbLine
 10
56.31430149999999
 20
109.0709854999999
 30
0.0
 11
59.7853015
 21
109.8709855
 31
0.0
  0
LINE
  5
36
330
1E
100
AcDbEntity
  8
0
100
AcDbLine
 10
53.41640149999999
 20
108.8709855
 30
0.0
 11
57.0803015
 21
108.0709855
 31
0.0
  0
LINE
  5
37
330
1E
100
AcDbEntity
  8
0
100
AcDbLine
 10
60.7442015
 20
108.8709855
 30
0.0
 11
64.1510015
 21
110.9709854999999
 31
0.0
  0
LINE
  5
38
330
1E
100
AcDbEntity
  8
0
100
AcDbLine
 10
58.2294015
 20
108.0709855
 30
0.0
 11
61.89330149999999
 21
108.8709855
 31
0.0
  0
LINE
  5
39
330
1E
100
AcDbEntity
  8
0
100
AcDbLine
 10
61.89330149999999
 20
108.8709855
 30
0.0
 11
65.30010149999999
 21
110.9709854999999
 31
0.0
  0
LINE
  5
3A
330
1E
100
AcDbEntity
  8
0
100
AcDbLine
 10
57.0803015
 20
108.0709855
 30
0.0
 11
58.2294015
 21
108.0709855
 31
0.0
  0
LINE
  5
3B
330
1E
100
AcDbEntity
  8
0
100
AcDbLine
 10
57.0803015
 20
108.0709855
 30
0.0
 11
60.7442015
 21
108.8709855
 31
0.0
  0
LINE
  5
3C
330
1E
100
AcDbEntity
  8
0
100
AcDbLine
 10
59.7853015
 20
109.8709855
 30
0.0
 11
63.0635015
 21
111.8709855
 31
0.0
  0
LINE
  5
3D
330
1E
100
AcDbEntity
  8
0
100
AcDbLine
 10
62.2177586428571
 20
109.0709854999999
 30
0.0
 11
67.0558015
 21
109.0709854999999
 31
0.0
  0
LINE
  5
3E
330
1E
100
AcDbEntity
  8
0
100
AcDbLine
 10
62.2177586428571
 20
109.0709854999999
 30
0.0
 11
67.0558015
 21
109.0709854999999
 31
0.0
  0
LINE
  5
3F
330
1E
100
AcDbEntity
  8
0
100
AcDbLine
 10
56.31430149999999
 20
110.0709854999999
 30
0.0
 11
59.6568015
 21
110.7709854999999
 31
0.0
  0
LINE
  5
40
330
1E
100
AcDbEntity
  8
0
100
AcDbLine
 10
64.1510015
 20
110.9709854999999
 30
0.0
 11
67.0435015
 21
114.5709854999999
 31
0.0
  0
LINE
  5
41
330
1E
100
AcDbEntity
  8
0
100
AcDbLine
 10
65.30010149999999
 20
110.9709854999999
 30
0.0
 11
68.19260149999999
 21
114.5709854999999
 31
0.0
  0
LINE
  5
42
330
1E
100
AcDbEntity
  8
0
100
AcDbLine
 10
59.6568015
 20
110.7709854999999
 30
0.0
 11
62.7422015
 21
112.7709854999999
 31
0.0
  0
LINE
  5
43
330
1E
100
AcDbEntity
  8
0
100
AcDbLine
 10
52.97180149999999
 20
110.7709854999999
 30
0.0
 11
56.31430149999999
 21
110.0709854999999
 31
0.0
  0
LINE
  5
44
330
1E
100
AcDbEntity
  8
0
100
AcDbLine
 10
31.2066015
 20
115.0709854999999
 30
0.0
 11
32.05190149999999
 21
111.0709854999999
 31
0.0
  0
LINE
  5
45
330
1E
100
AcDbEntity
  8
0
100
AcDbLine
 10
19.3724015
 20
115.0709854999999
 30
0.0
 11
20.4939842795598
 21
118.2554908366259
 31
0.0
  0
LINE
  5
46
330
1E
100
AcDbEntity
  8
0
100
AcDbLine
 10
18.7781015
 20
118.5709855
 30
0.0
 11
20.7065015
 21
118.9709855
 31
0.0
  0
LINE
  5
47
330
1E
100
AcDbEntity
  8
0
100
AcDbLine
 10
18.0121015
 20
118.5709855
 30
0.0
 11
18.7781015
 21
118.5709855
 31
0.0
  0
LINE
  5
48
330
1E
100
AcDbEntity
  8
0
100
AcDbLine
 10
18.0121015
 20
118.5709855
 30
0.0
 11
19.9404015
 21
118.9709855
 31
0.0
  0
LINE
  5
49
330
1E
100
AcDbEntity
  8
0
100
AcDbLine
 10
17.6290015
 20
119.0709854999999
 30
0.0
 11
19.4288015
 21
119.4709854999999
 31
0.0
  0
LINE
  5
4A
330
1E
100
AcDbEntity
  8
0
100
AcDbLine
 10
15.8292015
 20
119.4709854999999
 30
0.0
 11
17.6290015
 21
119.0709854999999
 31
0.0
  0
LINE
  5
4B
330
1E
100
AcDbEntity
  8
0
100
AcDbLine
 10
16.0837015
 20
118.9709855
 30
0.0
 11
18.0121015
 21
118.5709855
 31
0.0
  0
LINE
  5
4C
330
1E
100
AcDbEntity
  8
0
100
AcDbLine
 10
19.9404015
 20
118.9709855
 30
0.0
 11
21.6759015
 21
120.0709854999999
 31
0.0
  0
LINE
  5
4D
330
1E
100
AcDbEntity
  8
0
100
AcDbLine
 10
19.4288015
 20
119.4709854999999
 30
0.0
 11
21.1644015
 21
120.5709855
 31
0.0
  0
LINE
  5
4E
330
1E
100
AcDbEntity
  8
0
100
AcDbLine
 10
20.7065015
 20
118.9709855
 30
0.0
 11
22.4420015
 21
120.0709854999999
 31
0.0
  0
LINE
  5
4F
330
1E
100
AcDbEntity
  8
0
100
AcDbLine
 10
19.11078899115689
 20
118.639993484061
 30
0.0
 11
19.4666015
 21
118.4709854999999
 31
0.0
  0
LINE
  5
50
330
1E
100
AcDbEntity
  8
0
100
AcDbLine
 10
19.4666015
 20
118.4709854999999
 30
0.0
 11
21.4593015
 21
118.0709854999999
 31
0.0
  0
LINE
  5
51
330
1E
100
AcDbEntity
  8
0
100
AcDbLine
 10
30.074493046265
 20
118.2851481907089
 30
0.0
 11
31.2066015
 21
115.0709854999999
 31
0.0
  0
LINE
  5
52
330
1E
100
AcDbEntity
  8
0
100
AcDbLine
 10
30.074493046265
 20
118.2851481907089
 30
0.0
 11
33.2176015
 21
119.4709854999999
 31
0.0
  0
LINE
  5
53
330
1E
100
AcDbEntity
  8
0
100
AcDbLine
 10
33.2176015
 20
119.4709854999999
 30
0.0
 11
34.95320149999999
 21
120.5709855
 31
0.0
  0
LINE
  5
54
330
1E
100
AcDbEntity
  8
0
100
AcDbLine
 10
21.4593015
 20
118.0709854999999
 30
0.0
 11
21.54939538703739
 21
118.051383679575
 31
0.0
  0
LINE
  5
55
330
1E
100
AcDbEntity
  8
0
100
AcDbLine
 10
0.140707499999994
 20
128.8709855
 30
0.0
 11
0.447125499999994
 21
127.7709854999999
 31
0.0
  0
LINE
  5
56
330
1E
100
AcDbEntity
  8
0
100
AcDbLine
 10
0.447125499999994
 20
127.7709854999999
 30
0.0
 11
0.7368424999999941
 21
127.0709854999999
 31
0.0
  0
LINE
  5
57
330
1E
100
AcDbEntity
  8
0
100
AcDbLine
 10
0.7368424999999941
 20
127.0709854999999
 30
0.0
 11
1.502891499999989
 21
125.8709854999999
 31
0.0
  0
LINE
  5
58
330
1E
100
AcDbEntity
  8
0
100
AcDbLine
 10
12.6153015
 20
122.2709854999999
 30
0.0
 11
12.8055015
 21
121.9709855
 31
0.0
  0
LINE
  5
59
330
1E
100
AcDbEntity
  8
0
100
AcDbLine
 10
12.6153015
 20
122.2709854999999
 30
0.0
 11
14.0937015
 21
120.5709855
 31
0.0
  0
LINE
  5
5A
330
1E
100
AcDbEntity
  8
0
100
AcDbLine
 10
21.6759015
 20
120.0709854999999
 30
0.0
 11
23.2186015
 21
121.9709855
 31
0.0
  0
LINE
  5
5B
330
1E
100
AcDbEntity
  8
0
100
AcDbLine
 10
22.4420015
 20
120.0709854999999
 30
0.0
 11
23.9847015
 21
121.9709855
 31
0.0
  0
LINE
  5
5C
330
1E
100
AcDbEntity
  8
0
100
AcDbLine
 10
21.1644015
 20
120.5709855
 30
0.0
 11
22.6428015
 21
122.2709854999999
 31
0.0
  0
LINE
  5
5D
330
1E
100
AcDbEntity
  8
0
100
AcDbLine
 10
23.2186015
 20
121.9709855
 30
0.0
 11
24.4399015
 21
124.3709855
 31
0.0
  0
LINE
  5
5E
330
1E
100
AcDbEntity
  8
0
100
AcDbLine
 10
22.6428015
 20
122.2709854999999
 30
0.0
 11
23.7355015
 21
124.5709854999999
 31
0.0
  0
LINE
  5
60
330
1E
100
AcDbEntity
  8
0
100
AcDbLine
 10
23.9847015
 20
121.9709855
 30
0.0
 11
25.2060015
 21
124.3709855
 31
0.0
  0
LINE
  5
61
330
1E
100
AcDbEntity
  8
0
100
AcDbLine
 10
14.0937015
 20
120.5709855
 30
0.0
 11
15.8292015
 21
119.4709854999999
 31
0.0
  0
LINE
  5
62
330
1E
100
AcDbEntity
  8
0
100
AcDbLine
 10
14.3482015
 20
120.0709854999999
 30
0.0
 11
16.0837015
 21
118.9709855
 31
0.0
  0
LINE
  5
63
330
1E
100
AcDbEntity
  8
0
100
AcDbLine
 10
12.8055015
 20
121.9709855
 30
0.0
 11
14.3482015
 21
120.0709854999999
 31
0.0
  0
LINE
  5
64
330
1E
100
AcDbEntity
  8
0
100
AcDbLine
 10
8.577001499999999
 20
122.5709854999999
 30
0.0
 11
12.33022323913043
 21
122.8709854999999
 31
0.0
  0
LINE
  5
65
330
1E
100
AcDbEntity
  8
0
100
AcDbLine
 10
7.04491149999999
 20
122.8709854999999
 30
0.0
 11
8.577001499999999
 21
122.5709854999999
 31
0.0
  0
LINE
  5
66
330
1E
100
AcDbEntity
  8
0
100
AcDbLine
 10
24.4399015
 20
124.3709855
 30
0.0
 11
25.1470015
 21
127.0709854999999
 31
0.0
  0
LINE
  5
67
330
1E
100
AcDbEntity
  8
0
100
AcDbLine
 10
25.2060015
 20
124.3709855
 30
0.0
 11
25.9130015
 21
127.0709854999999
 31
0.0
  0
LINE
  5
6A
330
1E
100
AcDbEntity
  8
0
100
AcDbLine
 10
23.7355015
 20
124.5709854999999
 30
0.0
 11
24.4426015
 21
127.2709855
 31
0.0
  0
LINE
  5
6B
330
1E
100
AcDbEntity
  8
0
100
AcDbLine
 10
11.5225015
 20
124.5709854999999
 30
0.0
 11
12.6153015
 21
122.2709854999999
 31
0.0
  0
LINE
  5
6C
330
1E
100
AcDbEntity
  8
0
100
AcDbLine
 10
32.6332015
 20
124.8709854999999
 30
0.0
 11
33.7056015
 21
124.2709854999999
 31
0.0
  0
LINE
  5
6D
330
1E
100
AcDbEntity
  8
0
100
AcDbLine
 10
33.7056015
 20
124.2709854999999
 30
0.0
 11
36.1236015
 21
123.4709854999999
 31
0.0
  0
LINE
  5
6F
330
1E
100
AcDbEntity
  8
0
100
AcDbLine
 10
4.94836149999999
 20
123.3709855
 30
0.0
 11
7.04491149999999
 21
122.8709854999999
 31
0.0
  0
LINE
  5
70
330
1E
100
AcDbEntity
  8
0
100
AcDbLine
 10
3.64609149999999
 20
123.9709855
 30
0.0
 11
4.94836149999999
 21
123.3709855
 31
0.0
  0
LINE
  5
71
330
1E
100
AcDbEntity
  8
0
100
AcDbLine
 10
24.4426015
 20
127.2709855
 30
0.0
 11
24.69970149999999
 21
130.0709855
 31
0.0
  0
LINE
  5
72
330
1E
100
AcDbEntity
  8
0
100
AcDbLine
 10
25.1470015
 20
127.0709854999999
 30
0.0
 11
25.4041015
 21
130.0709855
 31
0.0
  0
LINE
  5
73
330
1E
100
AcDbEntity
  8
0
100
AcDbLine
 10
25.9130015
 20
127.0709854999999
 30
0.0
 11
26.1702015
 21
130.0709855
 31
0.0
  0
LINE
  5
74
330
1E
100
AcDbEntity
  8
0
100
AcDbLine
 10
10.81550149999999
 20
127.2709855
 30
0.0
 11
11.5225015
 21
124.5709854999999
 31
0.0
  0
LINE
  5
75
330
1E
100
AcDbEntity
  8
0
100
AcDbLine
 10
30.62148224208439
 20
126.156113281469
 30
0.0
 11
32.6332015
 21
124.8709854999999
 31
0.0
  0
LINE
  5
77
330
1E
100
AcDbEntity
  8
0
100
AcDbLine
 10
2.42214149999999
 20
124.8709854999999
 30
0.0
 11
3.64609149999999
 21
123.9709855
 31
0.0
  0
LINE
  5
78
330
1E
100
AcDbEntity
  8
0
100
AcDbLine
 10
1.502891499999989
 20
125.8709854999999
 30
0.0
 11
2.42214149999999
 21
124.8709854999999
 31
0.0
  0
LINE
  5
79
330
1E
100
AcDbEntity
  8
0
100
AcDbLine
 10
10.5584015
 20
130.0709855
 30
0.0
 11
10.81550149999999
 21
127.2709855
 31
0.0
  0
LINE
  5
7A
330
1E
100
AcDbEntity
  8
0
100
AcDbLine
 10
10.5584015
 20
130.0709855
 30
0.0
 11
10.81550149999999
 21
132.8709854999999
 31
0.0
  0
LINE
  5
7B
330
1E
100
AcDbEntity
  8
0
100
AcDbLine
 10
0.140707499999994
 20
131.2709855
 30
0.0
 11
0.447125499999994
 21
132.3709854999999
 31
0.0
  0
LINE
  5
7C
330
1E
100
AcDbEntity
  8
0
100
AcDbLine
 10
24.4426015
 20
132.8709854999999
 30
0.0
 11
24.69970149999999
 21
130.0709855
 31
0.0
  0
LINE
  5
7D
330
1E
100
AcDbEntity
  8
0
100
AcDbLine
 10
25.1470015
 20
133.0709855
 30
0.0
 11
25.4041015
 21
130.0709855
 31
0.0
  0
LINE
  5
7E
330
1E
100
AcDbEntity
  8
0
100
AcDbLine
 10
25.9130015
 20
133.0709855
 30
0.0
 11
26.1702015
 21
130.0709855
 31
0.0
  0
LINE
  5
7F
330
1E
100
AcDbEntity
  8
0
100
AcDbLine
 10
10.81550149999999
 20
132.8709854999999
 30
0.0
 11
11.5225015
 21
135.5709855
 31
0.0
  0
LINE
  5
81
330
1E
100
AcDbEntity
  8
0
100
AcDbLine
 10
30.62148224208439
 20
133.985857718531
 30
0.0
 11
32.6332015
 21
135.2709855
 31
0.0
  0
LINE
  5
82
330
1E
100
AcDbEntity
  8
0
100
AcDbLine
 10
0.7368424999999941
 20
133.0709855
 30
0.0
 11
1.502891499999989
 21
134.2709855
 31
0.0
  0
LINE
  5
83
330
1E
100
AcDbEntity
  8
0
100
AcDbLine
 10
0.447125499999994
 20
132.3709854999999
 30
0.0
 11
0.7368424999999941
 21
133.0709855
 31
0.0
  0
LINE
  5
84
330
1E
100
AcDbEntity
  8
0
100
AcDbLine
 10
32.6332015
 20
135.2709855
 30
0.0
 11
33.7056015
 21
135.8709854999999
 31
0.0
  0
LINE
  5
85
330
1E
100
AcDbEntity
  8
0
100
AcDbLine
 10
2.42214149999999
 20
135.2709855
 30
0.0
 11
3.64609149999999
 21
136.1709854999999
 31
0.0
  0
LINE
  5
86
330
1E
100
AcDbEntity
  8
0
100
AcDbLine
 10
1.502891499999989
 20
134.2709855
 30
0.0
 11
2.42214149999999
 21
135.2709855
 31
0.0
  0
LINE
  5
87
330
1E
100
AcDbEntity
  8
0
100
AcDbLine
 10
0.140707499999994
 20
131.2709855
 30
0.0
 11
0.447125499999994
 21
132.3709854999999
 31
0.0
  0
LINE
  5
88
330
1E
100
AcDbEntity
  8
0
100
AcDbLine
 10
-0.0125015000000063
 20
130.0709855
 30
0.0
 11
0.140707499999994
 21
128.8709855
 31
0.0
  0
LINE
  5
89
330
1E
100
AcDbEntity
  8
0
100
AcDbLine
 10
-0.0125015000000063
 20
130.0709855
 30
0.0
 11
0.140707499999994
 21
131.2709855
 31
0.0
  0
LINE
  5
8A
330
1E
100
AcDbEntity
  8
0
100
AcDbLine
 10
-0.0125015000000063
 20
130.0709855
 30
0.0
 11
0.140707499999994
 21
128.8709855
 31
0.0
  0
LINE
  5
8B
330
1E
100
AcDbEntity
  8
0
100
AcDbLine
 10
-0.0125015000000063
 20
130.0709855
 30
0.0
 11
0.140707499999994
 21
131.2709855
 31
0.0
  0
LINE
  5
8C
330
1E
100
AcDbEntity
  8
0
100
AcDbLine
 10
0.140707499999994
 20
128.8709855
 30
0.0
 11
0.447125499999994
 21
127.7709854999999
 31
0.0
  0
LINE
  5
8D
330
1E
100
AcDbEntity
  8
0
100
AcDbLine
 10
35.2481015
 20
120.0709854999999
 30
0.0
 11
36.9193015
 21
120.4709854999999
 31
0.0
  0
LINE
  5
8E
330
1E
100
AcDbEntity
  8
0
100
AcDbLine
 10
36.1533015
 20
120.4709854999999
 30
0.0
 11
37.69590149999999
 21
121.3709855
 31
0.0
  0
LINE
  5
8F
330
1E
100
AcDbEntity
  8
0
100
AcDbLine
 10
36.9193015
 20
120.4709854999999
 30
0.0
 11
38.46200149999999
 21
121.3709855
 31
0.0
  0
LINE
  5
90
330
1E
100
AcDbEntity
  8
0
100
AcDbLine
 10
34.4820015
 20
120.0709854999999
 30
0.0
 11
35.2481015
 21
120.0709854999999
 31
0.0
  0
LINE
  5
91
330
1E
100
AcDbEntity
  8
0
100
AcDbLine
 10
34.4820015
 20
120.0709854999999
 30
0.0
 11
36.1533015
 21
120.4709854999999
 31
0.0
  0
LINE
  5
92
330
1E
100
AcDbEntity
  8
0
100
AcDbLine
 10
34.2513846632814
 20
120.126183402518
 30
0.0
 11
34.4820015
 21
120.0709854999999
 31
0.0
  0
LINE
  5
93
330
1E
100
AcDbEntity
  8
0
100
AcDbLine
 10
36.1236015
 20
123.4709854999999
 30
0.0
 11
37.9753015
 21
123.1709855
 31
0.0
  0
LINE
  5
94
330
1E
100
AcDbEntity
  8
0
100
AcDbLine
 10
36.6085015
 20
122.2709854999999
 30
0.0
 11
37.4460350194281
 21
123.2310665015549
 31
0.0
  0
LINE
  5
95
330
1E
100
AcDbEntity
  8
0
100
AcDbLine
 10
34.95320149999999
 20
120.5709855
 30
0.0
 11
36.6085015
 21
122.2709854999999
 31
0.0
  0
LINE
  5
96
330
1E
100
AcDbEntity
  8
0
100
AcDbLine
 10
34.1336249843071
 20
120.051548897521
 30
0.0
 11
34.4555015
 21
119.6709854999999
 31
0.0
  0
LINE
  5
97
330
1E
100
AcDbEntity
  8
0
100
AcDbLine
 10
34.4555015
 20
119.6709854999999
 30
0.0
 11
37.5144015
 21
117.4709854999999
 31
0.0
  0
LINE
  5
98
330
1E
100
AcDbEntity
  8
0
100
AcDbLine
 10
37.69590149999999
 20
121.3709855
 30
0.0
 11
39.0237392349028
 21
122.944835693232
 31
0.0
  0
LINE
  5
99
330
1E
100
AcDbEntity
  8
0
100
AcDbLine
 10
38.46200149999999
 20
121.3709855
 30
0.0
 11
39.7008569883311
 21
122.8394762255369
 31
0.0
  0
LINE
  5
9A
330
1E
100
AcDbEntity
  8
0
100
AcDbLine
 10
43.5340015
 20
122.8709854999999
 30
0.0
 11
45.6306015
 21
123.3709855
 31
0.0
  0
LINE
  5
9B
330
1E
100
AcDbEntity
  8
0
100
AcDbLine
 10
42.00200149999999
 20
122.5709854999999
 30
0.0
 11
43.5340015
 21
122.8709854999999
 31
0.0
  0
LINE
  5
9C
330
1E
100
AcDbEntity
  8
0
100
AcDbLine
 10
39.4308015
 20
122.8709854999999
 30
0.0
 11
42.00200149999999
 21
122.5709854999999
 31
0.0
  0
LINE
  5
9D
330
1E
100
AcDbEntity
  8
0
100
AcDbLine
 10
37.9753015
 20
123.1709855
 30
0.0
 11
39.4308015
 21
122.8709854999999
 31
0.0
  0
LINE
  5
9E
330
1E
100
AcDbEntity
  8
0
100
AcDbLine
 10
37.5144015
 20
117.4709854999999
 30
0.0
 11
39.7641015
 21
116.0709854999999
 31
0.0
  0
LINE
  5
9F
330
1E
100
AcDbEntity
  8
0
100
AcDbLine
 10
39.7641015
 20
116.0709854999999
 30
0.0
 11
43.9105015
 21
113.6709855
 31
0.0
  0
LINE
  5
A0
330
1E
100
AcDbEntity
  8
0
100
AcDbLine
 10
63.0635015
 20
111.8709855
 30
0.0
 11
65.82750149999999
 21
115.2709854999999
 31
0.0
  0
LINE
  5
A1
330
1E
100
AcDbEntity
  8
0
100
AcDbLine
 10
65.82750149999999
 20
115.2709854999999
 30
0.0
 11
68.0130015
 21
119.5709855
 31
0.0
  0
LINE
  5
A2
330
1E
100
AcDbEntity
  8
0
100
AcDbLine
 10
62.7422015
 20
112.7709854999999
 30
0.0
 11
65.3776015
 21
115.9709855
 31
0.0
  0
LINE
  5
A3
330
1E
100
AcDbEntity
  8
0
100
AcDbLine
 10
46.9329015
 20
123.9709855
 30
0.0
 11
48.1568015
 21
124.8709854999999
 31
0.0
  0
LINE
  5
A4
330
1E
100
AcDbEntity
  8
0
100
AcDbLine
 10
45.6306015
 20
123.3709855
 30
0.0
 11
46.9329015
 21
123.9709855
 31
0.0
  0
LINE
  5
A5
330
1E
100
AcDbEntity
  8
0
100
AcDbLine
 10
49.0761015
 20
134.2709855
 30
0.0
 11
49.8421015
 21
133.0709855
 31
0.0
  0
LINE
  5
A6
330
1E
100
AcDbEntity
  8
0
100
AcDbLine
 10
48.1568015
 20
135.2709855
 30
0.0
 11
49.0761015
 21
134.2709855
 31
0.0
  0
LINE
  5
A7
330
1E
100
AcDbEntity
  8
0
100
AcDbLine
 10
49.8421015
 20
133.0709855
 30
0.0
 11
50.1318015
 21
132.3709854999999
 31
0.0
  0
LINE
  5
A8
330
1E
100
AcDbEntity
  8
0
100
AcDbLine
 10
50.1318015
 20
132.3709854999999
 30
0.0
 11
50.4382015
 21
131.2709855
 31
0.0
  0
LINE
  5
A9
330
1E
100
AcDbEntity
  8
0
100
AcDbLine
 10
49.8421015
 20
127.0709854999999
 30
0.0
 11
50.1318015
 21
127.7709854999999
 31
0.0
  0
LINE
  5
AA
330
1E
100
AcDbEntity
  8
0
100
AcDbLine
 10
49.0761015
 20
125.8709854999999
 30
0.0
 11
49.8421015
 21
127.0709854999999
 31
0.0
  0
LINE
  5
AB
330
1E
100
AcDbEntity
  8
0
100
AcDbLine
 10
48.1568015
 20
124.8709854999999
 30
0.0
 11
49.0761015
 21
125.8709854999999
 31
0.0
  0
LINE
  5
AC
330
1E
100
AcDbEntity
  8
0
100
AcDbLine
 10
50.4382015
 20
131.2709855
 30
0.0
 11
50.5915015
 21
130.0709855
 31
0.0
  0
LINE
  5
AD
330
1E
100
AcDbEntity
  8
0
100
AcDbLine
 10
50.4382015
 20
128.8709855
 30
0.0
 11
50.5915015
 21
130.0709855
 31
0.0
  0
LINE
  5
AE
330
1E
100
AcDbEntity
  8
0
100
AcDbLine
 10
50.1318015
 20
127.7709854999999
 30
0.0
 11
50.4382015
 21
128.8709855
 31
0.0
  0
LINE
  5
AF
330
1E
100
AcDbEntity
  8
0
100
AcDbLine
 10
65.3776015
 20
115.9709855
 30
0.0
 11
67.4345015
 21
120.0709854999999
 31
0.0
  0
LINE
  5
B0
330
1E
100
AcDbEntity
  8
0
100
AcDbLine
 10
43.9105015
 20
113.6709855
 30
0.0
 11
48.5683015
 21
111.7709854999999
 31
0.0
  0
LINE
  5
B1
330
1E
100
AcDbEntity
  8
0
100
AcDbLine
 10
48.5683015
 20
111.7709854999999
 30
0.0
 11
52.97180149999999
 21
110.7709854999999
 31
0.0
  0
LINE
  5
B2
330
1E
100
AcDbEntity
  8
0
100
AcDbLine
 10
71.9998015
 20
6.869645499999999
 30
0.0
 11
75.0998015
 21
4.585065499999999
 31
0.0
  0
LINE
  5
B3
330
1E
100
AcDbEntity
  8
0
100
AcDbLine
 10
70.19980150000001
 20
9.432225500000001
 30
0.0
 11
71.9998015
 21
6.869645499999999
 31
0.0
  0
LINE
  5
B4
330
1E
100
AcDbEntity
  8
0
100
AcDbLine
 10
69.4998015
 20
12.3150855
 30
0.0
 11
70.19980150000001
 21
9.432225500000001
 31
0.0
  0
LINE
  5
B5
330
1E
100
AcDbEntity
  8
0
100
AcDbLine
 10
69.09980149999999
 20
15.2709855
 30
0.0
 11
69.4998015
 21
12.3150855
 31
0.0
  0
LINE
  5
B6
330
1E
100
AcDbEntity
  8
0
100
AcDbLine
 10
68.7998015
 20
23.8709855
 30
0.0
 11
69.09980149999999
 21
15.2709855
 31
0.0
  0
LINE
  5
B7
330
1E
100
AcDbEntity
  8
0
100
AcDbLine
 10
68.6998015
 20
33.6709855
 30
0.0
 11
68.7998015
 21
23.8709855
 31
0.0
  0
LINE
  5
B8
330
1E
100
AcDbEntity
  8
0
100
AcDbLine
 10
68.4998015
 20
43.0709855
 30
0.0
 11
68.6998015
 21
33.6709855
 31
0.0
  0
LINE
  5
B9
330
1E
100
AcDbEntity
  8
0
100
AcDbLine
 10
68.19980150000001
 20
53.0709855
 30
0.0
 11
68.4998015
 21
43.0709855
 31
0.0
  0
LINE
  5
BA
330
1E
100
AcDbEntity
  8
0
100
AcDbLine
 10
67.9998015
 20
66.47098549999999
 30
0.0
 11
68.19980150000001
 21
53.0709855
 31
0.0
  0
LINE
  5
BB
330
1E
100
AcDbEntity
  8
0
100
AcDbLine
 10
67.5998015
 20
80.1709855
 30
0.0
 11
67.9998015
 21
66.47098549999999
 31
0.0
  0
LINE
  5
BC
330
1E
100
AcDbEntity
  8
0
100
AcDbLine
 10
67.3998015
 20
92.5709855
 30
0.0
 11
67.5998015
 21
80.1709855
 31
0.0
  0
LINE
  5
BD
330
1E
100
AcDbEntity
  8
0
100
AcDbLine
 10
68.0130015
 20
119.5709855
 30
0.0
 11
69.2986015
 21
124.6709854999999
 31
0.0
  0
LINE
  5
BE
330
1E
100
AcDbEntity
  8
0
100
AcDbLine
 10
67.0435015
 20
114.5709854999999
 30
0.0
 11
69.3576015
 21
119.0709854999999
 31
0.0
  0
LINE
  5
BF
330
1E
100
AcDbEntity
  8
0
100
AcDbLine
 10
68.19260149999999
 20
114.5709854999999
 30
0.0
 11
70.5066015
 21
119.0709854999999
 31
0.0
  0
LINE
  5
C0
330
1E
100
AcDbEntity
  8
0
100
AcDbLine
 10
68.7201015
 20
135.2709855
 30
0.0
 11
69.17000149999999
 21
130.0709855
 31
0.0
  0
LINE
  5
C1
330
1E
100
AcDbEntity
  8
0
100
AcDbLine
 10
67.4345015
 20
120.0709854999999
 30
0.0
 11
68.7201015
 21
124.8709854999999
 31
0.0
  0
LINE
  5
C2
330
1E
100
AcDbEntity
  8
0
100
AcDbLine
 10
69.3576015
 20
119.0709854999999
 30
0.0
 11
70.7074015
 21
124.3709855
 31
0.0
  0
LINE
  5
C3
330
1E
100
AcDbEntity
  8
0
100
AcDbLine
 10
69.2986015
 20
124.6709854999999
 30
0.0
 11
69.8128015
 21
130.0709855
 31
0.0
  0
LINE
  5
C5
330
1E
100
AcDbEntity
  8
0
100
AcDbLine
 10
70.5066015
 20
119.0709854999999
 30
0.0
 11
71.8565015
 21
124.3709855
 31
0.0
  0
LINE
  5
C6
330
1E
100
AcDbEntity
  8
0
100
AcDbLine
 10
70.7074015
 20
124.3709855
 30
0.0
 11
71.2216015
 21
130.0709855
 31
0.0
  0
LINE
  5
C7
330
1E
100
AcDbEntity
  8
0
100
AcDbLine
 10
71.8565015
 20
124.3709855
 30
0.0
 11
72.3707015
 21
130.0709855
 31
0.0
  0
LINE
  5
C9
330
1E
100
AcDbEntity
  8
0
100
AcDbLine
 10
69.2986015
 20
135.4709855
 30
0.0
 11
69.8128015
 21
130.0709855
 31
0.0
  0
LINE
  5
CE
330
1E
100
AcDbEntity
  8
0
100
AcDbLine
 10
68.7201015
 20
124.8709854999999
 30
0.0
 11
69.17000149999999
 21
130.0709855
 31
0.0
  0
LINE
  5
CF
330
1E
100
AcDbEntity
  8
0
100
AcDbLine
 10
67.19980150000001
 20
105.4709855
 30
0.0
 11
67.3998015
 21
92.5709855
 31
0.0
  0
LINE
  5
D0
330
1E
100
AcDbEntity
  8
0
100
AcDbLine
 10
67.0558015
 20
109.0709854999999
 30
0.0
 11
67.19980150000001
 21
105.4709855
 31
0.0
  0
LINE
  5
D1
330
1E
100
AcDbEntity
  8
0
100
AcDbLine
 10
4.94836149999999
 20
136.7709854999999
 30
0.0
 11
7.04491149999999
 21
137.2709854999999
 31
0.0
  0
LINE
  5
D2
330
1E
100
AcDbEntity
  8
0
100
AcDbLine
 10
7.04491149999999
 20
137.2709854999999
 30
0.0
 11
8.577001499999999
 21
137.5709854999999
 31
0.0
  0
LINE
  5
D3
330
1E
100
AcDbEntity
  8
0
100
AcDbLine
 10
3.64609149999999
 20
136.1709854999999
 30
0.0
 11
4.94836149999999
 21
136.7709854999999
 31
0.0
  0
LINE
  5
D4
330
1E
100
AcDbEntity
  8
0
100
AcDbLine
 10
23.7355015
 20
135.5709855
 30
0.0
 11
24.4426015
 21
132.8709854999999
 31
0.0
  0
LINE
  5
D5
330
1E
100
AcDbEntity
  8
0
100
AcDbLine
 10
11.5225015
 20
135.5709855
 30
0.0
 11
12.6153015
 21
137.8709854999999
 31
0.0
  0
LINE
  5
D6
330
1E
100
AcDbEntity
  8
0
100
AcDbLine
 10
24.4399015
 20
135.7709854999999
 30
0.0
 11
25.1470015
 21
133.0709855
 31
0.0
  0
LINE
  5
D7
330
1E
100
AcDbEntity
  8
0
100
AcDbLine
 10
25.2060015
 20
135.7709854999999
 30
0.0
 11
25.9130015
 21
133.0709855
 31
0.0
  0
LINE
  5
D8
330
1E
100
AcDbEntity
  8
0
100
AcDbLine
 10
22.6428015
 20
137.8709854999999
 30
0.0
 11
23.7355015
 21
135.5709855
 31
0.0
  0
LINE
  5
D9
330
1E
100
AcDbEntity
  8
0
100
AcDbLine
 10
12.6153015
 20
137.8709854999999
 30
0.0
 11
12.8055015
 21
138.1709854999999
 31
0.0
  0
LINE
  5
DA
330
1E
100
AcDbEntity
  8
0
100
AcDbLine
 10
12.6153015
 20
137.8709854999999
 30
0.0
 11
14.0937015
 21
139.5709854999999
 31
0.0
  0
LINE
  5
DD
330
1E
100
AcDbEntity
  8
0
100
AcDbLine
 10
33.7056015
 20
135.8709854999999
 30
0.0
 11
36.1236015
 21
136.6709855
 31
0.0
  0
LINE
  5
DE
330
1E
100
AcDbEntity
  8
0
100
AcDbLine
 10
36.1236015
 20
136.6709855
 30
0.0
 11
37.9753015
 21
136.9709855
 31
0.0
  0
LINE
  5
E0
330
1E
100
AcDbEntity
  8
0
100
AcDbLine
 10
23.2186015
 20
138.1709854999999
 30
0.0
 11
24.4399015
 21
135.7709854999999
 31
0.0
  0
LINE
  5
E1
330
1E
100
AcDbEntity
  8
0
100
AcDbLine
 10
23.9847015
 20
138.1709854999999
 30
0.0
 11
25.2060015
 21
135.7709854999999
 31
0.0
  0
LINE
  5
E3
330
1E
100
AcDbEntity
  8
0
100
AcDbLine
 10
14.0937015
 20
139.5709854999999
 30
0.0
 11
15.8292015
 21
140.6709855
 31
0.0
  0
LINE
  5
E4
330
1E
100
AcDbEntity
  8
0
100
AcDbLine
 10
21.1644015
 20
139.5709854999999
 30
0.0
 11
22.6428015
 21
137.8709854999999
 31
0.0
  0
LINE
  5
E5
330
1E
100
AcDbEntity
  8
0
100
AcDbLine
 10
21.6759015
 20
140.0709855
 30
0.0
 11
23.2186015
 21
138.1709854999999
 31
0.0
  0
LINE
  5
E6
330
1E
100
AcDbEntity
  8
0
100
AcDbLine
 10
22.4420015
 20
140.0709855
 30
0.0
 11
23.9847015
 21
138.1709854999999
 31
0.0
  0
LINE
  5
E7
330
1E
100
AcDbEntity
  8
0
100
AcDbLine
 10
34.2513846632814
 20
140.0157875974819
 30
0.0
 11
34.4820015
 21
140.0709855
 31
0.0
  0
LINE
  5
E8
330
1E
100
AcDbEntity
  8
0
100
AcDbLine
 10
34.4820015
 20
140.0709855
 30
0.0
 11
35.2481015
 21
140.0709855
 31
0.0
  0
LINE
  5
E9
330
1E
100
AcDbEntity
  8
0
100
AcDbLine
 10
34.4820015
 20
140.0709855
 30
0.0
 11
36.1533015
 21
139.6709855
 31
0.0
  0
LINE
  5
EA
330
1E
100
AcDbEntity
  8
0
100
AcDbLine
 10
14.3482015
 20
140.0709855
 30
0.0
 11
16.0837015
 21
141.1709854999999
 31
0.0
  0
LINE
  5
EB
330
1E
100
AcDbEntity
  8
0
100
AcDbLine
 10
12.8055015
 20
138.1709854999999
 30
0.0
 11
14.3482015
 21
140.0709855
 31
0.0
  0
LINE
  5
EC
330
1E
100
AcDbEntity
  8
0
100
AcDbLine
 10
36.1533015
 20
139.6709855
 30
0.0
 11
37.69590149999999
 21
138.7709854999999
 31
0.0
  0
LINE
  5
ED
330
1E
100
AcDbEntity
  8
0
100
AcDbLine
 10
35.2481015
 20
140.0709855
 30
0.0
 11
36.9193015
 21
139.6709855
 31
0.0
  0
LINE
  5
EE
330
1E
100
AcDbEntity
  8
0
100
AcDbLine
 10
36.9193015
 20
139.6709855
 30
0.0
 11
38.46200149999999
 21
138.7709854999999
 31
0.0
  0
LINE
  5
EF
330
1E
100
AcDbEntity
  8
0
100
AcDbLine
 10
34.95320149999999
 20
139.5709854999999
 30
0.0
 11
36.6085015
 21
137.8709854999999
 31
0.0
  0
LINE
  5
F0
330
1E
100
AcDbEntity
  8
0
100
AcDbLine
 10
36.6085015
 20
137.8709854999999
 30
0.0
 11
37.4460350194281
 21
136.910904498445
 31
0.0
  0
LINE
  5
F1
330
1E
100
AcDbEntity
  8
0
100
AcDbLine
 10
8.577001499999999
 20
137.5709854999999
 30
0.0
 11
12.33022323913043
 21
137.2709854999999
 31
0.0
  0
LINE
  5
F2
330
1E
100
AcDbEntity
  8
0
100
AcDbLine
 10
15.8292015
 20
140.6709855
 30
0.0
 11
17.6290015
 21
141.0709855
 31
0.0
  0
LINE
  5
F3
330
1E
100
AcDbEntity
  8
0
100
AcDbLine
 10
17.6290015
 20
141.0709855
 30
0.0
 11
19.4288015
 21
140.6709855
 31
0.0
  0
LINE
  5
F4
330
1E
100
AcDbEntity
  8
0
100
AcDbLine
 10
18.7781015
 20
141.5709855
 30
0.0
 11
20.7065015
 21
141.1709854999999
 31
0.0
  0
LINE
  5
F5
330
1E
100
AcDbEntity
  8
0
100
AcDbLine
 10
16.0837015
 20
141.1709854999999
 30
0.0
 11
18.0121015
 21
141.5709855
 31
0.0
  0
LINE
  5
F6
330
1E
100
AcDbEntity
  8
0
100
AcDbLine
 10
18.0121015
 20
141.5709855
 30
0.0
 11
18.7781015
 21
141.5709855
 31
0.0
  0
LINE
  5
F7
330
1E
100
AcDbEntity
  8
0
100
AcDbLine
 10
18.0121015
 20
141.5709855
 30
0.0
 11
19.9404015
 21
141.1709854999999
 31
0.0
  0
LINE
  5
F8
330
1E
100
AcDbEntity
  8
0
100
AcDbLine
 10
19.4288015
 20
140.6709855
 30
0.0
 11
21.1644015
 21
139.5709854999999
 31
0.0
  0
LINE
  5
F9
330
1E
100
AcDbEntity
  8
0
100
AcDbLine
 10
19.9404015
 20
141.1709854999999
 30
0.0
 11
21.6759015
 21
140.0709855
 31
0.0
  0
LINE
  5
FA
330
1E
100
AcDbEntity
  8
0
100
AcDbLine
 10
20.7065015
 20
141.1709854999999
 30
0.0
 11
22.4420015
 21
140.0709855
 31
0.0
  0
LINE
  5
FB
330
1E
100
AcDbEntity
  8
0
100
AcDbLine
 10
30.074493046265
 20
141.856822809291
 30
0.0
 11
33.2176015
 21
140.6709855
 31
0.0
  0
LINE
  5
FC
330
1E
100
AcDbEntity
  8
0
100
AcDbLine
 10
33.2176015
 20
140.6709855
 30
0.0
 11
34.95320149999999
 21
139.5709854999999
 31
0.0
  0
LINE
  5
FD
330
1E
100
AcDbEntity
  8
0
100
AcDbLine
 10
19.11078899115689
 20
141.501977515939
 30
0.0
 11
19.4666015
 21
141.6709855
 31
0.0
  0
LINE
  5
FE
330
1E
100
AcDbEntity
  8
0
100
AcDbLine
 10
30.074493046265
 20
141.856822809291
 30
0.0
 11
31.2066015
 21
145.0709855
 31
0.0
  0
LINE
  5
FF
330
1E
100
AcDbEntity
  8
0
100
AcDbLine
 10
21.4593015
 20
142.0709855
 30
0.0
 11
21.54939538703739
 21
142.0905873204249
 31
0.0
  0
LINE
  5
100
330
1E
100
AcDbEntity
  8
0
100
AcDbLine
 10
19.4666015
 20
141.6709855
 30
0.0
 11
21.4593015
 21
142.0709855
 31
0.0
  0
LINE
  5
101
330
1E
100
AcDbEntity
  8
0
100
AcDbLine
 10
34.4555015
 20
140.4709855
 30
0.0
 11
37.5144015
 21
142.6709855
 31
0.0
  0
LINE
  5
102
330
1E
100
AcDbEntity
  8
0
100
AcDbLine
 10
34.1336249843071
 20
140.090422102479
 30
0.0
 11
34.4555015
 21
140.4709855
 31
0.0
  0
LINE
  5
103
330
1E
100
AcDbEntity
  8
0
100
AcDbLine
 10
37.9753015
 20
136.9709855
 30
0.0
 11
39.4308015
 21
137.2709854999999
 31
0.0
  0
LINE
  5
104
330
1E
100
AcDbEntity
  8
0
100
AcDbLine
 10
39.4308015
 20
137.2709854999999
 30
0.0
 11
42.00200149999999
 21
137.5709854999999
 31
0.0
  0
LINE
  5
105
330
1E
100
AcDbEntity
  8
0
100
AcDbLine
 10
37.69590149999999
 20
138.7709854999999
 30
0.0
 11
39.0237392349028
 21
137.197135306768
 31
0.0
  0
LINE
  5
106
330
1E
100
AcDbEntity
  8
0
100
AcDbLine
 10
38.46200149999999
 20
138.7709854999999
 30
0.0
 11
39.7008569883311
 21
137.302494774463
 31
0.0
  0
LINE
  5
107
330
1E
100
AcDbEntity
  8
0
100
AcDbLine
 10
42.00200149999999
 20
137.5709854999999
 30
0.0
 11
43.5340015
 21
137.2709854999999
 31
0.0
  0
LINE
  5
108
330
1E
100
AcDbEntity
  8
0
100
AcDbLine
 10
43.5340015
 20
137.2709854999999
 30
0.0
 11
45.6306015
 21
136.7709854999999
 31
0.0
  0
LINE
  5
109
330
1E
100
AcDbEntity
  8
0
100
AcDbLine
 10
45.6306015
 20
136.7709854999999
 30
0.0
 11
46.9329015
 21
136.1709854999999
 31
0.0
  0
LINE
  5
10A
330
1E
100
AcDbEntity
  8
0
100
AcDbLine
 10
46.9329015
 20
136.1709854999999
 30
0.0
 11
48.1568015
 21
135.2709855
 31
0.0
  0
LINE
  5
10B
330
1E
100
AcDbEntity
  8
0
100
AcDbLine
 10
68.0130015
 20
140.5709855
 30
0.0
 11
69.2986015
 21
135.4709855
 31
0.0
  0
LINE
  5
10C
330
1E
100
AcDbEntity
  8
0
100
AcDbLine
 10
70.7074015
 20
135.7709854999999
 30
0.0
 11
71.2216015
 21
130.0709855
 31
0.0
  0
LINE
  5
10D
330
1E
100
AcDbEntity
  8
0
100
AcDbLine
 10
71.8565015
 20
135.7709854999999
 30
0.0
 11
72.3707015
 21
130.0709855
 31
0.0
  0
LINE
  5
10E
330
1E
100
AcDbEntity
  8
0
100
AcDbLine
 10
69.3576015
 20
141.0709855
 30
0.0
 11
70.7074015
 21
135.7709854999999
 31
0.0
  0
LINE
  5
10F
330
1E
100
AcDbEntity
  8
0
100
AcDbLine
 10
70.5066015
 20
141.0709855
 30
0.0
 11
71.8565015
 21
135.7709854999999
 31
0.0
  0
LINE
  5
112
330
1E
100
AcDbEntity
  8
0
100
AcDbLine
 10
67.4345015
 20
140.0709855
 30
0.0
 11
68.7201015
 21
135.2709855
 31
0.0
  0
LINE
  5
113
330
1E
100
AcDbEntity
  8
0
100
AcDbLine
 10
65.82750149999999
 20
144.8709854999999
 30
0.0
 11
68.0130015
 21
140.5709855
 31
0.0
  0
LINE
  5
114
330
1E
100
AcDbEntity
  8
0
100
AcDbLine
 10
65.3776015
 20
144.1709855
 30
0.0
 11
67.4345015
 21
140.0709855
 31
0.0
  0
LINE
  5
115
330
1E
100
AcDbEntity
  8
0
100
AcDbLine
 10
39.7641015
 20
144.0709855
 30
0.0
 11
43.9105015
 21
146.4709855
 31
0.0
  0
LINE
  5
116
330
1E
100
AcDbEntity
  8
0
100
AcDbLine
 10
37.5144015
 20
142.6709855
 30
0.0
 11
39.7641015
 21
144.0709855
 31
0.0
  0
LINE
  5
119
330
1E
100
AcDbEntity
  8
0
100
AcDbLine
 10
76.49980150000001
 20
3.7581455
 30
0.0
 11
79.9998015
 21
2.1746755
 31
0.0
  0
LINE
  5
11A
330
1E
100
AcDbEntity
  8
0
100
AcDbLine
 10
75.0998015
 20
4.585065499999999
 30
0.0
 11
78.99980150000001
 21
2.8203355
 31
0.0
  0
LINE
  5
11B
330
1E
100
AcDbEntity
  8
0
100
AcDbLine
 10
75.0998015
 20
4.585065499999999
 30
0.0
 11
76.49980150000001
 21
3.7581455
 31
0.0
  0
LINE
  5
11E
330
1E
100
AcDbEntity
  8
0
100
AcDbLine
 10
31.2066015
 20
145.0709855
 30
0.0
 11
32.05190149999999
 21
149.0709855
 31
0.0
  0
LINE
  5
11F
330
1E
100
AcDbEntity
  8
0
100
AcDbLine
 10
19.3724015
 20
145.0709855
 30
0.0
 11
20.4939842795598
 21
141.886480163374
 31
0.0
  0
LINE
  5
120
330
1E
100
AcDbEntity
  8
0
100
AcDbLine
 10
18.5271015
 20
149.0709855
 30
0.0
 11
19.3724015
 21
145.0709855
 31
0.0
  0
LINE
  5
121
330
1E
100
AcDbEntity
  8
0
100
AcDbLine
 10
18.1044015
 20
152.0709854999999
 30
0.0
 11
18.5271015
 21
149.0709855
 31
0.0
  0
LINE
  5
122
330
1E
100
AcDbEntity
  8
0
100
AcDbLine
 10
17.8227015
 20
156.0709854999999
 30
0.0
 11
18.2453015
 21
159.5709855
 31
0.0
  0
LINE
  5
123
330
1E
100
AcDbEntity
  8
0
100
AcDbLine
 10
17.8227015
 20
156.0709854999999
 30
0.0
 11
18.1044015
 21
152.0709854999999
 31
0.0
  0
LINE
  5
124
330
1E
100
AcDbEntity
  8
0
100
AcDbLine
 10
18.2453015
 20
159.5709855
 30
0.0
 11
19.3724015
 21
162.0709855
 31
0.0
  0
LINE
  5
125
330
1E
100
AcDbEntity
  8
0
100
AcDbLine
 10
19.3724015
 20
162.0709855
 30
0.0
 11
20.7812015
 21
164.0709855
 31
0.0
  0
LINE
  5
126
330
1E
100
AcDbEntity
  8
0
100
AcDbLine
 10
20.7812015
 20
164.0709855
 30
0.0
 11
22.7536015
 21
165.5709855
 31
0.0
  0
LINE
  5
127
330
1E
100
AcDbEntity
  8
0
100
AcDbLine
 10
32.05190149999999
 20
149.0709855
 30
0.0
 11
32.4745015
 21
152.0709854999999
 31
0.0
  0
LINE
  5
128
330
1E
100
AcDbEntity
  8
0
100
AcDbLine
 10
32.4745015
 20
152.0709854999999
 30
0.0
 11
32.7563015
 21
156.0709854999999
 31
0.0
  0
LINE
  5
129
330
1E
100
AcDbEntity
  8
0
100
AcDbLine
 10
32.3336015
 20
159.5709855
 30
0.0
 11
32.7563015
 21
156.0709854999999
 31
0.0
  0
LINE
  5
12A
330
1E
100
AcDbEntity
  8
0
100
AcDbLine
 10
31.2066015
 20
162.0709855
 30
0.0
 11
32.3336015
 21
159.5709855
 31
0.0
  0
LINE
  5
12B
330
1E
100
AcDbEntity
  8
0
100
AcDbLine
 10
29.7977015
 20
164.0709855
 30
0.0
 11
31.2066015
 21
162.0709855
 31
0.0
  0
LINE
  5
12C
330
1E
100
AcDbEntity
  8
0
100
AcDbLine
 10
27.8254015
 20
165.5709855
 30
0.0
 11
29.7977015
 21
164.0709855
 31
0.0
  0
LINE
  5
12D
330
1E
100
AcDbEntity
  8
0
100
AcDbLine
 10
25.2895015
 20
166.0709855
 30
0.0
 11
27.8254015
 21
165.5709855
 31
0.0
  0
LINE
  5
12E
330
1E
100
AcDbEntity
  8
0
100
AcDbLine
 10
22.7536015
 20
165.5709855
 30
0.0
 11
25.2895015
 21
166.0709855
 31
0.0
  0
LINE
  5
12F
330
1E
100
AcDbEntity
  8
0
100
AcDbLine
 10
43.9105015
 20
146.4709855
 30
0.0
 11
48.5683015
 21
148.3709854999999
 31
0.0
  0
LINE
  5
130
330
1E
100
AcDbEntity
  8
0
100
AcDbLine
 10
50.4170737959774
 20
148.790827056938
 30
0.0
 11
52.8432015
 21
150.2709854999999
 31
0.0
  0
LINE
  5
131
330
1E
100
AcDbEntity
  8
0
100
AcDbLine
 10
50.0097015
 20
149.1709855
 30
0.0
 11
53.41640149999999
 21
151.2709854999999
 31
0.0
  0
LINE
  5
132
330
1E
100
AcDbEntity
  8
0
100
AcDbLine
 10
49.5451445833333
 20
148.5928188333329
 30
0.0
 11
50.0097015
 21
149.1709855
 31
0.0
  0
LINE
  5
133
330
1E
100
AcDbEntity
  8
0
100
AcDbLine
 10
67.0435015
 20
145.5709855
 30
0.0
 11
69.3576015
 21
141.0709855
 31
0.0
  0
LINE
  5
134
330
1E
100
AcDbEntity
  8
0
100
AcDbLine
 10
63.0635015
 20
148.2709854999999
 30
0.0
 11
65.82750149999999
 21
144.8709854999999
 31
0.0
  0
LINE
  5
135
330
1E
100
AcDbEntity
  8
0
100
AcDbLine
 10
64.1510015
 20
149.1709855
 30
0.0
 11
67.0435015
 21
145.5709855
 31
0.0
  0
LINE
  5
136
330
1E
100
AcDbEntity
  8
0
100
AcDbLine
 10
65.30010149999999
 20
149.1709855
 30
0.0
 11
68.19260149999999
 21
145.5709855
 31
0.0
  0
LINE
  5
137
330
1E
100
AcDbEntity
  8
0
100
AcDbLine
 10
68.19260149999999
 20
145.5709855
 30
0.0
 11
70.5066015
 21
141.0709855
 31
0.0
  0
LINE
  5
138
330
1E
100
AcDbEntity
  8
0
100
AcDbLine
 10
62.7422015
 20
147.3709854999999
 30
0.0
 11
65.3776015
 21
144.1709855
 31
0.0
  0
LINE
  5
139
330
1E
100
AcDbEntity
  8
0
100
AcDbLine
 10
56.31430149999999
 20
151.0709854999999
 30
0.0
 11
59.7853015
 21
150.2709854999999
 31
0.0
  0
LINE
  5
13A
330
1E
100
AcDbEntity
  8
0
100
AcDbLine
 10
52.8432015
 20
150.2709854999999
 30
0.0
 11
56.31430149999999
 21
151.0709854999999
 31
0.0
  0
LINE
  5
13B
330
1E
100
AcDbEntity
  8
0
100
AcDbLine
 10
53.41640149999999
 20
151.2709854999999
 30
0.0
 11
57.0803015
 21
152.0709854999999
 31
0.0
  0
LINE
  5
13C
330
1E
100
AcDbEntity
  8
0
100
AcDbLine
 10
58.2294015
 20
152.0709854999999
 30
0.0
 11
61.89330149999999
 21
151.2709854999999
 31
0.0
  0
LINE
  5
13D
330
1E
100
AcDbEntity
  8
0
100
AcDbLine
 10
57.0803015
 20
152.0709854999999
 30
0.0
 11
58.2294015
 21
152.0709854999999
 31
0.0
  0
LINE
  5
13E
330
1E
100
AcDbEntity
  8
0
100
AcDbLine
 10
57.0803015
 20
152.0709854999999
 30
0.0
 11
60.7442015
 21
151.2709854999999
 31
0.0
  0
LINE
  5
13F
330
1E
100
AcDbEntity
  8
0
100
AcDbLine
 10
56.31430149999999
 20
150.0709855
 30
0.0
 11
59.6568015
 21
149.3709854999999
 31
0.0
  0
LINE
  5
140
330
1E
100
AcDbEntity
  8
0
100
AcDbLine
 10
59.7853015
 20
150.2709854999999
 30
0.0
 11
63.0635015
 21
148.2709854999999
 31
0.0
  0
LINE
  5
141
330
1E
100
AcDbEntity
  8
0
100
AcDbLine
 10
60.7442015
 20
151.2709854999999
 30
0.0
 11
64.1510015
 21
149.1709855
 31
0.0
  0
LINE
  5
142
330
1E
100
AcDbEntity
  8
0
100
AcDbLine
 10
61.89330149999999
 20
151.2709854999999
 30
0.0
 11
65.30010149999999
 21
149.1709855
 31
0.0
  0
LINE
  5
143
330
1E
100
AcDbEntity
  8
0
100
AcDbLine
 10
62.174428087015
 20
151.097695071231
 30
0.0
 11
82.7998015
 21
151.2709854999999
 31
0.0
  0
LINE
  5
144
330
1E
100
AcDbEntity
  8
0
100
AcDbLine
 10
59.6568015
 20
149.3709854999999
 30
0.0
 11
62.7422015
 21
147.3709854999999
 31
0.0
  0
LINE
  5
145
330
1E
100
AcDbEntity
  8
0
100
AcDbLine
 10
52.97180149999999
 20
149.3709854999999
 30
0.0
 11
56.31430149999999
 21
150.0709855
 31
0.0
  0
LINE
  5
146
330
1E
100
AcDbEntity
  8
0
100
AcDbLine
 10
48.5683015
 20
148.3709854999999
 30
0.0
 11
52.97180149999999
 21
149.3709854999999
 31
0.0
  0
LINE
  5
148
330
1E
100
AcDbEntity
  8
0
100
AcDbLine
 10
79.21200259272869
 20
2.531091481627669
 30
0.0
 11
79.9998015
 21
1.936535499999999
 31
0.0
  0
LINE
  5
149
330
1E
100
AcDbEntity
  8
0
100
AcDbLine
 10
78.99980150000001
 20
2.8203355
 30
0.0
 11
83.5998015
 21
1.7505955
 31
0.0
  0
LINE
  5
14A
330
1E
100
AcDbEntity
  8
0
100
AcDbLine
 10
82.4998015
 20
0.8467374999999959
 30
0.0
 11
85.39980149999999
 21
0.158445499999996
 31
0.0
  0
LINE
  5
14B
330
1E
100
AcDbEntity
  8
0
100
AcDbLine
 10
82.4998015
 20
0.8467374999999959
 30
0.0
 11
85.39980149999999
 21
0.158445499999996
 31
0.0
  0
LINE
  5
14C
330
1E
100
AcDbEntity
  8
0
100
AcDbLine
 10
79.9998015
 20
1.936535499999999
 30
0.0
 11
82.4998015
 21
0.8467374999999959
 31
0.0
  0
LINE
  5
14D
330
1E
100
AcDbEntity
  8
0
100
AcDbLine
 10
79.9998015
 20
2.1746755
 30
0.0
 11
84.0998015
 21
1.243935499999999
 31
0.0
  0
LINE
  5
14E
330
1E
100
AcDbEntity
  8
0
100
AcDbLine
 10
85.39980149999999
 20
0.158445499999996
 30
0.0
 11
88.4998015
 21
-0.0709855000000041
 31
0.0
  0
LINE
  5
14F
330
1E
100
AcDbEntity
  8
0
100
AcDbLine
 10
84.0998015
 20
1.243935499999999
 30
0.0
 11
88.4998015
 21
0.8269414999999959
 31
0.0
  0
LINE
  5
150
330
1E
100
AcDbEntity
  8
0
100
AcDbLine
 10
83.5998015
 20
1.7505955
 30
0.0
 11
88.4998015
 21
1.3758555
 31
0.0
  0
LINE
  5
151
330
1E
100
AcDbEntity
  8
0
100
AcDbLine
 10
88.4998015
 20
-0.0709855000000041
 30
0.0
 11
91.5998015
 21
0.158445499999996
 31
0.0
  0
LINE
  5
152
330
1E
100
AcDbEntity
  8
0
100
AcDbLine
 10
88.4998015
 20
0.8269414999999959
 30
0.0
 11
92.89980149999999
 21
1.243935499999999
 31
0.0
  0
LINE
  5
153
330
1E
100
AcDbEntity
  8
0
100
AcDbLine
 10
91.5998015
 20
0.158445499999996
 30
0.0
 11
94.4998015
 21
0.8467374999999959
 31
0.0
  0
LINE
  5
154
330
1E
100
AcDbEntity
  8
0
100
AcDbLine
 10
91.5998015
 20
0.158445499999996
 30
0.0
 11
94.4998015
 21
0.8467374999999959
 31
0.0
  0
LINE
  5
155
330
1E
100
AcDbEntity
  8
0
100
AcDbLine
 10
94.4998015
 20
0.8467374999999959
 30
0.0
 11
96.99980150000001
 21
1.936535499999999
 31
0.0
  0
LINE
  5
156
330
1E
100
AcDbEntity
  8
0
100
AcDbLine
 10
92.89980149999999
 20
1.243935499999999
 30
0.0
 11
96.99980150000001
 21
2.1746755
 31
0.0
  0
LINE
  5
157
330
1E
100
AcDbEntity
  8
0
100
AcDbLine
 10
88.4998015
 20
1.3758555
 30
0.0
 11
93.3998015
 21
1.7505955
 31
0.0
  0
LINE
  5
158
330
1E
100
AcDbEntity
  8
0
100
AcDbLine
 10
96.99980150000001
 20
1.936535499999999
 30
0.0
 11
97.7877014921871
 21
2.53116777094564
 31
0.0
  0
LINE
  5
159
330
1E
100
AcDbEntity
  8
0
100
AcDbLine
 10
96.99980150000001
 20
2.1746755
 30
0.0
 11
100.4995014999999
 21
3.7581455
 31
0.0
  0
LINE
  5
15A
330
1E
100
AcDbEntity
  8
0
100
AcDbLine
 10
93.3998015
 20
1.7505955
 30
0.0
 11
97.99980150000001
 21
2.8203355
 31
0.0
  0
LINE
  5
15B
330
1E
100
AcDbEntity
  8
0
100
AcDbLine
 10
100.4995014999999
 20
3.7581455
 30
0.0
 11
101.8995015
 21
4.585065499999999
 31
0.0
  0
LINE
  5
15C
330
1E
100
AcDbEntity
  8
0
100
AcDbLine
 10
97.99980150000001
 20
2.8203355
 30
0.0
 11
101.8995015
 21
4.585065499999999
 31
0.0
  0
LINE
  5
15D
330
1E
100
AcDbEntity
  8
0
100
AcDbLine
 10
101.8995015
 20
4.585065499999999
 30
0.0
 11
104.9995014999999
 21
6.869645499999999
 31
0.0
  0
LINE
  5
15E
330
1E
100
AcDbEntity
  8
0
100
AcDbLine
 10
104.9995014999999
 20
6.869645499999999
 30
0.0
 11
106.7995014999999
 21
9.432225500000001
 31
0.0
  0
LINE
  5
15F
330
1E
100
AcDbEntity
  8
0
100
AcDbLine
 10
106.7995014999999
 20
9.432225500000001
 30
0.0
 11
107.4995015
 21
12.3150855
 31
0.0
  0
LINE
  5
160
330
1E
100
AcDbEntity
  8
0
100
AcDbLine
 10
107.4995015
 20
12.3150855
 30
0.0
 11
107.8995014999999
 21
15.2709855
 31
0.0
  0
LINE
  5
161
330
1E
100
AcDbEntity
  8
0
100
AcDbLine
 10
107.8995014999999
 20
15.2709855
 30
0.0
 11
108.1995014999999
 21
23.8709855
 31
0.0
  0
LINE
  5
162
330
1E
100
AcDbEntity
  8
0
100
AcDbLine
 10
108.1995014999999
 20
23.8709855
 30
0.0
 11
108.2995014999999
 21
33.6709855
 31
0.0
  0
LINE
  5
163
330
1E
100
AcDbEntity
  8
0
100
AcDbLine
 10
108.2995014999999
 20
33.6709855
 30
0.0
 11
108.4995015
 21
43.0709855
 31
0.0
  0
LINE
  5
164
330
1E
100
AcDbEntity
  8
0
100
AcDbLine
 10
108.4995015
 20
43.0709855
 30
0.0
 11
108.7995014999999
 21
53.0709855
 31
0.0
  0
LINE
  5
165
330
1E
100
AcDbEntity
  8
0
100
AcDbLine
 10
108.7995014999999
 20
53.0709855
 30
0.0
 11
108.9995014999999
 21
66.47098549999999
 31
0.0
  0
LINE
  5
166
330
1E
100
AcDbEntity
  8
0
100
AcDbLine
 10
108.9995014999999
 20
66.47098549999999
 30
0.0
 11
109.3995014999999
 21
80.1709855
 31
0.0
  0
LINE
  5
18F
330
1E
100
AcDbEntity
  8
0
100
AcDbLine
 10
88.4998015
 20
120.0709854999999
 30
0.0
 11
91.0998015
 21
120.3709855
 31
0.0
  0
LINE
  5
190
330
1E
100
AcDbEntity
  8
0
100
AcDbLine
 10
91.0998015
 20
120.3709855
 30
0.0
 11
93.4998015
 21
121.3709855
 31
0.0
  0
LINE
  5
1B4
330
1E
100
AcDbEntity
  8
0
100
AcDbLine
 10
93.4998015
 20
121.3709855
 30
0.0
 11
95.59980149999999
 21
122.9709855
 31
0.0
  0
LINE
  5
1B5
330
1E
100
AcDbEntity
  8
0
100
AcDbLine
 10
95.59980149999999
 20
122.9709855
 30
0.0
 11
97.19980150000001
 21
125.0709854999999
 31
0.0
  0
LINE
  5
1CB
330
1E
100
AcDbEntity
  8
0
100
AcDbLine
 10
85.8998015
 20
120.3709855
 30
0.0
 11
88.4998015
 21
120.0709854999999
 31
0.0
  0
LINE
  5
1CC
330
1E
100
AcDbEntity
  8
0
100
AcDbLine
 10
83.4998015
 20
121.3709855
 30
0.0
 11
85.8998015
 21
120.3709855
 31
0.0
  0
LINE
  5
1D5
330
1E
100
AcDbEntity
  8
0
100
AcDbLine
 10
97.19980150000001
 20
125.0709854999999
 30
0.0
 11
98.19980150000001
 21
127.4709855
 31
0.0
  0
LINE
  5
1D6
330
1E
100
AcDbEntity
  8
0
100
AcDbLine
 10
98.19980150000001
 20
127.4709855
 30
0.0
 11
98.4998015
 21
130.0709855
 31
0.0
  0
LINE
  5
1EF
330
1E
100
AcDbEntity
  8
0
100
AcDbLine
 10
81.39980149999999
 20
122.9709855
 30
0.0
 11
83.4998015
 21
121.3709855
 31
0.0
  0
LINE
  5
1F0
330
1E
100
AcDbEntity
  8
0
100
AcDbLine
 10
79.7998015
 20
125.0709854999999
 30
0.0
 11
81.39980149999999
 21
122.9709855
 31
0.0
  0
LINE
  5
1F1
330
1E
100
AcDbEntity
  8
0
100
AcDbLine
 10
81.39980149999999
 20
137.1709854999999
 30
0.0
 11
83.4998015
 21
138.7709854999999
 31
0.0
  0
LINE
  5
1F2
330
1E
100
AcDbEntity
  8
0
100
AcDbLine
 10
79.7998015
 20
135.0709855
 30
0.0
 11
81.39980149999999
 21
137.1709854999999
 31
0.0
  0
LINE
  5
1F3
330
1E
100
AcDbEntity
  8
0
100
AcDbLine
 10
78.7998015
 20
132.6709855
 30
0.0
 11
79.7998015
 21
135.0709855
 31
0.0
  0
LINE
  5
1FC
330
1E
100
AcDbEntity
  8
0
100
AcDbLine
 10
97.19980150000001
 20
135.0709855
 30
0.0
 11
98.19980150000001
 21
132.6709855
 31
0.0
  0
LINE
  5
1FD
330
1E
100
AcDbEntity
  8
0
100
AcDbLine
 10
98.19980150000001
 20
132.6709855
 30
0.0
 11
98.4998015
 21
130.0709855
 31
0.0
  0
LINE
  5
215
330
1E
100
AcDbEntity
  8
0
100
AcDbLine
 10
95.59980149999999
 20
137.1709854999999
 30
0.0
 11
97.19980150000001
 21
135.0709855
 31
0.0
  0
LINE
  5
219
330
1E
100
AcDbEntity
  8
0
100
AcDbLine
 10
93.4998015
 20
138.7709854999999
 30
0.0
 11
95.59980149999999
 21
137.1709854999999
 31
0.0
  0
LINE
  5
248
330
1E
100
AcDbEntity
  8
0
100
AcDbLine
 10
88.4998015
 20
140.0709855
 30
0.0
 11
91.0998015
 21
139.7709855
 31
0.0
  0
LINE
  5
249
330
1E
100
AcDbEntity
  8
0
100
AcDbLine
 10
91.0998015
 20
139.7709855
 30
0.0
 11
93.4998015
 21
138.7709854999999
 31
0.0
  0
LINE
  5
294
330
1E
100
AcDbEntity
  8
0
100
AcDbLine
 10
85.8998015
 20
139.7709855
 30
0.0
 11
88.4998015
 21
140.0709855
 31
0.0
  0
LINE
  5
295
330
1E
100
AcDbEntity
  8
0
100
AcDbLine
 10
83.4998015
 20
138.7709854999999
 30
0.0
 11
85.8998015
 21
139.7709855
 31
0.0
  0
LINE
  5
296
330
1E
100
AcDbEntity
  8
0
100
AcDbLine
 10
82.7998015
 20
151.2709854999999
 30
0.0
 11
88.4998015
 21
152.0709854999999
 31
0.0
  0
LINE
  5
297
330
1E
100
AcDbEntity
  8
0
100
AcDbLine
 10
78.7998015
 20
127.4709855
 30
0.0
 11
79.7998015
 21
125.0709854999999
 31
0.0
  0
LINE
  5
298
330
1E
100
AcDbEntity
  8
0
100
AcDbLine
 10
78.4998015
 20
130.0709855
 30
0.0
 11
78.7998015
 21
127.4709855
 31
0.0
  0
LINE
  5
299
330
1E
100
AcDbEntity
  8
0
100
AcDbLine
 10
78.4998015
 20
130.0709855
 30
0.0
 11
78.7998015
 21
132.6709855
 31
0.0
  0
LINE
  5
29E
330
1E
100
AcDbEntity
  8
0
100
AcDbLine
 10
124.0281984999999
 20
149.3709854999999
 30
0.0
 11
120.6856984999999
 21
150.0709855
 31
0.0
  0
LINE
  5
29F
330
1E
100
AcDbEntity
  8
0
100
AcDbLine
 10
123.5835985
 20
151.2709854999999
 30
0.0
 11
119.9196984999999
 21
152.0709854999999
 31
0.0
  0
LINE
  5
2A0
330
1E
100
AcDbEntity
  8
0
100
AcDbLine
 10
124.1567985
 20
150.2709854999999
 30
0.0
 11
120.6856984999999
 21
151.0709854999999
 31
0.0
  0
LINE
  5
2A1
330
1E
100
AcDbEntity
  8
0
100
AcDbLine
 10
157.6275985
 20
162.0709855
 30
0.0
 11
156.2187985
 21
164.0709855
 31
0.0
  0
LINE
  5
2A2
330
1E
100
AcDbEntity
  8
0
100
AcDbLine
 10
158.7546984999999
 20
159.5709855
 30
0.0
 11
157.6275985
 21
162.0709855
 31
0.0
  0
LINE
  5
2A3
330
1E
100
AcDbEntity
  8
0
100
AcDbLine
 10
158.4728984999999
 20
149.0709855
 30
0.0
 11
157.6275985
 21
145.0709855
 31
0.0
  0
LINE
  5
2A4
330
1E
100
AcDbEntity
  8
0
100
AcDbLine
 10
157.6275985
 20
145.0709855
 30
0.0
 11
156.5060157204401
 21
141.886480163374
 31
0.0
  0
LINE
  5
2A5
330
1E
100
AcDbEntity
  8
0
100
AcDbLine
 10
159.1772985
 20
156.0709854999999
 30
0.0
 11
158.8955985
 21
152.0709854999999
 31
0.0
  0
LINE
  5
2A6
330
1E
100
AcDbEntity
  8
0
100
AcDbLine
 10
158.8955985
 20
152.0709854999999
 30
0.0
 11
158.4728984999999
 21
149.0709855
 31
0.0
  0
LINE
  5
2A7
330
1E
100
AcDbEntity
  8
0
100
AcDbLine
 10
159.1772985
 20
156.0709854999999
 30
0.0
 11
158.7546984999999
 21
159.5709855
 31
0.0
  0
LINE
  5
2A8
330
1E
100
AcDbEntity
  8
0
100
AcDbLine
 10
139.4855985
 20
142.6709855
 30
0.0
 11
137.2358984999999
 21
144.0709855
 31
0.0
  0
LINE
  5
2A9
330
1E
100
AcDbEntity
  8
0
100
AcDbLine
 10
145.7933984999999
 20
162.0709855
 30
0.0
 11
144.6663985
 21
159.5709855
 31
0.0
  0
LINE
  5
2AA
330
1E
100
AcDbEntity
  8
0
100
AcDbLine
 10
145.7933984999999
 20
145.0709855
 30
0.0
 11
144.9480985
 21
149.0709855
 31
0.0
  0
LINE
  5
2AB
330
1E
100
AcDbEntity
  8
0
100
AcDbLine
 10
146.925506953735
 20
141.856822809291
 30
0.0
 11
145.7933984999999
 21
145.0709855
 31
0.0
  0
LINE
  5
2AC
330
1E
100
AcDbEntity
  8
0
100
AcDbLine
 10
144.5254985
 20
152.0709854999999
 30
0.0
 11
144.2436985
 21
156.0709854999999
 31
0.0
  0
LINE
  5
2AD
330
1E
100
AcDbEntity
  8
0
100
AcDbLine
 10
144.9480985
 20
149.0709855
 30
0.0
 11
144.5254985
 21
152.0709854999999
 31
0.0
  0
LINE
  5
2AE
330
1E
100
AcDbEntity
  8
0
100
AcDbLine
 10
144.6663985
 20
159.5709855
 30
0.0
 11
144.2436985
 21
156.0709854999999
 31
0.0
  0
LINE
  5
2AF
330
1E
100
AcDbEntity
  8
0
100
AcDbLine
 10
149.1745985
 20
165.5709855
 30
0.0
 11
147.2022984999999
 21
164.0709855
 31
0.0
  0
LINE
  5
2B0
330
1E
100
AcDbEntity
  8
0
100
AcDbLine
 10
154.2463984999999
 20
165.5709855
 30
0.0
 11
151.7104985
 21
166.0709855
 31
0.0
  0
LINE
  5
2B1
330
1E
100
AcDbEntity
  8
0
100
AcDbLine
 10
156.2187985
 20
164.0709855
 30
0.0
 11
154.2463984999999
 21
165.5709855
 31
0.0
  0
LINE
  5
2B2
330
1E
100
AcDbEntity
  8
0
100
AcDbLine
 10
151.7104985
 20
166.0709855
 30
0.0
 11
149.1745985
 21
165.5709855
 31
0.0
  0
LINE
  5
2B3
330
1E
100
AcDbEntity
  8
0
100
AcDbLine
 10
147.2022984999999
 20
164.0709855
 30
0.0
 11
145.7933984999999
 21
162.0709855
 31
0.0
  0
LINE
  5
2B4
330
1E
100
AcDbEntity
  8
0
100
AcDbLine
 10
133.0894985
 20
146.4709855
 30
0.0
 11
128.4316984999999
 21
148.3709854999999
 31
0.0
  0
LINE
  5
2B5
330
1E
100
AcDbEntity
  8
0
100
AcDbLine
 10
137.2358984999999
 20
144.0709855
 30
0.0
 11
133.0894985
 21
146.4709855
 31
0.0
  0
LINE
  5
2B6
330
1E
100
AcDbEntity
  8
0
100
AcDbLine
 10
128.4316984999999
 20
148.3709854999999
 30
0.0
 11
124.0281984999999
 21
149.3709854999999
 31
0.0
  0
LINE
  5
2B7
330
1E
100
AcDbEntity
  8
0
100
AcDbLine
 10
126.9902984999999
 20
149.1709855
 30
0.0
 11
123.5835985
 21
151.2709854999999
 31
0.0
  0
LINE
  5
2B8
330
1E
100
AcDbEntity
  8
0
100
AcDbLine
 10
126.5829262040226
 20
148.790827056938
 30
0.0
 11
124.1567985
 21
150.2709854999999
 31
0.0
  0
LINE
  5
2B9
330
1E
100
AcDbEntity
  8
0
100
AcDbLine
 10
127.4548554166667
 20
148.5928188333329
 30
0.0
 11
126.9902984999999
 21
149.1709855
 31
0.0
  0
LINE
  5
2BA
330
1E
100
AcDbEntity
  8
0
100
AcDbLine
 10
114.8255719129849
 20
151.097695071231
 30
0.0
 11
94.2001985
 21
151.2709854999999
 31
0.0
  0
LINE
  5
2BB
330
1E
100
AcDbEntity
  8
0
100
AcDbLine
 10
115.1066984999999
 20
151.2709854999999
 30
0.0
 11
111.6998985
 21
149.1709855
 31
0.0
  0
LINE
  5
2BC
330
1E
100
AcDbEntity
  8
0
100
AcDbLine
 10
114.2577985
 20
147.3709854999999
 30
0.0
 11
111.6223984999999
 21
144.1709855
 31
0.0
  0
LINE
  5
2BD
330
1E
100
AcDbEntity
  8
0
100
AcDbLine
 10
113.9364985
 20
148.2709854999999
 30
0.0
 11
111.1724985
 21
144.8709854999999
 31
0.0
  0
LINE
  5
2BE
330
1E
100
AcDbEntity
  8
0
100
AcDbLine
 10
116.2557985
 20
151.2709854999999
 30
0.0
 11
112.8489984999999
 21
149.1709855
 31
0.0
  0
LINE
  5
2BF
330
1E
100
AcDbEntity
  8
0
100
AcDbLine
 10
117.3431985
 20
149.3709854999999
 30
0.0
 11
114.2577985
 21
147.3709854999999
 31
0.0
  0
LINE
  5
2C0
330
1E
100
AcDbEntity
  8
0
100
AcDbLine
 10
120.6856984999999
 20
150.0709855
 30
0.0
 11
117.3431985
 21
149.3709854999999
 31
0.0
  0
LINE
  5
2C1
330
1E
100
AcDbEntity
  8
0
100
AcDbLine
 10
119.9196984999999
 20
152.0709854999999
 30
0.0
 11
116.2557985
 21
151.2709854999999
 31
0.0
  0
LINE
  5
2C2
330
1E
100
AcDbEntity
  8
0
100
AcDbLine
 10
120.6856984999999
 20
151.0709854999999
 30
0.0
 11
117.2146984999999
 21
150.2709854999999
 31
0.0
  0
LINE
  5
2C3
330
1E
100
AcDbEntity
  8
0
100
AcDbLine
 10
118.7705985
 20
152.0709854999999
 30
0.0
 11
115.1066984999999
 21
151.2709854999999
 31
0.0
  0
LINE
  5
2C4
330
1E
100
AcDbEntity
  8
0
100
AcDbLine
 10
119.9196984999999
 20
152.0709854999999
 30
0.0
 11
118.7705985
 21
152.0709854999999
 31
0.0
  0
LINE
  5
2C5
330
1E
100
AcDbEntity
  8
0
100
AcDbLine
 10
117.2146984999999
 20
150.2709854999999
 30
0.0
 11
113.9364985
 21
148.2709854999999
 31
0.0
  0
LINE
  5
2C6
330
1E
100
AcDbEntity
  8
0
100
AcDbLine
 10
111.6998985
 20
149.1709855
 30
0.0
 11
108.8073985
 21
145.5709855
 31
0.0
  0
LINE
  5
2C7
330
1E
100
AcDbEntity
  8
0
100
AcDbLine
 10
112.8489984999999
 20
149.1709855
 30
0.0
 11
109.9564984999999
 21
145.5709855
 31
0.0
  0
LINE
  5
2C8
330
1E
100
AcDbEntity
  8
0
100
AcDbLine
 10
109.9564984999999
 20
145.5709855
 30
0.0
 11
107.6423984999999
 21
141.0709855
 31
0.0
  0
LINE
  5
2C9
330
1E
100
AcDbEntity
  8
0
100
AcDbLine
 10
111.1724985
 20
144.8709854999999
 30
0.0
 11
108.9869984999999
 21
140.5709855
 31
0.0
  0
LINE
  5
2CA
330
1E
100
AcDbEntity
  8
0
100
AcDbLine
 10
111.6223984999999
 20
144.1709855
 30
0.0
 11
109.5654985
 21
140.0709855
 31
0.0
  0
LINE
  5
2CB
330
1E
100
AcDbEntity
  8
0
100
AcDbLine
 10
108.8073985
 20
145.5709855
 30
0.0
 11
106.4933984999999
 21
141.0709855
 31
0.0
  0
LINE
  5
2CC
330
1E
100
AcDbEntity
  8
0
100
AcDbLine
 10
94.2001985
 20
151.2709854999999
 30
0.0
 11
88.5001985
 21
152.0709854999999
 31
0.0
  0
LINE
  5
2CD
330
1E
100
AcDbEntity
  8
0
100
AcDbLine
 10
124.0281984999999
 20
110.7709854999999
 30
0.0
 11
120.6856984999999
 21
110.0709854999999
 31
0.0
  0
LINE
  5
2CE
330
1E
100
AcDbEntity
  8
0
100
AcDbLine
 10
124.1567985
 20
109.8709855
 30
0.0
 11
120.6856984999999
 21
109.0709854999999
 31
0.0
  0
LINE
  5
2CF
330
1E
100
AcDbEntity
  8
0
100
AcDbLine
 10
123.5835985
 20
108.8709855
 30
0.0
 11
119.9196984999999
 21
108.0709855
 31
0.0
  0
LINE
  5
2D0
330
1E
100
AcDbEntity
  8
0
100
AcDbLine
 10
157.5333985
 20
141.6709855
 30
0.0
 11
155.5406984999999
 21
142.0709855
 31
0.0
  0
LINE
  5
2D1
330
1E
100
AcDbEntity
  8
0
100
AcDbLine
 10
157.0595984999999
 20
141.1709854999999
 30
0.0
 11
155.3240984999999
 21
140.0709855
 31
0.0
  0
LINE
  5
2D2
330
1E
100
AcDbEntity
  8
0
100
AcDbLine
 10
157.5711985
 20
140.6709855
 30
0.0
 11
155.8355985
 21
139.5709854999999
 31
0.0
  0
LINE
  5
2D3
330
1E
100
AcDbEntity
  8
0
100
AcDbLine
 10
158.2218985
 20
141.5709855
 30
0.0
 11
156.2934985
 21
141.1709854999999
 31
0.0
  0
LINE
  5
2D4
330
1E
100
AcDbEntity
  8
0
100
AcDbLine
 10
157.5711985
 20
119.4709854999999
 30
0.0
 11
155.8355985
 21
120.5709855
 31
0.0
  0
LINE
  5
2D5
330
1E
100
AcDbEntity
  8
0
100
AcDbLine
 10
157.0595984999999
 20
118.9709855
 30
0.0
 11
155.3240984999999
 21
120.0709854999999
 31
0.0
  0
LINE
  5
2D6
330
1E
100
AcDbEntity
  8
0
100
AcDbLine
 10
157.5333985
 20
118.4709854999999
 30
0.0
 11
155.5406984999999
 21
118.0709854999999
 31
0.0
  0
LINE
  5
2D7
330
1E
100
AcDbEntity
  8
0
100
AcDbLine
 10
158.2218985
 20
118.5709855
 30
0.0
 11
156.2934985
 21
118.9709855
 31
0.0
  0
LINE
  5
2D8
330
1E
100
AcDbEntity
  8
0
100
AcDbLine
 10
157.6275985
 20
98.07098549999999
 30
0.0
 11
156.2187985
 21
96.07098549999999
 31
0.0
  0
LINE
  5
2D9
330
1E
100
AcDbEntity
  8
0
100
AcDbLine
 10
175.4971085
 20
134.2709855
 30
0.0
 11
174.5778585
 21
135.2709855
 31
0.0
  0
LINE
  5
2DA
330
1E
100
AcDbEntity
  8
0
100
AcDbLine
 10
166.1844984999999
 20
132.8709854999999
 30
0.0
 11
165.4774984999999
 21
135.5709855
 31
0.0
  0
LINE
  5
2DB
330
1E
100
AcDbEntity
  8
0
100
AcDbLine
 10
174.5778585
 20
124.8709854999999
 30
0.0
 11
173.3539085
 21
123.9709855
 31
0.0
  0
LINE
  5
2DC
330
1E
100
AcDbEntity
  8
0
100
AcDbLine
 10
176.8592925
 20
128.8709855
 30
0.0
 11
176.5528745
 21
127.7709854999999
 31
0.0
  0
LINE
  5
2DD
330
1E
100
AcDbEntity
  8
0
100
AcDbLine
 10
176.8592925
 20
128.8709855
 30
0.0
 11
176.5528745
 21
127.7709854999999
 31
0.0
  0
LINE
  5
2DE
330
1E
100
AcDbEntity
  8
0
100
AcDbLine
 10
176.2631575
 20
127.0709854999999
 30
0.0
 11
175.4971085
 21
125.8709854999999
 31
0.0
  0
LINE
  5
2DF
330
1E
100
AcDbEntity
  8
0
100
AcDbLine
 10
176.5528745
 20
127.7709854999999
 30
0.0
 11
176.2631575
 21
127.0709854999999
 31
0.0
  0
LINE
  5
2E0
330
1E
100
AcDbEntity
  8
0
100
AcDbLine
 10
175.4971085
 20
125.8709854999999
 30
0.0
 11
174.5778585
 21
124.8709854999999
 31
0.0
  0
LINE
  5
2E1
330
1E
100
AcDbEntity
  8
0
100
AcDbLine
 10
176.2631575
 20
133.0709855
 30
0.0
 11
175.4971085
 21
134.2709855
 31
0.0
  0
LINE
  5
2E2
330
1E
100
AcDbEntity
  8
0
100
AcDbLine
 10
176.8592925
 20
131.2709855
 30
0.0
 11
176.5528745
 21
132.3709854999999
 31
0.0
  0
LINE
  5
2E3
330
1E
100
AcDbEntity
  8
0
100
AcDbLine
 10
176.8592925
 20
131.2709855
 30
0.0
 11
176.5528745
 21
132.3709854999999
 31
0.0
  0
LINE
  5
2E4
330
1E
100
AcDbEntity
  8
0
100
AcDbLine
 10
177.0125015
 20
130.0709855
 30
0.0
 11
176.8592925
 21
131.2709855
 31
0.0
  0
LINE
  5
2E5
330
1E
100
AcDbEntity
  8
0
100
AcDbLine
 10
177.0125015
 20
130.0709855
 30
0.0
 11
176.8592925
 21
128.8709855
 31
0.0
  0
LINE
  5
2E6
330
1E
100
AcDbEntity
  8
0
100
AcDbLine
 10
177.0125015
 20
130.0709855
 30
0.0
 11
176.8592925
 21
131.2709855
 31
0.0
  0
LINE
  5
2E7
330
1E
100
AcDbEntity
  8
0
100
AcDbLine
 10
177.0125015
 20
130.0709855
 30
0.0
 11
176.8592925
 21
128.8709855
 31
0.0
  0
LINE
  5
2E8
330
1E
100
AcDbEntity
  8
0
100
AcDbLine
 10
176.5528745
 20
132.3709854999999
 30
0.0
 11
176.2631575
 21
133.0709855
 31
0.0
  0
LINE
  5
2E9
330
1E
100
AcDbEntity
  8
0
100
AcDbLine
 10
158.8955985
 20
108.0709855
 30
0.0
 11
158.4728984999999
 21
111.0709854999999
 31
0.0
  0
LINE
  5
2EA
330
1E
100
AcDbEntity
  8
0
100
AcDbLine
 10
159.1772985
 20
104.0709855
 30
0.0
 11
158.7546984999999
 21
100.5709854999999
 31
0.0
  0
LINE
  5
2EB
330
1E
100
AcDbEntity
  8
0
100
AcDbLine
 10
158.7546984999999
 20
100.5709854999999
 30
0.0
 11
157.6275985
 21
98.07098549999999
 31
0.0
  0
LINE
  5
2EC
330
1E
100
AcDbEntity
  8
0
100
AcDbLine
 10
159.1772985
 20
104.0709855
 30
0.0
 11
158.8955985
 21
108.0709855
 31
0.0
  0
LINE
  5
2ED
330
1E
100
AcDbEntity
  8
0
100
AcDbLine
 10
168.4229984999999
 20
122.5709854999999
 30
0.0
 11
164.6697767608695
 21
122.8709854999999
 31
0.0
  0
LINE
  5
2EE
330
1E
100
AcDbEntity
  8
0
100
AcDbLine
 10
165.4774984999999
 20
124.5709854999999
 30
0.0
 11
164.3846985
 21
122.2709854999999
 31
0.0
  0
LINE
  5
2EF
330
1E
100
AcDbEntity
  8
0
100
AcDbLine
 10
169.9550885
 20
122.8709854999999
 30
0.0
 11
168.4229984999999
 21
122.5709854999999
 31
0.0
  0
LINE
  5
2F0
330
1E
100
AcDbEntity
  8
0
100
AcDbLine
 10
172.0516385
 20
123.3709855
 30
0.0
 11
169.9550885
 21
122.8709854999999
 31
0.0
  0
LINE
  5
2F1
330
1E
100
AcDbEntity
  8
0
100
AcDbLine
 10
173.3539085
 20
123.9709855
 30
0.0
 11
172.0516385
 21
123.3709855
 31
0.0
  0
LINE
  5
2F2
330
1E
100
AcDbEntity
  8
0
100
AcDbLine
 10
166.4415984999999
 20
130.0709855
 30
0.0
 11
166.1844984999999
 21
127.2709855
 31
0.0
  0
LINE
  5
2F3
330
1E
100
AcDbEntity
  8
0
100
AcDbLine
 10
166.1844984999999
 20
127.2709855
 30
0.0
 11
165.4774984999999
 21
124.5709854999999
 31
0.0
  0
LINE
  5
2F4
330
1E
100
AcDbEntity
  8
0
100
AcDbLine
 10
166.4415984999999
 20
130.0709855
 30
0.0
 11
166.1844984999999
 21
132.8709854999999
 31
0.0
  0
LINE
  5
2F5
330
1E
100
AcDbEntity
  8
0
100
AcDbLine
 10
164.1944985
 20
121.9709855
 30
0.0
 11
162.6517984999999
 21
120.0709854999999
 31
0.0
  0
LINE
  5
2F6
330
1E
100
AcDbEntity
  8
0
100
AcDbLine
 10
164.3846985
 20
122.2709854999999
 30
0.0
 11
162.9062985
 21
120.5709855
 31
0.0
  0
LINE
  5
2F7
330
1E
100
AcDbEntity
  8
0
100
AcDbLine
 10
160.9162985
 20
118.9709855
 30
0.0
 11
158.9878985
 21
118.5709855
 31
0.0
  0
LINE
  5
2F8
330
1E
100
AcDbEntity
  8
0
100
AcDbLine
 10
161.1707984999999
 20
119.4709854999999
 30
0.0
 11
159.3709984999999
 21
119.0709854999999
 31
0.0
  0
LINE
  5
2F9
330
1E
100
AcDbEntity
  8
0
100
AcDbLine
 10
162.9062985
 20
120.5709855
 30
0.0
 11
161.1707984999999
 21
119.4709854999999
 31
0.0
  0
LINE
  5
2FA
330
1E
100
AcDbEntity
  8
0
100
AcDbLine
 10
162.6517984999999
 20
120.0709854999999
 30
0.0
 11
160.9162985
 21
118.9709855
 31
0.0
  0
LINE
  5
2FB
330
1E
100
AcDbEntity
  8
0
100
AcDbLine
 10
157.6275985
 20
115.0709854999999
 30
0.0
 11
156.5060157204401
 21
118.2554908366259
 31
0.0
  0
LINE
  5
2FC
330
1E
100
AcDbEntity
  8
0
100
AcDbLine
 10
158.4728984999999
 20
111.0709854999999
 30
0.0
 11
157.6275985
 21
115.0709854999999
 31
0.0
  0
LINE
  5
2FD
330
1E
100
AcDbEntity
  8
0
100
AcDbLine
 10
158.9878985
 20
118.5709855
 30
0.0
 11
158.2218985
 21
118.5709855
 31
0.0
  0
LINE
  5
2FE
330
1E
100
AcDbEntity
  8
0
100
AcDbLine
 10
159.3709984999999
 20
119.0709854999999
 30
0.0
 11
157.5711985
 21
119.4709854999999
 31
0.0
  0
LINE
  5
2FF
330
1E
100
AcDbEntity
  8
0
100
AcDbLine
 10
158.9878985
 20
118.5709855
 30
0.0
 11
157.0595984999999
 21
118.9709855
 31
0.0
  0
LINE
  5
300
330
1E
100
AcDbEntity
  8
0
100
AcDbLine
 10
157.8892110088431
 20
118.639993484061
 30
0.0
 11
157.5333985
 21
118.4709854999999
 31
0.0
  0
LINE
  5
301
330
1E
100
AcDbEntity
  8
0
100
AcDbLine
 10
164.3846985
 20
122.2709854999999
 30
0.0
 11
164.1944985
 21
121.9709855
 31
0.0
  0
LINE
  5
302
330
1E
100
AcDbEntity
  8
0
100
AcDbLine
 10
174.5778585
 20
135.2709855
 30
0.0
 11
173.3539085
 21
136.1709854999999
 31
0.0
  0
LINE
  5
303
330
1E
100
AcDbEntity
  8
0
100
AcDbLine
 10
168.4229984999999
 20
137.5709854999999
 30
0.0
 11
164.6697767608695
 21
137.2709854999999
 31
0.0
  0
LINE
  5
304
330
1E
100
AcDbEntity
  8
0
100
AcDbLine
 10
165.4774984999999
 20
135.5709855
 30
0.0
 11
164.3846985
 21
137.8709854999999
 31
0.0
  0
LINE
  5
305
330
1E
100
AcDbEntity
  8
0
100
AcDbLine
 10
169.9550885
 20
137.2709854999999
 30
0.0
 11
168.4229984999999
 21
137.5709854999999
 31
0.0
  0
LINE
  5
306
330
1E
100
AcDbEntity
  8
0
100
AcDbLine
 10
172.0516385
 20
136.7709854999999
 30
0.0
 11
169.9550885
 21
137.2709854999999
 31
0.0
  0
LINE
  5
307
330
1E
100
AcDbEntity
  8
0
100
AcDbLine
 10
173.3539085
 20
136.1709854999999
 30
0.0
 11
172.0516385
 21
136.7709854999999
 31
0.0
  0
LINE
  5
308
330
1E
100
AcDbEntity
  8
0
100
AcDbLine
 10
161.1707984999999
 20
140.6709855
 30
0.0
 11
159.3709984999999
 21
141.0709855
 31
0.0
  0
LINE
  5
309
330
1E
100
AcDbEntity
  8
0
100
AcDbLine
 10
160.9162985
 20
141.1709854999999
 30
0.0
 11
158.9878985
 21
141.5709855
 31
0.0
  0
LINE
  5
30A
330
1E
100
AcDbEntity
  8
0
100
AcDbLine
 10
164.1944985
 20
138.1709854999999
 30
0.0
 11
162.6517984999999
 21
140.0709855
 31
0.0
  0
LINE
  5
30B
330
1E
100
AcDbEntity
  8
0
100
AcDbLine
 10
164.3846985
 20
137.8709854999999
 30
0.0
 11
162.9062985
 21
139.5709854999999
 31
0.0
  0
LINE
  5
30C
330
1E
100
AcDbEntity
  8
0
100
AcDbLine
 10
164.3846985
 20
137.8709854999999
 30
0.0
 11
164.1944985
 21
138.1709854999999
 31
0.0
  0
LINE
  5
30D
330
1E
100
AcDbEntity
  8
0
100
AcDbLine
 10
162.9062985
 20
139.5709854999999
 30
0.0
 11
161.1707984999999
 21
140.6709855
 31
0.0
  0
LINE
  5
30E
330
1E
100
AcDbEntity
  8
0
100
AcDbLine
 10
162.6517984999999
 20
140.0709855
 30
0.0
 11
160.9162985
 21
141.1709854999999
 31
0.0
  0
LINE
  5
30F
330
1E
100
AcDbEntity
  8
0
100
AcDbLine
 10
158.9878985
 20
141.5709855
 30
0.0
 11
157.0595984999999
 21
141.1709854999999
 31
0.0
  0
LINE
  5
310
330
1E
100
AcDbEntity
  8
0
100
AcDbLine
 10
159.3709984999999
 20
141.0709855
 30
0.0
 11
157.5711985
 21
140.6709855
 31
0.0
  0
LINE
  5
311
330
1E
100
AcDbEntity
  8
0
100
AcDbLine
 10
158.9878985
 20
141.5709855
 30
0.0
 11
158.2218985
 21
141.5709855
 31
0.0
  0
LINE
  5
312
330
1E
100
AcDbEntity
  8
0
100
AcDbLine
 10
157.8892110088431
 20
141.501977515939
 30
0.0
 11
157.5333985
 21
141.6709855
 31
0.0
  0
LINE
  5
313
330
1E
100
AcDbEntity
  8
0
100
AcDbLine
 10
128.8431985
 20
135.2709855
 30
0.0
 11
127.9238985
 21
134.2709855
 31
0.0
  0
LINE
  5
314
330
1E
100
AcDbEntity
  8
0
100
AcDbLine
 10
151.7939984999999
 20
135.7709854999999
 30
0.0
 11
151.0869985
 21
133.0709855
 31
0.0
  0
LINE
  5
315
330
1E
100
AcDbEntity
  8
0
100
AcDbLine
 10
152.5600985
 20
135.7709854999999
 30
0.0
 11
151.8529985
 21
133.0709855
 31
0.0
  0
LINE
  5
316
330
1E
100
AcDbEntity
  8
0
100
AcDbLine
 10
153.2644985
 20
135.5709855
 30
0.0
 11
152.5573985
 21
132.8709854999999
 31
0.0
  0
LINE
  5
317
330
1E
100
AcDbEntity
  8
0
100
AcDbLine
 10
146.3785177579156
 20
133.985857718531
 30
0.0
 11
144.3667985
 21
135.2709855
 31
0.0
  0
LINE
  5
318
330
1E
100
AcDbEntity
  8
0
100
AcDbLine
 10
140.8763985
 20
123.4709854999999
 30
0.0
 11
139.0246985
 21
123.1709855
 31
0.0
  0
LINE
  5
319
330
1E
100
AcDbEntity
  8
0
100
AcDbLine
 10
140.0806984999999
 20
120.4709854999999
 30
0.0
 11
138.5379985
 21
121.3709855
 31
0.0
  0
LINE
  5
31A
330
1E
100
AcDbEntity
  8
0
100
AcDbLine
 10
139.4855985
 20
117.4709854999999
 30
0.0
 11
137.2358984999999
 21
116.0709854999999
 31
0.0
  0
LINE
  5
31B
330
1E
100
AcDbEntity
  8
0
100
AcDbLine
 10
140.8466985
 20
120.4709854999999
 30
0.0
 11
139.3040985
 21
121.3709855
 31
0.0
  0
LINE
  5
31C
330
1E
100
AcDbEntity
  8
0
100
AcDbLine
 10
144.9480985
 20
111.0709854999999
 30
0.0
 11
144.5254985
 21
108.0709855
 31
0.0
  0
LINE
  5
31D
330
1E
100
AcDbEntity
  8
0
100
AcDbLine
 10
149.1745985
 20
94.57098549999999
 30
0.0
 11
147.2022984999999
 21
96.07098549999999
 31
0.0
  0
LINE
  5
31E
330
1E
100
AcDbEntity
  8
0
100
AcDbLine
 10
156.2187985
 20
96.07098549999999
 30
0.0
 11
154.2463984999999
 21
94.57098549999999
 31
0.0
  0
LINE
  5
31F
330
1E
100
AcDbEntity
  8
0
100
AcDbLine
 10
154.2463984999999
 20
94.57098549999999
 30
0.0
 11
151.7104985
 21
94.07098549999998
 31
0.0
  0
LINE
  5
320
330
1E
100
AcDbEntity
  8
0
100
AcDbLine
 10
151.7104985
 20
94.07098549999998
 30
0.0
 11
149.1745985
 21
94.57098549999999
 31
0.0
  0
LINE
  5
321
330
1E
100
AcDbEntity
  8
0
100
AcDbLine
 10
144.6663985
 20
100.5709854999999
 30
0.0
 11
144.2436985
 21
104.0709855
 31
0.0
  0
LINE
  5
322
330
1E
100
AcDbEntity
  8
0
100
AcDbLine
 10
147.2022984999999
 20
96.07098549999999
 30
0.0
 11
145.7933984999999
 21
98.07098549999999
 31
0.0
  0
LINE
  5
323
330
1E
100
AcDbEntity
  8
0
100
AcDbLine
 10
145.7933984999999
 20
98.07098549999999
 30
0.0
 11
144.6663985
 21
100.5709854999999
 31
0.0
  0
LINE
  5
324
330
1E
100
AcDbEntity
  8
0
100
AcDbLine
 10
144.5254985
 20
108.0709855
 30
0.0
 11
144.2436985
 21
104.0709855
 31
0.0
  0
LINE
  5
325
330
1E
100
AcDbEntity
  8
0
100
AcDbLine
 10
155.8355985
 20
120.5709855
 30
0.0
 11
154.3571984999999
 21
122.2709854999999
 31
0.0
  0
LINE
  5
326
330
1E
100
AcDbEntity
  8
0
100
AcDbLine
 10
154.5579985
 20
120.0709854999999
 30
0.0
 11
153.0152984999999
 21
121.9709855
 31
0.0
  0
LINE
  5
327
330
1E
100
AcDbEntity
  8
0
100
AcDbLine
 10
155.3240984999999
 20
120.0709854999999
 30
0.0
 11
153.7813984999999
 21
121.9709855
 31
0.0
  0
LINE
  5
328
330
1E
100
AcDbEntity
  8
0
100
AcDbLine
 10
155.5406984999999
 20
118.0709854999999
 30
0.0
 11
155.4506046129626
 21
118.051383679575
 31
0.0
  0
LINE
  5
329
330
1E
100
AcDbEntity
  8
0
100
AcDbLine
 10
156.2934985
 20
118.9709855
 30
0.0
 11
154.5579985
 21
120.0709854999999
 31
0.0
  0
LINE
  5
32A
330
1E
100
AcDbEntity
  8
0
100
AcDbLine
 10
153.0152984999999
 20
121.9709855
 30
0.0
 11
151.7939984999999
 21
124.3709855
 31
0.0
  0
LINE
  5
32B
330
1E
100
AcDbEntity
  8
0
100
AcDbLine
 10
152.5600985
 20
124.3709855
 30
0.0
 11
151.8529985
 21
127.0709854999999
 31
0.0
  0
LINE
  5
32C
330
1E
100
AcDbEntity
  8
0
100
AcDbLine
 10
152.5573985
 20
127.2709855
 30
0.0
 11
152.3002984999999
 21
130.0709855
 31
0.0
  0
LINE
  5
32D
330
1E
100
AcDbEntity
  8
0
100
AcDbLine
 10
153.2644985
 20
124.5709854999999
 30
0.0
 11
152.5573985
 21
127.2709855
 31
0.0
  0
LINE
  5
32E
330
1E
100
AcDbEntity
  8
0
100
AcDbLine
 10
153.7813984999999
 20
121.9709855
 30
0.0
 11
152.5600985
 21
124.3709855
 31
0.0
  0
LINE
  5
32F
330
1E
100
AcDbEntity
  8
0
100
AcDbLine
 10
154.3571984999999
 20
122.2709854999999
 30
0.0
 11
153.2644985
 21
124.5709854999999
 31
0.0
  0
LINE
  5
330
330
1E
100
AcDbEntity
  8
0
100
AcDbLine
 10
152.5573985
 20
132.8709854999999
 30
0.0
 11
152.3002984999999
 21
130.0709855
 31
0.0
  0
LINE
  5
331
330
1E
100
AcDbEntity
  8
0
100
AcDbLine
 10
151.0869985
 20
127.0709854999999
 30
0.0
 11
150.8297985
 21
130.0709855
 31
0.0
  0
LINE
  5
332
330
1E
100
AcDbEntity
  8
0
100
AcDbLine
 10
151.8529985
 20
127.0709854999999
 30
0.0
 11
151.5958985
 21
130.0709855
 31
0.0
  0
LINE
  5
333
330
1E
100
AcDbEntity
  8
0
100
AcDbLine
 10
151.7939984999999
 20
124.3709855
 30
0.0
 11
151.0869985
 21
127.0709854999999
 31
0.0
  0
LINE
  5
334
330
1E
100
AcDbEntity
  8
0
100
AcDbLine
 10
151.0869985
 20
133.0709855
 30
0.0
 11
150.8297985
 21
130.0709855
 31
0.0
  0
LINE
  5
335
330
1E
100
AcDbEntity
  8
0
100
AcDbLine
 10
151.8529985
 20
133.0709855
 30
0.0
 11
151.5958985
 21
130.0709855
 31
0.0
  0
LINE
  5
336
330
1E
100
AcDbEntity
  8
0
100
AcDbLine
 10
142.0467984999999
 20
120.5709855
 30
0.0
 11
140.3914985
 21
122.2709854999999
 31
0.0
  0
LINE
  5
337
330
1E
100
AcDbEntity
  8
0
100
AcDbLine
 10
143.7823985
 20
119.4709854999999
 30
0.0
 11
142.0467984999999
 21
120.5709855
 31
0.0
  0
LINE
  5
338
330
1E
100
AcDbEntity
  8
0
100
AcDbLine
 10
146.925506953735
 20
118.2851481907089
 30
0.0
 11
145.7933984999999
 21
115.0709854999999
 31
0.0
  0
LINE
  5
339
330
1E
100
AcDbEntity
  8
0
100
AcDbLine
 10
145.7933984999999
 20
115.0709854999999
 30
0.0
 11
144.9480985
 21
111.0709854999999
 31
0.0
  0
LINE
  5
33A
330
1E
100
AcDbEntity
  8
0
100
AcDbLine
 10
146.925506953735
 20
118.2851481907089
 30
0.0
 11
143.7823985
 21
119.4709854999999
 31
0.0
  0
LINE
  5
33B
330
1E
100
AcDbEntity
  8
0
100
AcDbLine
 10
142.5179984999999
 20
120.0709854999999
 30
0.0
 11
140.8466985
 21
120.4709854999999
 31
0.0
  0
LINE
  5
33C
330
1E
100
AcDbEntity
  8
0
100
AcDbLine
 10
142.5444985
 20
119.6709854999999
 30
0.0
 11
139.4855985
 21
117.4709854999999
 31
0.0
  0
LINE
  5
33D
330
1E
100
AcDbEntity
  8
0
100
AcDbLine
 10
141.7518984999999
 20
120.0709854999999
 30
0.0
 11
140.0806984999999
 21
120.4709854999999
 31
0.0
  0
LINE
  5
33E
330
1E
100
AcDbEntity
  8
0
100
AcDbLine
 10
142.8663750156928
 20
120.051548897521
 30
0.0
 11
142.5444985
 21
119.6709854999999
 31
0.0
  0
LINE
  5
33F
330
1E
100
AcDbEntity
  8
0
100
AcDbLine
 10
142.7486153367186
 20
120.126183402518
 30
0.0
 11
142.5179984999999
 21
120.0709854999999
 31
0.0
  0
LINE
  5
340
330
1E
100
AcDbEntity
  8
0
100
AcDbLine
 10
142.5179984999999
 20
120.0709854999999
 30
0.0
 11
141.7518984999999
 21
120.0709854999999
 31
0.0
  0
LINE
  5
341
330
1E
100
AcDbEntity
  8
0
100
AcDbLine
 10
144.3667985
 20
124.8709854999999
 30
0.0
 11
143.2943985
 21
124.2709854999999
 31
0.0
  0
LINE
  5
342
330
1E
100
AcDbEntity
  8
0
100
AcDbLine
 10
146.3785177579156
 20
126.156113281469
 30
0.0
 11
144.3667985
 21
124.8709854999999
 31
0.0
  0
LINE
  5
343
330
1E
100
AcDbEntity
  8
0
100
AcDbLine
 10
143.2943985
 20
124.2709854999999
 30
0.0
 11
140.8763985
 21
123.4709854999999
 31
0.0
  0
LINE
  5
344
330
1E
100
AcDbEntity
  8
0
100
AcDbLine
 10
140.3914985
 20
122.2709854999999
 30
0.0
 11
139.5539649805718
 21
123.2310665015549
 31
0.0
  0
LINE
  5
345
330
1E
100
AcDbEntity
  8
0
100
AcDbLine
 10
126.9902984999999
 20
110.9709854999999
 30
0.0
 11
123.5835985
 21
108.8709855
 31
0.0
  0
LINE
  5
346
330
1E
100
AcDbEntity
  8
0
100
AcDbLine
 10
131.3693985
 20
123.3709855
 30
0.0
 11
130.0670984999999
 21
123.9709855
 31
0.0
  0
LINE
  5
347
330
1E
100
AcDbEntity
  8
0
100
AcDbLine
 10
133.0894985
 20
113.6709855
 30
0.0
 11
128.4316984999999
 21
111.7709854999999
 31
0.0
  0
LINE
  5
348
330
1E
100
AcDbEntity
  8
0
100
AcDbLine
 10
138.5379985
 20
121.3709855
 30
0.0
 11
137.2991430116689
 21
122.8394762255369
 31
0.0
  0
LINE
  5
349
330
1E
100
AcDbEntity
  8
0
100
AcDbLine
 10
139.3040985
 20
121.3709855
 30
0.0
 11
137.9762607650972
 21
122.944835693232
 31
0.0
  0
LINE
  5
34A
330
1E
100
AcDbEntity
  8
0
100
AcDbLine
 10
137.2358984999999
 20
116.0709854999999
 30
0.0
 11
133.0894985
 21
113.6709855
 31
0.0
  0
LINE
  5
34B
330
1E
100
AcDbEntity
  8
0
100
AcDbLine
 10
137.5691985
 20
122.8709854999999
 30
0.0
 11
134.9979985
 21
122.5709854999999
 31
0.0
  0
LINE
  5
34C
330
1E
100
AcDbEntity
  8
0
100
AcDbLine
 10
139.0246985
 20
123.1709855
 30
0.0
 11
137.5691985
 21
122.8709854999999
 31
0.0
  0
LINE
  5
34D
330
1E
100
AcDbEntity
  8
0
100
AcDbLine
 10
133.4659985
 20
122.8709854999999
 30
0.0
 11
131.3693985
 21
123.3709855
 31
0.0
  0
LINE
  5
34E
330
1E
100
AcDbEntity
  8
0
100
AcDbLine
 10
134.9979985
 20
122.5709854999999
 30
0.0
 11
133.4659985
 21
122.8709854999999
 31
0.0
  0
LINE
  5
34F
330
1E
100
AcDbEntity
  8
0
100
AcDbLine
 10
128.4316984999999
 20
111.7709854999999
 30
0.0
 11
124.0281984999999
 21
110.7709854999999
 31
0.0
  0
LINE
  5
350
330
1E
100
AcDbEntity
  8
0
100
AcDbLine
 10
126.5829262040226
 20
111.351143943062
 30
0.0
 11
124.1567985
 21
109.8709855
 31
0.0
  0
LINE
  5
351
330
1E
100
AcDbEntity
  8
0
100
AcDbLine
 10
127.4548554166667
 20
111.549152166667
 30
0.0
 11
126.9902984999999
 21
110.9709854999999
 31
0.0
  0
LINE
  5
352
330
1E
100
AcDbEntity
  8
0
100
AcDbLine
 10
126.8681985
 20
132.3709854999999
 30
0.0
 11
126.5617985
 21
131.2709855
 31
0.0
  0
LINE
  5
353
330
1E
100
AcDbEntity
  8
0
100
AcDbLine
 10
126.8681985
 20
127.7709854999999
 30
0.0
 11
126.5617985
 21
128.8709855
 31
0.0
  0
LINE
  5
354
330
1E
100
AcDbEntity
  8
0
100
AcDbLine
 10
128.8431985
 20
124.8709854999999
 30
0.0
 11
127.9238985
 21
125.8709854999999
 31
0.0
  0
LINE
  5
355
330
1E
100
AcDbEntity
  8
0
100
AcDbLine
 10
130.0670984999999
 20
123.9709855
 30
0.0
 11
128.8431985
 21
124.8709854999999
 31
0.0
  0
LINE
  5
356
330
1E
100
AcDbEntity
  8
0
100
AcDbLine
 10
127.9238985
 20
125.8709854999999
 30
0.0
 11
127.1578985
 21
127.0709854999999
 31
0.0
  0
LINE
  5
357
330
1E
100
AcDbEntity
  8
0
100
AcDbLine
 10
127.1578985
 20
127.0709854999999
 30
0.0
 11
126.8681985
 21
127.7709854999999
 31
0.0
  0
LINE
  5
358
330
1E
100
AcDbEntity
  8
0
100
AcDbLine
 10
127.9238985
 20
134.2709855
 30
0.0
 11
127.1578985
 21
133.0709855
 31
0.0
  0
LINE
  5
359
330
1E
100
AcDbEntity
  8
0
100
AcDbLine
 10
127.1578985
 20
133.0709855
 30
0.0
 11
126.8681985
 21
132.3709854999999
 31
0.0
  0
LINE
  5
35A
330
1E
100
AcDbEntity
  8
0
100
AcDbLine
 10
126.5617985
 20
128.8709855
 30
0.0
 11
126.4084984999999
 21
130.0709855
 31
0.0
  0
LINE
  5
35B
330
1E
100
AcDbEntity
  8
0
100
AcDbLine
 10
126.5617985
 20
131.2709855
 30
0.0
 11
126.4084984999999
 21
130.0709855
 31
0.0
  0
LINE
  5
35C
330
1E
100
AcDbEntity
  8
0
100
AcDbLine
 10
140.0806984999999
 20
139.6709855
 30
0.0
 11
138.5379985
 21
138.7709854999999
 31
0.0
  0
LINE
  5
35D
330
1E
100
AcDbEntity
  8
0
100
AcDbLine
 10
140.8466985
 20
139.6709855
 30
0.0
 11
139.3040985
 21
138.7709854999999
 31
0.0
  0
LINE
  5
35E
330
1E
100
AcDbEntity
  8
0
100
AcDbLine
 10
140.8763985
 20
136.6709855
 30
0.0
 11
139.0246985
 21
136.9709855
 31
0.0
  0
LINE
  5
35F
330
1E
100
AcDbEntity
  8
0
100
AcDbLine
 10
153.0152984999999
 20
138.1709854999999
 30
0.0
 11
151.7939984999999
 21
135.7709854999999
 31
0.0
  0
LINE
  5
360
330
1E
100
AcDbEntity
  8
0
100
AcDbLine
 10
155.8355985
 20
139.5709854999999
 30
0.0
 11
154.3571984999999
 21
137.8709854999999
 31
0.0
  0
LINE
  5
361
330
1E
100
AcDbEntity
  8
0
100
AcDbLine
 10
154.5579985
 20
140.0709855
 30
0.0
 11
153.0152984999999
 21
138.1709854999999
 31
0.0
  0
LINE
  5
362
330
1E
100
AcDbEntity
  8
0
100
AcDbLine
 10
155.3240984999999
 20
140.0709855
 30
0.0
 11
153.7813984999999
 21
138.1709854999999
 31
0.0
  0
LINE
  5
363
330
1E
100
AcDbEntity
  8
0
100
AcDbLine
 10
156.2934985
 20
141.1709854999999
 30
0.0
 11
154.5579985
 21
140.0709855
 31
0.0
  0
LINE
  5
364
330
1E
100
AcDbEntity
  8
0
100
AcDbLine
 10
153.7813984999999
 20
138.1709854999999
 30
0.0
 11
152.5600985
 21
135.7709854999999
 31
0.0
  0
LINE
  5
365
330
1E
100
AcDbEntity
  8
0
100
AcDbLine
 10
154.3571984999999
 20
137.8709854999999
 30
0.0
 11
153.2644985
 21
135.5709855
 31
0.0
  0
LINE
  5
366
330
1E
100
AcDbEntity
  8
0
100
AcDbLine
 10
155.5406984999999
 20
142.0709855
 30
0.0
 11
155.4506046129626
 21
142.0905873204249
 31
0.0
  0
LINE
  5
367
330
1E
100
AcDbEntity
  8
0
100
AcDbLine
 10
143.7823985
 20
140.6709855
 30
0.0
 11
142.0467984999999
 21
139.5709854999999
 31
0.0
  0
LINE
  5
368
330
1E
100
AcDbEntity
  8
0
100
AcDbLine
 10
144.3667985
 20
135.2709855
 30
0.0
 11
143.2943985
 21
135.8709854999999
 31
0.0
  0
LINE
  5
369
330
1E
100
AcDbEntity
  8
0
100
AcDbLine
 10
146.925506953735
 20
141.856822809291
 30
0.0
 11
143.7823985
 21
140.6709855
 31
0.0
  0
LINE
  5
36A
330
1E
100
AcDbEntity
  8
0
100
AcDbLine
 10
142.5444985
 20
140.4709855
 30
0.0
 11
139.4855985
 21
142.6709855
 31
0.0
  0
LINE
  5
36B
330
1E
100
AcDbEntity
  8
0
100
AcDbLine
 10
142.5179984999999
 20
140.0709855
 30
0.0
 11
140.8466985
 21
139.6709855
 31
0.0
  0
LINE
  5
36C
330
1E
100
AcDbEntity
  8
0
100
AcDbLine
 10
143.2943985
 20
135.8709854999999
 30
0.0
 11
140.8763985
 21
136.6709855
 31
0.0
  0
LINE
  5
36D
330
1E
100
AcDbEntity
  8
0
100
AcDbLine
 10
142.0467984999999
 20
139.5709854999999
 30
0.0
 11
140.3914985
 21
137.8709854999999
 31
0.0
  0
LINE
  5
36E
330
1E
100
AcDbEntity
  8
0
100
AcDbLine
 10
141.7518984999999
 20
140.0709855
 30
0.0
 11
140.0806984999999
 21
139.6709855
 31
0.0
  0
LINE
  5
36F
330
1E
100
AcDbEntity
  8
0
100
AcDbLine
 10
142.8663750156928
 20
140.090422102479
 30
0.0
 11
142.5444985
 21
140.4709855
 31
0.0
  0
LINE
  5
370
330
1E
100
AcDbEntity
  8
0
100
AcDbLine
 10
142.7486153367186
 20
140.0157875974819
 30
0.0
 11
142.5179984999999
 21
140.0709855
 31
0.0
  0
LINE
  5
371
330
1E
100
AcDbEntity
  8
0
100
AcDbLine
 10
142.5179984999999
 20
140.0709855
 30
0.0
 11
141.7518984999999
 21
140.0709855
 31
0.0
  0
LINE
  5
372
330
1E
100
AcDbEntity
  8
0
100
AcDbLine
 10
140.3914985
 20
137.8709854999999
 30
0.0
 11
139.5539649805718
 21
136.910904498445
 31
0.0
  0
LINE
  5
373
330
1E
100
AcDbEntity
  8
0
100
AcDbLine
 10
131.3693985
 20
136.7709854999999
 30
0.0
 11
130.0670984999999
 21
136.1709854999999
 31
0.0
  0
LINE
  5
374
330
1E
100
AcDbEntity
  8
0
100
AcDbLine
 10
137.5691985
 20
137.2709854999999
 30
0.0
 11
134.9979985
 21
137.5709854999999
 31
0.0
  0
LINE
  5
375
330
1E
100
AcDbEntity
  8
0
100
AcDbLine
 10
138.5379985
 20
138.7709854999999
 30
0.0
 11
137.2991430116689
 21
137.302494774463
 31
0.0
  0
LINE
  5
376
330
1E
100
AcDbEntity
  8
0
100
AcDbLine
 10
139.3040985
 20
138.7709854999999
 30
0.0
 11
137.9762607650972
 21
137.197135306768
 31
0.0
  0
LINE
  5
377
330
1E
100
AcDbEntity
  8
0
100
AcDbLine
 10
139.0246985
 20
136.9709855
 30
0.0
 11
137.5691985
 21
137.2709854999999
 31
0.0
  0
LINE
  5
378
330
1E
100
AcDbEntity
  8
0
100
AcDbLine
 10
133.4659985
 20
137.2709854999999
 30
0.0
 11
131.3693985
 21
136.7709854999999
 31
0.0
  0
LINE
  5
379
330
1E
100
AcDbEntity
  8
0
100
AcDbLine
 10
134.9979985
 20
137.5709854999999
 30
0.0
 11
133.4659985
 21
137.2709854999999
 31
0.0
  0
LINE
  5
37A
330
1E
100
AcDbEntity
  8
0
100
AcDbLine
 10
130.0670984999999
 20
136.1709854999999
 30
0.0
 11
128.8431985
 21
135.2709855
 31
0.0
  0
LINE
  5
37B
330
1E
100
AcDbEntity
  8
0
100
AcDbLine
 10
109.6001985
 20
92.5709855
 30
0.0
 11
109.4001985
 21
80.1709855
 31
0.0
  0
LINE
  5
37C
330
1E
100
AcDbEntity
  8
0
100
AcDbLine
 10
105.1434984999999
 20
135.7709854999999
 30
0.0
 11
104.6292985
 21
130.0709855
 31
0.0
  0
LINE
  5
37D
330
1E
100
AcDbEntity
  8
0
100
AcDbLine
 10
106.2925984999999
 20
135.7709854999999
 30
0.0
 11
105.7783984999999
 21
130.0709855
 31
0.0
  0
LINE
  5
37E
330
1E
100
AcDbEntity
  8
0
100
AcDbLine
 10
107.7013985
 20
135.4709855
 30
0.0
 11
107.1871985
 21
130.0709855
 31
0.0
  0
LINE
  5
37F
330
1E
100
AcDbEntity
  8
0
100
AcDbLine
 10
108.2798984999999
 20
135.2709855
 30
0.0
 11
107.8299985
 21
130.0709855
 31
0.0
  0
LINE
  5
380
330
1E
100
AcDbEntity
  8
0
100
AcDbLine
 10
106.4933984999999
 20
119.0709854999999
 30
0.0
 11
105.1434984999999
 21
124.3709855
 31
0.0
  0
LINE
  5
381
330
1E
100
AcDbEntity
  8
0
100
AcDbLine
 10
109.9441985
 20
109.0709854999999
 30
0.0
 11
109.8001985
 21
105.4709855
 31
0.0
  0
LINE
  5
382
330
1E
100
AcDbEntity
  8
0
100
AcDbLine
 10
115.1066984999999
 20
108.8709855
 30
0.0
 11
111.6998985
 21
110.9709854999999
 31
0.0
  0
LINE
  5
383
330
1E
100
AcDbEntity
  8
0
100
AcDbLine
 10
116.2557985
 20
108.8709855
 30
0.0
 11
112.8489984999999
 21
110.9709854999999
 31
0.0
  0
LINE
  5
384
330
1E
100
AcDbEntity
  8
0
100
AcDbLine
 10
119.9196984999999
 20
108.0709855
 30
0.0
 11
116.2557985
 21
108.8709855
 31
0.0
  0
LINE
  5
385
330
1E
100
AcDbEntity
  8
0
100
AcDbLine
 10
118.7705985
 20
108.0709855
 30
0.0
 11
115.1066984999999
 21
108.8709855
 31
0.0
  0
LINE
  5
386
330
1E
100
AcDbEntity
  8
0
100
AcDbLine
 10
119.9196984999999
 20
108.0709855
 30
0.0
 11
118.7705985
 21
108.0709855
 31
0.0
  0
LINE
  5
387
330
1E
100
AcDbEntity
  8
0
100
AcDbLine
 10
109.8001985
 20
105.4709855
 30
0.0
 11
109.6001985
 21
92.5709855
 31
0.0
  0
LINE
  5
388
330
1E
100
AcDbEntity
  8
0
100
AcDbLine
 10
113.9364985
 20
111.8709855
 30
0.0
 11
111.1724985
 21
115.2709854999999
 31
0.0
  0
LINE
  5
389
330
1E
100
AcDbEntity
  8
0
100
AcDbLine
 10
114.7822413571429
 20
109.0709854999999
 30
0.0
 11
109.9441985
 21
109.0709854999999
 31
0.0
  0
LINE
  5
38A
330
1E
100
AcDbEntity
  8
0
100
AcDbLine
 10
114.7822413571429
 20
109.0709854999999
 30
0.0
 11
109.9441985
 21
109.0709854999999
 31
0.0
  0
LINE
  5
38B
330
1E
100
AcDbEntity
  8
0
100
AcDbLine
 10
114.2577985
 20
112.7709854999999
 30
0.0
 11
111.6223984999999
 21
115.9709855
 31
0.0
  0
LINE
  5
38C
330
1E
100
AcDbEntity
  8
0
100
AcDbLine
 10
120.6856984999999
 20
110.0709854999999
 30
0.0
 11
117.3431985
 21
110.7709854999999
 31
0.0
  0
LINE
  5
38D
330
1E
100
AcDbEntity
  8
0
100
AcDbLine
 10
120.6856984999999
 20
109.0709854999999
 30
0.0
 11
117.2146984999999
 21
109.8709855
 31
0.0
  0
LINE
  5
38E
330
1E
100
AcDbEntity
  8
0
100
AcDbLine
 10
117.3431985
 20
110.7709854999999
 30
0.0
 11
114.2577985
 21
112.7709854999999
 31
0.0
  0
LINE
  5
38F
330
1E
100
AcDbEntity
  8
0
100
AcDbLine
 10
117.2146984999999
 20
109.8709855
 30
0.0
 11
113.9364985
 21
111.8709855
 31
0.0
  0
LINE
  5
390
330
1E
100
AcDbEntity
  8
0
100
AcDbLine
 10
107.6423984999999
 20
119.0709854999999
 30
0.0
 11
106.2925984999999
 21
124.3709855
 31
0.0
  0
LINE
  5
391
330
1E
100
AcDbEntity
  8
0
100
AcDbLine
 10
109.5654985
 20
120.0709854999999
 30
0.0
 11
108.2798984999999
 21
124.8709854999999
 31
0.0
  0
LINE
  5
392
330
1E
100
AcDbEntity
  8
0
100
AcDbLine
 10
108.9869984999999
 20
119.5709855
 30
0.0
 11
107.7013985
 21
124.6709854999999
 31
0.0
  0
LINE
  5
393
330
1E
100
AcDbEntity
  8
0
100
AcDbLine
 10
109.9564984999999
 20
114.5709854999999
 30
0.0
 11
107.6423984999999
 21
119.0709854999999
 31
0.0
  0
LINE
  5
394
330
1E
100
AcDbEntity
  8
0
100
AcDbLine
 10
111.1724985
 20
115.2709854999999
 30
0.0
 11
108.9869984999999
 21
119.5709855
 31
0.0
  0
LINE
  5
395
330
1E
100
AcDbEntity
  8
0
100
AcDbLine
 10
111.6998985
 20
110.9709854999999
 30
0.0
 11
108.8073985
 21
114.5709854999999
 31
0.0
  0
LINE
  5
396
330
1E
100
AcDbEntity
  8
0
100
AcDbLine
 10
112.8489984999999
 20
110.9709854999999
 30
0.0
 11
109.9564984999999
 21
114.5709854999999
 31
0.0
  0
LINE
  5
397
330
1E
100
AcDbEntity
  8
0
100
AcDbLine
 10
111.6223984999999
 20
115.9709855
 30
0.0
 11
109.5654985
 21
120.0709854999999
 31
0.0
  0
LINE
  5
398
330
1E
100
AcDbEntity
  8
0
100
AcDbLine
 10
108.8073985
 20
114.5709854999999
 30
0.0
 11
106.4933984999999
 21
119.0709854999999
 31
0.0
  0
LINE
  5
399
330
1E
100
AcDbEntity
  8
0
100
AcDbLine
 10
108.2798984999999
 20
124.8709854999999
 30
0.0
 11
107.8299985
 21
130.0709855
 31
0.0
  0
LINE
  5
39A
330
1E
100
AcDbEntity
  8
0
100
AcDbLine
 10
106.2925984999999
 20
124.3709855
 30
0.0
 11
105.7783984999999
 21
130.0709855
 31
0.0
  0
LINE
  5
39B
330
1E
100
AcDbEntity
  8
0
100
AcDbLine
 10
107.7013985
 20
124.6709854999999
 30
0.0
 11
107.1871985
 21
130.0709855
 31
0.0
  0
LINE
  5
39C
330
1E
100
AcDbEntity
  8
0
100
AcDbLine
 10
105.1434984999999
 20
124.3709855
 30
0.0
 11
104.6292985
 21
130.0709855
 31
0.0
  0
LINE
  5
39D
330
1E
100
AcDbEntity
  8
0
100
AcDbLine
 10
106.4933984999999
 20
141.0709855
 30
0.0
 11
105.1434984999999
 21
135.7709854999999
 31
0.0
  0
LINE
  5
39E
330
1E
100
AcDbEntity
  8
0
100
AcDbLine
 10
109.5654985
 20
140.0709855
 30
0.0
 11
108.2798984999999
 21
135.2709855
 31
0.0
  0
LINE
  5
39F
330
1E
100
AcDbEntity
  8
0
100
AcDbLine
 10
107.6423984999999
 20
141.0709855
 30
0.0
 11
106.2925984999999
 21
135.7709854999999
 31
0.0
  0
LINE
  5
3A0
330
1E
100
AcDbEntity
  8
0
100
AcDbLine
 10
108.9869984999999
 20
140.5709855
 30
0.0
 11
107.7013985
 21
135.4709855
 31
0.0
  0
ENDSEC
  0
SECTION
  2
OBJECTS
  0
DICTIONARY
  5
C
330
0
100
AcDbDictionary
281
     1
  3
ACAD_GROUP
350
D
  3
ACAD_LAYOUT
350
19
  3
ACAD_MLINESTYLE
350
16
  3
ACAD_PLOTSETTINGS
350
18
  3
ACAD_PLOTSTYLENAME
350
E
  3
AcDbVariableDictionary
350
3A1
  0
DICTIONARY
  5
D
102
{ACAD_REACTORS
330
C
102
}
330
C
100
AcDbDictionary
281
     1
  0
DICTIONARY
  5
19
102
{ACAD_REACTORS
330
C
102
}
330
C
100
AcDbDictionary
281
     1
  3
Layout1
350
1D
  3
Model
350
21
  0
DICTIONARY
  5
16
102
{ACAD_REACTORS
330
C
102
}
330
C
100
AcDbDictionary
281
     1
  3
Standard
350
17
  0
DICTIONARY
  5
18
102
{ACAD_REACTORS
330
C
102
}
330
C
100
AcDbDictionary
281
     1
  0
ACDBDICTIONARYWDFLT
  5
E
102
{ACAD_REACTORS
330
C
102
}
330
C
100
AcDbDictionary
281
     1
  3
Normal
350
F
100
AcDbDictionaryWithDefault
340
F
  0
DICTIONARY
  5
3A1
102
{ACAD_REACTORS
330
C
102
}
330
C
100
AcDbDictionary
281
     1
  3
DIMASSOC
350
3A2
  0
LAYOUT
  5
1D
102
{ACAD_REACTORS
330
19
102
}
330
19
100
AcDbPlotSettings
  1

  2
hp deskjet 980c series
  4

  6

 40
0.0
 41
0.0
 42
0.0
 43
0.0
 44
0.0
 45
0.0
 46
0.0
 47
0.0
 48
0.0
 49
0.0
140
0.0
141
0.0
142
1.0
143
1.0
 70
   688
 72
     0
 73
     0
 74
     5
  7

 75
    16
147
1.0
148
0.0
149
0.0
100
AcDbLayout
  1
Layout1
 70
     1
 71
     1
 10
0.0
 20
0.0
 11
12.0
 21
9.0
 12
0.0
 22
0.0
 32
0.0
 14
1.000000000000000E+20
 24
1.000000000000000E+20
 34
1.000000000000000E+20
 15
-1.000000000000000E+20
 25
-1.000000000000000E+20
 35
-1.000000000000000E+20
146
0.0
 13
0.0
 23
0.0
 33
0.0
 16
1.0
 26
0.0
 36
0.0
 17
0.0
 27
1.0
 37
0.0
 76
     0
330
1A
  0
LAYOUT
  5
21
102
{ACAD_REACTORS
330
19
102
}
330
19
100
AcDbPlotSettings
  1

  2
hp deskjet 980c series
  4

  6

 40
0.0
 41
0.0
 42
0.0
 43
0.0
 44
0.0
 45
0.0
 46
0.0
 47
0.0
 48
0.0
 49
0.0
140
0.0
141
0.0
142
1.0
143
1.0
 70
  1712
 72
     0
 73
     0
 74
     0
  7

 75
     0
147
1.0
148
0.0
149
0.0
100
AcDbLayout
  1
Model
 70
     1
 71
     0
 10
0.0
 20
0.0
 11
12.0
 21
9.0
 12
0.0
 22
0.0
 32
0.0
 14
0.0
 24
0.0
 34
0.0
 15
0.0
 25
0.0
 35
0.0
146
0.0
 13
0.0
 23
0.0
 33
0.0
 16
1.0
 26
0.0
 36
0.0
 17
0.0
 27
1.0
 37
0.0
 76
     0
330
1E
  0
MLINESTYLE
  5
17
102
{ACAD_REACTORS
330
16
102
}
330
16
100
AcDbMlineStyle
  2
STANDARD
 70
     0
  3

 62
   256
 51
90.0
 52
90.0
 71
     2
 49
0.5
 62
   256
  6
BYLAYER
 49
-0.5
 62
   256
  6
BYLAYER
  0
ACDBPLACEHOLDER
  5
F
102
{ACAD_REACTORS
330
E
102
}
330
E
  0
DICTIONARYVAR
  5
3A2
102
{ACAD_REACTORS
330
3A1
102
}
330
3A1
100
DictionaryVariables
280
     0
  1
1
  0
ENDSEC
  0
EOF
