  0
SECTION
  2
HEADER
  9
$ACADVER
  1
AC1015
  9
$ACADMAINTVER
 70
    13
  9
$DWGCODEPAGE
  3
ANSI_1252
  9
$INSBASE
 10
0.0
 20
0.0
 30
0.0
  9
$EXTMIN
 10
-0.0709855000000041
 20
0.0294999999999992
 30
0.0
  9
$EXTMAX
 10
166.0709855
 20
106.9705
 30
0.0
  9
$LIMMIN
 10
0.0
 20
0.0
  9
$LIMMAX
 10
12.0
 20
9.0
  9
$ORTHOMODE
 70
     0
  9
$REGENMODE
 70
     1
  9
$FILLMODE
 70
     1
  9
$QTEXTMODE
 70
     0
  9
$MIRRTEXT
 70
     1
  9
$LTSCALE
 40
1.0
  9
$ATTMODE
 70
     1
  9
$TEXTSIZE
 40
0.2
  9
$TRACEWID
 40
0.05
  9
$TEXTSTYLE
  7
Standard
  9
$CLAYER
  8
0
  9
$CELTYPE
  6
Continuous
  9
$CECOLOR
 62
   256
  9
$CELTSCALE
 40
1.0
  9
$DISPSILH
 70
     0
  9
$DIMSCALE
 40
1.0
  9
$DIMASZ
 40
0.18
  9
$DIMEXO
 40
0.0625
  9
$DIMDLI
 40
0.38
  9
$DIMRND
 40
0.0
  9
$DIMDLE
 40
0.0
  9
$DIMEXE
 40
0.18
  9
$DIMTP
 40
0.0
  9
$DIMTM
 40
0.0
  9
$DIMTXT
 40
0.18
  9
$DIMCEN
 40
0.09
  9
$DIMTSZ
 40
0.0
  9
$DIMTOL
 70
     0
  9
$DIMLIM
 70
     0
  9
$DIMTIH
 70
     1
  9
$DIMTOH
 70
     1
  9
$DIMSE1
 70
     0
  9
$DIMSE2
 70
     0
  9
$DIMTAD
 70
     0
  9
$DIMZIN
 70
     0
  9
$DIMBLK
  1

  9
$DIMASO
 70
     1
  9
$DIMSHO
 70
     1
  9
$DIMPOST
  1

  9
$DIMAPOST
  1

  9
$DIMALT
 70
     0
  9
$DIMALTD
 70
     2
  9
$DIMALTF
 40
25.4
  9
$DIMLFAC
 40
1.0
  9
$DIMTOFL
 70
     0
  9
$DIMTVP
 40
0.0
  9
$DIMTIX
 70
     0
  9
$DIMSOXD
 70
     0
  9
$DIMSAH
 70
     0
  9
$DIMBLK1
  1

  9
$DIMBLK2
  1

  9
$DIMSTYLE
  2
Standard
  9
$DIMCLRD
 70
     0
  9
$DIMCLRE
 70
     0
  9
$DIMCLRT
 70
     0
  9
$DIMTFAC
 40
1.0
  9
$DIMGAP
 40
0.09
  9
$DIMJUST
 70
     0
  9
$DIMSD1
 70
     0
  9
$DIMSD2
 70
     0
  9
$DIMTOLJ
 70
     1
  9
$DIMTZIN
 70
     0
  9
$DIMALTZ
 70
     0
  9
$DIMALTTZ
 70
     0
  9
$DIMUPT
 70
     0
  9
$DIMDEC
 70
     4
  9
$DIMTDEC
 70
     4
  9
$DIMALTU
 70
     2
  9
$DIMALTTD
 70
     2
  9
$DIMTXSTY
  7
Standard
  9
$DIMAUNIT
 70
     0
  9
$DIMADEC
 70
     0
  9
$DIMALTRND
 40
0.0
  9
$DIMAZIN
 70
     0
  9
$DIMDSEP
 70
    46
  9
$DIMATFIT
 70
     3
  9
$DIMFRAC
 70
     0
  9
$DIMLDRBLK
  1

  9
$DIMLUNIT
 70
     2
  9
$DIMLWD
 70
    -2
  9
$DIMLWE
 70
    -2
  9
$DIMTMOVE
 70
     0
  9
$LUNITS
 70
     2
  9
$LUPREC
 70
     4
  9
$SKETCHINC
 40
0.1
  9
$FILLETRAD
 40
0.0
  9
$AUNITS
 70
     0
  9
$AUPREC
 70
     0
  9
$MENU
  1
.
  9
$ELEVATION
 40
0.0
  9
$PELEVATION
 40
0.0
  9
$THICKNESS
 40
0.0
  9
$LIMCHECK
 70
     0
  9
$CHAMFERA
 40
0.0
  9
$CHAMFERB
 40
0.0
  9
$CHAMFERC
 40
0.0
  9
$CHAMFERD
 40
0.0
  9
$SKPOLY
 70
     0
  9
$TDCREATE
 40
2454752.595274340
  9
$TDUCREATE
 40
2454752.511941006
  9
$TDUPDATE
 40
2454752.737324942
  9
$TDUUPDATE
 40
2454752.653991608
  9
$TDINDWG
 40
0.1420507755
  9
$TDUSRTIMER
 40
0.1420507755
  9
$USRTIMER
 70
     1
  9
$ANGBASE
 50
0.0
  9
$ANGDIR
 70
     0
  9
$PDMODE
 70
     0
  9
$PDSIZE
 40
0.0
  9
$PLINEWID
 40
0.0
  9
$SPLFRAME
 70
     0
  9
$SPLINETYPE
 70
     6
  9
$SPLINESEGS
 70
     8
  9
$HANDSEED
  5
199
  9
$SURFTAB1
 70
     6
  9
$SURFTAB2
 70
     6
  9
$SURFTYPE
 70
     6
  9
$SURFU
 70
     6
  9
$SURFV
 70
     6
  9
$UCSBASE
  2

  9
$UCSNAME
  2

  9
$UCSORG
 10
0.0
 20
0.0
 30
0.0
  9
$UCSXDIR
 10
1.0
 20
0.0
 30
0.0
  9
$UCSYDIR
 10
0.0
 20
1.0
 30
0.0
  9
$UCSORTHOREF
  2

  9
$UCSORTHOVIEW
 70
     1
  9
$UCSORGTOP
 10
0.0
 20
0.0
 30
0.0
  9
$UCSORGBOTTOM
 10
0.0
 20
0.0
 30
0.0
  9
$UCSORGLEFT
 10
0.0
 20
0.0
 30
0.0
  9
$UCSORGRIGHT
 10
0.0
 20
0.0
 30
0.0
  9
$UCSORGFRONT
 10
0.0
 20
0.0
 30
0.0
  9
$UCSORGBACK
 10
0.0
 20
0.0
 30
0.0
  9
$PUCSBASE
  2

  9
$PUCSNAME
  2

  9
$PUCSORG
 10
0.0
 20
0.0
 30
0.0
  9
$PUCSXDIR
 10
1.0
 20
0.0
 30
0.0
  9
$PUCSYDIR
 10
0.0
 20
1.0
 30
0.0
  9
$PUCSORTHOREF
  2

  9
$PUCSORTHOVIEW
 70
     0
  9
$PUCSORGTOP
 10
0.0
 20
0.0
 30
0.0
  9
$PUCSORGBOTTOM
 10
0.0
 20
0.0
 30
0.0
  9
$PUCSORGLEFT
 10
0.0
 20
0.0
 30
0.0
  9
$PUCSORGRIGHT
 10
0.0
 20
0.0
 30
0.0
  9
$PUCSORGFRONT
 10
0.0
 20
0.0
 30
0.0
  9
$PUCSORGBACK
 10
0.0
 20
0.0
 30
0.0
  9
$USERI1
 70
     0
  9
$USERI2
 70
     0
  9
$USERI3
 70
     0
  9
$USERI4
 70
     0
  9
$USERI5
 70
     0
  9
$USERR1
 40
0.0
  9
$USERR2
 40
0.0
  9
$USERR3
 40
0.0
  9
$USERR4
 40
0.0
  9
$USERR5
 40
0.0
  9
$WORLDVIEW
 70
     1
  9
$SHADEDGE
 70
     3
  9
$SHADEDIF
 70
    70
  9
$TILEMODE
 70
     1
  9
$MAXACTVP
 70
    64
  9
$PINSBASE
 10
0.0
 20
0.0
 30
0.0
  9
$PLIMCHECK
 70
     0
  9
$PEXTMIN
 10
1.000000000000000E+20
 20
1.000000000000000E+20
 30
1.000000000000000E+20
  9
$PEXTMAX
 10
-1.000000000000000E+20
 20
-1.000000000000000E+20
 30
-1.000000000000000E+20
  9
$PLIMMIN
 10
0.0
 20
0.0
  9
$PLIMMAX
 10
12.0
 20
9.0
  9
$UNITMODE
 70
     0
  9
$VISRETAIN
 70
     1
  9
$PLINEGEN
 70
     0
  9
$PSLTSCALE
 70
     1
  9
$TREEDEPTH
 70
  3020
  9
$CMLSTYLE
  2
Standard
  9
$CMLJUST
 70
     0
  9
$CMLSCALE
 40
1.0
  9
$PROXYGRAPHICS
 70
     1
  9
$MEASUREMENT
 70
     0
  9
$CELWEIGHT
370
    -1
  9
$ENDCAPS
280
     0
  9
$JOINSTYLE
280
     0
  9
$LWDISPLAY
290
     0
  9
$INSUNITS
 70
     0
  9
$HYPERLINKBASE
  1

  9
$STYLESHEET
  1

  9
$XEDIT
290
     1
  9
$CEPSNTYPE
380
     0
  9
$PSTYLEMODE
290
     1
  9
$FINGERPRINTGUID
  2
{01E226F6-1431-458E-83B1-44E5106F5B28}
  9
$VERSIONGUID
  2
{C16820D0-BF3D-4229-B27C-3BEA276C8264}
  9
$EXTNAMES
290
     1
  9
$PSVPSCALE
 40
0.0
  9
$OLESTARTUP
290
     0
  0
ENDSEC
  0
SECTION
  2
CLASSES
  0
CLASS
  1
ACDBDICTIONARYWDFLT
  2
AcDbDictionaryWithDefault
  3
AutoCAD 2000
 90
        0
280
     0
281
     0
  0
CLASS
  1
ACDBPLACEHOLDER
  2
AcDbPlaceHolder
  3
AutoCAD 2000
 90
        0
280
     0
281
     0
  0
CLASS
  1
LAYOUT
  2
AcDbLayout
  3
AutoCAD 2000
 90
        0
280
     0
281
     0
  0
CLASS
  1
DICTIONARYVAR
  2
AcDbDictionaryVar
  3
AutoCAD 2000
 90
        0
280
     0
281
     0
  0
ENDSEC
  0
SECTION
  2
TABLES
  0
TABLE
  2
VPORT
  5
8
330
0
100
AcDbSymbolTable
 70
     2
  0
VPORT
  5
198
330
8
100
AcDbSymbolTableRecord
100
AcDbViewportTableRecord
  2
*Active
 70
     0
 10
0.0
 20
0.0
 11
1.0
 21
1.0
 12
83.0
 22
53.5
 13
0.0
 23
0.0
 14
1.0
 24
1.0
 15
0.0
 25
0.0
 16
0.0
 26
0.0
 36
1.0
 17
0.0
 27
0.0
 37
0.0
 40
107.7615191815856
 41
2.078104993597951
 42
50.0
 43
0.0
 44
0.0
 50
0.0
 51
0.0
 71
     0
 72
   100
 73
     1
 74
     3
 75
     0
 76
     0
 77
     0
 78
     0
281
     0
 65
     1
110
0.0
120
0.0
130
0.0
111
1.0
121
0.0
131
0.0
112
0.0
122
1.0
132
0.0
 79
     1
146
0.0
  0
ENDTAB
  0
TABLE
  2
LTYPE
  5
5
330
0
100
AcDbSymbolTable
 70
     1
  0
LTYPE
  5
13
330
5
100
AcDbSymbolTableRecord
100
AcDbLinetypeTableRecord
  2
ByBlock
 70
     0
  3

 72
    65
 73
     0
 40
0.0
  0
LTYPE
  5
14
330
5
100
AcDbSymbolTableRecord
100
AcDbLinetypeTableRecord
  2
ByLayer
 70
     0
  3

 72
    65
 73
     0
 40
0.0
  0
LTYPE
  5
15
330
5
100
AcDbSymbolTableRecord
100
AcDbLinetypeTableRecord
  2
Continuous
 70
     0
  3
Solid line
 72
    65
 73
     0
 40
0.0
  0
ENDTAB
  0
TABLE
  2
LAYER
  5
2
330
0
100
AcDbSymbolTable
 70
     1
  0
LAYER
  5
10
330
2
100
AcDbSymbolTableRecord
100
AcDbLayerTableRecord
  2
0
 70
     0
 62
     7
  6
Continuous
370
    -3
390
F
  0
ENDTAB
  0
TABLE
  2
STYLE
  5
3
330
0
100
AcDbSymbolTable
 70
     1
  0
STYLE
  5
11
330
3
100
AcDbSymbolTableRecord
100
AcDbTextStyleTableRecord
  2
Standard
 70
     0
 40
0.0
 41
1.0
 50
0.0
 71
     0
 42
0.2
  3
txt
  4

  0
ENDTAB
  0
TABLE
  2
VIEW
  5
6
330
0
100
AcDbSymbolTable
 70
     0
  0
ENDTAB
  0
TABLE
  2
UCS
  5
7
330
0
100
AcDbSymbolTable
 70
     0
  0
ENDTAB
  0
TABLE
  2
APPID
  5
9
330
0
100
AcDbSymbolTable
 70
     1
  0
APPID
  5
12
330
9
100
AcDbSymbolTableRecord
100
AcDbRegAppTableRecord
  2
ACAD
 70
     0
  0
ENDTAB
  0
TABLE
  2
DIMSTYLE
  5
A
330
0
100
AcDbSymbolTable
 70
     1
100
AcDbDimStyleTable
 71
     0
  0
DIMSTYLE
105
192
330
A
100
AcDbSymbolTableRecord
100
AcDbDimStyleTableRecord
  2
Standard
 70
     0
340
11
  0
ENDTAB
  0
TABLE
  2
BLOCK_RECORD
  5
1
330
0
100
AcDbSymbolTable
 70
     0
  0
BLOCK_RECORD
  5
1E
330
1
100
AcDbSymbolTableRecord
100
AcDbBlockTableRecord
  2
*Model_Space
340
21
  0
BLOCK_RECORD
  5
1A
330
1
100
AcDbSymbolTableRecord
100
AcDbBlockTableRecord
  2
*Paper_Space
340
1D
  0
ENDTAB
  0
ENDSEC
  0
SECTION
  2
BLOCKS
  0
BLOCK
  5
1F
330
1E
100
AcDbEntity
  8
0
100
AcDbBlockBegin
  2
*Model_Space
 70
     0
 10
0.0
 20
0.0
 30
0.0
  3
*Model_Space
  1

  0
ENDBLK
  5
20
330
1E
100
AcDbEntity
  8
0
100
AcDbBlockEnd
  0
BLOCK
  5
1B
330
1A
100
AcDbEntity
 67
     1
  8
0
100
AcDbBlockBegin
  2
*Paper_Space
 70
     0
 10
0.0
 20
0.0
 30
0.0
  3
*Paper_Space
  1

  0
ENDBLK
  5
1C
330
1A
100
AcDbEntity
 67
     1
  8
0
100
AcDbBlockEnd
  0
ENDSEC
  0
SECTION
  2
ENTITIES
  0
LINE
  5
22
330
1E
100
AcDbEntity
  8
0
100
AcDbLine
 10
141.0709855
 20
0.0295000000000012
 30
0.0
 11
145.6709854999999
 21
0.0295000000000009
 31
0.0
  0
LINE
  5
23
330
1E
100
AcDbEntity
  8
0
100
AcDbLine
 10
108.0709855
 20
15.5295
 30
0.0
 11
108.0709855
 21
0.0295000000000021
 31
0.0
  0
LINE
  5
24
330
1E
100
AcDbEntity
  8
0
100
AcDbLine
 10
124.3709855
 20
0.0295000000000022
 30
0.0
 11
130.0709855
 21
0.0295000000000019
 31
0.0
  0
LINE
  5
25
330
1E
100
AcDbEntity
  8
0
100
AcDbLine
 10
114.4709855
 20
0.0295000000000028
 30
0.0
 11
119.0709854999999
 21
0.0295000000000025
 31
0.0
  0
LINE
  5
26
330
1E
100
AcDbEntity
  8
0
100
AcDbLine
 10
119.0709854999999
 20
0.0295000000000025
 30
0.0
 11
124.3709855
 21
0.0295000000000022
 31
0.0
  0
LINE
  5
27
330
1E
100
AcDbEntity
  8
0
100
AcDbLine
 10
110.9709854999999
 20
0.029500000000003
 30
0.0
 11
114.4709855
 21
0.0295000000000028
 31
0.0
  0
LINE
  5
29
330
1E
100
AcDbEntity
  8
0
100
AcDbLine
 10
108.8709855
 20
0.0295000000000032
 30
0.0
 11
110.9709854999999
 21
0.029500000000003
 31
0.0
  0
LINE
  5
2A
330
1E
100
AcDbEntity
  8
0
100
AcDbLine
 10
108.0709855
 20
0.0295000000000032
 30
0.0
 11
108.8709855
 21
0.0295000000000032
 31
0.0
  0
LINE
  5
2B
330
1E
100
AcDbEntity
  8
0
100
AcDbLine
 10
108.0709855
 20
0.0295000000000032
 30
0.0
 11
108.0709855
 21
15.5295
 31
0.0
  0
LINE
  5
2C
330
1E
100
AcDbEntity
  8
0
100
AcDbLine
 10
13.6948855
 20
49.5882
 30
0.0
 11
17.6998156960933
 21
52.3925409696452
 31
0.0
  0
LINE
  5
2D
330
1E
100
AcDbEntity
  8
0
100
AcDbLine
 10
20.05218549999999
 20
49.0431
 30
0.0
 11
20.3784855
 21
48.5599
 31
0.0
  0
LINE
  5
2E
330
1E
100
AcDbEntity
  8
0
100
AcDbLine
 10
20.3784855
 20
48.5599
 30
0.0
 11
23.2119855
 21
48.011
 31
0.0
  0
LINE
  5
2F
330
1E
100
AcDbEntity
  8
0
100
AcDbLine
 10
23.2119855
 20
48.011
 30
0.0
 11
24.7709855
 21
48.3295
 31
0.0
  0
LINE
  5
30
330
1E
100
AcDbEntity
  8
0
100
AcDbLine
 10
24.7709855
 20
48.3295
 30
0.0
 11
30.3709855
 21
49.8295
 31
0.0
  0
LINE
  5
31
330
1E
100
AcDbEntity
  8
0
100
AcDbLine
 10
13.4653855
 20
49.9159
 30
0.0
 11
13.6948855
 21
49.5882
 31
0.0
  0
LINE
  5
32
330
1E
100
AcDbEntity
  8
0
100
AcDbLine
 10
12.7770855
 20
50.8989
 30
0.0
 11
13.4653855
 21
49.9159
 31
0.0
  0
LINE
  5
34
330
1E
100
AcDbEntity
  8
0
100
AcDbLine
 10
30.3709855
 20
49.8295
 30
0.0
 11
36.97098549999999
 21
50.7295
 31
0.0
  0
LINE
  5
35
330
1E
100
AcDbEntity
  8
0
100
AcDbLine
 10
36.97098549999999
 20
50.7295
 30
0.0
 11
43.0709855
 21
51.02949999999999
 31
0.0
  0
LINE
  5
36
330
1E
100
AcDbEntity
  8
0
100
AcDbLine
 10
0.158445499999996
 20
68.92019999999999
 30
0.0
 11
0.8467374999999959
 21
67.9372
 31
0.0
  0
LINE
  5
37
330
1E
100
AcDbEntity
  8
0
100
AcDbLine
 10
0.158445499999996
 20
68.92019999999999
 30
0.0
 11
0.8467374999999959
 21
67.9372
 31
0.0
  0
LINE
  5
38
330
1E
100
AcDbEntity
  8
0
100
AcDbLine
 10
-0.0709855000000041
 20
69.2479
 30
0.0
 11
0.158445499999996
 21
68.92019999999999
 31
0.0
  0
LINE
  5
39
330
1E
100
AcDbEntity
  8
0
100
AcDbLine
 10
-0.0709855000000041
 20
69.2479
 30
0.0
 11
3.93676782090187
 21
72.0541759885195
 31
0.0
  0
LINE
  5
3A
330
1E
100
AcDbEntity
  8
0
100
AcDbLine
 10
0.8467374999999959
 20
67.9372
 30
0.0
 11
1.936535499999999
 21
66.38079999999999
 31
0.0
  0
LINE
  5
3D
330
1E
100
AcDbEntity
  8
0
100
AcDbLine
 10
0.8269414999999959
 20
76.4344
 30
0.0
 11
1.3758555
 21
79.2679
 31
0.0
  0
LINE
  5
3E
330
1E
100
AcDbEntity
  8
0
100
AcDbLine
 10
0.8269414999999959
 20
76.4344
 30
0.0
 11
1.243935499999999
 21
75.9089
 31
0.0
  0
LINE
  5
40
330
1E
100
AcDbEntity
  8
0
100
AcDbLine
 10
11.68728549999999
 20
52.4553
 30
0.0
 11
12.7770855
 21
50.8989
 31
0.0
  0
LINE
  5
41
330
1E
100
AcDbEntity
  8
0
100
AcDbLine
 10
10.2533855
 20
54.5031
 30
0.0
 11
11.68728549999999
 21
52.4553
 31
0.0
  0
LINE
  5
42
330
1E
100
AcDbEntity
  8
0
100
AcDbLine
 10
8.590015499999999
 20
56.8787
 30
0.0
 11
10.2533855
 21
54.5031
 31
0.0
  0
LINE
  5
43
330
1E
100
AcDbEntity
  8
0
100
AcDbLine
 10
3.370475499999999
 20
64.333
 30
0.0
 11
5.033845499999999
 21
61.9574
 31
0.0
  0
LINE
  5
44
330
1E
100
AcDbEntity
  8
0
100
AcDbLine
 10
6.811935499999999
 20
59.4181
 30
0.0
 11
8.590015499999999
 21
56.8787
 31
0.0
  0
LINE
  5
45
330
1E
100
AcDbEntity
  8
0
100
AcDbLine
 10
5.033845499999999
 20
61.9574
 30
0.0
 11
6.811935499999999
 21
59.4181
 31
0.0
  0
LINE
  5
46
330
1E
100
AcDbEntity
  8
0
100
AcDbLine
 10
1.936535499999999
 20
66.38079999999999
 30
0.0
 11
3.370475499999999
 21
64.333
 31
0.0
  0
LINE
  5
47
330
1E
100
AcDbEntity
  8
0
100
AcDbLine
 10
1.2439355
 20
75.9089
 30
0.0
 11
10.64808549999999
 21
62.47600000000001
 31
0.0
  0
LINE
  5
48
330
1E
100
AcDbEntity
  8
0
100
AcDbLine
 10
10.64808549999999
 20
62.47600000000001
 30
0.0
 11
20.05218549999999
 21
49.0431
 31
0.0
  0
LINE
  5
53
330
1E
100
AcDbEntity
  8
0
100
AcDbLine
 10
1.7505955
 20
78.65179999999999
 30
0.0
 11
23.2119855
 21
48.011
 31
0.0
  0
LINE
  5
58
330
1E
100
AcDbEntity
  8
0
100
AcDbLine
 10
1.3758555
 20
79.2679
 30
0.0
 11
5.7709855
 21
81.22950000000001
 31
0.0
  0
LINE
  5
59
330
1E
100
AcDbEntity
  8
0
100
AcDbLine
 10
1.3758555
 20
79.2679
 30
0.0
 11
1.7505955
 21
78.65179999999999
 31
0.0
  0
LINE
  5
5A
330
1E
100
AcDbEntity
  8
0
100
AcDbLine
 10
5.7709855
 20
81.22950000000001
 30
0.0
 11
17.37098549999999
 21
85.5295
 31
0.0
  0
LINE
  5
61
330
1E
100
AcDbEntity
  8
0
100
AcDbLine
 10
17.37098549999999
 20
85.5295
 30
0.0
 11
30.3709855
 21
88.0295
 31
0.0
  0
LINE
  5
62
330
1E
100
AcDbEntity
  8
0
100
AcDbLine
 10
30.3709855
 20
88.0295
 30
0.0
 11
43.0709855
 21
89.0295
 31
0.0
  0
LINE
  5
63
330
1E
100
AcDbEntity
  8
0
100
AcDbLine
 10
43.0709855
 20
89.0295
 30
0.0
 11
56.3709855
 21
88.12949999999998
 31
0.0
  0
LINE
  5
64
330
1E
100
AcDbEntity
  8
0
100
AcDbLine
 10
43.0709855
 20
51.02949999999999
 30
0.0
 11
49.7709855
 21
50.7295
 31
0.0
  0
LINE
  5
65
330
1E
100
AcDbEntity
  8
0
100
AcDbLine
 10
56.3709855
 20
88.12949999999998
 30
0.0
 11
72.9709855
 21
85.42950000000001
 31
0.0
  0
LINE
  5
66
330
1E
100
AcDbEntity
  8
0
100
AcDbLine
 10
49.7709855
 20
50.7295
 30
0.0
 11
59.9709855
 21
49.7295
 31
0.0
  0
LINE
  5
67
330
1E
100
AcDbEntity
  8
0
100
AcDbLine
 10
59.9709855
 20
49.7295
 30
0.0
 11
70.57098549999999
 21
47.6295
 31
0.0
  0
LINE
  5
68
330
1E
100
AcDbEntity
  8
0
100
AcDbLine
 10
72.9709855
 20
85.42950000000001
 30
0.0
 11
89.77098549999999
 21
81.02949999999999
 31
0.0
  0
LINE
  5
69
330
1E
100
AcDbEntity
  8
0
100
AcDbLine
 10
89.77098549999999
 20
81.02949999999999
 30
0.0
 11
94.30219472281429
 21
79.2052469362696
 31
0.0
  0
LINE
  5
6A
330
1E
100
AcDbEntity
  8
0
100
AcDbLine
 10
70.57098549999999
 20
47.6295
 30
0.0
 11
80.0709855
 21
44.92949999999999
 31
0.0
  0
LINE
  5
6B
330
1E
100
AcDbEntity
  8
0
100
AcDbLine
 10
80.0709855
 20
44.92949999999999
 30
0.0
 11
90.1709855
 21
40.2295
 31
0.0
  0
LINE
  5
6C
330
1E
100
AcDbEntity
  8
0
100
AcDbLine
 10
104.0709855
 20
70.5658
 30
0.0
 11
108.0709855
 21
70.8476
 31
0.0
  0
LINE
  5
6D
330
1E
100
AcDbEntity
  8
0
100
AcDbLine
 10
100.5709854999999
 20
70.9884
 30
0.0
 11
104.0709855
 21
70.5658
 31
0.0
  0
LINE
  5
6E
330
1E
100
AcDbEntity
  8
0
100
AcDbLine
 10
98.07098549999999
 20
72.11549999999999
 30
0.0
 11
100.5709854999999
 21
70.9884
 31
0.0
  0
LINE
  5
6F
330
1E
100
AcDbEntity
  8
0
100
AcDbLine
 10
96.07098549999999
 20
73.5243
 30
0.0
 11
98.07098549999999
 21
72.11549999999999
 31
0.0
  0
LINE
  5
70
330
1E
100
AcDbEntity
  8
0
100
AcDbLine
 10
94.57098549999999
 20
75.4967
 30
0.0
 11
96.07098549999999
 21
73.5243
 31
0.0
  0
LINE
  5
71
330
1E
100
AcDbEntity
  8
0
100
AcDbLine
 10
94.07098549999998
 20
78.0326
 30
0.0
 11
94.57098549999999
 21
80.5685
 31
0.0
  0
LINE
  5
72
330
1E
100
AcDbEntity
  8
0
100
AcDbLine
 10
94.07098549999998
 20
78.0326
 30
0.0
 11
94.57098549999999
 21
75.4967
 31
0.0
  0
LINE
  5
73
330
1E
100
AcDbEntity
  8
0
100
AcDbLine
 10
96.07098549999999
 20
82.54089999999999
 30
0.0
 11
98.07098549999999
 21
83.9497
 31
0.0
  0
LINE
  5
74
330
1E
100
AcDbEntity
  8
0
100
AcDbLine
 10
94.57098549999999
 20
80.5685
 30
0.0
 11
96.07098549999999
 21
82.54089999999999
 31
0.0
  0
LINE
  5
75
330
1E
100
AcDbEntity
  8
0
100
AcDbLine
 10
104.0709855
 20
85.49939999999999
 30
0.0
 11
108.0709855
 21
85.2176
 31
0.0
  0
LINE
  5
76
330
1E
100
AcDbEntity
  8
0
100
AcDbLine
 10
100.5709854999999
 20
85.0768
 30
0.0
 11
104.0709855
 21
85.49939999999999
 31
0.0
  0
LINE
  5
77
330
1E
100
AcDbEntity
  8
0
100
AcDbLine
 10
98.07098549999999
 20
83.9497
 30
0.0
 11
100.5709854999999
 21
85.0768
 31
0.0
  0
LINE
  5
78
330
1E
100
AcDbEntity
  8
0
100
AcDbLine
 10
94.30219472281429
 20
79.2052469362696
 30
0.0
 11
94.57098549999999
 21
80.5685
 31
0.0
  0
LINE
  5
79
330
1E
100
AcDbEntity
  8
0
100
AcDbLine
 10
90.1709855
 20
40.2295
 30
0.0
 11
99.9709855
 21
32.7295
 31
0.0
  0
LINE
  5
7A
330
1E
100
AcDbEntity
  8
0
100
AcDbLine
 10
99.9709855
 20
32.7295
 30
0.0
 11
105.2709855
 21
25.9295
 31
0.0
  0
LINE
  5
7B
330
1E
100
AcDbEntity
  8
0
100
AcDbLine
 10
108.8709855
 20
46.99049999999999
 30
0.0
 11
110.9709854999999
 21
42.9304
 31
0.0
  0
LINE
  5
7C
330
1E
100
AcDbEntity
  8
0
100
AcDbLine
 10
108.8709855
 20
46.0263
 30
0.0
 11
110.9709854999999
 21
41.9662
 31
0.0
  0
LINE
  5
7E
330
1E
100
AcDbEntity
  8
0
100
AcDbLine
 10
109.8709855
 20
47.8631
 30
0.0
 11
111.8709855
 21
43.9562
 31
0.0
  0
LINE
  5
7F
330
1E
100
AcDbEntity
  8
0
100
AcDbLine
 10
111.8709855
 20
43.9562
 30
0.0
 11
115.2709854999999
 21
40.6622
 31
0.0
  0
LINE
  5
80
330
1E
100
AcDbEntity
  8
0
100
AcDbLine
 10
110.9709854999999
 20
42.9304
 30
0.0
 11
114.5709854999999
 21
39.48319999999999
 31
0.0
  0
LINE
  5
81
330
1E
100
AcDbEntity
  8
0
100
AcDbLine
 10
110.9709854999999
 20
41.9662
 30
0.0
 11
114.5709854999999
 21
38.519
 31
0.0
  0
LINE
  5
83
330
1E
100
AcDbEntity
  8
0
100
AcDbLine
 10
108.0709855
 20
50.3927
 30
0.0
 11
108.8709855
 21
46.0263
 31
0.0
  0
LINE
  5
84
330
1E
100
AcDbEntity
  8
0
100
AcDbLine
 10
108.0709855
 20
50.3927
 30
0.0
 11
108.0709855
 21
51.3569
 31
0.0
  0
LINE
  5
85
330
1E
100
AcDbEntity
  8
0
100
AcDbLine
 10
109.0709854999999
 20
51.9997
 30
0.0
 11
109.8709855
 21
56.1363
 31
0.0
  0
LINE
  5
86
330
1E
100
AcDbEntity
  8
0
100
AcDbLine
 10
109.0709854999999
 20
51.9997
 30
0.0
 11
109.8709855
 21
47.8631
 31
0.0
  0
LINE
  5
87
330
1E
100
AcDbEntity
  8
0
100
AcDbLine
 10
108.0709855
 20
51.3569
 30
0.0
 11
108.0709855
 21
50.3927
 31
0.0
  0
LINE
  5
88
330
1E
100
AcDbEntity
  8
0
100
AcDbLine
 10
108.0709855
 20
51.3569
 30
0.0
 11
108.8709855
 21
55.7234
 31
0.0
  0
LINE
  5
89
330
1E
100
AcDbEntity
  8
0
100
AcDbLine
 10
108.0709855
 20
51.3569
 30
0.0
 11
108.8709855
 21
46.99049999999999
 31
0.0
  0
LINE
  5
8A
330
1E
100
AcDbEntity
  8
0
100
AcDbLine
 10
109.8709855
 20
56.1363
 30
0.0
 11
111.8709855
 21
60.04319999999999
 31
0.0
  0
LINE
  5
8B
330
1E
100
AcDbEntity
  8
0
100
AcDbLine
 10
108.8709855
 20
55.7234
 30
0.0
 11
110.9709854999999
 21
59.7834
 31
0.0
  0
LINE
  5
8C
330
1E
100
AcDbEntity
  8
0
100
AcDbLine
 10
110.9709854999999
 20
59.7834
 30
0.0
 11
112.67441430602
 21
61.4145277166975
 31
0.0
  0
LINE
  5
8D
330
1E
100
AcDbEntity
  8
0
100
AcDbLine
 10
111.8709855
 20
60.04319999999999
 30
0.0
 11
112.0979526951049
 21
60.263091159022
 31
0.0
  0
LINE
  5
8E
330
1E
100
AcDbEntity
  8
0
100
AcDbLine
 10
111.7709854999999
 20
59.61
 30
0.0
 11
113.6709855
 21
63.4051
 31
0.0
  0
LINE
  5
8F
330
1E
100
AcDbEntity
  8
0
100
AcDbLine
 10
110.7709854999999
 20
55.9831
 30
0.0
 11
111.7709854999999
 21
59.61
 31
0.0
  0
LINE
  5
90
330
1E
100
AcDbEntity
  8
0
100
AcDbLine
 10
110.0709854999999
 20
51.9997
 30
0.0
 11
110.7709854999999
 21
48.0163
 31
0.0
  0
LINE
  5
91
330
1E
100
AcDbEntity
  8
0
100
AcDbLine
 10
110.0709854999999
 20
51.9997
 30
0.0
 11
110.7709854999999
 21
55.9831
 31
0.0
  0
LINE
  5
92
330
1E
100
AcDbEntity
  8
0
100
AcDbLine
 10
110.7709854999999
 20
48.0163
 30
0.0
 11
112.7709854999999
 21
44.3393
 31
0.0
  0
LINE
  5
93
330
1E
100
AcDbEntity
  8
0
100
AcDbLine
 10
112.7709854999999
 20
44.3393
 30
0.0
 11
115.9709855
 21
41.1985
 31
0.0
  0
LINE
  5
94
330
1E
100
AcDbEntity
  8
0
100
AcDbLine
 10
111.0709854999999
 20
71.2702
 30
0.0
 11
115.0709854999999
 21
72.11549999999999
 31
0.0
  0
LINE
  5
95
330
1E
100
AcDbEntity
  8
0
100
AcDbLine
 10
108.0709855
 20
70.8476
 30
0.0
 11
111.0709854999999
 21
71.2702
 31
0.0
  0
LINE
  5
96
330
1E
100
AcDbEntity
  8
0
100
AcDbLine
 10
119.0709854999999
 20
36.72549999999999
 30
0.0
 11
124.3709855
 21
35.1168
 31
0.0
  0
LINE
  5
97
330
1E
100
AcDbEntity
  8
0
100
AcDbLine
 10
115.2709854999999
 20
40.6622
 30
0.0
 11
119.5709855
 21
38.05769999999999
 31
0.0
  0
LINE
  5
98
330
1E
100
AcDbEntity
  8
0
100
AcDbLine
 10
114.5709854999999
 20
39.48319999999999
 30
0.0
 11
119.0709854999999
 21
36.72549999999999
 31
0.0
  0
LINE
  5
99
330
1E
100
AcDbEntity
  8
0
100
AcDbLine
 10
114.5709854999999
 20
38.519
 30
0.0
 11
119.0709854999999
 21
35.7613
 31
0.0
  0
LINE
  5
9A
330
1E
100
AcDbEntity
  8
0
100
AcDbLine
 10
119.5709855
 20
38.05769999999999
 30
0.0
 11
124.6709854999999
 21
36.52559999999999
 31
0.0
  0
LINE
  5
9B
330
1E
100
AcDbEntity
  8
0
100
AcDbLine
 10
119.0709854999999
 20
35.7613
 30
0.0
 11
124.3709855
 21
34.15259999999999
 31
0.0
  0
LINE
  5
9C
330
1E
100
AcDbEntity
  8
0
100
AcDbLine
 10
115.9709855
 20
41.1985
 30
0.0
 11
120.0709854999999
 21
38.7471
 31
0.0
  0
LINE
  5
9D
330
1E
100
AcDbEntity
  8
0
100
AcDbLine
 10
120.0709854999999
 20
38.7471
 30
0.0
 11
124.8709854999999
 21
37.215
 31
0.0
  0
LINE
  5
9E
330
1E
100
AcDbEntity
  8
0
100
AcDbLine
 10
121.3709855
 20
66.4889
 30
0.0
 11
122.9709855
 21
64.8802
 31
0.0
  0
LINE
  5
9F
330
1E
100
AcDbEntity
  8
0
100
AcDbLine
 10
121.3709855
 20
65.84610000000001
 30
0.0
 11
122.9709855
 21
64.23739999999999
 31
0.0
  0
LINE
  5
A0
330
1E
100
AcDbEntity
  8
0
100
AcDbLine
 10
115.3709855
 20
66.5459
 30
0.0
 11
117.4709854999999
 21
69.4068
 31
0.0
  0
LINE
  5
A1
330
1E
100
AcDbEntity
  8
0
100
AcDbLine
 10
113.6709855
 20
63.4051
 30
0.0
 11
115.3709855
 21
66.5459
 31
0.0
  0
LINE
  5
A2
330
1E
100
AcDbEntity
  8
0
100
AcDbLine
 10
122.9709855
 20
64.8802
 30
0.0
 11
123.463698280673
 21
64.5926434361938
 31
0.0
  0
LINE
  5
A3
330
1E
100
AcDbEntity
  8
0
100
AcDbLine
 10
122.9709855
 20
64.23739999999999
 30
0.0
 11
123.362765881484
 21
64.00874950688271
 31
0.0
  0
LINE
  5
A4
330
1E
100
AcDbEntity
  8
0
100
AcDbLine
 10
123.2709854999999
 20
63.4778
 30
0.0
 11
123.4709854999999
 21
64.6348
 31
0.0
  0
LINE
  5
A5
330
1E
100
AcDbEntity
  8
0
100
AcDbLine
 10
122.8709854999999
 20
61.1796
 30
0.0
 11
123.2709854999999
 21
63.4778
 31
0.0
  0
LINE
  5
A6
330
1E
100
AcDbEntity
  8
0
100
AcDbLine
 10
122.5709854999999
 20
58.1154
 30
0.0
 11
123.0709854999999
 21
55.4343
 31
0.0
  0
LINE
  5
A7
330
1E
100
AcDbEntity
  8
0
100
AcDbLine
 10
122.5709854999999
 20
58.1154
 30
0.0
 11
122.8709854999999
 21
61.1796
 31
0.0
  0
LINE
  5
A8
330
1E
100
AcDbEntity
  8
0
100
AcDbLine
 10
123.0709854999999
 20
55.4343
 30
0.0
 11
123.3709855
 21
54.2773
 31
0.0
  0
LINE
  5
A9
330
1E
100
AcDbEntity
  8
0
100
AcDbLine
 10
123.4709854999999
 20
64.6348
 30
0.0
 11
124.2709854999999
 21
67.5704
 31
0.0
  0
LINE
  5
AA
330
1E
100
AcDbEntity
  8
0
100
AcDbLine
 10
123.3709855
 20
54.2773
 30
0.0
 11
124.2709854999999
 21
52.49069999999999
 31
0.0
  0
LINE
  5
AB
330
1E
100
AcDbEntity
  8
0
100
AcDbLine
 10
120.311157160664
 20
69.1232252586405
 30
0.0
 11
120.4709854999999
 21
68.3274
 31
0.0
  0
LINE
  5
AC
330
1E
100
AcDbEntity
  8
0
100
AcDbLine
 10
120.4709854999999
 20
68.3274
 30
0.0
 11
121.3709855
 21
66.4889
 31
0.0
  0
LINE
  5
AD
330
1E
100
AcDbEntity
  8
0
100
AcDbLine
 10
120.4709854999999
 20
67.6847
 30
0.0
 11
121.3709855
 21
65.84610000000001
 31
0.0
  0
LINE
  5
AE
330
1E
100
AcDbEntity
  8
0
100
AcDbLine
 10
120.114145895433
 20
69.46149360104229
 30
0.0
 11
120.4709854999999
 21
67.6847
 31
0.0
  0
LINE
  5
AF
330
1E
100
AcDbEntity
  8
0
100
AcDbLine
 10
117.4709854999999
 20
69.4068
 30
0.0
 11
119.1599457588159
 21
71.16846232086629
 31
0.0
  0
LINE
  5
B0
330
1E
100
AcDbEntity
  8
0
100
AcDbLine
 10
120.5709855
 20
68.67709999999999
 30
0.0
 11
122.2709854999999
 21
66.9152
 31
0.0
  0
LINE
  5
B1
330
1E
100
AcDbEntity
  8
0
100
AcDbLine
 10
122.2709854999999
 20
66.9152
 30
0.0
 11
123.6709854999999
 21
66.05929999999999
 31
0.0
  0
LINE
  5
B2
330
1E
100
AcDbEntity
  8
0
100
AcDbLine
 10
124.3709855
 20
35.1168
 30
0.0
 11
130.0709855
 21
34.5039
 31
0.0
  0
LINE
  5
B3
330
1E
100
AcDbEntity
  8
0
100
AcDbLine
 10
124.6709854999999
 20
36.52559999999999
 30
0.0
 11
130.0709855
 21
35.91279999999999
 31
0.0
  0
LINE
  5
B4
330
1E
100
AcDbEntity
  8
0
100
AcDbLine
 10
124.3709855
 20
34.15259999999999
 30
0.0
 11
130.0709855
 21
33.53979999999999
 31
0.0
  0
LINE
  5
B5
330
1E
100
AcDbEntity
  8
0
100
AcDbLine
 10
124.8709854999999
 20
37.215
 30
0.0
 11
130.0709855
 21
36.6788
 31
0.0
  0
LINE
  5
B6
330
1E
100
AcDbEntity
  8
0
100
AcDbLine
 10
128.8709855
 20
49.2231
 30
0.0
 11
130.0709855
 21
49.09449999999999
 31
0.0
  0
LINE
  5
B7
330
1E
100
AcDbEntity
  8
0
100
AcDbLine
 10
127.7709854999999
 20
49.4802
 30
0.0
 11
128.8709855
 21
49.2231
 31
0.0
  0
LINE
  5
B8
330
1E
100
AcDbEntity
  8
0
100
AcDbLine
 10
126.8709854999999
 20
49.9302
 30
0.0
 11
127.7709854999999
 21
49.4802
 31
0.0
  0
LINE
  5
B9
330
1E
100
AcDbEntity
  8
0
100
AcDbLine
 10
124.2709854999999
 20
67.5704
 30
0.0
 11
125.4597430469029
 21
69.7950408732743
 31
0.0
  0
LINE
  5
BA
330
1E
100
AcDbEntity
  8
0
100
AcDbLine
 10
124.2709854999999
 20
52.49069999999999
 30
0.0
 11
124.8709854999999
 21
51.5908
 31
0.0
  0
LINE
  5
BB
330
1E
100
AcDbEntity
  8
0
100
AcDbLine
 10
124.8709854999999
 20
51.5908
 30
0.0
 11
126.1709855
 21
50.50869999999999
 31
0.0
  0
LINE
  5
BC
330
1E
100
AcDbEntity
  8
0
100
AcDbLine
 10
126.1709855
 20
50.50869999999999
 30
0.0
 11
126.8709854999999
 21
49.9302
 31
0.0
  0
LINE
  5
BD
330
1E
100
AcDbEntity
  8
0
100
AcDbLine
 10
123.6709854999999
 20
66.05929999999999
 30
0.0
 11
123.834094685722
 21
65.9672291570069
 31
0.0
  0
LINE
  5
BE
330
1E
100
AcDbEntity
  8
0
100
AcDbLine
 10
118.4709854999999
 20
72.4439
 30
0.0
 11
119.6709854999999
 21
70.2224
 31
0.0
  0
LINE
  5
BF
330
1E
100
AcDbEntity
  8
0
100
AcDbLine
 10
119.6709854999999
 20
70.2224
 30
0.0
 11
120.5709855
 21
68.67709999999999
 31
0.0
  0
LINE
  5
C0
330
1E
100
AcDbEntity
  8
0
100
AcDbLine
 10
115.0709854999999
 20
72.11549999999999
 30
0.0
 11
118.296530996517
 21
73.2515371238734
 31
0.0
  0
LINE
  5
C1
330
1E
100
AcDbEntity
  8
0
100
AcDbLine
 10
117.7950454008639
 20
69.7448092065965
 30
0.0
 11
119.1599457588159
 21
71.16846232086629
 31
0.0
  0
LINE
  5
C2
330
1E
100
AcDbEntity
  8
0
100
AcDbLine
 10
112.9972283927479
 20
71.67726327930989
 30
0.0
 11
115.0709854999999
 21
72.11549999999999
 31
0.0
  0
LINE
  5
C3
330
1E
100
AcDbEntity
  8
0
100
AcDbLine
 10
112.9972283927479
 20
71.67726327930989
 30
0.0
 11
117.7950454008639
 21
69.7448092065965
 31
0.0
  0
LINE
  5
C4
330
1E
100
AcDbEntity
  8
0
100
AcDbLine
 10
115.0709854999999
 20
83.9497
 30
0.0
 11
118.296530996517
 21
82.81366287612661
 31
0.0
  0
LINE
  5
C5
330
1E
100
AcDbEntity
  8
0
100
AcDbLine
 10
111.0709854999999
 20
84.79499999999999
 30
0.0
 11
115.0709854999999
 21
83.9497
 31
0.0
  0
LINE
  5
C6
330
1E
100
AcDbEntity
  8
0
100
AcDbLine
 10
108.0709855
 20
85.2176
 30
0.0
 11
111.0709854999999
 21
84.79499999999999
 31
0.0
  0
LINE
  5
C7
330
1E
100
AcDbEntity
  8
0
100
AcDbLine
 10
120.0709854999999
 20
79.7726
 30
0.0
 11
121.9709855
 21
77.9341
 31
0.0
  0
LINE
  5
C8
330
1E
100
AcDbEntity
  8
0
100
AcDbLine
 10
119.4709854999999
 20
82.31559999999999
 30
0.0
 11
120.5709855
 21
80.2472
 31
0.0
  0
LINE
  5
C9
330
1E
100
AcDbEntity
  8
0
100
AcDbLine
 10
118.9709855
 20
81.841
 30
0.0
 11
120.0709854999999
 21
79.7726
 31
0.0
  0
LINE
  5
CA
330
1E
100
AcDbEntity
  8
0
100
AcDbLine
 10
118.9709855
 20
81.1982
 30
0.0
 11
120.0709854999999
 21
79.12980000000001
 31
0.0
  0
LINE
  5
CB
330
1E
100
AcDbEntity
  8
0
100
AcDbLine
 10
120.5709855
 20
80.2472
 30
0.0
 11
122.2709854999999
 21
78.4853
 31
0.0
  0
LINE
  5
CC
330
1E
100
AcDbEntity
  8
0
100
AcDbLine
 10
122.2709854999999
 20
78.4853
 30
0.0
 11
124.5709854999999
 21
77.18309999999999
 31
0.0
  0
LINE
  5
CD
330
1E
100
AcDbEntity
  8
0
100
AcDbLine
 10
121.9709855
 20
77.9341
 30
0.0
 11
124.3709855
 21
76.4786
 31
0.0
  0
LINE
  5
CE
330
1E
100
AcDbEntity
  8
0
100
AcDbLine
 10
120.0709854999999
 20
79.12980000000001
 30
0.0
 11
121.9709855
 21
77.29130000000001
 31
0.0
  0
LINE
  5
CF
330
1E
100
AcDbEntity
  8
0
100
AcDbLine
 10
121.9709855
 20
77.29130000000001
 30
0.0
 11
124.3709855
 21
75.8359
 31
0.0
  0
LINE
  5
D0
330
1E
100
AcDbEntity
  8
0
100
AcDbLine
 10
118.5709855
 20
83.49630000000001
 30
0.0
 11
118.5709855
 21
84.13909999999999
 31
0.0
  0
LINE
  5
D1
330
1E
100
AcDbEntity
  8
0
100
AcDbLine
 10
118.5709855
 20
83.49630000000001
 30
0.0
 11
118.9709855
 21
81.1982
 31
0.0
  0
LINE
  5
D2
330
1E
100
AcDbEntity
  8
0
100
AcDbLine
 10
118.5709855
 20
84.13909999999999
 30
0.0
 11
118.5709855
 21
83.806425
 31
0.0
  0
LINE
  5
D3
330
1E
100
AcDbEntity
  8
0
100
AcDbLine
 10
118.5709855
 20
84.13909999999999
 30
0.0
 11
118.9709855
 21
86.4372
 31
0.0
  0
LINE
  5
D4
330
1E
100
AcDbEntity
  8
0
100
AcDbLine
 10
118.5709855
 20
84.13909999999999
 30
0.0
 11
118.5709855
 21
83.49630000000001
 31
0.0
  0
LINE
  5
D5
330
1E
100
AcDbEntity
  8
0
100
AcDbLine
 10
118.5709855
 20
84.13909999999999
 30
0.0
 11
118.9709855
 21
81.841
 31
0.0
  0
LINE
  5
D6
330
1E
100
AcDbEntity
  8
0
100
AcDbLine
 10
119.0709854999999
 20
84.46049999999999
 30
0.0
 11
119.4709854999999
 21
86.60540000000001
 31
0.0
  0
LINE
  5
D7
330
1E
100
AcDbEntity
  8
0
100
AcDbLine
 10
119.0709854999999
 20
84.46049999999999
 30
0.0
 11
119.4709854999999
 21
82.31559999999999
 31
0.0
  0
LINE
  5
D8
330
1E
100
AcDbEntity
  8
0
100
AcDbLine
 10
119.4709854999999
 20
86.60540000000001
 30
0.0
 11
120.5709855
 21
88.67369999999999
 31
0.0
  0
LINE
  5
D9
330
1E
100
AcDbEntity
  8
0
100
AcDbLine
 10
118.9709855
 20
86.4372
 30
0.0
 11
120.0709854999999
 21
88.5055
 31
0.0
  0
LINE
  5
DA
330
1E
100
AcDbEntity
  8
0
100
AcDbLine
 10
120.5709855
 20
88.67369999999999
 30
0.0
 11
122.2709854999999
 21
90.43559999999999
 31
0.0
  0
LINE
  5
DB
330
1E
100
AcDbEntity
  8
0
100
AcDbLine
 10
120.0709854999999
 20
88.5055
 30
0.0
 11
121.9709855
 21
90.34399999999999
 31
0.0
  0
LINE
  5
DC
330
1E
100
AcDbEntity
  8
0
100
AcDbLine
 10
122.2709854999999
 20
90.43559999999999
 30
0.0
 11
124.5709854999999
 21
91.7379
 31
0.0
  0
LINE
  5
DD
330
1E
100
AcDbEntity
  8
0
100
AcDbLine
 10
121.9709855
 20
90.34399999999999
 30
0.0
 11
123.5123124929739
 21
91.27875059928092
 31
0.0
  0
LINE
  5
DE
330
1E
100
AcDbEntity
  8
0
100
AcDbLine
 10
121.9709855
 20
90.34399999999999
 30
0.0
 11
124.3709855
 21
91.79949999999999
 31
0.0
  0
LINE
  5
DF
330
1E
100
AcDbEntity
  8
0
100
AcDbLine
 10
118.5709855
 20
83.806425
 30
0.0
 11
118.5709855
 21
84.13909999999999
 31
0.0
  0
LINE
  5
E0
330
1E
100
AcDbEntity
  8
0
100
AcDbLine
 10
118.4709854999999
 20
83.6213
 30
0.0
 11
118.5709855
 21
83.806425
 31
0.0
  0
LINE
  5
E1
330
1E
100
AcDbEntity
  8
0
100
AcDbLine
 10
123.4709854999999
 20
91.4304
 30
0.0
 11
123.5123124929739
 21
91.27875059928092
 31
0.0
  0
LINE
  5
E2
330
1E
100
AcDbEntity
  8
0
100
AcDbLine
 10
123.2709854999999
 20
92.58740000000001
 30
0.0
 11
123.4709854999999
 21
91.4304
 31
0.0
  0
LINE
  5
E3
330
1E
100
AcDbEntity
  8
0
100
AcDbLine
 10
122.8709854999999
 20
94.88559999999999
 30
0.0
 11
123.2709854999999
 21
92.58740000000001
 31
0.0
  0
LINE
  5
E4
330
1E
100
AcDbEntity
  8
0
100
AcDbLine
 10
122.5709854999999
 20
97.9498
 30
0.0
 11
123.0709854999999
 21
100.6305
 31
0.0
  0
LINE
  5
E5
330
1E
100
AcDbEntity
  8
0
100
AcDbLine
 10
122.5709854999999
 20
97.9498
 30
0.0
 11
122.8709854999999
 21
94.88559999999999
 31
0.0
  0
LINE
  5
E6
330
1E
100
AcDbEntity
  8
0
100
AcDbLine
 10
123.3709855
 20
101.7874999999999
 30
0.0
 11
124.2709854999999
 21
103.5744999999999
 31
0.0
  0
LINE
  5
E7
330
1E
100
AcDbEntity
  8
0
100
AcDbLine
 10
123.0709854999999
 20
100.6305
 30
0.0
 11
123.3709855
 21
101.7874999999999
 31
0.0
  0
LINE
  5
E8
330
1E
100
AcDbEntity
  8
0
100
AcDbLine
 10
124.5709854999999
 20
77.18309999999999
 30
0.0
 11
127.2709855
 21
76.3404
 31
0.0
  0
LINE
  5
E9
330
1E
100
AcDbEntity
  8
0
100
AcDbLine
 10
124.3709855
 20
76.4786
 30
0.0
 11
127.0709854999999
 21
75.636
 31
0.0
  0
LINE
  5
EA
330
1E
100
AcDbEntity
  8
0
100
AcDbLine
 10
124.3709855
 20
75.8359
 30
0.0
 11
127.0709854999999
 21
74.9932
 31
0.0
  0
LINE
  5
EB
330
1E
100
AcDbEntity
  8
0
100
AcDbLine
 10
124.5709854999999
 20
91.7379
 30
0.0
 11
127.2709855
 21
92.5805
 31
0.0
  0
LINE
  5
EC
330
1E
100
AcDbEntity
  8
0
100
AcDbLine
 10
124.3709855
 20
91.79949999999999
 30
0.0
 11
127.0709854999999
 21
92.64219999999999
 31
0.0
  0
LINE
  5
ED
330
1E
100
AcDbEntity
  8
0
100
AcDbLine
 10
127.2709855
 20
76.3404
 30
0.0
 11
130.0709855
 21
76.03399999999999
 31
0.0
  0
LINE
  5
EE
330
1E
100
AcDbEntity
  8
0
100
AcDbLine
 10
127.0709854999999
 20
75.636
 30
0.0
 11
130.0709855
 21
75.3296
 31
0.0
  0
LINE
  5
EF
330
1E
100
AcDbEntity
  8
0
100
AcDbLine
 10
127.0709854999999
 20
74.9932
 30
0.0
 11
130.0709855
 21
74.6868
 31
0.0
  0
LINE
  5
F0
330
1E
100
AcDbEntity
  8
0
100
AcDbLine
 10
127.2709855
 20
92.5805
 30
0.0
 11
130.0709855
 21
92.887
 31
0.0
  0
LINE
  5
F1
330
1E
100
AcDbEntity
  8
0
100
AcDbLine
 10
127.0709854999999
 20
92.64219999999999
 30
0.0
 11
130.0709855
 21
92.94859999999999
 31
0.0
  0
LINE
  5
F2
330
1E
100
AcDbEntity
  8
0
100
AcDbLine
 10
124.8709854999999
 20
104.4745
 30
0.0
 11
126.1709855
 21
105.5565
 31
0.0
  0
LINE
  5
F3
330
1E
100
AcDbEntity
  8
0
100
AcDbLine
 10
126.1709855
 20
105.5565
 30
0.0
 11
126.8709854999999
 21
106.1355
 31
0.0
  0
LINE
  5
F4
330
1E
100
AcDbEntity
  8
0
100
AcDbLine
 10
124.2709854999999
 20
103.5744999999999
 30
0.0
 11
124.8709854999999
 21
104.4745
 31
0.0
  0
LINE
  5
F5
330
1E
100
AcDbEntity
  8
0
100
AcDbLine
 10
128.8709855
 20
106.8424999999999
 30
0.0
 11
130.0709855
 21
106.9705
 31
0.0
  0
LINE
  5
F6
330
1E
100
AcDbEntity
  8
0
100
AcDbLine
 10
127.7709854999999
 20
106.5845
 30
0.0
 11
128.8709855
 21
106.8424999999999
 31
0.0
  0
LINE
  5
F7
330
1E
100
AcDbEntity
  8
0
100
AcDbLine
 10
126.8709854999999
 20
106.1355
 30
0.0
 11
127.7709854999999
 21
106.5845
 31
0.0
  0
LINE
  5
F8
330
1E
100
AcDbEntity
  8
0
100
AcDbLine
 10
118.296530996517
 20
82.81366287612661
 30
0.0
 11
118.4709854999999
 21
83.6213
 31
0.0
  0
LINE
  5
F9
330
1E
100
AcDbEntity
  8
0
100
AcDbLine
 10
118.296530996517
 20
73.2515371238734
 30
0.0
 11
118.4709854999999
 21
72.4439
 31
0.0
  0
LINE
  5
FA
330
1E
100
AcDbEntity
  8
0
100
AcDbLine
 10
105.2709855
 20
25.9295
 30
0.0
 11
106.9709854999999
 21
20.82949999999999
 31
0.0
  0
LINE
  5
FB
330
1E
100
AcDbEntity
  8
0
100
AcDbLine
 10
106.9709854999999
 20
20.82949999999999
 30
0.0
 11
108.0709855
 21
15.5295
 31
0.0
  0
LINE
  5
FC
330
1E
100
AcDbEntity
  8
0
100
AcDbLine
 10
130.0709855
 20
35.91279999999999
 30
0.0
 11
135.4709855
 21
36.52559999999999
 31
0.0
  0
LINE
  5
FD
330
1E
100
AcDbEntity
  8
0
100
AcDbLine
 10
130.0709855
 20
34.5039
 30
0.0
 11
135.7709854999999
 21
35.1168
 31
0.0
  0
LINE
  5
FE
330
1E
100
AcDbEntity
  8
0
100
AcDbLine
 10
130.0709855
 20
33.53979999999999
 30
0.0
 11
135.7709854999999
 21
34.15259999999999
 31
0.0
  0
LINE
  5
100
330
1E
100
AcDbEntity
  8
0
100
AcDbLine
 10
130.0709855
 20
36.6788
 30
0.0
 11
135.2709855
 21
37.215
 31
0.0
  0
LINE
  5
101
330
1E
100
AcDbEntity
  8
0
100
AcDbLine
 10
130.0709855
 20
49.09449999999999
 30
0.0
 11
131.2709855
 21
49.2231
 31
0.0
  0
LINE
  5
102
330
1E
100
AcDbEntity
  8
0
100
AcDbLine
 10
131.2709855
 20
49.2231
 30
0.0
 11
132.3709854999999
 21
49.4802
 31
0.0
  0
LINE
  5
103
330
1E
100
AcDbEntity
  8
0
100
AcDbLine
 10
132.3709854999999
 20
49.4802
 30
0.0
 11
133.2709855
 21
49.9302
 31
0.0
  0
LINE
  5
104
330
1E
100
AcDbEntity
  8
0
100
AcDbLine
 10
135.4709855
 20
36.52559999999999
 30
0.0
 11
140.5709855
 21
38.05769999999999
 31
0.0
  0
LINE
  5
105
330
1E
100
AcDbEntity
  8
0
100
AcDbLine
 10
135.7709854999999
 20
35.1168
 30
0.0
 11
141.0709855
 21
36.72549999999999
 31
0.0
  0
LINE
  5
106
330
1E
100
AcDbEntity
  8
0
100
AcDbLine
 10
140.5709855
 20
38.05769999999999
 30
0.0
 11
144.8709854999999
 21
40.6622
 31
0.0
  0
LINE
  5
107
330
1E
100
AcDbEntity
  8
0
100
AcDbLine
 10
141.0709855
 20
36.72549999999999
 30
0.0
 11
145.5709855
 21
39.48319999999999
 31
0.0
  0
LINE
  5
108
330
1E
100
AcDbEntity
  8
0
100
AcDbLine
 10
145.5709855
 20
38.519
 30
0.0
 11
149.1709855
 21
41.9662
 31
0.0
  0
LINE
  5
109
330
1E
100
AcDbEntity
  8
0
100
AcDbLine
 10
141.0709855
 20
35.7613
 30
0.0
 11
145.5709855
 21
38.519
 31
0.0
  0
LINE
  5
10A
330
1E
100
AcDbEntity
  8
0
100
AcDbLine
 10
135.7709854999999
 20
34.15259999999999
 30
0.0
 11
141.0709855
 21
35.7613
 31
0.0
  0
LINE
  5
10D
330
1E
100
AcDbEntity
  8
0
100
AcDbLine
 10
144.8709854999999
 20
40.6622
 30
0.0
 11
148.2709854999999
 21
43.9562
 31
0.0
  0
LINE
  5
10E
330
1E
100
AcDbEntity
  8
0
100
AcDbLine
 10
145.5709855
 20
39.48319999999999
 30
0.0
 11
149.1709855
 21
42.9304
 31
0.0
  0
LINE
  5
10F
330
1E
100
AcDbEntity
  8
0
100
AcDbLine
 10
144.1709855
 20
41.1985
 30
0.0
 11
147.3709854999999
 21
44.3393
 31
0.0
  0
LINE
  5
110
330
1E
100
AcDbEntity
  8
0
100
AcDbLine
 10
140.0709855
 20
38.7471
 30
0.0
 11
144.1709855
 21
41.1985
 31
0.0
  0
LINE
  5
111
330
1E
100
AcDbEntity
  8
0
100
AcDbLine
 10
135.2709855
 20
37.215
 30
0.0
 11
140.0709855
 21
38.7471
 31
0.0
  0
LINE
  5
112
330
1E
100
AcDbEntity
  8
0
100
AcDbLine
 10
136.6782727193269
 20
64.5926434361938
 30
0.0
 11
137.1709854999999
 21
64.8802
 31
0.0
  0
LINE
  5
113
330
1E
100
AcDbEntity
  8
0
100
AcDbLine
 10
136.6709855
 20
64.6348
 30
0.0
 11
136.8709854999999
 21
63.4778
 31
0.0
  0
LINE
  5
114
330
1E
100
AcDbEntity
  8
0
100
AcDbLine
 10
137.1709854999999
 20
64.8802
 30
0.0
 11
138.7709854999999
 21
66.4889
 31
0.0
  0
LINE
  5
115
330
1E
100
AcDbEntity
  8
0
100
AcDbLine
 10
137.1709854999999
 20
64.23739999999999
 30
0.0
 11
138.7709854999999
 21
65.84610000000001
 31
0.0
  0
LINE
  5
116
330
1E
100
AcDbEntity
  8
0
100
AcDbLine
 10
136.779205118516
 20
64.00874950688271
 30
0.0
 11
137.1709854999999
 21
64.23739999999999
 31
0.0
  0
LINE
  5
117
330
1E
100
AcDbEntity
  8
0
100
AcDbLine
 10
136.8709854999999
 20
63.4778
 30
0.0
 11
137.2709854999999
 21
61.1796
 31
0.0
  0
LINE
  5
118
330
1E
100
AcDbEntity
  8
0
100
AcDbLine
 10
137.2709854999999
 20
61.1796
 30
0.0
 11
137.5709854999999
 21
58.1154
 31
0.0
  0
LINE
  5
119
330
1E
100
AcDbEntity
  8
0
100
AcDbLine
 10
137.0709855
 20
55.4343
 30
0.0
 11
137.5709854999999
 21
58.1154
 31
0.0
  0
LINE
  5
11A
330
1E
100
AcDbEntity
  8
0
100
AcDbLine
 10
136.7709854999999
 20
54.2773
 30
0.0
 11
137.0709855
 21
55.4343
 31
0.0
  0
LINE
  5
11B
330
1E
100
AcDbEntity
  8
0
100
AcDbLine
 10
135.8709854999999
 20
52.49069999999999
 30
0.0
 11
136.7709854999999
 21
54.2773
 31
0.0
  0
LINE
  5
11C
330
1E
100
AcDbEntity
  8
0
100
AcDbLine
 10
135.2709855
 20
51.5908
 30
0.0
 11
135.8709854999999
 21
52.49069999999999
 31
0.0
  0
LINE
  5
11D
330
1E
100
AcDbEntity
  8
0
100
AcDbLine
 10
133.9709855
 20
50.50869999999999
 30
0.0
 11
135.2709855
 21
51.5908
 31
0.0
  0
LINE
  5
11E
330
1E
100
AcDbEntity
  8
0
100
AcDbLine
 10
133.2709855
 20
49.9302
 30
0.0
 11
133.9709855
 21
50.50869999999999
 31
0.0
  0
LINE
  5
11F
330
1E
100
AcDbEntity
  8
0
100
AcDbLine
 10
138.7709854999999
 20
65.84610000000001
 30
0.0
 11
139.6709855
 21
67.6847
 31
0.0
  0
LINE
  5
120
330
1E
100
AcDbEntity
  8
0
100
AcDbLine
 10
136.3078763142779
 20
65.9672291570069
 30
0.0
 11
136.4709855
 21
66.05929999999999
 31
0.0
  0
LINE
  5
121
330
1E
100
AcDbEntity
  8
0
100
AcDbLine
 10
134.682227953097
 20
69.7950408732743
 30
0.0
 11
135.8709854999999
 21
67.5704
 31
0.0
  0
LINE
  5
122
330
1E
100
AcDbEntity
  8
0
100
AcDbLine
 10
135.8709854999999
 20
67.5704
 30
0.0
 11
136.6709855
 21
64.6348
 31
0.0
  0
LINE
  5
123
330
1E
100
AcDbEntity
  8
0
100
AcDbLine
 10
139.6709855
 20
68.3274
 30
0.0
 11
139.8308138393359
 21
69.1232252586405
 31
0.0
  0
LINE
  5
124
330
1E
100
AcDbEntity
  8
0
100
AcDbLine
 10
138.7709854999999
 20
66.4889
 30
0.0
 11
139.6709855
 21
68.3274
 31
0.0
  0
LINE
  5
125
330
1E
100
AcDbEntity
  8
0
100
AcDbLine
 10
139.6709855
 20
67.6847
 30
0.0
 11
140.0278251045669
 21
69.46149360104221
 31
0.0
  0
LINE
  5
126
330
1E
100
AcDbEntity
  8
0
100
AcDbLine
 10
140.982025241184
 20
71.16846232086629
 30
0.0
 11
142.6709855
 21
69.4068
 31
0.0
  0
LINE
  5
127
330
1E
100
AcDbEntity
  8
0
100
AcDbLine
 10
142.6709855
 20
69.4068
 30
0.0
 11
144.7709855
 21
66.5459
 31
0.0
  0
LINE
  5
128
330
1E
100
AcDbEntity
  8
0
100
AcDbLine
 10
140.4709855
 20
70.2224
 30
0.0
 11
141.6709855
 21
72.4439
 31
0.0
  0
LINE
  5
129
330
1E
100
AcDbEntity
  8
0
100
AcDbLine
 10
139.5709854999999
 20
68.67709999999999
 30
0.0
 11
140.4709855
 21
70.2224
 31
0.0
  0
LINE
  5
12A
330
1E
100
AcDbEntity
  8
0
100
AcDbLine
 10
137.8709854999999
 20
66.9152
 30
0.0
 11
139.5709854999999
 21
68.67709999999999
 31
0.0
  0
LINE
  5
12B
330
1E
100
AcDbEntity
  8
0
100
AcDbLine
 10
136.4709855
 20
66.05929999999999
 30
0.0
 11
137.8709854999999
 21
66.9152
 31
0.0
  0
LINE
  5
12C
330
1E
100
AcDbEntity
  8
0
100
AcDbLine
 10
144.7709855
 20
66.5459
 30
0.0
 11
145.1461759049109
 21
65.85272469191591
 31
0.0
  0
LINE
  5
12D
330
1E
100
AcDbEntity
  8
0
100
AcDbLine
 10
144.7709855
 20
66.5459
 30
0.0
 11
146.4709855
 21
63.4051
 31
0.0
  0
LINE
  5
12E
330
1E
100
AcDbEntity
  8
0
100
AcDbLine
 10
132.8709854999999
 20
76.3404
 30
0.0
 11
135.5709855
 21
77.18309999999999
 31
0.0
  0
LINE
  5
12F
330
1E
100
AcDbEntity
  8
0
100
AcDbLine
 10
130.0709855
 20
76.03399999999999
 30
0.0
 11
132.8709854999999
 21
76.3404
 31
0.0
  0
LINE
  5
130
330
1E
100
AcDbEntity
  8
0
100
AcDbLine
 10
133.0709855
 20
75.636
 30
0.0
 11
135.7709854999999
 21
76.4786
 31
0.0
  0
LINE
  5
131
330
1E
100
AcDbEntity
  8
0
100
AcDbLine
 10
130.0709855
 20
75.3296
 30
0.0
 11
133.0709855
 21
75.636
 31
0.0
  0
LINE
  5
132
330
1E
100
AcDbEntity
  8
0
100
AcDbLine
 10
137.8709854999999
 20
78.4853
 30
0.0
 11
139.5709854999999
 21
80.2472
 31
0.0
  0
LINE
  5
133
330
1E
100
AcDbEntity
  8
0
100
AcDbLine
 10
135.5709855
 20
77.18309999999999
 30
0.0
 11
137.8709854999999
 21
78.4853
 31
0.0
  0
LINE
  5
134
330
1E
100
AcDbEntity
  8
0
100
AcDbLine
 10
138.1709854999999
 20
77.9341
 30
0.0
 11
140.0709855
 21
79.7726
 31
0.0
  0
LINE
  5
135
330
1E
100
AcDbEntity
  8
0
100
AcDbLine
 10
135.7709854999999
 20
76.4786
 30
0.0
 11
138.1709854999999
 21
77.9341
 31
0.0
  0
LINE
  5
136
330
1E
100
AcDbEntity
  8
0
100
AcDbLine
 10
140.6709855
 20
82.31559999999999
 30
0.0
 11
141.0709855
 21
84.46049999999999
 31
0.0
  0
LINE
  5
137
330
1E
100
AcDbEntity
  8
0
100
AcDbLine
 10
139.5709854999999
 20
80.2472
 30
0.0
 11
140.6709855
 21
82.31559999999999
 31
0.0
  0
LINE
  5
138
330
1E
100
AcDbEntity
  8
0
100
AcDbLine
 10
141.1709854999999
 20
81.841
 30
0.0
 11
141.5709855
 21
84.13909999999999
 31
0.0
  0
LINE
  5
139
330
1E
100
AcDbEntity
  8
0
100
AcDbLine
 10
140.0709855
 20
79.7726
 30
0.0
 11
141.1709854999999
 21
81.841
 31
0.0
  0
LINE
  5
13A
330
1E
100
AcDbEntity
  8
0
100
AcDbLine
 10
141.5709855
 20
83.49630000000001
 30
0.0
 11
141.5709855
 21
84.13909999999999
 31
0.0
  0
LINE
  5
13B
330
1E
100
AcDbEntity
  8
0
100
AcDbLine
 10
141.1709854999999
 20
81.1982
 30
0.0
 11
141.5709855
 21
83.49630000000001
 31
0.0
  0
LINE
  5
13C
330
1E
100
AcDbEntity
  8
0
100
AcDbLine
 10
140.0709855
 20
79.12980000000001
 30
0.0
 11
141.1709854999999
 21
81.1982
 31
0.0
  0
LINE
  5
13D
330
1E
100
AcDbEntity
  8
0
100
AcDbLine
 10
138.1709854999999
 20
77.29130000000001
 30
0.0
 11
140.0709855
 21
79.12980000000001
 31
0.0
  0
LINE
  5
13E
330
1E
100
AcDbEntity
  8
0
100
AcDbLine
 10
135.7709854999999
 20
75.8359
 30
0.0
 11
138.1709854999999
 21
77.29130000000001
 31
0.0
  0
LINE
  5
13F
330
1E
100
AcDbEntity
  8
0
100
AcDbLine
 10
133.0709855
 20
74.9932
 30
0.0
 11
135.7709854999999
 21
75.8359
 31
0.0
  0
LINE
  5
140
330
1E
100
AcDbEntity
  8
0
100
AcDbLine
 10
130.0709855
 20
74.6868
 30
0.0
 11
133.0709855
 21
74.9932
 31
0.0
  0
LINE
  5
141
330
1E
100
AcDbEntity
  8
0
100
AcDbLine
 10
141.6709855
 20
72.4439
 30
0.0
 11
141.845440003483
 21
73.2515371238734
 31
0.0
  0
LINE
  5
142
330
1E
100
AcDbEntity
  8
0
100
AcDbLine
 10
140.6709855
 20
86.60540000000001
 30
0.0
 11
141.0709855
 21
84.46049999999999
 31
0.0
  0
LINE
  5
143
330
1E
100
AcDbEntity
  8
0
100
AcDbLine
 10
141.1709854999999
 20
86.4372
 30
0.0
 11
141.5709855
 21
84.13909999999999
 31
0.0
  0
LINE
  5
144
330
1E
100
AcDbEntity
  8
0
100
AcDbLine
 10
141.5709855
 20
84.13909999999999
 30
0.0
 11
141.5709855
 21
83.49630000000001
 31
0.0
  0
LINE
  5
145
330
1E
100
AcDbEntity
  8
0
100
AcDbLine
 10
137.8709854999999
 20
90.43559999999999
 30
0.0
 11
139.5709854999999
 21
88.67369999999999
 31
0.0
  0
LINE
  5
146
330
1E
100
AcDbEntity
  8
0
100
AcDbLine
 10
139.5709854999999
 20
88.67369999999999
 30
0.0
 11
140.6709855
 21
86.60540000000001
 31
0.0
  0
LINE
  5
147
330
1E
100
AcDbEntity
  8
0
100
AcDbLine
 10
138.1709854999999
 20
90.34399999999999
 30
0.0
 11
140.0709855
 21
88.5055
 31
0.0
  0
LINE
  5
148
330
1E
100
AcDbEntity
  8
0
100
AcDbLine
 10
140.0709855
 20
88.5055
 30
0.0
 11
141.1709854999999
 21
86.4372
 31
0.0
  0
LINE
  5
149
330
1E
100
AcDbEntity
  8
0
100
AcDbLine
 10
136.6296585070259
 20
91.27875059928092
 30
0.0
 11
136.6709855
 21
91.4304
 31
0.0
  0
LINE
  5
14A
330
1E
100
AcDbEntity
  8
0
100
AcDbLine
 10
132.8709854999999
 20
92.5805
 30
0.0
 11
135.5709855
 21
91.7379
 31
0.0
  0
LINE
  5
14B
330
1E
100
AcDbEntity
  8
0
100
AcDbLine
 10
130.0709855
 20
92.887
 30
0.0
 11
132.8709854999999
 21
92.5805
 31
0.0
  0
LINE
  5
14C
330
1E
100
AcDbEntity
  8
0
100
AcDbLine
 10
135.5709855
 20
91.7379
 30
0.0
 11
137.8709854999999
 21
90.43559999999999
 31
0.0
  0
LINE
  5
14D
330
1E
100
AcDbEntity
  8
0
100
AcDbLine
 10
135.7709854999999
 20
91.79949999999999
 30
0.0
 11
138.1709854999999
 21
90.34399999999999
 31
0.0
  0
LINE
  5
14E
330
1E
100
AcDbEntity
  8
0
100
AcDbLine
 10
133.0709855
 20
92.64219999999999
 30
0.0
 11
135.7709854999999
 21
91.79949999999999
 31
0.0
  0
LINE
  5
14F
330
1E
100
AcDbEntity
  8
0
100
AcDbLine
 10
130.0709855
 20
92.94859999999999
 30
0.0
 11
133.0709855
 21
92.64219999999999
 31
0.0
  0
LINE
  5
150
330
1E
100
AcDbEntity
  8
0
100
AcDbLine
 10
136.8709854999999
 20
92.58740000000001
 30
0.0
 11
137.2709854999999
 21
94.88559999999999
 31
0.0
  0
LINE
  5
151
330
1E
100
AcDbEntity
  8
0
100
AcDbLine
 10
136.6709855
 20
91.4304
 30
0.0
 11
136.8709854999999
 21
92.58740000000001
 31
0.0
  0
LINE
  5
152
330
1E
100
AcDbEntity
  8
0
100
AcDbLine
 10
141.5709855
 20
83.806425
 30
0.0
 11
141.6709855
 21
83.6213
 31
0.0
  0
LINE
  5
153
330
1E
100
AcDbEntity
  8
0
100
AcDbLine
 10
141.6709855
 20
83.6213
 30
0.0
 11
141.845440003483
 21
82.81366287612661
 31
0.0
  0
LINE
  5
154
330
1E
100
AcDbEntity
  8
0
100
AcDbLine
 10
141.845440003483
 20
82.81366287612661
 30
0.0
 11
145.0709855
 21
83.9497
 31
0.0
  0
LINE
  5
155
330
1E
100
AcDbEntity
  8
0
100
AcDbLine
 10
130.0709855
 20
106.9705
 30
0.0
 11
131.2709855
 21
106.8424999999999
 31
0.0
  0
LINE
  5
156
330
1E
100
AcDbEntity
  8
0
100
AcDbLine
 10
131.2709855
 20
106.8424999999999
 30
0.0
 11
132.3709854999999
 21
106.5845
 31
0.0
  0
LINE
  5
157
330
1E
100
AcDbEntity
  8
0
100
AcDbLine
 10
135.8709854999999
 20
103.5744999999999
 30
0.0
 11
136.7709854999999
 21
101.7874999999999
 31
0.0
  0
LINE
  5
158
330
1E
100
AcDbEntity
  8
0
100
AcDbLine
 10
136.7709854999999
 20
101.7874999999999
 30
0.0
 11
137.0709855
 21
100.6305
 31
0.0
  0
LINE
  5
159
330
1E
100
AcDbEntity
  8
0
100
AcDbLine
 10
137.0709855
 20
100.6305
 30
0.0
 11
137.5709854999999
 21
97.9498
 31
0.0
  0
LINE
  5
15A
330
1E
100
AcDbEntity
  8
0
100
AcDbLine
 10
133.9709855
 20
105.5565
 30
0.0
 11
135.2709855
 21
104.4745
 31
0.0
  0
LINE
  5
15B
330
1E
100
AcDbEntity
  8
0
100
AcDbLine
 10
133.2709855
 20
106.1355
 30
0.0
 11
133.9709855
 21
105.5565
 31
0.0
  0
LINE
  5
15C
330
1E
100
AcDbEntity
  8
0
100
AcDbLine
 10
135.2709855
 20
104.4745
 30
0.0
 11
135.8709854999999
 21
103.5744999999999
 31
0.0
  0
LINE
  5
15D
330
1E
100
AcDbEntity
  8
0
100
AcDbLine
 10
132.3709854999999
 20
106.5845
 30
0.0
 11
133.2709855
 21
106.1355
 31
0.0
  0
LINE
  5
15E
330
1E
100
AcDbEntity
  8
0
100
AcDbLine
 10
137.2709854999999
 20
94.88559999999999
 30
0.0
 11
137.5709854999999
 21
97.9498
 31
0.0
  0
LINE
  5
15F
330
1E
100
AcDbEntity
  8
0
100
AcDbLine
 10
145.0709855
 20
83.9497
 30
0.0
 11
149.0709855
 21
84.79499999999999
 31
0.0
  0
LINE
  5
160
330
1E
100
AcDbEntity
  8
0
100
AcDbLine
 10
141.845440003483
 20
73.2515371238734
 30
0.0
 11
145.0709855
 21
72.11549999999999
 31
0.0
  0
LINE
  5
161
330
1E
100
AcDbEntity
  8
0
100
AcDbLine
 10
145.0709855
 20
72.11549999999999
 30
0.0
 11
149.0709855
 21
71.2702
 31
0.0
  0
LINE
  5
162
330
1E
100
AcDbEntity
  8
0
100
AcDbLine
 10
145.1461759049109
 20
65.85272469191591
 30
0.0
 11
145.5709855
 21
65.5295
 31
0.0
  0
LINE
  5
163
330
1E
100
AcDbEntity
  8
0
100
AcDbLine
 10
145.5709855
 20
65.5295
 30
0.0
 11
149.0709855
 21
60.9295
 31
0.0
  0
LINE
  5
164
330
1E
100
AcDbEntity
  8
0
100
AcDbLine
 10
130.0709855
 20
0.0295000000000019
 30
0.0
 11
135.7709854999999
 21
0.0295000000000015
 31
0.0
  0
LINE
  5
165
330
1E
100
AcDbEntity
  8
0
100
AcDbLine
 10
135.7709854999999
 20
0.0295000000000015
 30
0.0
 11
141.0709855
 21
0.0295000000000012
 31
0.0
  0
LINE
  5
166
330
1E
100
AcDbEntity
  8
0
100
AcDbLine
 10
148.2709854999999
 20
43.9562
 30
0.0
 11
150.2709854999999
 21
47.8631
 31
0.0
  0
LINE
  5
167
330
1E
100
AcDbEntity
  8
0
100
AcDbLine
 10
150.2709854999999
 20
47.8631
 30
0.0
 11
151.0709854999999
 21
51.9997
 31
0.0
  0
LINE
  5
168
330
1E
100
AcDbEntity
  8
0
100
AcDbLine
 10
149.1709855
 20
42.9304
 30
0.0
 11
151.2709854999999
 21
46.99049999999999
 31
0.0
  0
LINE
  5
169
330
1E
100
AcDbEntity
  8
0
100
AcDbLine
 10
149.1709855
 20
41.9662
 30
0.0
 11
151.2709854999999
 21
46.0263
 31
0.0
  0
LINE
  5
16A
330
1E
100
AcDbEntity
  8
0
100
AcDbLine
 10
151.2709854999999
 20
46.99049999999999
 30
0.0
 11
152.0709854999999
 21
51.3569
 31
0.0
  0
LINE
  5
16B
330
1E
100
AcDbEntity
  8
0
100
AcDbLine
 10
151.2709854999999
 20
46.0263
 30
0.0
 11
152.0709854999999
 21
50.3927
 31
0.0
  0
LINE
  5
16D
330
1E
100
AcDbEntity
  8
0
100
AcDbLine
 10
148.2709854999999
 20
60.04319999999999
 30
0.0
 11
150.2709854999999
 21
56.1363
 31
0.0
  0
LINE
  5
16E
330
1E
100
AcDbEntity
  8
0
100
AcDbLine
 10
148.0440183048949
 20
60.263091159022
 30
0.0
 11
148.2709854999999
 21
60.04319999999999
 31
0.0
  0
LINE
  5
16F
330
1E
100
AcDbEntity
  8
0
100
AcDbLine
 10
151.2709854999999
 20
55.7234
 30
0.0
 11
152.0709854999999
 21
51.3569
 31
0.0
  0
LINE
  5
170
330
1E
100
AcDbEntity
  8
0
100
AcDbLine
 10
150.2709854999999
 20
56.1363
 30
0.0
 11
151.0709854999999
 21
51.9997
 31
0.0
  0
LINE
  5
171
330
1E
100
AcDbEntity
  8
0
100
AcDbLine
 10
149.1709855
 20
59.7834
 30
0.0
 11
151.2709854999999
 21
55.7234
 31
0.0
  0
LINE
  5
172
330
1E
100
AcDbEntity
  8
0
100
AcDbLine
 10
149.3709854999999
 20
55.9831
 30
0.0
 11
150.0709855
 21
51.9997
 31
0.0
  0
LINE
  5
173
330
1E
100
AcDbEntity
  8
0
100
AcDbLine
 10
148.3709854999999
 20
59.61
 30
0.0
 11
149.3709854999999
 21
55.9831
 31
0.0
  0
LINE
  5
174
330
1E
100
AcDbEntity
  8
0
100
AcDbLine
 10
149.3709854999999
 20
48.0163
 30
0.0
 11
150.0709855
 21
51.9997
 31
0.0
  0
LINE
  5
175
330
1E
100
AcDbEntity
  8
0
100
AcDbLine
 10
147.3709854999999
 20
44.3393
 30
0.0
 11
149.3709854999999
 21
48.0163
 31
0.0
  0
LINE
  5
176
330
1E
100
AcDbEntity
  8
0
100
AcDbLine
 10
147.46755669398
 20
61.4145277166975
 30
0.0
 11
149.1709855
 21
59.7834
 31
0.0
  0
LINE
  5
177
330
1E
100
AcDbEntity
  8
0
100
AcDbLine
 10
146.4709855
 20
63.4051
 30
0.0
 11
148.3709854999999
 21
59.61
 31
0.0
  0
LINE
  5
178
330
1E
100
AcDbEntity
  8
0
100
AcDbLine
 10
149.0709855
 20
71.2702
 30
0.0
 11
152.0709854999999
 21
70.8476
 31
0.0
  0
LINE
  5
179
330
1E
100
AcDbEntity
  8
0
100
AcDbLine
 10
149.0709855
 20
84.79499999999999
 30
0.0
 11
152.0709854999999
 21
85.2176
 31
0.0
  0
LINE
  5
17A
330
1E
100
AcDbEntity
  8
0
100
AcDbLine
 10
149.0709855
 20
60.9295
 30
0.0
 11
151.073616073248
 21
56.10498089171979
 31
0.0
  0
LINE
  5
17B
330
1E
100
AcDbEntity
  8
0
100
AcDbLine
 10
145.6709854999999
 20
0.0295000000000009
 30
0.0
 11
149.1709855
 21
0.0295000000000007
 31
0.0
  0
LINE
  5
17C
330
1E
100
AcDbEntity
  8
0
100
AcDbLine
 10
149.1709855
 20
0.0295000000000007
 30
0.0
 11
151.2709854999999
 21
0.0295000000000006
 31
0.0
  0
LINE
  5
17D
330
1E
100
AcDbEntity
  8
0
100
AcDbLine
 10
152.0709854999999
 20
0.0295000000000005
 30
0.0
 11
152.0709854999999
 21
15.5295
 31
0.0
  0
LINE
  5
17E
330
1E
100
AcDbEntity
  8
0
100
AcDbLine
 10
152.0709854999999
 20
51.3569
 30
0.0
 11
152.0709854999999
 21
50.3927
 31
0.0
  0
LINE
  5
17F
330
1E
100
AcDbEntity
  8
0
100
AcDbLine
 10
152.0709854999999
 20
50.3927
 30
0.0
 11
152.0709854999999
 21
51.3569
 31
0.0
  0
LINE
  5
180
330
1E
100
AcDbEntity
  8
0
100
AcDbLine
 10
152.0709854999999
 20
50.0295
 30
0.0
 11
152.0709854999999
 21
15.5295
 31
0.0
  0
LINE
  5
181
330
1E
100
AcDbEntity
  8
0
100
AcDbLine
 10
156.0709854999999
 20
70.5658
 30
0.0
 11
159.5709855
 21
70.9884
 31
0.0
  0
LINE
  5
182
330
1E
100
AcDbEntity
  8
0
100
AcDbLine
 10
159.5709855
 20
70.9884
 30
0.0
 11
162.0709855
 21
72.11549999999999
 31
0.0
  0
LINE
  5
183
330
1E
100
AcDbEntity
  8
0
100
AcDbLine
 10
152.0709854999999
 20
70.8476
 30
0.0
 11
156.0709854999999
 21
70.5658
 31
0.0
  0
LINE
  5
184
330
1E
100
AcDbEntity
  8
0
100
AcDbLine
 10
152.0709854999999
 20
85.2176
 30
0.0
 11
156.0709854999999
 21
85.49939999999999
 31
0.0
  0
LINE
  5
185
330
1E
100
AcDbEntity
  8
0
100
AcDbLine
 10
156.0709854999999
 20
85.49939999999999
 30
0.0
 11
159.5709855
 21
85.0768
 31
0.0
  0
LINE
  5
186
330
1E
100
AcDbEntity
  8
0
100
AcDbLine
 10
159.5709855
 20
85.0768
 30
0.0
 11
162.0709855
 21
83.9497
 31
0.0
  0
LINE
  5
187
330
1E
100
AcDbEntity
  8
0
100
AcDbLine
 10
164.0709855
 20
73.5243
 30
0.0
 11
165.5709855
 21
75.4967
 31
0.0
  0
LINE
  5
188
330
1E
100
AcDbEntity
  8
0
100
AcDbLine
 10
165.5709855
 20
75.4967
 30
0.0
 11
166.0709855
 21
78.0326
 31
0.0
  0
LINE
  5
189
330
1E
100
AcDbEntity
  8
0
100
AcDbLine
 10
164.0709855
 20
82.54089999999999
 30
0.0
 11
165.5709855
 21
80.5685
 31
0.0
  0
LINE
  5
18A
330
1E
100
AcDbEntity
  8
0
100
AcDbLine
 10
165.5709855
 20
80.5685
 30
0.0
 11
166.0709855
 21
78.0326
 31
0.0
  0
LINE
  5
18B
330
1E
100
AcDbEntity
  8
0
100
AcDbLine
 10
162.0709855
 20
83.9497
 30
0.0
 11
164.0709855
 21
82.54089999999999
 31
0.0
  0
LINE
  5
18C
330
1E
100
AcDbEntity
  8
0
100
AcDbLine
 10
162.0709855
 20
72.11549999999999
 30
0.0
 11
164.0709855
 21
73.5243
 31
0.0
  0
LINE
  5
18D
330
1E
100
AcDbEntity
  8
0
100
AcDbLine
 10
152.0418315427029
 20
50.2335777010756
 30
0.0
 11
152.0709854999999
 21
50.0295
 31
0.0
  0
LINE
  5
18E
330
1E
100
AcDbEntity
  8
0
100
AcDbLine
 10
152.0418315427029
 20
50.2335777010756
 30
0.0
 11
152.0709854999999
 21
50.3927
 31
0.0
  0
LINE
  5
18F
330
1E
100
AcDbEntity
  8
0
100
AcDbLine
 10
152.0709854999999
 20
15.5295
 30
0.0
 11
152.0709854999999
 21
0.0294999999999992
 31
0.0
  0
LINE
  5
190
330
1E
100
AcDbEntity
  8
0
100
AcDbLine
 10
152.0709854999999
 20
15.5295
 30
0.0
 11
152.0709854999999
 21
50.0295
 31
0.0
  0
LINE
  5
191
330
1E
100
AcDbEntity
  8
0
100
AcDbLine
 10
151.2709854999999
 20
0.0295000000000006
 30
0.0
 11
152.0709854999999
 21
0.0295000000000005
 31
0.0
  0
ENDSEC
  0
SECTION
  2
OBJECTS
  0
DICTIONARY
  5
C
330
0
100
AcDbDictionary
281
     1
  3
ACAD_GROUP
350
D
  3
ACAD_LAYOUT
350
19
  3
ACAD_MLINESTYLE
350
16
  3
ACAD_PLOTSETTINGS
350
18
  3
ACAD_PLOTSTYLENAME
350
E
  3
AcDbVariableDictionary
350
196
  0
DICTIONARY
  5
D
102
{ACAD_REACTORS
330
C
102
}
330
C
100
AcDbDictionary
281
     1
  0
DICTIONARY
  5
19
102
{ACAD_REACTORS
330
C
102
}
330
C
100
AcDbDictionary
281
     1
  3
Layout1
350
1D
  3
Model
350
21
  0
DICTIONARY
  5
16
102
{ACAD_REACTORS
330
C
102
}
330
C
100
AcDbDictionary
281
     1
  3
Standard
350
17
  0
DICTIONARY
  5
18
102
{ACAD_REACTORS
330
C
102
}
330
C
100
AcDbDictionary
281
     1
  0
ACDBDICTIONARYWDFLT
  5
E
102
{ACAD_REACTORS
330
C
102
}
330
C
100
AcDbDictionary
281
     1
  3
Normal
350
F
100
AcDbDictionaryWithDefault
340
F
  0
DICTIONARY
  5
196
102
{ACAD_REACTORS
330
C
102
}
330
C
100
AcDbDictionary
281
     1
  3
DIMASSOC
350
197
  0
LAYOUT
  5
1D
102
{ACAD_REACTORS
330
19
102
}
330
19
100
AcDbPlotSettings
  1

  2
hp deskjet 980c series
  4

  6

 40
0.0
 41
0.0
 42
0.0
 43
0.0
 44
0.0
 45
0.0
 46
0.0
 47
0.0
 48
0.0
 49
0.0
140
0.0
141
0.0
142
1.0
143
1.0
 70
   688
 72
     0
 73
     0
 74
     5
  7

 75
    16
147
1.0
148
0.0
149
0.0
100
AcDbLayout
  1
Layout1
 70
     1
 71
     1
 10
0.0
 20
0.0
 11
12.0
 21
9.0
 12
0.0
 22
0.0
 32
0.0
 14
1.000000000000000E+20
 24
1.000000000000000E+20
 34
1.000000000000000E+20
 15
-1.000000000000000E+20
 25
-1.000000000000000E+20
 35
-1.000000000000000E+20
146
0.0
 13
0.0
 23
0.0
 33
0.0
 16
1.0
 26
0.0
 36
0.0
 17
0.0
 27
1.0
 37
0.0
 76
     0
330
1A
  0
LAYOUT
  5
21
102
{ACAD_REACTORS
330
19
102
}
330
19
100
AcDbPlotSettings
  1

  2
hp deskjet 980c series
  4

  6

 40
0.0
 41
0.0
 42
0.0
 43
0.0
 44
0.0
 45
0.0
 46
0.0
 47
0.0
 48
0.0
 49
0.0
140
0.0
141
0.0
142
1.0
143
1.0
 70
  1712
 72
     0
 73
     0
 74
     0
  7

 75
     0
147
1.0
148
0.0
149
0.0
100
AcDbLayout
  1
Model
 70
     1
 71
     0
 10
0.0
 20
0.0
 11
12.0
 21
9.0
 12
0.0
 22
0.0
 32
0.0
 14
0.0
 24
0.0
 34
0.0
 15
0.0
 25
0.0
 35
0.0
146
0.0
 13
0.0
 23
0.0
 33
0.0
 16
1.0
 26
0.0
 36
0.0
 17
0.0
 27
1.0
 37
0.0
 76
     0
330
1E
  0
MLINESTYLE
  5
17
102
{ACAD_REACTORS
330
16
102
}
330
16
100
AcDbMlineStyle
  2
STANDARD
 70
     0
  3

 62
   256
 51
90.0
 52
90.0
 71
     2
 49
0.5
 62
   256
  6
BYLAYER
 49
-0.5
 62
   256
  6
BYLAYER
  0
ACDBPLACEHOLDER
  5
F
102
{ACAD_REACTORS
330
E
102
}
330
E
  0
DICTIONARYVAR
  5
197
102
{ACAD_REACTORS
330
196
102
}
330
196
100
DictionaryVariables
280
     0
  1
1
  0
ENDSEC
  0
EOF
