  0
SECTION
  2
HEADER
  9
$ACADVER
  1
AC1015
  9
$ACADMAINTVER
 70
    13
  9
$DWGCODEPAGE
  3
ANSI_1252
  9
$INSBASE
 10
0.0
 20
0.0
 30
0.0
  9
$EXTMIN
 10
-0.0125015000000063
 20
0.0295000000000005
 30
0.0
  9
$EXTMAX
 10
177.0125014999999
 20
106.9705
 30
0.0
  9
$LIMMIN
 10
0.0
 20
0.0
  9
$LIMMAX
 10
12.0
 20
9.0
  9
$ORTHOMODE
 70
     0
  9
$REGENMODE
 70
     1
  9
$FILLMODE
 70
     1
  9
$QTEXTMODE
 70
     0
  9
$MIRRTEXT
 70
     1
  9
$LTSCALE
 40
1.0
  9
$ATTMODE
 70
     1
  9
$TEXTSIZE
 40
0.2
  9
$TRACEWID
 40
0.05
  9
$TEXTSTYLE
  7
Standard
  9
$CLAYER
  8
0
  9
$CELTYPE
  6
Continuous
  9
$CECOLOR
 62
   256
  9
$CELTSCALE
 40
1.0
  9
$DISPSILH
 70
     0
  9
$DIMSCALE
 40
1.0
  9
$DIMASZ
 40
0.18
  9
$DIMEXO
 40
0.0625
  9
$DIMDLI
 40
0.38
  9
$DIMRND
 40
0.0
  9
$DIMDLE
 40
0.0
  9
$DIMEXE
 40
0.18
  9
$DIMTP
 40
0.0
  9
$DIMTM
 40
0.0
  9
$DIMTXT
 40
0.18
  9
$DIMCEN
 40
0.09
  9
$DIMTSZ
 40
0.0
  9
$DIMTOL
 70
     0
  9
$DIMLIM
 70
     0
  9
$DIMTIH
 70
     1
  9
$DIMTOH
 70
     1
  9
$DIMSE1
 70
     0
  9
$DIMSE2
 70
     0
  9
$DIMTAD
 70
     0
  9
$DIMZIN
 70
     0
  9
$DIMBLK
  1

  9
$DIMASO
 70
     1
  9
$DIMSHO
 70
     1
  9
$DIMPOST
  1

  9
$DIMAPOST
  1

  9
$DIMALT
 70
     0
  9
$DIMALTD
 70
     2
  9
$DIMALTF
 40
25.4
  9
$DIMLFAC
 40
1.0
  9
$DIMTOFL
 70
     0
  9
$DIMTVP
 40
0.0
  9
$DIMTIX
 70
     0
  9
$DIMSOXD
 70
     0
  9
$DIMSAH
 70
     0
  9
$DIMBLK1
  1

  9
$DIMBLK2
  1

  9
$DIMSTYLE
  2
Standard
  9
$DIMCLRD
 70
     0
  9
$DIMCLRE
 70
     0
  9
$DIMCLRT
 70
     0
  9
$DIMTFAC
 40
1.0
  9
$DIMGAP
 40
0.09
  9
$DIMJUST
 70
     0
  9
$DIMSD1
 70
     0
  9
$DIMSD2
 70
     0
  9
$DIMTOLJ
 70
     1
  9
$DIMTZIN
 70
     0
  9
$DIMALTZ
 70
     0
  9
$DIMALTTZ
 70
     0
  9
$DIMUPT
 70
     0
  9
$DIMDEC
 70
     4
  9
$DIMTDEC
 70
     4
  9
$DIMALTU
 70
     2
  9
$DIMALTTD
 70
     2
  9
$DIMTXSTY
  7
Standard
  9
$DIMAUNIT
 70
     0
  9
$DIMADEC
 70
     0
  9
$DIMALTRND
 40
0.0
  9
$DIMAZIN
 70
     0
  9
$DIMDSEP
 70
    46
  9
$DIMATFIT
 70
     3
  9
$DIMFRAC
 70
     0
  9
$DIMLDRBLK
  1

  9
$DIMLUNIT
 70
     2
  9
$DIMLWD
 70
    -2
  9
$DIMLWE
 70
    -2
  9
$DIMTMOVE
 70
     0
  9
$LUNITS
 70
     2
  9
$LUPREC
 70
     4
  9
$SKETCHINC
 40
0.1
  9
$FILLETRAD
 40
0.0
  9
$AUNITS
 70
     0
  9
$AUPREC
 70
     0
  9
$MENU
  1
.
  9
$ELEVATION
 40
0.0
  9
$PELEVATION
 40
0.0
  9
$THICKNESS
 40
0.0
  9
$LIMCHECK
 70
     0
  9
$CHAMFERA
 40
0.0
  9
$CHAMFERB
 40
0.0
  9
$CHAMFERC
 40
0.0
  9
$CHAMFERD
 40
0.0
  9
$SKPOLY
 70
     0
  9
$TDCREATE
 40
2454752.595271805
  9
$TDUCREATE
 40
2454752.511938472
  9
$TDUPDATE
 40
2454752.739215486
  9
$TDUUPDATE
 40
2454752.655882152
  9
$TDINDWG
 40
0.1439436806
  9
$TDUSRTIMER
 40
0.1439436806
  9
$USRTIMER
 70
     1
  9
$ANGBASE
 50
0.0
  9
$ANGDIR
 70
     0
  9
$PDMODE
 70
     0
  9
$PDSIZE
 40
0.0
  9
$PLINEWID
 40
0.0
  9
$SPLFRAME
 70
     0
  9
$SPLINETYPE
 70
     6
  9
$SPLINESEGS
 70
     8
  9
$HANDSEED
  5
2A1
  9
$SURFTAB1
 70
     6
  9
$SURFTAB2
 70
     6
  9
$SURFTYPE
 70
     6
  9
$SURFU
 70
     6
  9
$SURFV
 70
     6
  9
$UCSBASE
  2

  9
$UCSNAME
  2

  9
$UCSORG
 10
0.0
 20
0.0
 30
0.0
  9
$UCSXDIR
 10
1.0
 20
0.0
 30
0.0
  9
$UCSYDIR
 10
0.0
 20
1.0
 30
0.0
  9
$UCSORTHOREF
  2

  9
$UCSORTHOVIEW
 70
     1
  9
$UCSORGTOP
 10
0.0
 20
0.0
 30
0.0
  9
$UCSORGBOTTOM
 10
0.0
 20
0.0
 30
0.0
  9
$UCSORGLEFT
 10
0.0
 20
0.0
 30
0.0
  9
$UCSORGRIGHT
 10
0.0
 20
0.0
 30
0.0
  9
$UCSORGFRONT
 10
0.0
 20
0.0
 30
0.0
  9
$UCSORGBACK
 10
0.0
 20
0.0
 30
0.0
  9
$PUCSBASE
  2

  9
$PUCSNAME
  2

  9
$PUCSORG
 10
0.0
 20
0.0
 30
0.0
  9
$PUCSXDIR
 10
1.0
 20
0.0
 30
0.0
  9
$PUCSYDIR
 10
0.0
 20
1.0
 30
0.0
  9
$PUCSORTHOREF
  2

  9
$PUCSORTHOVIEW
 70
     0
  9
$PUCSORGTOP
 10
0.0
 20
0.0
 30
0.0
  9
$PUCSORGBOTTOM
 10
0.0
 20
0.0
 30
0.0
  9
$PUCSORGLEFT
 10
0.0
 20
0.0
 30
0.0
  9
$PUCSORGRIGHT
 10
0.0
 20
0.0
 30
0.0
  9
$PUCSORGFRONT
 10
0.0
 20
0.0
 30
0.0
  9
$PUCSORGBACK
 10
0.0
 20
0.0
 30
0.0
  9
$USERI1
 70
     0
  9
$USERI2
 70
     0
  9
$USERI3
 70
     0
  9
$USERI4
 70
     0
  9
$USERI5
 70
     0
  9
$USERR1
 40
0.0
  9
$USERR2
 40
0.0
  9
$USERR3
 40
0.0
  9
$USERR4
 40
0.0
  9
$USERR5
 40
0.0
  9
$WORLDVIEW
 70
     1
  9
$SHADEDGE
 70
     3
  9
$SHADEDIF
 70
    70
  9
$TILEMODE
 70
     1
  9
$MAXACTVP
 70
    64
  9
$PINSBASE
 10
0.0
 20
0.0
 30
0.0
  9
$PLIMCHECK
 70
     0
  9
$PEXTMIN
 10
1.000000000000000E+20
 20
1.000000000000000E+20
 30
1.000000000000000E+20
  9
$PEXTMAX
 10
-1.000000000000000E+20
 20
-1.000000000000000E+20
 30
-1.000000000000000E+20
  9
$PLIMMIN
 10
0.0
 20
0.0
  9
$PLIMMAX
 10
12.0
 20
9.0
  9
$UNITMODE
 70
     0
  9
$VISRETAIN
 70
     1
  9
$PLINEGEN
 70
     0
  9
$PSLTSCALE
 70
     1
  9
$TREEDEPTH
 70
  3020
  9
$CMLSTYLE
  2
Standard
  9
$CMLJUST
 70
     0
  9
$CMLSCALE
 40
1.0
  9
$PROXYGRAPHICS
 70
     1
  9
$MEASUREMENT
 70
     0
  9
$CELWEIGHT
370
    -1
  9
$ENDCAPS
280
     0
  9
$JOINSTYLE
280
     0
  9
$LWDISPLAY
290
     0
  9
$INSUNITS
 70
     0
  9
$HYPERLINKBASE
  1

  9
$STYLESHEET
  1

  9
$XEDIT
290
     1
  9
$CEPSNTYPE
380
     0
  9
$PSTYLEMODE
290
     1
  9
$FINGERPRINTGUID
  2
{54B488DF-DF6A-4723-ACF4-5E8E0E88096F}
  9
$VERSIONGUID
  2
{CB649246-E516-4F9B-BA6D-28374CD988A5}
  9
$EXTNAMES
290
     1
  9
$PSVPSCALE
 40
0.0
  9
$OLESTARTUP
290
     0
  0
ENDSEC
  0
SECTION
  2
CLASSES
  0
CLASS
  1
ACDBDICTIONARYWDFLT
  2
AcDbDictionaryWithDefault
  3
AutoCAD 2000
 90
        0
280
     0
281
     0
  0
CLASS
  1
ACDBPLACEHOLDER
  2
AcDbPlaceHolder
  3
AutoCAD 2000
 90
        0
280
     0
281
     0
  0
CLASS
  1
LAYOUT
  2
AcDbLayout
  3
AutoCAD 2000
 90
        0
280
     0
281
     0
  0
CLASS
  1
DICTIONARYVAR
  2
AcDbDictionaryVar
  3
AutoCAD 2000
 90
        0
280
     0
281
     0
  0
ENDSEC
  0
SECTION
  2
TABLES
  0
TABLE
  2
VPORT
  5
8
330
0
100
AcDbSymbolTable
 70
     2
  0
VPORT
  5
2A0
330
8
100
AcDbSymbolTableRecord
100
AcDbViewportTableRecord
  2
*Active
 70
     0
 10
0.0
 20
0.0
 11
1.0
 21
1.0
 12
88.49999999999999
 22
53.5
 13
0.0
 23
0.0
 14
1.0
 24
1.0
 15
0.0
 25
0.0
 16
0.0
 26
0.0
 36
1.0
 17
0.0
 27
0.0
 37
0.0
 40
107.7615191815856
 41
2.078104993597951
 42
50.0
 43
0.0
 44
0.0
 50
0.0
 51
0.0
 71
     0
 72
   100
 73
     1
 74
     3
 75
     0
 76
     0
 77
     0
 78
     0
281
     0
 65
     1
110
0.0
120
0.0
130
0.0
111
1.0
121
0.0
131
0.0
112
0.0
122
1.0
132
0.0
 79
     1
146
0.0
  0
ENDTAB
  0
TABLE
  2
LTYPE
  5
5
330
0
100
AcDbSymbolTable
 70
     1
  0
LTYPE
  5
13
330
5
100
AcDbSymbolTableRecord
100
AcDbLinetypeTableRecord
  2
ByBlock
 70
     0
  3

 72
    65
 73
     0
 40
0.0
  0
LTYPE
  5
14
330
5
100
AcDbSymbolTableRecord
100
AcDbLinetypeTableRecord
  2
ByLayer
 70
     0
  3

 72
    65
 73
     0
 40
0.0
  0
LTYPE
  5
15
330
5
100
AcDbSymbolTableRecord
100
AcDbLinetypeTableRecord
  2
Continuous
 70
     0
  3
Solid line
 72
    65
 73
     0
 40
0.0
  0
ENDTAB
  0
TABLE
  2
LAYER
  5
2
330
0
100
AcDbSymbolTable
 70
     1
  0
LAYER
  5
10
330
2
100
AcDbSymbolTableRecord
100
AcDbLayerTableRecord
  2
0
 70
     0
 62
     7
  6
Continuous
370
    -3
390
F
  0
ENDTAB
  0
TABLE
  2
STYLE
  5
3
330
0
100
AcDbSymbolTable
 70
     1
  0
STYLE
  5
11
330
3
100
AcDbSymbolTableRecord
100
AcDbTextStyleTableRecord
  2
Standard
 70
     0
 40
0.0
 41
1.0
 50
0.0
 71
     0
 42
0.2
  3
txt
  4

  0
ENDTAB
  0
TABLE
  2
VIEW
  5
6
330
0
100
AcDbSymbolTable
 70
     0
  0
ENDTAB
  0
TABLE
  2
UCS
  5
7
330
0
100
AcDbSymbolTable
 70
     0
  0
ENDTAB
  0
TABLE
  2
APPID
  5
9
330
0
100
AcDbSymbolTable
 70
     1
  0
APPID
  5
12
330
9
100
AcDbSymbolTableRecord
100
AcDbRegAppTableRecord
  2
ACAD
 70
     0
  0
ENDTAB
  0
TABLE
  2
DIMSTYLE
  5
A
330
0
100
AcDbSymbolTable
 70
     1
100
AcDbDimStyleTable
 71
     0
  0
DIMSTYLE
105
29A
330
A
100
AcDbSymbolTableRecord
100
AcDbDimStyleTableRecord
  2
Standard
 70
     0
340
11
  0
ENDTAB
  0
TABLE
  2
BLOCK_RECORD
  5
1
330
0
100
AcDbSymbolTable
 70
     0
  0
BLOCK_RECORD
  5
1E
330
1
100
AcDbSymbolTableRecord
100
AcDbBlockTableRecord
  2
*Model_Space
340
21
  0
BLOCK_RECORD
  5
1A
330
1
100
AcDbSymbolTableRecord
100
AcDbBlockTableRecord
  2
*Paper_Space
340
1D
  0
ENDTAB
  0
ENDSEC
  0
SECTION
  2
BLOCKS
  0
BLOCK
  5
1F
330
1E
100
AcDbEntity
  8
0
100
AcDbBlockBegin
  2
*Model_Space
 70
     0
 10
0.0
 20
0.0
 30
0.0
  3
*Model_Space
  1

  0
ENDBLK
  5
20
330
1E
100
AcDbEntity
  8
0
100
AcDbBlockEnd
  0
BLOCK
  5
1B
330
1A
100
AcDbEntity
 67
     1
  8
0
100
AcDbBlockBegin
  2
*Paper_Space
 70
     0
 10
0.0
 20
0.0
 30
0.0
  3
*Paper_Space
  1

  0
ENDBLK
  5
1C
330
1A
100
AcDbEntity
 67
     1
  8
0
100
AcDbBlockEnd
  0
ENDSEC
  0
SECTION
  2
ENTITIES
  0
LINE
  5
22
330
1E
100
AcDbEntity
  8
0
100
AcDbLine
 10
9.316541499999999
 20
49.6625
 30
0.0
 11
11.68960149999999
 21
50.9348
 31
0.0
  0
LINE
  5
23
330
1E
100
AcDbEntity
  8
0
100
AcDbLine
 10
6.88190149999999
 20
49.09449999999999
 30
0.0
 11
9.316541499999999
 21
49.6625
 31
0.0
  0
LINE
  5
24
330
1E
100
AcDbEntity
  8
0
100
AcDbLine
 10
4.38563149999999
 20
49.2311
 30
0.0
 11
6.88190149999999
 21
49.09449999999999
 31
0.0
  0
LINE
  5
25
330
1E
100
AcDbEntity
  8
0
100
AcDbLine
 10
35.81130149999999
 20
47.01179999999999
 30
0.0
 11
39.50500149999999
 21
41.3016
 31
0.0
  0
LINE
  5
26
330
1E
100
AcDbEntity
  8
0
100
AcDbLine
 10
43.3300015
 20
36.52559999999999
 30
0.0
 11
44.61550149999999
 21
38.05769999999999
 31
0.0
  0
LINE
  5
27
330
1E
100
AcDbEntity
  8
0
100
AcDbLine
 10
42.8157015
 20
35.91279999999999
 30
0.0
 11
42.9390015
 21
34.5039
 31
0.0
  0
LINE
  5
28
330
1E
100
AcDbEntity
  8
0
100
AcDbLine
 10
42.8157015
 20
35.91279999999999
 30
0.0
 11
43.3300015
 21
36.52559999999999
 31
0.0
  0
LINE
  5
2A
330
1E
100
AcDbEntity
  8
0
100
AcDbLine
 10
42.9390015
 20
34.5039
 30
0.0
 11
44.08810149999999
 21
33.53979999999999
 31
0.0
  0
LINE
  5
2E
330
1E
100
AcDbEntity
  8
0
100
AcDbLine
 10
44.08810149999999
 20
33.53979999999999
 30
0.0
 11
45.49690149999999
 21
33.663
 31
0.0
  0
LINE
  5
30
330
1E
100
AcDbEntity
  8
0
100
AcDbLine
 10
47.2967015
 20
35.80789999999999
 30
0.0
 11
49.4822015
 21
38.4125
 31
0.0
  0
LINE
  5
31
330
1E
100
AcDbEntity
  8
0
100
AcDbLine
 10
46.0111015
 20
34.27579999999999
 30
0.0
 11
47.2967015
 21
35.80789999999999
 31
0.0
  0
LINE
  5
32
330
1E
100
AcDbEntity
  8
0
100
AcDbLine
 10
66.49980150000001
 20
15.5295
 30
0.0
 11
66.49980150000001
 21
0.0295000000000021
 31
0.0
  0
LINE
  5
33
330
1E
100
AcDbEntity
  8
0
100
AcDbLine
 10
45.49690149999999
 20
33.663
 30
0.0
 11
66.49980150000001
 21
15.5295
 31
0.0
  0
LINE
  5
34
330
1E
100
AcDbEntity
  8
0
100
AcDbLine
 10
45.49690149999999
 20
33.663
 30
0.0
 11
46.0111015
 21
34.27579999999999
 31
0.0
  0
LINE
  5
36
330
1E
100
AcDbEntity
  8
0
100
AcDbLine
 10
44.61550149999999
 20
38.05769999999999
 30
0.0
 11
46.8010015
 21
40.6622
 31
0.0
  0
LINE
  5
3A
330
1E
100
AcDbEntity
  8
0
100
AcDbLine
 10
49.4822015
 20
38.4125
 30
0.0
 11
52.24620149999999
 21
41.7065
 31
0.0
  0
LINE
  5
3E
330
1E
100
AcDbEntity
  8
0
100
AcDbLine
 10
46.8010015
 20
40.6622
 30
0.0
 11
56.31430149999999
 21
51.9997
 31
0.0
  0
LINE
  5
41
330
1E
100
AcDbEntity
  8
0
100
AcDbLine
 10
55.5244015
 20
45.6133
 30
0.0
 11
58.99540149999999
 21
49.7499
 31
0.0
  0
LINE
  5
42
330
1E
100
AcDbEntity
  8
0
100
AcDbLine
 10
52.24620149999999
 20
41.7065
 30
0.0
 11
55.5244015
 21
45.6133
 31
0.0
  0
LINE
  5
43
330
1E
100
AcDbEntity
  8
0
100
AcDbLine
 10
58.99540149999999
 20
49.7499
 30
0.0
 11
62.4665015
 21
53.8866
 31
0.0
  0
LINE
  5
46
330
1E
100
AcDbEntity
  8
0
100
AcDbLine
 10
46.9676443216399
 20
40.8607967635607
 30
0.0
 11
47.2510015
 21
41.1985
 31
0.0
  0
LINE
  5
47
330
1E
100
AcDbEntity
  8
0
100
AcDbLine
 10
43.4585015
 20
36.6788
 30
0.0
 11
43.637910505638
 21
36.8925757973847
 31
0.0
  0
LINE
  5
48
330
1E
100
AcDbEntity
  8
0
100
AcDbLine
 10
39.50500149999999
 20
41.3016
 30
0.0
 11
43.4585015
 21
36.6788
 31
0.0
  0
LINE
  5
49
330
1E
100
AcDbEntity
  8
0
100
AcDbLine
 10
-0.0125015000000063
 20
54.87960000000001
 30
0.0
 11
0.555406499999994
 21
52.445
 31
0.0
  0
LINE
  5
4A
330
1E
100
AcDbEntity
  8
0
100
AcDbLine
 10
0.555406499999994
 20
52.445
 30
0.0
 11
2.149121499999989
 21
50.455
 31
0.0
  0
LINE
  5
4B
330
1E
100
AcDbEntity
  8
0
100
AcDbLine
 10
-0.0125015000000063
 20
54.87960000000001
 30
0.0
 11
0.124007499999994
 21
57.3759
 31
0.0
  0
LINE
  5
4C
330
1E
100
AcDbEntity
  8
0
100
AcDbLine
 10
0.124007499999994
 20
57.3759
 30
0.0
 11
0.9649314999999941
 21
59.9338
 31
0.0
  0
LINE
  5
4D
330
1E
100
AcDbEntity
  8
0
100
AcDbLine
 10
0.124007499999994
 20
57.3759
 30
0.0
 11
0.9649314999999941
 21
59.9338
 31
0.0
  0
LINE
  5
4E
330
1E
100
AcDbEntity
  8
0
100
AcDbLine
 10
-0.0125015000000063
 20
54.87960000000001
 30
0.0
 11
0.555406499999994
 21
52.445
 31
0.0
  0
LINE
  5
4F
330
1E
100
AcDbEntity
  8
0
100
AcDbLine
 10
-0.0125015000000063
 20
54.87960000000001
 30
0.0
 11
0.124007499999994
 21
57.3759
 31
0.0
  0
LINE
  5
50
330
1E
100
AcDbEntity
  8
0
100
AcDbLine
 10
16.6637015
 20
56.5516
 30
0.0
 11
18.4388015
 21
58.9782
 31
0.0
  0
LINE
  5
51
330
1E
100
AcDbEntity
  8
0
100
AcDbLine
 10
14.3223015
 20
53.2945
 30
0.0
 11
16.6637015
 21
56.5516
 31
0.0
  0
LINE
  5
52
330
1E
100
AcDbEntity
  8
0
100
AcDbLine
 10
11.68960149999999
 20
50.9348
 30
0.0
 11
14.3223015
 21
53.2945
 31
0.0
  0
LINE
  5
53
330
1E
100
AcDbEntity
  8
0
100
AcDbLine
 10
2.149121499999989
 20
50.455
 30
0.0
 11
4.38563149999999
 21
49.2311
 31
0.0
  0
LINE
  5
54
330
1E
100
AcDbEntity
  8
0
100
AcDbLine
 10
0.555406499999994
 20
52.445
 30
0.0
 11
2.149121499999989
 21
50.455
 31
0.0
  0
LINE
  5
55
330
1E
100
AcDbEntity
  8
0
100
AcDbLine
 10
18.4388015
 20
58.9782
 30
0.0
 11
20.24390149999999
 21
62.6852
 31
0.0
  0
LINE
  5
56
330
1E
100
AcDbEntity
  8
0
100
AcDbLine
 10
20.24390149999999
 20
62.6852
 30
0.0
 11
21.3034860298863
 21
65.6866980101217
 31
0.0
  0
LINE
  5
57
330
1E
100
AcDbEntity
  8
0
100
AcDbLine
 10
2.83167149999999
 20
62.93639999999999
 30
0.0
 11
5.63263149999999
 21
65.8077
 31
0.0
  0
LINE
  5
58
330
1E
100
AcDbEntity
  8
0
100
AcDbLine
 10
0.9649314999999941
 20
59.9338
 30
0.0
 11
2.83167149999999
 21
62.93639999999999
 31
0.0
  0
LINE
  5
5A
330
1E
100
AcDbEntity
  8
0
100
AcDbLine
 10
28.0541015
 20
62.6587
 30
0.0
 11
28.8202015
 21
62.0159
 31
0.0
  0
LINE
  5
60
330
1E
100
AcDbEntity
  8
0
100
AcDbLine
 10
28.8202015
 20
62.0159
 30
0.0
 11
30.2290015
 21
62.1392
 31
0.0
  0
LINE
  5
61
330
1E
100
AcDbEntity
  8
0
100
AcDbLine
 10
28.1237015
 20
64.29739999999999
 30
0.0
 11
28.7022015
 21
64.9868
 31
0.0
  0
LINE
  5
62
330
1E
100
AcDbEntity
  8
0
100
AcDbLine
 10
27.9309015
 20
64.06749999999999
 30
0.0
 11
28.1237015
 21
64.29739999999999
 31
0.0
  0
LINE
  5
63
330
1E
100
AcDbEntity
  8
0
100
AcDbLine
 10
27.9309015
 20
64.06749999999999
 30
0.0
 11
28.0541015
 21
62.6587
 31
0.0
  0
LINE
  5
64
330
1E
100
AcDbEntity
  8
0
100
AcDbLine
 10
11.0514015
 20
70.3987
 30
0.0
 11
13.8415183686394
 21
71.97368129781811
 31
0.0
  0
LINE
  5
65
330
1E
100
AcDbEntity
  8
0
100
AcDbLine
 10
7.714201499999999
 20
67.9773
 30
0.0
 11
11.0514015
 21
70.3987
 31
0.0
  0
LINE
  5
66
330
1E
100
AcDbEntity
  8
0
100
AcDbLine
 10
5.63263149999999
 20
65.8077
 30
0.0
 11
7.714201499999999
 21
67.9773
 31
0.0
  0
LINE
  5
67
330
1E
100
AcDbEntity
  8
0
100
AcDbLine
 10
10.81550149999999
 20
76.3404
 30
0.0
 11
11.5225015
 21
77.18309999999999
 31
0.0
  0
LINE
  5
68
330
1E
100
AcDbEntity
  8
0
100
AcDbLine
 10
10.5584015
 20
76.03399999999999
 30
0.0
 11
10.6200015
 21
75.3296
 31
0.0
  0
LINE
  5
69
330
1E
100
AcDbEntity
  8
0
100
AcDbLine
 10
10.5584015
 20
76.03399999999999
 30
0.0
 11
10.81550149999999
 21
76.3404
 31
0.0
  0
LINE
  5
6A
330
1E
100
AcDbEntity
  8
0
100
AcDbLine
 10
10.5584015
 20
76.03399999999999
 30
0.0
 11
11.0858015
 21
80.55190000000001
 31
0.0
  0
LINE
  5
6B
330
1E
100
AcDbEntity
  8
0
100
AcDbLine
 10
11.0858015
 20
80.55190000000001
 30
0.0
 11
12.59690149999999
 21
84.37510000000001
 31
0.0
  0
LINE
  5
6C
330
1E
100
AcDbEntity
  8
0
100
AcDbLine
 10
11.5225015
 20
77.18309999999999
 30
0.0
 11
12.6153015
 21
78.4853
 31
0.0
  0
LINE
  5
6F
330
1E
100
AcDbEntity
  8
0
100
AcDbLine
 10
10.6200015
 20
75.3296
 30
0.0
 11
11.3860015
 21
74.6868
 31
0.0
  0
LINE
  5
73
330
1E
100
AcDbEntity
  8
0
100
AcDbLine
 10
11.3860015
 20
74.6868
 30
0.0
 11
12.0905015
 21
74.7484
 31
0.0
  0
LINE
  5
74
330
1E
100
AcDbEntity
  8
0
100
AcDbLine
 10
20.4686015
 20
72.2873
 30
0.0
 11
22.19350149999999
 21
71.23149999999999
 31
0.0
  0
LINE
  5
75
330
1E
100
AcDbEntity
  8
0
100
AcDbLine
 10
19.1293015
 20
73.8027
 30
0.0
 11
20.4686015
 21
72.2873
 31
0.0
  0
LINE
  5
76
330
1E
100
AcDbEntity
  8
0
100
AcDbLine
 10
12.59690149999999
 20
84.37510000000001
 30
0.0
 11
14.5649015
 21
87.0316
 31
0.0
  0
LINE
  5
77
330
1E
100
AcDbEntity
  8
0
100
AcDbLine
 10
12.6153015
 20
78.4853
 30
0.0
 11
14.0937015
 21
80.2472
 31
0.0
  0
LINE
  5
7A
330
1E
100
AcDbEntity
  8
0
100
AcDbLine
 10
18.2004015
 20
75.49590000000001
 30
0.0
 11
19.1293015
 21
73.8027
 31
0.0
  0
LINE
  5
7B
330
1E
100
AcDbEntity
  8
0
100
AcDbLine
 10
14.5649015
 20
87.0316
 30
0.0
 11
16.8393015
 21
89.43099999999999
 31
0.0
  0
LINE
  5
7C
330
1E
100
AcDbEntity
  8
0
100
AcDbLine
 10
14.0937015
 20
80.2472
 30
0.0
 11
15.8292015
 21
82.31559999999999
 31
0.0
  0
LINE
  5
80
330
1E
100
AcDbEntity
  8
0
100
AcDbLine
 10
17.8676015
 20
79.2998
 30
0.0
 11
18.4884015
 21
81.12860000000001
 31
0.0
  0
LINE
  5
81
330
1E
100
AcDbEntity
  8
0
100
AcDbLine
 10
17.8227015
 20
77.3793
 30
0.0
 11
18.2004015
 21
75.49590000000001
 31
0.0
  0
LINE
  5
82
330
1E
100
AcDbEntity
  8
0
100
AcDbLine
 10
17.8227015
 20
77.3793
 30
0.0
 11
17.8676015
 21
79.2998
 31
0.0
  0
LINE
  5
83
330
1E
100
AcDbEntity
  8
0
100
AcDbLine
 10
15.8292015
 20
82.31559999999999
 30
0.0
 11
17.6290015
 21
84.46049999999999
 31
0.0
  0
LINE
  5
84
330
1E
100
AcDbEntity
  8
0
100
AcDbLine
 10
16.8393015
 20
89.43099999999999
 30
0.0
 11
20.3420015
 21
91.583
 31
0.0
  0
LINE
  5
85
330
1E
100
AcDbEntity
  8
0
100
AcDbLine
 10
17.6290015
 20
84.46049999999999
 30
0.0
 11
19.4288015
 21
86.60540000000001
 31
0.0
  0
LINE
  5
8A
330
1E
100
AcDbEntity
  8
0
100
AcDbLine
 10
19.5441015
 20
82.85349999999999
 30
0.0
 11
21.05950149999999
 21
84.1928
 31
0.0
  0
LINE
  5
8B
330
1E
100
AcDbEntity
  8
0
100
AcDbLine
 10
21.05950149999999
 20
84.1928
 30
0.0
 11
22.75280149999999
 21
85.12170000000001
 31
0.0
  0
LINE
  5
8C
330
1E
100
AcDbEntity
  8
0
100
AcDbLine
 10
19.1611015
 20
83.17489999999999
 30
0.0
 11
20.9609015
 21
85.3198
 31
0.0
  0
LINE
  5
8D
330
1E
100
AcDbEntity
  8
0
100
AcDbLine
 10
20.3420015
 20
91.583
 30
0.0
 11
24.69970149999999
 21
92.887
 31
0.0
  0
LINE
  5
8E
330
1E
100
AcDbEntity
  8
0
100
AcDbLine
 10
19.4288015
 20
86.60540000000001
 30
0.0
 11
21.1644015
 21
88.67369999999999
 31
0.0
  0
LINE
  5
91
330
1E
100
AcDbEntity
  8
0
100
AcDbLine
 10
21.1644015
 20
88.67369999999999
 30
0.0
 11
22.6428015
 21
90.43559999999999
 31
0.0
  0
LINE
  5
93
330
1E
100
AcDbEntity
  8
0
100
AcDbLine
 10
20.9609015
 20
85.3198
 30
0.0
 11
22.69650149999999
 21
87.3882
 31
0.0
  0
LINE
  5
94
330
1E
100
AcDbEntity
  8
0
100
AcDbLine
 10
18.4884015
 20
81.12860000000001
 30
0.0
 11
19.5441015
 21
82.85349999999999
 31
0.0
  0
LINE
  5
95
330
1E
100
AcDbEntity
  8
0
100
AcDbLine
 10
17.3613015
 20
81.02999999999999
 30
0.0
 11
19.1611015
 21
83.17489999999999
 31
0.0
  0
LINE
  5
96
330
1E
100
AcDbEntity
  8
0
100
AcDbLine
 10
15.6258015
 20
78.96169999999999
 30
0.0
 11
17.3613015
 21
81.02999999999999
 31
0.0
  0
LINE
  5
97
330
1E
100
AcDbEntity
  8
0
100
AcDbLine
 10
14.1474015
 20
77.19979999999999
 30
0.0
 11
15.6258015
 21
78.96169999999999
 31
0.0
  0
LINE
  5
98
330
1E
100
AcDbEntity
  8
0
100
AcDbLine
 10
13.0546015
 20
75.89749999999999
 30
0.0
 11
14.1474015
 21
77.19979999999999
 31
0.0
  0
LINE
  5
99
330
1E
100
AcDbEntity
  8
0
100
AcDbLine
 10
12.3476015
 20
75.0548
 30
0.0
 11
13.0546015
 21
75.89749999999999
 31
0.0
  0
LINE
  5
9A
330
1E
100
AcDbEntity
  8
0
100
AcDbLine
 10
12.0905015
 20
74.7484
 30
0.0
 11
13.7458015
 21
72.054
 31
0.0
  0
LINE
  5
9B
330
1E
100
AcDbEntity
  8
0
100
AcDbLine
 10
12.0905015
 20
74.7484
 30
0.0
 11
12.3476015
 21
75.0548
 31
0.0
  0
LINE
  5
9C
330
1E
100
AcDbEntity
  8
0
100
AcDbLine
 10
13.7458015
 20
72.054
 30
0.0
 11
13.8232895974973
 21
71.96339141571541
 31
0.0
  0
LINE
  5
9D
330
1E
100
AcDbEntity
  8
0
100
AcDbLine
 10
27.8262015
 20
70.9435
 30
0.0
 11
29.5194015
 21
71.8724
 31
0.0
  0
LINE
  5
9E
330
1E
100
AcDbEntity
  8
0
100
AcDbLine
 10
25.9427015
 20
70.5658
 30
0.0
 11
27.8262015
 21
70.9435
 31
0.0
  0
LINE
  5
9F
330
1E
100
AcDbEntity
  8
0
100
AcDbLine
 10
24.0223015
 20
70.61069999999999
 30
0.0
 11
25.9427015
 21
70.5658
 31
0.0
  0
LINE
  5
A2
330
1E
100
AcDbEntity
  8
0
100
AcDbLine
 10
22.75280149999999
 20
85.12170000000001
 30
0.0
 11
24.6362015
 21
85.49939999999999
 31
0.0
  0
LINE
  5
A3
330
1E
100
AcDbEntity
  8
0
100
AcDbLine
 10
24.6362015
 20
85.49939999999999
 30
0.0
 11
26.5566015
 21
85.4545
 31
0.0
  0
LINE
  5
A4
330
1E
100
AcDbEntity
  8
0
100
AcDbLine
 10
22.69650149999999
 20
87.3882
 30
0.0
 11
24.1749015
 21
89.1501
 31
0.0
  0
LINE
  5
A5
330
1E
100
AcDbEntity
  8
0
100
AcDbLine
 10
22.6428015
 20
90.43559999999999
 30
0.0
 11
23.7355015
 21
91.7379
 31
0.0
  0
LINE
  5
A9
330
1E
100
AcDbEntity
  8
0
100
AcDbLine
 10
24.1749015
 20
89.1501
 30
0.0
 11
25.2676015
 21
90.4523
 31
0.0
  0
LINE
  5
AA
330
1E
100
AcDbEntity
  8
0
100
AcDbLine
 10
25.2676015
 20
90.4523
 30
0.0
 11
25.9747015
 21
91.295
 31
0.0
  0
LINE
  5
AB
330
1E
100
AcDbEntity
  8
0
100
AcDbLine
 10
23.7355015
 20
91.7379
 30
0.0
 11
24.4426015
 21
92.5805
 31
0.0
  0
LINE
  5
AC
330
1E
100
AcDbEntity
  8
0
100
AcDbLine
 10
24.4426015
 20
92.5805
 30
0.0
 11
24.69970149999999
 21
92.887
 31
0.0
  0
LINE
  5
AE
330
1E
100
AcDbEntity
  8
0
100
AcDbLine
 10
24.69970149999999
 20
92.887
 30
0.0
 11
25.4041015
 21
92.94859999999999
 31
0.0
  0
LINE
  5
AF
330
1E
100
AcDbEntity
  8
0
100
AcDbLine
 10
25.4041015
 20
92.94859999999999
 30
0.0
 11
26.1702015
 21
92.30580000000001
 31
0.0
  0
LINE
  5
B1
330
1E
100
AcDbEntity
  8
0
100
AcDbLine
 10
26.1702015
 20
92.30580000000001
 30
0.0
 11
26.2318015
 21
91.6014
 31
0.0
  0
LINE
  5
B3
330
1E
100
AcDbEntity
  8
0
100
AcDbLine
 10
25.9747015
 20
91.295
 30
0.0
 11
26.2318015
 21
91.6014
 31
0.0
  0
LINE
  5
B4
330
1E
100
AcDbEntity
  8
0
100
AcDbLine
 10
26.5566015
 20
85.4545
 30
0.0
 11
28.3855015
 21
84.83369999999998
 31
0.0
  0
LINE
  5
B5
330
1E
100
AcDbEntity
  8
0
100
AcDbLine
 10
28.3855015
 20
84.83369999999998
 30
0.0
 11
30.1104015
 21
83.7779
 31
0.0
  0
LINE
  5
B6
330
1E
100
AcDbEntity
  8
0
100
AcDbLine
 10
26.2318015
 20
91.6014
 30
0.0
 11
29.1727015
 21
90.4391
 31
0.0
  0
LINE
  5
B7
330
1E
100
AcDbEntity
  8
0
100
AcDbLine
 10
22.19350149999999
 20
71.23149999999999
 30
0.0
 11
24.0223015
 21
70.61069999999999
 31
0.0
  0
LINE
  5
B8
330
1E
100
AcDbEntity
  8
0
100
AcDbLine
 10
21.3034860298863
 20
65.6866980101217
 30
0.0
 11
21.4062015
 21
65.62609999999999
 31
0.0
  0
LINE
  5
B9
330
1E
100
AcDbEntity
  8
0
100
AcDbLine
 10
21.4062015
 20
65.62609999999999
 30
0.0
 11
24.3472015
 21
64.46380000000001
 31
0.0
  0
LINE
  5
BB
330
1E
100
AcDbEntity
  8
0
100
AcDbLine
 10
29.27541697011369
 20
90.3785019898784
 30
0.0
 11
30.3350015
 21
93.37999999999999
 31
0.0
  0
LINE
  5
BC
330
1E
100
AcDbEntity
  8
0
100
AcDbLine
 10
29.1727015
 20
90.4391
 30
0.0
 11
29.27541697011369
 21
90.3785019898784
 31
0.0
  0
LINE
  5
BD
330
1E
100
AcDbEntity
  8
0
100
AcDbLine
 10
30.1104015
 20
83.7779
 30
0.0
 11
31.4496015
 21
82.2625
 31
0.0
  0
LINE
  5
BE
330
1E
100
AcDbEntity
  8
0
100
AcDbLine
 10
29.5194015
 20
71.8724
 30
0.0
 11
31.0348015
 21
73.21169999999999
 31
0.0
  0
LINE
  5
BF
330
1E
100
AcDbEntity
  8
0
100
AcDbLine
 10
29.60210149999999
 20
66.05929999999999
 30
0.0
 11
30.8234015
 21
67.51470000000001
 31
0.0
  0
LINE
  5
C0
330
1E
100
AcDbEntity
  8
0
100
AcDbLine
 10
28.7022015
 20
64.9868
 30
0.0
 11
29.60210149999999
 21
66.05929999999999
 31
0.0
  0
LINE
  5
C1
330
1E
100
AcDbEntity
  8
0
100
AcDbLine
 10
24.3472015
 20
64.46380000000001
 30
0.0
 11
27.9309015
 21
64.06749999999999
 31
0.0
  0
LINE
  5
C3
330
1E
100
AcDbEntity
  8
0
100
AcDbLine
 10
30.3350015
 20
93.37999999999999
 30
0.0
 11
32.1401015
 21
97.087
 31
0.0
  0
LINE
  5
C4
330
1E
100
AcDbEntity
  8
0
100
AcDbLine
 10
30.8234015
 20
67.51470000000001
 30
0.0
 11
32.2376015
 21
69.2
 31
0.0
  0
LINE
  5
C6
330
1E
100
AcDbEntity
  8
0
100
AcDbLine
 10
31.0348015
 20
73.21169999999999
 30
0.0
 11
32.0906015
 21
74.9366
 31
0.0
  0
LINE
  5
C8
330
1E
100
AcDbEntity
  8
0
100
AcDbLine
 10
32.0906015
 20
74.9366
 30
0.0
 11
32.7114015
 21
76.7655
 31
0.0
  0
LINE
  5
C9
330
1E
100
AcDbEntity
  8
0
100
AcDbLine
 10
31.4496015
 20
82.2625
 30
0.0
 11
32.3786015
 21
80.56929999999999
 31
0.0
  0
LINE
  5
CA
330
1E
100
AcDbEntity
  8
0
100
AcDbLine
 10
32.1401015
 20
97.087
 30
0.0
 11
33.91530149999999
 21
99.5137
 31
0.0
  0
LINE
  5
CC
330
1E
100
AcDbEntity
  8
0
100
AcDbLine
 10
32.7114015
 20
76.7655
 30
0.0
 11
32.7563015
 21
78.68590000000001
 31
0.0
  0
LINE
  5
CD
330
1E
100
AcDbEntity
  8
0
100
AcDbLine
 10
32.3786015
 20
80.56929999999999
 30
0.0
 11
32.7563015
 21
78.68590000000001
 31
0.0
  0
LINE
  5
CE
330
1E
100
AcDbEntity
  8
0
100
AcDbLine
 10
32.2376015
 20
69.2
 30
0.0
 11
33.7160015
 21
70.96189999999999
 31
0.0
  0
LINE
  5
CF
330
1E
100
AcDbEntity
  8
0
100
AcDbLine
 10
31.9003015
 20
64.1309
 30
0.0
 11
33.1216015
 21
65.5864
 31
0.0
  0
LINE
  5
D0
330
1E
100
AcDbEntity
  8
0
100
AcDbLine
 10
31.0004015
 20
63.05839999999999
 30
0.0
 11
31.9003015
 21
64.1309
 31
0.0
  0
LINE
  5
D1
330
1E
100
AcDbEntity
  8
0
100
AcDbLine
 10
30.4218015
 20
62.369
 30
0.0
 11
31.0004015
 21
63.05839999999999
 31
0.0
  0
LINE
  5
D2
330
1E
100
AcDbEntity
  8
0
100
AcDbLine
 10
30.2290015
 20
62.1392
 30
0.0
 11
30.5988015
 21
57.9127
 31
0.0
  0
LINE
  5
D3
330
1E
100
AcDbEntity
  8
0
100
AcDbLine
 10
30.2290015
 20
62.1392
 30
0.0
 11
30.4218015
 21
62.369
 31
0.0
  0
LINE
  5
D4
330
1E
100
AcDbEntity
  8
0
100
AcDbLine
 10
30.5988015
 20
57.9127
 30
0.0
 11
32.82200149999999
 21
52.7836
 31
0.0
  0
LINE
  5
D7
330
1E
100
AcDbEntity
  8
0
100
AcDbLine
 10
59.7853015
 20
56.1363
 30
0.0
 11
63.0635015
 21
60.04319999999999
 31
0.0
  0
LINE
  5
DA
330
1E
100
AcDbEntity
  8
0
100
AcDbLine
 10
62.4665015
 20
53.8866
 30
0.0
 11
65.7447015
 21
57.7934
 31
0.0
  0
LINE
  5
DB
330
1E
100
AcDbEntity
  8
0
100
AcDbLine
 10
63.0635015
 20
60.04319999999999
 30
0.0
 11
65.82750149999999
 21
63.3372
 31
0.0
  0
LINE
  5
DD
330
1E
100
AcDbEntity
  8
0
100
AcDbLine
 10
65.82750149999999
 20
63.3372
 30
0.0
 11
67.7584494664849
 21
65.63834572350029
 31
0.0
  0
LINE
  5
DF
330
1E
100
AcDbEntity
  8
0
100
AcDbLine
 10
65.7447015
 20
57.7934
 30
0.0
 11
67.39783194792829
 21
59.76352000559909
 31
0.0
  0
LINE
  5
E0
330
1E
100
AcDbEntity
  8
0
100
AcDbLine
 10
56.31430149999999
 20
51.9997
 30
0.0
 11
59.7853015
 21
56.1363
 31
0.0
  0
LINE
  5
E3
330
1E
100
AcDbEntity
  8
0
100
AcDbLine
 10
33.91530149999999
 20
99.5137
 30
0.0
 11
36.2566015
 21
102.7705
 31
0.0
  0
LINE
  5
E4
330
1E
100
AcDbEntity
  8
0
100
AcDbLine
 10
33.7160015
 20
70.96189999999999
 30
0.0
 11
35.19440149999999
 21
72.7238
 31
0.0
  0
LINE
  5
E6
330
1E
100
AcDbEntity
  8
0
100
AcDbLine
 10
36.0141015
 20
69.03360000000001
 30
0.0
 11
37.4925015
 21
70.79550000000001
 31
0.0
  0
LINE
  5
E9
330
1E
100
AcDbEntity
  8
0
100
AcDbLine
 10
37.4925015
 20
70.79550000000001
 30
0.0
 11
38.9066015
 21
72.4808
 31
0.0
  0
LINE
  5
EA
330
1E
100
AcDbEntity
  8
0
100
AcDbLine
 10
35.19440149999999
 20
72.7238
 30
0.0
 11
36.6085015
 21
74.40909999999999
 31
0.0
  0
LINE
  5
ED
330
1E
100
AcDbEntity
  8
0
100
AcDbLine
 10
36.6085015
 20
74.40909999999999
 30
0.0
 11
37.8298015
 21
75.86459999999999
 31
0.0
  0
LINE
  5
EE
330
1E
100
AcDbEntity
  8
0
100
AcDbLine
 10
38.9066015
 20
72.4808
 30
0.0
 11
40.12790149999999
 21
73.9363
 31
0.0
  0
LINE
  5
EF
330
1E
100
AcDbEntity
  8
0
100
AcDbLine
 10
40.12790149999999
 20
73.9363
 30
0.0
 11
41.0278015
 21
75.0087
 31
0.0
  0
LINE
  5
F2
330
1E
100
AcDbEntity
  8
0
100
AcDbLine
 10
37.8298015
 20
75.86459999999999
 30
0.0
 11
38.7297015
 21
76.9371
 31
0.0
  0
LINE
  5
F3
330
1E
100
AcDbEntity
  8
0
100
AcDbLine
 10
41.0278015
 20
75.0087
 30
0.0
 11
41.6064015
 21
75.69819999999999
 31
0.0
  0
LINE
  5
F4
330
1E
100
AcDbEntity
  8
0
100
AcDbLine
 10
41.6064015
 20
75.69819999999999
 30
0.0
 11
41.7992015
 21
75.928
 31
0.0
  0
LINE
  5
F5
330
1E
100
AcDbEntity
  8
0
100
AcDbLine
 10
38.7297015
 20
76.9371
 30
0.0
 11
39.3082015
 21
77.62649999999999
 31
0.0
  0
LINE
  5
F6
330
1E
100
AcDbEntity
  8
0
100
AcDbLine
 10
36.7373946857081
 20
84.09151026529769
 30
0.0
 11
39.5276015
 21
85.6665
 31
0.0
  0
LINE
  5
F7
330
1E
100
AcDbEntity
  8
0
100
AcDbLine
 10
36.2566015
 20
102.7705
 30
0.0
 11
38.88940149999999
 21
105.1304999999999
 31
0.0
  0
LINE
  5
F8
330
1E
100
AcDbEntity
  8
0
100
AcDbLine
 10
36.75562170156339
 20
84.1017988800052
 30
0.0
 11
36.8331015
 21
84.0112
 31
0.0
  0
LINE
  5
F9
330
1E
100
AcDbEntity
  8
0
100
AcDbLine
 10
38.88940149999999
 20
105.1304999999999
 30
0.0
 11
41.2624015
 21
106.4024999999999
 31
0.0
  0
LINE
  5
FA
330
1E
100
AcDbEntity
  8
0
100
AcDbLine
 10
36.8331015
 20
84.0112
 30
0.0
 11
38.4885015
 21
81.31680000000001
 31
0.0
  0
LINE
  5
FB
330
1E
100
AcDbEntity
  8
0
100
AcDbLine
 10
38.4885015
 20
81.31680000000001
 30
0.0
 11
39.5011015
 21
77.85630000000001
 31
0.0
  0
LINE
  5
FD
330
1E
100
AcDbEntity
  8
0
100
AcDbLine
 10
39.5011015
 20
77.85630000000001
 30
0.0
 11
40.9099015
 21
77.9796
 31
0.0
  0
LINE
  5
FF
330
1E
100
AcDbEntity
  8
0
100
AcDbLine
 10
40.9099015
 20
77.9796
 30
0.0
 11
41.6759015
 21
77.33679999999999
 31
0.0
  0
LINE
  5
101
330
1E
100
AcDbEntity
  8
0
100
AcDbLine
 10
39.5276015
 20
85.6665
 30
0.0
 11
42.8648015
 21
88.0879
 31
0.0
  0
LINE
  5
102
330
1E
100
AcDbEntity
  8
0
100
AcDbLine
 10
41.6759015
 20
77.33679999999999
 30
0.0
 11
41.7992015
 21
75.928
 31
0.0
  0
LINE
  5
104
330
1E
100
AcDbEntity
  8
0
100
AcDbLine
 10
42.8648015
 20
88.0879
 30
0.0
 11
44.9463015
 21
90.2575
 31
0.0
  0
LINE
  5
105
330
1E
100
AcDbEntity
  8
0
100
AcDbLine
 10
44.9463015
 20
90.2575
 30
0.0
 11
47.74730149999999
 21
93.12879999999999
 31
0.0
  0
LINE
  5
106
330
1E
100
AcDbEntity
  8
0
100
AcDbLine
 10
41.2624015
 20
106.4024999999999
 30
0.0
 11
43.6971015
 21
106.9705
 31
0.0
  0
LINE
  5
107
330
1E
100
AcDbEntity
  8
0
100
AcDbLine
 10
43.6971015
 20
106.9705
 30
0.0
 11
46.1933015
 21
106.8345
 31
0.0
  0
LINE
  5
108
330
1E
100
AcDbEntity
  8
0
100
AcDbLine
 10
39.3082015
 20
77.62649999999999
 30
0.0
 11
39.5011015
 21
77.85630000000001
 31
0.0
  0
LINE
  5
109
330
1E
100
AcDbEntity
  8
0
100
AcDbLine
 10
41.7992015
 20
75.928
 30
0.0
 11
46.0257015
 21
76.2977
 31
0.0
  0
LINE
  5
10A
330
1E
100
AcDbEntity
  8
0
100
AcDbLine
 10
47.74730149999999
 20
93.12879999999999
 30
0.0
 11
49.6140015
 21
96.13140000000001
 31
0.0
  0
LINE
  5
10B
330
1E
100
AcDbEntity
  8
0
100
AcDbLine
 10
49.6140015
 20
96.13140000000001
 30
0.0
 11
50.4549015
 21
98.6893
 31
0.0
  0
LINE
  5
10C
330
1E
100
AcDbEntity
  8
0
100
AcDbLine
 10
50.4549015
 20
98.6893
 30
0.0
 11
50.5915015
 21
101.1855
 31
0.0
  0
LINE
  5
10D
330
1E
100
AcDbEntity
  8
0
100
AcDbLine
 10
50.0235015
 20
103.6205
 30
0.0
 11
50.5915015
 21
101.1855
 31
0.0
  0
LINE
  5
10E
330
1E
100
AcDbEntity
  8
0
100
AcDbLine
 10
48.4298015
 20
105.6105
 30
0.0
 11
50.0235015
 21
103.6205
 31
0.0
  0
LINE
  5
10F
330
1E
100
AcDbEntity
  8
0
100
AcDbLine
 10
46.1933015
 20
106.8345
 30
0.0
 11
48.4298015
 21
105.6105
 31
0.0
  0
LINE
  5
110
330
1E
100
AcDbEntity
  8
0
100
AcDbLine
 10
46.0257015
 20
76.2977
 30
0.0
 11
51.4629015
 21
74.9989
 31
0.0
  0
LINE
  5
111
330
1E
100
AcDbEntity
  8
0
100
AcDbLine
 10
51.4629015
 20
74.9989
 30
0.0
 11
57.6661015
 21
73.0573
 31
0.0
  0
LINE
  5
112
330
1E
100
AcDbEntity
  8
0
100
AcDbLine
 10
57.6661015
 20
73.0573
 30
0.0
 11
63.9310015
 21
70.41129999999999
 31
0.0
  0
LINE
  5
113
330
1E
100
AcDbEntity
  8
0
100
AcDbLine
 10
63.9310015
 20
70.41129999999999
 30
0.0
 11
68.0395774239835
 21
67.9874833158512
 31
0.0
  0
LINE
  5
114
330
1E
100
AcDbEntity
  8
0
100
AcDbLine
 10
34.5357015
 20
67.2717
 30
0.0
 11
36.0141015
 21
69.03360000000001
 31
0.0
  0
LINE
  5
115
330
1E
100
AcDbEntity
  8
0
100
AcDbLine
 10
33.1216015
 20
65.5864
 30
0.0
 11
34.5357015
 21
67.2717
 31
0.0
  0
LINE
  5
116
330
1E
100
AcDbEntity
  8
0
100
AcDbLine
 10
32.82200149999999
 20
52.7836
 30
0.0
 11
35.81130149999999
 21
47.01179999999999
 31
0.0
  0
LINE
  5
118
330
1E
100
AcDbEntity
  8
0
100
AcDbLine
 10
67.2998015
 20
0.0295000000000022
 30
0.0
 11
69.3998015
 21
0.0295000000000025
 31
0.0
  0
LINE
  5
11C
330
1E
100
AcDbEntity
  8
0
100
AcDbLine
 10
66.49980150000001
 20
0.0295000000000019
 30
0.0
 11
67.2998015
 21
0.0295000000000015
 31
0.0
  0
LINE
  5
11D
330
1E
100
AcDbEntity
  8
0
100
AcDbLine
 10
66.49980150000001
 20
0.0295000000000019
 30
0.0
 11
66.49980150000001
 21
15.5295
 31
0.0
  0
LINE
  5
11E
330
1E
100
AcDbEntity
  8
0
100
AcDbLine
 10
66.49980150000001
 20
0.0295000000000019
 30
0.0
 11
67.2998015
 21
0.0295000000000022
 31
0.0
  0
LINE
  5
120
330
1E
100
AcDbEntity
  8
0
100
AcDbLine
 10
69.3998015
 20
0.0295000000000025
 30
0.0
 11
72.89980149999999
 21
0.0295000000000028
 31
0.0
  0
LINE
  5
121
330
1E
100
AcDbEntity
  8
0
100
AcDbLine
 10
70.19980150000001
 20
59.6017
 30
0.0
 11
71.9998015
 21
55.86899999999999
 31
0.0
  0
LINE
  5
122
330
1E
100
AcDbEntity
  8
0
100
AcDbLine
 10
72.89980149999999
 20
0.0295000000000028
 30
0.0
 11
77.4998015
 21
0.029500000000003
 31
0.0
  0
LINE
  5
123
330
1E
100
AcDbEntity
  8
0
100
AcDbLine
 10
72.09980149999999
 20
58.8762
 30
0.0
 11
73.7998015
 21
55.5844
 31
0.0
  0
LINE
  5
124
330
1E
100
AcDbEntity
  8
0
100
AcDbLine
 10
71.9998015
 20
55.86899999999999
 30
0.0
 11
75.0998015
 21
52.6195
 31
0.0
  0
LINE
  5
125
330
1E
100
AcDbEntity
  8
0
100
AcDbLine
 10
67.3157582701715
 20
65.1107825934165
 30
0.0
 11
67.4345015
 21
65.2523
 31
0.0
  0
LINE
  5
126
330
1E
100
AcDbEntity
  8
0
100
AcDbLine
 10
67.4345015
 20
65.2523
 30
0.0
 11
67.75845170332591
 21
65.638364177439
 31
0.0
  0
LINE
  5
127
330
1E
100
AcDbEntity
  8
0
100
AcDbLine
 10
68.7998015
 20
67.6295
 30
0.0
 11
69.09980149999999
 21
64.82949999999999
 31
0.0
  0
LINE
  5
128
330
1E
100
AcDbEntity
  8
0
100
AcDbLine
 10
72.09980149999999
 20
66.0759
 30
0.0
 11
73.7998015
 21
69.5005
 31
0.0
  0
LINE
  5
129
330
1E
100
AcDbEntity
  8
0
100
AcDbLine
 10
71.49980150000001
 20
62.47600000000001
 30
0.0
 11
72.09980149999999
 21
58.8762
 31
0.0
  0
LINE
  5
12A
330
1E
100
AcDbEntity
  8
0
100
AcDbLine
 10
71.49980150000001
 20
62.47600000000001
 30
0.0
 11
72.09980149999999
 21
66.0759
 31
0.0
  0
LINE
  5
12B
330
1E
100
AcDbEntity
  8
0
100
AcDbLine
 10
69.4998015
 20
63.6848
 30
0.0
 11
70.19980150000001
 21
67.6772
 31
0.0
  0
LINE
  5
12C
330
1E
100
AcDbEntity
  8
0
100
AcDbLine
 10
69.7998015
 20
60.5295
 30
0.0
 11
70.19980150000001
 21
59.6017
 31
0.0
  0
LINE
  5
12D
330
1E
100
AcDbEntity
  8
0
100
AcDbLine
 10
69.09980149999999
 20
64.82949999999999
 30
0.0
 11
69.7998015
 21
60.5295
 31
0.0
  0
LINE
  5
12E
330
1E
100
AcDbEntity
  8
0
100
AcDbLine
 10
71.9998015
 20
71.40989999999999
 30
0.0
 11
75.0998015
 21
74.7923
 31
0.0
  0
LINE
  5
12F
330
1E
100
AcDbEntity
  8
0
100
AcDbLine
 10
70.19980150000001
 20
67.6772
 30
0.0
 11
71.9998015
 21
71.40989999999999
 31
0.0
  0
LINE
  5
130
330
1E
100
AcDbEntity
  8
0
100
AcDbLine
 10
68.6998015
 20
69.32949999999999
 30
0.0
 11
68.7998015
 21
67.6295
 31
0.0
  0
LINE
  5
131
330
1E
100
AcDbEntity
  8
0
100
AcDbLine
 10
71.1998015
 20
79.5295
 30
0.0
 11
74.3998015
 21
83.3295
 31
0.0
  0
LINE
  5
132
330
1E
100
AcDbEntity
  8
0
100
AcDbLine
 10
69.1998015
 20
74.9295
 30
0.0
 11
71.1998015
 21
79.5295
 31
0.0
  0
LINE
  5
133
330
1E
100
AcDbEntity
  8
0
100
AcDbLine
 10
68.89980149999999
 20
74.2295
 30
0.0
 11
69.1998015
 21
74.9295
 31
0.0
  0
LINE
  5
134
330
1E
100
AcDbEntity
  8
0
100
AcDbLine
 10
68.19980150000001
 20
69.4295
 30
0.0
 11
68.89980149999999
 21
74.2295
 31
0.0
  0
LINE
  5
135
330
1E
100
AcDbEntity
  8
0
100
AcDbLine
 10
67.9998015
 20
67.6295
 30
0.0
 11
68.19980150000001
 21
69.4295
 31
0.0
  0
LINE
  5
136
330
1E
100
AcDbEntity
  8
0
100
AcDbLine
 10
67.5998015
 20
64.32949999999999
 30
0.0
 11
67.9998015
 21
67.6295
 31
0.0
  0
LINE
  5
137
330
1E
100
AcDbEntity
  8
0
100
AcDbLine
 10
67.3998015
 20
59.8295
 30
0.0
 11
67.5998015
 21
64.32949999999999
 31
0.0
  0
LINE
  5
138
330
1E
100
AcDbEntity
  8
0
100
AcDbLine
 10
67.2998015
 20
0.0295000000000015
 30
0.0
 11
69.3998015
 21
0.0295000000000012
 31
0.0
  0
LINE
  5
139
330
1E
100
AcDbEntity
  8
0
100
AcDbLine
 10
69.3998015
 20
0.0295000000000012
 30
0.0
 11
72.89980149999999
 21
0.0295000000000009
 31
0.0
  0
LINE
  5
13A
330
1E
100
AcDbEntity
  8
0
100
AcDbLine
 10
77.4998015
 20
0.029500000000003
 30
0.0
 11
82.7998015
 21
0.0295000000000032
 31
0.0
  0
LINE
  5
13B
330
1E
100
AcDbEntity
  8
0
100
AcDbLine
 10
73.7998015
 20
69.5005
 30
0.0
 11
76.49980150000001
 21
72.3091
 31
0.0
  0
LINE
  5
13C
330
1E
100
AcDbEntity
  8
0
100
AcDbLine
 10
73.7998015
 20
55.5844
 30
0.0
 11
76.49980150000001
 21
52.643
 31
0.0
  0
LINE
  5
13E
330
1E
100
AcDbEntity
  8
0
100
AcDbLine
 10
76.49980150000001
 20
59.4181
 30
0.0
 11
76.8998015
 21
61.9574
 31
0.0
  0
LINE
  5
13F
330
1E
100
AcDbEntity
  8
0
100
AcDbLine
 10
76.49980150000001
 20
59.4181
 30
0.0
 11
76.8998015
 21
56.8787
 31
0.0
  0
LINE
  5
141
330
1E
100
AcDbEntity
  8
0
100
AcDbLine
 10
76.49980150000001
 20
72.3091
 30
0.0
 11
79.9998015
 21
74.59220000000001
 31
0.0
  0
LINE
  5
142
330
1E
100
AcDbEntity
  8
0
100
AcDbLine
 10
78.0998015
 20
54.5031
 30
0.0
 11
79.9998015
 21
52.4553
 31
0.0
  0
LINE
  5
143
330
1E
100
AcDbEntity
  8
0
100
AcDbLine
 10
76.8998015
 20
56.8787
 30
0.0
 11
78.0998015
 21
54.5031
 31
0.0
  0
LINE
  5
144
330
1E
100
AcDbEntity
  8
0
100
AcDbLine
 10
78.0998015
 20
64.333
 30
0.0
 11
79.9998015
 21
66.38079999999999
 31
0.0
  0
LINE
  5
145
330
1E
100
AcDbEntity
  8
0
100
AcDbLine
 10
76.8998015
 20
61.9574
 30
0.0
 11
78.0998015
 21
64.333
 31
0.0
  0
LINE
  5
146
330
1E
100
AcDbEntity
  8
0
100
AcDbLine
 10
76.49980150000001
 20
52.643
 30
0.0
 11
79.9998015
 21
50.3598
 31
0.0
  0
LINE
  5
147
330
1E
100
AcDbEntity
  8
0
100
AcDbLine
 10
78.99980150000001
 20
77.15989999999999
 30
0.0
 11
83.5998015
 21
78.65179999999999
 31
0.0
  0
LINE
  5
148
330
1E
100
AcDbEntity
  8
0
100
AcDbLine
 10
75.0998015
 20
74.7923
 30
0.0
 11
78.99980150000001
 21
77.15989999999999
 31
0.0
  0
LINE
  5
149
330
1E
100
AcDbEntity
  8
0
100
AcDbLine
 10
75.0998015
 20
52.6195
 30
0.0
 11
78.99980150000001
 21
50.119
 31
0.0
  0
LINE
  5
14A
330
1E
100
AcDbEntity
  8
0
100
AcDbLine
 10
82.7998015
 20
0.0295000000000032
 30
0.0
 11
88.4998015
 21
0.0295000000000032
 31
0.0
  0
LINE
  5
14B
330
1E
100
AcDbEntity
  8
0
100
AcDbLine
 10
79.9998015
 20
52.4553
 30
0.0
 11
82.4998015
 21
50.8989
 31
0.0
  0
LINE
  5
14C
330
1E
100
AcDbEntity
  8
0
100
AcDbLine
 10
79.9998015
 20
66.38079999999999
 30
0.0
 11
82.4998015
 21
67.9372
 31
0.0
  0
LINE
  5
14D
330
1E
100
AcDbEntity
  8
0
100
AcDbLine
 10
82.4998015
 20
50.8989
 30
0.0
 11
85.39980149999999
 21
49.9159
 31
0.0
  0
LINE
  5
14E
330
1E
100
AcDbEntity
  8
0
100
AcDbLine
 10
82.4998015
 20
67.9372
 30
0.0
 11
85.39980149999999
 21
68.92019999999999
 31
0.0
  0
LINE
  5
14F
330
1E
100
AcDbEntity
  8
0
100
AcDbLine
 10
79.9998015
 20
74.59220000000001
 30
0.0
 11
84.0998015
 21
75.9089
 31
0.0
  0
LINE
  5
150
330
1E
100
AcDbEntity
  8
0
100
AcDbLine
 10
79.9998015
 20
50.3598
 30
0.0
 11
84.0998015
 21
49.0431
 31
0.0
  0
LINE
  5
151
330
1E
100
AcDbEntity
  8
0
100
AcDbLine
 10
78.99980150000001
 20
50.119
 30
0.0
 11
83.5998015
 21
48.62709999999999
 31
0.0
  0
LINE
  5
152
330
1E
100
AcDbEntity
  8
0
100
AcDbLine
 10
78.4998015
 20
86.5295
 30
0.0
 11
83.2998015
 21
88.3295
 31
0.0
  0
LINE
  5
153
330
1E
100
AcDbEntity
  8
0
100
AcDbLine
 10
74.3998015
 20
83.3295
 30
0.0
 11
78.4998015
 21
86.5295
 31
0.0
  0
LINE
  5
154
330
1E
100
AcDbEntity
  8
0
100
AcDbLine
 10
72.89980149999999
 20
0.0295000000000009
 30
0.0
 11
77.4998015
 21
0.0295000000000007
 31
0.0
  0
LINE
  5
155
330
1E
100
AcDbEntity
  8
0
100
AcDbLine
 10
77.4998015
 20
0.0295000000000007
 30
0.0
 11
82.7998015
 21
0.0295000000000006
 31
0.0
  0
LINE
  5
156
330
1E
100
AcDbEntity
  8
0
100
AcDbLine
 10
83.5998015
 20
78.65179999999999
 30
0.0
 11
88.4998015
 21
79.2679
 31
0.0
  0
LINE
  5
157
330
1E
100
AcDbEntity
  8
0
100
AcDbLine
 10
88.4998015
 20
0.0295000000000032
 30
0.0
 11
94.1998015
 21
0.0295000000000032
 31
0.0
  0
LINE
  5
158
330
1E
100
AcDbEntity
  8
0
100
AcDbLine
 10
88.4998015
 20
0.0295000000000005
 30
0.0
 11
94.1998015
 21
0.0295000000000006
 31
0.0
  0
LINE
  5
159
330
1E
100
AcDbEntity
  8
0
100
AcDbLine
 10
88.4998015
 20
48.5599
 30
0.0
 11
92.89980149999999
 21
49.0431
 31
0.0
  0
LINE
  5
15A
330
1E
100
AcDbEntity
  8
0
100
AcDbLine
 10
94.1998015
 20
0.0295000000000032
 30
0.0
 11
99.49980150000001
 21
0.029500000000003
 31
0.0
  0
LINE
  5
15B
330
1E
100
AcDbEntity
  8
0
100
AcDbLine
 10
104.0995015
 20
0.0295000000000028
 30
0.0
 11
107.5995014999999
 21
0.0295000000000025
 31
0.0
  0
LINE
  5
15C
330
1E
100
AcDbEntity
  8
0
100
AcDbLine
 10
99.49980150000001
 20
0.029500000000003
 30
0.0
 11
104.0995015
 21
0.0295000000000028
 31
0.0
  0
LINE
  5
15D
330
1E
100
AcDbEntity
  8
0
100
AcDbLine
 10
109.6995015
 20
0.0295000000000022
 30
0.0
 11
110.4995014999999
 21
0.0295000000000019
 31
0.0
  0
LINE
  5
15E
330
1E
100
AcDbEntity
  8
0
100
AcDbLine
 10
107.5995014999999
 20
0.0295000000000025
 30
0.0
 11
109.6995015
 21
0.0295000000000022
 31
0.0
  0
LINE
  5
15F
330
1E
100
AcDbEntity
  8
0
100
AcDbLine
 10
110.4995014999999
 20
0.0295000000000019
 30
0.0
 11
110.4995014999999
 21
15.5295
 31
0.0
  0
LINE
  5
160
330
1E
100
AcDbEntity
  8
0
100
AcDbLine
 10
109.6995015
 20
0.0295000000000015
 30
0.0
 11
110.4995014999999
 21
0.0295000000000019
 31
0.0
  0
LINE
  5
161
330
1E
100
AcDbEntity
  8
0
100
AcDbLine
 10
107.5995014999999
 20
0.0295000000000012
 30
0.0
 11
109.6995015
 21
0.0295000000000015
 31
0.0
  0
LINE
  5
162
330
1E
100
AcDbEntity
  8
0
100
AcDbLine
 10
104.0995015
 20
0.0295000000000009
 30
0.0
 11
107.5995014999999
 21
0.0295000000000012
 31
0.0
  0
LINE
  5
163
330
1E
100
AcDbEntity
  8
0
100
AcDbLine
 10
99.49980150000001
 20
0.0295000000000007
 30
0.0
 11
104.0995015
 21
0.0295000000000009
 31
0.0
  0
LINE
  5
164
330
1E
100
AcDbEntity
  8
0
100
AcDbLine
 10
94.1998015
 20
0.0295000000000006
 30
0.0
 11
99.49980150000001
 21
0.0295000000000007
 31
0.0
  0
LINE
  5
167
330
1E
100
AcDbEntity
  8
0
100
AcDbLine
 10
132.9115014999999
 20
33.53979999999999
 30
0.0
 11
134.0605014999999
 21
34.5039
 31
0.0
  0
LINE
  5
168
330
1E
100
AcDbEntity
  8
0
100
AcDbLine
 10
131.5025015
 20
33.663
 30
0.0
 11
132.9115014999999
 21
33.53979999999999
 31
0.0
  0
LINE
  5
16B
330
1E
100
AcDbEntity
  8
0
100
AcDbLine
 10
129.7025014999999
 20
35.80789999999999
 30
0.0
 11
130.9885014999999
 21
34.27579999999999
 31
0.0
  0
LINE
  5
16C
330
1E
100
AcDbEntity
  8
0
100
AcDbLine
 10
130.9885014999999
 20
34.27579999999999
 30
0.0
 11
131.5025015
 21
33.663
 31
0.0
  0
LINE
  5
16D
330
1E
100
AcDbEntity
  8
0
100
AcDbLine
 10
110.4995014999999
 20
15.5295
 30
0.0
 11
131.5025015
 21
33.663
 31
0.0
  0
LINE
  5
16E
330
1E
100
AcDbEntity
  8
0
100
AcDbLine
 10
110.4995014999999
 20
15.5295
 30
0.0
 11
110.4995014999999
 21
0.0295000000000021
 31
0.0
  0
LINE
  5
174
330
1E
100
AcDbEntity
  8
0
100
AcDbLine
 10
127.5175015
 20
38.4125
 30
0.0
 11
129.7025014999999
 21
35.80789999999999
 31
0.0
  0
LINE
  5
176
330
1E
100
AcDbEntity
  8
0
100
AcDbLine
 10
121.4755014999999
 20
45.6133
 30
0.0
 11
124.7535014999999
 21
41.7065
 31
0.0
  0
LINE
  5
179
330
1E
100
AcDbEntity
  8
0
100
AcDbLine
 10
124.7535014999999
 20
41.7065
 30
0.0
 11
127.5175015
 21
38.4125
 31
0.0
  0
LINE
  5
180
330
1E
100
AcDbEntity
  8
0
100
AcDbLine
 10
124.1565014999999
 20
47.8631
 30
0.0
 11
133.0915014999999
 21
37.215
 31
0.0
  0
LINE
  5
181
330
1E
100
AcDbEntity
  8
0
100
AcDbLine
 10
133.0915014999999
 20
37.215
 30
0.0
 11
133.6695014999999
 21
36.52559999999999
 31
0.0
  0
LINE
  5
182
330
1E
100
AcDbEntity
  8
0
100
AcDbLine
 10
133.6695014999999
 20
36.52559999999999
 30
0.0
 11
134.1835014999999
 21
35.91279999999999
 31
0.0
  0
LINE
  5
184
330
1E
100
AcDbEntity
  8
0
100
AcDbLine
 10
134.0605014999999
 20
34.5039
 30
0.0
 11
134.1835014999999
 21
35.91279999999999
 31
0.0
  0
LINE
  5
185
330
1E
100
AcDbEntity
  8
0
100
AcDbLine
 10
141.1885015
 20
47.01179999999999
 30
0.0
 11
144.1775014999999
 21
52.7836
 31
0.0
  0
LINE
  5
186
330
1E
100
AcDbEntity
  8
0
100
AcDbLine
 10
137.4945014999999
 20
41.3016
 30
0.0
 11
141.1885015
 21
47.01179999999999
 31
0.0
  0
LINE
  5
187
330
1E
100
AcDbEntity
  8
0
100
AcDbLine
 10
133.5415014999999
 20
36.6788
 30
0.0
 11
137.4945014999999
 21
41.3016
 31
0.0
  0
LINE
  5
188
330
1E
100
AcDbEntity
  8
0
100
AcDbLine
 10
92.89980149999999
 20
49.0431
 30
0.0
 11
96.99980150000001
 21
50.3598
 31
0.0
  0
LINE
  5
189
330
1E
100
AcDbEntity
  8
0
100
AcDbLine
 10
93.3998015
 20
48.62709999999999
 30
0.0
 11
97.99980150000001
 21
50.119
 31
0.0
  0
LINE
  5
18A
330
1E
100
AcDbEntity
  8
0
100
AcDbLine
 10
88.4998015
 20
48.011
 30
0.0
 11
93.3998015
 21
48.62709999999999
 31
0.0
  0
LINE
  5
18B
330
1E
100
AcDbEntity
  8
0
100
AcDbLine
 10
88.4998015
 20
49.5882
 30
0.0
 11
91.5998015
 21
49.9159
 31
0.0
  0
LINE
  5
18C
330
1E
100
AcDbEntity
  8
0
100
AcDbLine
 10
91.5998015
 20
49.9159
 30
0.0
 11
94.4998015
 21
50.8989
 31
0.0
  0
LINE
  5
18D
330
1E
100
AcDbEntity
  8
0
100
AcDbLine
 10
85.39980149999999
 20
49.9159
 30
0.0
 11
88.4998015
 21
49.5882
 31
0.0
  0
LINE
  5
18E
330
1E
100
AcDbEntity
  8
0
100
AcDbLine
 10
94.4998015
 20
50.8989
 30
0.0
 11
96.99980150000001
 21
52.4553
 31
0.0
  0
LINE
  5
18F
330
1E
100
AcDbEntity
  8
0
100
AcDbLine
 10
96.99980150000001
 20
52.4553
 30
0.0
 11
98.89980149999999
 21
54.5031
 31
0.0
  0
LINE
  5
190
330
1E
100
AcDbEntity
  8
0
100
AcDbLine
 10
96.99980150000001
 20
50.3598
 30
0.0
 11
100.4995014999999
 21
52.643
 31
0.0
  0
LINE
  5
191
330
1E
100
AcDbEntity
  8
0
100
AcDbLine
 10
98.89980149999999
 20
54.5031
 30
0.0
 11
100.0995014999999
 21
56.8787
 31
0.0
  0
LINE
  5
193
330
1E
100
AcDbEntity
  8
0
100
AcDbLine
 10
100.0995014999999
 20
56.8787
 30
0.0
 11
100.4995014999999
 21
59.4181
 31
0.0
  0
LINE
  5
194
330
1E
100
AcDbEntity
  8
0
100
AcDbLine
 10
104.8995014999999
 20
58.8762
 30
0.0
 11
105.4995015
 21
62.47600000000001
 31
0.0
  0
LINE
  5
195
330
1E
100
AcDbEntity
  8
0
100
AcDbLine
 10
103.1995014999999
 20
55.5844
 30
0.0
 11
104.8995014999999
 21
58.8762
 31
0.0
  0
LINE
  5
196
330
1E
100
AcDbEntity
  8
0
100
AcDbLine
 10
100.4995014999999
 20
52.643
 30
0.0
 11
103.1995014999999
 21
55.5844
 31
0.0
  0
LINE
  5
197
330
1E
100
AcDbEntity
  8
0
100
AcDbLine
 10
109.6014747407609
 20
59.7633964344905
 30
0.0
 11
111.2545015
 21
57.7934
 31
0.0
  0
LINE
  5
198
330
1E
100
AcDbEntity
  8
0
100
AcDbLine
 10
106.7995014999999
 20
59.6017
 30
0.0
 11
107.1995014999999
 21
60.5295
 31
0.0
  0
LINE
  5
199
330
1E
100
AcDbEntity
  8
0
100
AcDbLine
 10
104.9995014999999
 20
55.86899999999999
 30
0.0
 11
106.7995014999999
 21
59.6017
 31
0.0
  0
LINE
  5
19A
330
1E
100
AcDbEntity
  8
0
100
AcDbLine
 10
101.8995015
 20
52.6195
 30
0.0
 11
104.9995014999999
 21
55.86899999999999
 31
0.0
  0
LINE
  5
19B
330
1E
100
AcDbEntity
  8
0
100
AcDbLine
 10
97.99980150000001
 20
50.119
 30
0.0
 11
101.8995015
 21
52.6195
 31
0.0
  0
LINE
  5
19C
330
1E
100
AcDbEntity
  8
0
100
AcDbLine
 10
100.0995014999999
 20
61.9574
 30
0.0
 11
100.4995014999999
 21
59.4181
 31
0.0
  0
LINE
  5
1A1
330
1E
100
AcDbEntity
  8
0
100
AcDbLine
 10
107.1995014999999
 20
60.5295
 30
0.0
 11
107.8995014999999
 21
64.82949999999999
 31
0.0
  0
LINE
  5
1A3
330
1E
100
AcDbEntity
  8
0
100
AcDbLine
 10
120.6855014999999
 20
51.9997
 30
0.0
 11
124.1565014999999
 21
47.8631
 31
0.0
  0
LINE
  5
1A6
330
1E
100
AcDbEntity
  8
0
100
AcDbLine
 10
118.0045014999999
 20
49.7499
 30
0.0
 11
121.4755014999999
 21
45.6133
 31
0.0
  0
LINE
  5
1A7
330
1E
100
AcDbEntity
  8
0
100
AcDbLine
 10
117.2145014999999
 20
56.1363
 30
0.0
 11
120.6855014999999
 21
51.9997
 31
0.0
  0
LINE
  5
1A8
330
1E
100
AcDbEntity
  8
0
100
AcDbLine
 10
113.9365014999999
 20
60.04319999999999
 30
0.0
 11
117.2145014999999
 21
56.1363
 31
0.0
  0
LINE
  5
1AD
330
1E
100
AcDbEntity
  8
0
100
AcDbLine
 10
114.5335014999999
 20
53.8866
 30
0.0
 11
118.0045014999999
 21
49.7499
 31
0.0
  0
LINE
  5
1AE
330
1E
100
AcDbEntity
  8
0
100
AcDbLine
 10
111.2545015
 20
57.7934
 30
0.0
 11
114.5335014999999
 21
53.8866
 31
0.0
  0
LINE
  5
1AF
330
1E
100
AcDbEntity
  8
0
100
AcDbLine
 10
111.1069500006669
 20
63.4153010430064
 30
0.0
 11
113.9365014999999
 21
60.04319999999999
 31
0.0
  0
LINE
  5
1B1
330
1E
100
AcDbEntity
  8
0
100
AcDbLine
 10
145.9995014999999
 20
63.05839999999999
 30
0.0
 11
146.5775015
 21
62.369
 31
0.0
  0
LINE
  5
1B3
330
1E
100
AcDbEntity
  8
0
100
AcDbLine
 10
148.1795014999999
 20
62.0159
 30
0.0
 11
148.9455014999999
 21
62.6587
 31
0.0
  0
LINE
  5
1B4
330
1E
100
AcDbEntity
  8
0
100
AcDbLine
 10
146.7705014999999
 20
62.1392
 30
0.0
 11
148.1795014999999
 21
62.0159
 31
0.0
  0
LINE
  5
1B7
330
1E
100
AcDbEntity
  8
0
100
AcDbLine
 10
148.9455014999999
 20
62.6587
 30
0.0
 11
149.0685014999999
 21
64.06749999999999
 31
0.0
  0
LINE
  5
1BA
330
1E
100
AcDbEntity
  8
0
100
AcDbLine
 10
146.5775015
 20
62.369
 30
0.0
 11
146.7705014999999
 21
62.1392
 31
0.0
  0
LINE
  5
1BB
330
1E
100
AcDbEntity
  8
0
100
AcDbLine
 10
146.4005014999999
 20
57.9127
 30
0.0
 11
146.7705014999999
 21
62.1392
 31
0.0
  0
LINE
  5
1BC
330
1E
100
AcDbEntity
  8
0
100
AcDbLine
 10
144.1775014999999
 20
52.7836
 30
0.0
 11
146.4005014999999
 21
57.9127
 31
0.0
  0
LINE
  5
1BE
330
1E
100
AcDbEntity
  8
0
100
AcDbLine
 10
98.89980149999999
 20
64.333
 30
0.0
 11
100.0995014999999
 21
61.9574
 31
0.0
  0
LINE
  5
1BF
330
1E
100
AcDbEntity
  8
0
100
AcDbLine
 10
107.8995014999999
 20
64.82949999999999
 30
0.0
 11
108.1995014999999
 21
67.6295
 31
0.0
  0
LINE
  5
1C2
330
1E
100
AcDbEntity
  8
0
100
AcDbLine
 10
145.0995014999999
 20
64.1309
 30
0.0
 11
145.9995014999999
 21
63.05839999999999
 31
0.0
  0
LINE
  5
1C3
330
1E
100
AcDbEntity
  8
0
100
AcDbLine
 10
109.3995014999999
 20
64.32949999999999
 30
0.0
 11
109.5995014999999
 21
59.8295
 31
0.0
  0
LINE
  5
1C4
330
1E
100
AcDbEntity
  8
0
100
AcDbLine
 10
96.99980150000001
 20
66.38079999999999
 30
0.0
 11
98.89980149999999
 21
64.333
 31
0.0
  0
LINE
  5
1C5
330
1E
100
AcDbEntity
  8
0
100
AcDbLine
 10
109.5655014999999
 20
65.2523
 30
0.0
 11
111.1069500006669
 21
63.4153010430064
 31
0.0
  0
LINE
  5
1C7
330
1E
100
AcDbEntity
  8
0
100
AcDbLine
 10
109.240750161511
 20
65.6391985425342
 30
0.0
 11
109.5655014999999
 21
65.2523
 31
0.0
  0
LINE
  5
1CA
330
1E
100
AcDbEntity
  8
0
100
AcDbLine
 10
142.4635014999999
 20
67.2717
 30
0.0
 11
143.8785015
 21
65.5864
 31
0.0
  0
LINE
  5
1CB
330
1E
100
AcDbEntity
  8
0
100
AcDbLine
 10
143.8785015
 20
65.5864
 30
0.0
 11
145.0995014999999
 21
64.1309
 31
0.0
  0
LINE
  5
1CC
330
1E
100
AcDbEntity
  8
0
100
AcDbLine
 10
104.8995014999999
 20
66.0759
 30
0.0
 11
105.4995015
 21
62.47600000000001
 31
0.0
  0
LINE
  5
1CD
330
1E
100
AcDbEntity
  8
0
100
AcDbLine
 10
108.1995014999999
 20
67.6295
 30
0.0
 11
108.2995014999999
 21
69.32949999999999
 31
0.0
  0
LINE
  5
1CE
330
1E
100
AcDbEntity
  8
0
100
AcDbLine
 10
91.5998015
 20
68.92019999999999
 30
0.0
 11
94.4998015
 21
67.9372
 31
0.0
  0
LINE
  5
1CF
330
1E
100
AcDbEntity
  8
0
100
AcDbLine
 10
94.4998015
 20
67.9372
 30
0.0
 11
96.99980150000001
 21
66.38079999999999
 31
0.0
  0
LINE
  5
1D0
330
1E
100
AcDbEntity
  8
0
100
AcDbLine
 10
88.4998015
 20
69.2479
 30
0.0
 11
91.5998015
 21
68.92019999999999
 31
0.0
  0
LINE
  5
1D1
330
1E
100
AcDbEntity
  8
0
100
AcDbLine
 10
85.39980149999999
 20
68.92019999999999
 30
0.0
 11
88.4998015
 21
69.2479
 31
0.0
  0
LINE
  5
1D2
330
1E
100
AcDbEntity
  8
0
100
AcDbLine
 10
103.1995014999999
 20
69.5005
 30
0.0
 11
104.8995014999999
 21
66.0759
 31
0.0
  0
LINE
  5
1D3
330
1E
100
AcDbEntity
  8
0
100
AcDbLine
 10
106.7995014999999
 20
67.6772
 30
0.0
 11
107.4995015
 21
63.6848
 31
0.0
  0
LINE
  5
1D6
330
1E
100
AcDbEntity
  8
0
100
AcDbLine
 10
108.959737879342
 20
67.9873725859197
 30
0.0
 11
113.0685015
 21
70.41129999999999
 31
0.0
  0
LINE
  5
1D9
330
1E
100
AcDbEntity
  8
0
100
AcDbLine
 10
113.0685015
 20
70.41129999999999
 30
0.0
 11
119.3335014999999
 21
73.0573
 31
0.0
  0
LINE
  5
1DA
330
1E
100
AcDbEntity
  8
0
100
AcDbLine
 10
140.9855014999999
 20
69.03360000000001
 30
0.0
 11
142.4635014999999
 21
67.2717
 31
0.0
  0
LINE
  5
1DB
330
1E
100
AcDbEntity
  8
0
100
AcDbLine
 10
108.7995014999999
 20
69.4295
 30
0.0
 11
108.9995014999999
 21
67.6295
 31
0.0
  0
LINE
  5
1DC
330
1E
100
AcDbEntity
  8
0
100
AcDbLine
 10
108.9995014999999
 20
67.6295
 30
0.0
 11
109.3995014999999
 21
64.32949999999999
 31
0.0
  0
LINE
  5
1DD
330
1E
100
AcDbEntity
  8
0
100
AcDbLine
 10
144.7625014999999
 20
69.2
 30
0.0
 11
146.1765015
 21
67.51470000000001
 31
0.0
  0
LINE
  5
1DE
330
1E
100
AcDbEntity
  8
0
100
AcDbLine
 10
144.7625014999999
 20
69.2
 30
0.0
 11
146.1765015
 21
67.51470000000001
 31
0.0
  0
LINE
  5
1DF
330
1E
100
AcDbEntity
  8
0
100
AcDbLine
 10
146.1765015
 20
67.51470000000001
 30
0.0
 11
147.3975014999999
 21
66.05929999999999
 31
0.0
  0
LINE
  5
1E0
330
1E
100
AcDbEntity
  8
0
100
AcDbLine
 10
147.3975014999999
 20
66.05929999999999
 30
0.0
 11
148.2975014999999
 21
64.9868
 31
0.0
  0
LINE
  5
1E1
330
1E
100
AcDbEntity
  8
0
100
AcDbLine
 10
148.2975014999999
 20
64.9868
 30
0.0
 11
148.8755014999999
 21
64.29739999999999
 31
0.0
  0
LINE
  5
1E2
330
1E
100
AcDbEntity
  8
0
100
AcDbLine
 10
148.8755014999999
 20
64.29739999999999
 30
0.0
 11
149.0685014999999
 21
64.06749999999999
 31
0.0
  0
LINE
  5
1E3
330
1E
100
AcDbEntity
  8
0
100
AcDbLine
 10
149.0685014999999
 20
64.06749999999999
 30
0.0
 11
152.6525014999999
 21
64.46380000000001
 31
0.0
  0
LINE
  5
1E4
330
1E
100
AcDbEntity
  8
0
100
AcDbLine
 10
152.6525014999999
 20
64.46380000000001
 30
0.0
 11
155.5935015
 21
65.62609999999999
 31
0.0
  0
LINE
  5
1E5
330
1E
100
AcDbEntity
  8
0
100
AcDbLine
 10
151.0565015
 20
70.5658
 30
0.0
 11
152.9775015
 21
70.61069999999999
 31
0.0
  0
LINE
  5
1E6
330
1E
100
AcDbEntity
  8
0
100
AcDbLine
 10
139.5075014999999
 20
70.79550000000001
 30
0.0
 11
140.9855014999999
 21
69.03360000000001
 31
0.0
  0
LINE
  5
1E8
330
1E
100
AcDbEntity
  8
0
100
AcDbLine
 10
104.9995014999999
 20
71.40989999999999
 30
0.0
 11
106.7995014999999
 21
67.6772
 31
0.0
  0
LINE
  5
1E9
330
1E
100
AcDbEntity
  8
0
100
AcDbLine
 10
143.2835015
 20
70.96189999999999
 30
0.0
 11
144.7625014999999
 21
69.2
 31
0.0
  0
LINE
  5
1EA
330
1E
100
AcDbEntity
  8
0
100
AcDbLine
 10
147.4805015
 20
71.8724
 30
0.0
 11
149.1735014999999
 21
70.9435
 31
0.0
  0
LINE
  5
1EB
330
1E
100
AcDbEntity
  8
0
100
AcDbLine
 10
149.1735014999999
 20
70.9435
 30
0.0
 11
151.0565015
 21
70.5658
 31
0.0
  0
LINE
  5
1EC
330
1E
100
AcDbEntity
  8
0
100
AcDbLine
 10
152.9775015
 20
70.61069999999999
 30
0.0
 11
154.8065014999999
 21
71.23149999999999
 31
0.0
  0
LINE
  5
1ED
330
1E
100
AcDbEntity
  8
0
100
AcDbLine
 10
156.7555014999999
 20
62.6852
 30
0.0
 11
158.5605014999999
 21
58.9782
 31
0.0
  0
LINE
  5
1EE
330
1E
100
AcDbEntity
  8
0
100
AcDbLine
 10
158.5605014999999
 20
58.9782
 30
0.0
 11
160.3355014999999
 21
56.5516
 31
0.0
  0
LINE
  5
1EF
330
1E
100
AcDbEntity
  8
0
100
AcDbLine
 10
160.3355014999999
 20
56.5516
 30
0.0
 11
162.6775014999999
 21
53.2945
 31
0.0
  0
LINE
  5
1F0
330
1E
100
AcDbEntity
  8
0
100
AcDbLine
 10
162.6775014999999
 20
53.2945
 30
0.0
 11
165.3105014999999
 21
50.9348
 31
0.0
  0
LINE
  5
1F1
330
1E
100
AcDbEntity
  8
0
100
AcDbLine
 10
165.3105014999999
 20
50.9348
 30
0.0
 11
167.6835014999999
 21
49.6625
 31
0.0
  0
LINE
  5
1F2
330
1E
100
AcDbEntity
  8
0
100
AcDbLine
 10
167.6835014999999
 20
49.6625
 30
0.0
 11
170.1175015
 21
49.09449999999999
 31
0.0
  0
LINE
  5
1F3
330
1E
100
AcDbEntity
  8
0
100
AcDbLine
 10
170.1175015
 20
49.09449999999999
 30
0.0
 11
172.6135014999999
 21
49.2311
 31
0.0
  0
LINE
  5
1F4
330
1E
100
AcDbEntity
  8
0
100
AcDbLine
 10
174.1675015
 20
62.93639999999999
 30
0.0
 11
176.0345014999999
 21
59.9338
 31
0.0
  0
LINE
  5
1F5
330
1E
100
AcDbEntity
  8
0
100
AcDbLine
 10
176.0345014999999
 20
59.9338
 30
0.0
 11
176.8755014999999
 21
57.3759
 31
0.0
  0
LINE
  5
1F6
330
1E
100
AcDbEntity
  8
0
100
AcDbLine
 10
176.8755014999999
 20
57.3759
 30
0.0
 11
177.0125014999999
 21
54.87960000000001
 31
0.0
  0
LINE
  5
1F7
330
1E
100
AcDbEntity
  8
0
100
AcDbLine
 10
176.4445014999999
 20
52.445
 30
0.0
 11
177.0125014999999
 21
54.87960000000001
 31
0.0
  0
LINE
  5
1F8
330
1E
100
AcDbEntity
  8
0
100
AcDbLine
 10
174.8505014999999
 20
50.455
 30
0.0
 11
176.4445014999999
 21
52.445
 31
0.0
  0
LINE
  5
1F9
330
1E
100
AcDbEntity
  8
0
100
AcDbLine
 10
172.6135014999999
 20
49.2311
 30
0.0
 11
174.8505014999999
 21
50.455
 31
0.0
  0
LINE
  5
1FA
330
1E
100
AcDbEntity
  8
0
100
AcDbLine
 10
163.157787124489
 20
71.97367989480608
 30
0.0
 11
165.9485015
 21
70.3987
 31
0.0
  0
LINE
  5
1FB
330
1E
100
AcDbEntity
  8
0
100
AcDbLine
 10
155.696026970236
 20
65.6865974653314
 30
0.0
 11
156.7555014999999
 21
62.6852
 31
0.0
  0
LINE
  5
1FC
330
1E
100
AcDbEntity
  8
0
100
AcDbLine
 10
165.9485015
 20
70.3987
 30
0.0
 11
169.2855014999999
 21
67.9773
 31
0.0
  0
LINE
  5
1FD
330
1E
100
AcDbEntity
  8
0
100
AcDbLine
 10
169.2855014999999
 20
67.9773
 30
0.0
 11
171.3665015
 21
65.8077
 31
0.0
  0
LINE
  5
1FE
330
1E
100
AcDbEntity
  8
0
100
AcDbLine
 10
171.3665015
 20
65.8077
 30
0.0
 11
174.1675015
 21
62.93639999999999
 31
0.0
  0
LINE
  5
1FF
330
1E
100
AcDbEntity
  8
0
100
AcDbLine
 10
163.2535015
 20
72.054
 30
0.0
 11
164.9095014999999
 21
74.7484
 31
0.0
  0
LINE
  5
200
330
1E
100
AcDbEntity
  8
0
100
AcDbLine
 10
163.176033190555
 20
71.96338246434679
 30
0.0
 11
163.2535015
 21
72.054
 31
0.0
  0
LINE
  5
201
330
1E
100
AcDbEntity
  8
0
100
AcDbLine
 10
155.5935015
 20
65.62609999999999
 30
0.0
 11
155.696026970236
 21
65.6865974653314
 31
0.0
  0
LINE
  5
202
330
1E
100
AcDbEntity
  8
0
100
AcDbLine
 10
154.8065014999999
 20
71.23149999999999
 30
0.0
 11
156.5315014999999
 21
72.2873
 31
0.0
  0
LINE
  5
203
330
1E
100
AcDbEntity
  8
0
100
AcDbLine
 10
136.8715015
 20
73.9363
 30
0.0
 11
138.0925015
 21
72.4808
 31
0.0
  0
LINE
  5
204
330
1E
100
AcDbEntity
  8
0
100
AcDbLine
 10
119.3335014999999
 20
73.0573
 30
0.0
 11
125.5365014999999
 21
74.9989
 31
0.0
  0
LINE
  5
205
330
1E
100
AcDbEntity
  8
0
100
AcDbLine
 10
100.4995014999999
 20
72.3091
 30
0.0
 11
103.1995014999999
 21
69.5005
 31
0.0
  0
LINE
  5
206
330
1E
100
AcDbEntity
  8
0
100
AcDbLine
 10
96.99980150000001
 20
74.59220000000001
 30
0.0
 11
100.4995014999999
 21
72.3091
 31
0.0
  0
LINE
  5
207
330
1E
100
AcDbEntity
  8
0
100
AcDbLine
 10
88.4998015
 20
76.4344
 30
0.0
 11
92.89980149999999
 21
75.9089
 31
0.0
  0
LINE
  5
208
330
1E
100
AcDbEntity
  8
0
100
AcDbLine
 10
92.89980149999999
 20
75.9089
 30
0.0
 11
96.99980150000001
 21
74.59220000000001
 31
0.0
  0
LINE
  5
209
330
1E
100
AcDbEntity
  8
0
100
AcDbLine
 10
97.99980150000001
 20
77.15989999999999
 30
0.0
 11
101.8995015
 21
74.7923
 31
0.0
  0
LINE
  5
20A
330
1E
100
AcDbEntity
  8
0
100
AcDbLine
 10
101.8995015
 20
74.7923
 30
0.0
 11
104.9995014999999
 21
71.40989999999999
 31
0.0
  0
LINE
  5
20C
330
1E
100
AcDbEntity
  8
0
100
AcDbLine
 10
135.9715014999999
 20
75.0087
 30
0.0
 11
136.8715015
 21
73.9363
 31
0.0
  0
LINE
  5
20D
330
1E
100
AcDbEntity
  8
0
100
AcDbLine
 10
135.3935014999999
 20
75.69819999999999
 30
0.0
 11
135.9715014999999
 21
75.0087
 31
0.0
  0
LINE
  5
212
330
1E
100
AcDbEntity
  8
0
100
AcDbLine
 10
135.3235014999999
 20
77.33679999999999
 30
0.0
 11
136.0895014999999
 21
77.9796
 31
0.0
  0
LINE
  5
214
330
1E
100
AcDbEntity
  8
0
100
AcDbLine
 10
135.2005015
 20
75.928
 30
0.0
 11
135.3935014999999
 21
75.69819999999999
 31
0.0
  0
LINE
  5
215
330
1E
100
AcDbEntity
  8
0
100
AcDbLine
 10
135.2005015
 20
75.928
 30
0.0
 11
135.3235014999999
 21
77.33679999999999
 31
0.0
  0
LINE
  5
216
330
1E
100
AcDbEntity
  8
0
100
AcDbLine
 10
130.9735015
 20
76.2977
 30
0.0
 11
135.2005015
 21
75.928
 31
0.0
  0
LINE
  5
217
330
1E
100
AcDbEntity
  8
0
100
AcDbLine
 10
125.5365014999999
 20
74.9989
 30
0.0
 11
130.9735015
 21
76.2977
 31
0.0
  0
LINE
  5
218
330
1E
100
AcDbEntity
  8
0
100
AcDbLine
 10
107.7995014999999
 20
74.9295
 30
0.0
 11
108.0995014999999
 21
74.2295
 31
0.0
  0
LINE
  5
219
330
1E
100
AcDbEntity
  8
0
100
AcDbLine
 10
108.0995014999999
 20
74.2295
 30
0.0
 11
108.7995014999999
 21
69.4295
 31
0.0
  0
LINE
  5
21C
330
1E
100
AcDbEntity
  8
0
100
AcDbLine
 10
138.0925015
 20
72.4808
 30
0.0
 11
139.5075014999999
 21
70.79550000000001
 31
0.0
  0
LINE
  5
21F
330
1E
100
AcDbEntity
  8
0
100
AcDbLine
 10
141.8055015
 20
72.7238
 30
0.0
 11
143.2835015
 21
70.96189999999999
 31
0.0
  0
LINE
  5
220
330
1E
100
AcDbEntity
  8
0
100
AcDbLine
 10
144.9095014999999
 20
74.9366
 30
0.0
 11
145.9645014999999
 21
73.21169999999999
 31
0.0
  0
LINE
  5
221
330
1E
100
AcDbEntity
  8
0
100
AcDbLine
 10
144.2885014999999
 20
76.7655
 30
0.0
 11
144.9095014999999
 21
74.9366
 31
0.0
  0
LINE
  5
222
330
1E
100
AcDbEntity
  8
0
100
AcDbLine
 10
140.3915015
 20
74.40909999999999
 30
0.0
 11
141.8055015
 21
72.7238
 31
0.0
  0
LINE
  5
223
330
1E
100
AcDbEntity
  8
0
100
AcDbLine
 10
139.1695015
 20
75.86459999999999
 30
0.0
 11
140.3915015
 21
74.40909999999999
 31
0.0
  0
LINE
  5
224
330
1E
100
AcDbEntity
  8
0
100
AcDbLine
 10
138.2695014999999
 20
76.9371
 30
0.0
 11
139.1695015
 21
75.86459999999999
 31
0.0
  0
LINE
  5
225
330
1E
100
AcDbEntity
  8
0
100
AcDbLine
 10
137.6915014999999
 20
77.62649999999999
 30
0.0
 11
138.2695014999999
 21
76.9371
 31
0.0
  0
LINE
  5
226
330
1E
100
AcDbEntity
  8
0
100
AcDbLine
 10
88.4998015
 20
79.2679
 30
0.0
 11
93.3998015
 21
78.65179999999999
 31
0.0
  0
LINE
  5
227
330
1E
100
AcDbEntity
  8
0
100
AcDbLine
 10
136.0895014999999
 20
77.9796
 30
0.0
 11
137.4985015
 21
77.85630000000001
 31
0.0
  0
LINE
  5
229
330
1E
100
AcDbEntity
  8
0
100
AcDbLine
 10
93.3998015
 20
78.65179999999999
 30
0.0
 11
97.99980150000001
 21
77.15989999999999
 31
0.0
  0
LINE
  5
22A
330
1E
100
AcDbEntity
  8
0
100
AcDbLine
 10
105.7995014999999
 20
79.5295
 30
0.0
 11
107.7995014999999
 21
74.9295
 31
0.0
  0
LINE
  5
22B
330
1E
100
AcDbEntity
  8
0
100
AcDbLine
 10
144.2435014999999
 20
78.68590000000001
 30
0.0
 11
144.6215014999999
 21
80.56929999999999
 31
0.0
  0
LINE
  5
22C
330
1E
100
AcDbEntity
  8
0
100
AcDbLine
 10
144.2435014999999
 20
78.68590000000001
 30
0.0
 11
144.2885014999999
 21
76.7655
 31
0.0
  0
LINE
  5
22D
330
1E
100
AcDbEntity
  8
0
100
AcDbLine
 10
144.6215014999999
 20
80.56929999999999
 30
0.0
 11
145.5495014999999
 21
82.2625
 31
0.0
  0
LINE
  5
22E
330
1E
100
AcDbEntity
  8
0
100
AcDbLine
 10
145.5495014999999
 20
82.2625
 30
0.0
 11
146.8895015
 21
83.7779
 31
0.0
  0
LINE
  5
22F
330
1E
100
AcDbEntity
  8
0
100
AcDbLine
 10
138.5115014999999
 20
81.31680000000001
 30
0.0
 11
140.1665014999999
 21
84.0112
 31
0.0
  0
LINE
  5
230
330
1E
100
AcDbEntity
  8
0
100
AcDbLine
 10
137.4985015
 20
77.85630000000001
 30
0.0
 11
137.6915014999999
 21
77.62649999999999
 31
0.0
  0
LINE
  5
231
330
1E
100
AcDbEntity
  8
0
100
AcDbLine
 10
137.4985015
 20
77.85630000000001
 30
0.0
 11
138.5115014999999
 21
81.31680000000001
 31
0.0
  0
LINE
  5
232
330
1E
100
AcDbEntity
  8
0
100
AcDbLine
 10
145.9645014999999
 20
73.21169999999999
 30
0.0
 11
147.4805015
 21
71.8724
 31
0.0
  0
LINE
  5
233
330
1E
100
AcDbEntity
  8
0
100
AcDbLine
 10
102.5995015
 20
83.3295
 30
0.0
 11
105.7995014999999
 21
79.5295
 31
0.0
  0
LINE
  5
234
330
1E
100
AcDbEntity
  8
0
100
AcDbLine
 10
93.69980150000001
 20
88.3295
 30
0.0
 11
98.4998015
 21
86.5295
 31
0.0
  0
LINE
  5
235
330
1E
100
AcDbEntity
  8
0
100
AcDbLine
 10
137.4725014999999
 20
85.6665
 30
0.0
 11
140.2623164214859
 21
84.09160447980609
 31
0.0
  0
LINE
  5
236
330
1E
100
AcDbEntity
  8
0
100
AcDbLine
 10
134.1345014999999
 20
88.0879
 30
0.0
 11
137.4725014999999
 21
85.6665
 31
0.0
  0
LINE
  5
237
330
1E
100
AcDbEntity
  8
0
100
AcDbLine
 10
98.4998015
 20
86.5295
 30
0.0
 11
102.5995015
 21
83.3295
 31
0.0
  0
LINE
  5
238
330
1E
100
AcDbEntity
  8
0
100
AcDbLine
 10
140.1665014999999
 20
84.0112
 30
0.0
 11
140.244079253224
 21
84.10189965543819
 31
0.0
  0
LINE
  5
239
330
1E
100
AcDbEntity
  8
0
100
AcDbLine
 10
157.8385014999999
 20
83.17489999999999
 30
0.0
 11
159.6385014999999
 21
81.02999999999999
 31
0.0
  0
LINE
  5
23A
330
1E
100
AcDbEntity
  8
0
100
AcDbLine
 10
155.9405014999999
 20
84.1928
 30
0.0
 11
157.4555015
 21
82.85349999999999
 31
0.0
  0
LINE
  5
23B
330
1E
100
AcDbEntity
  8
0
100
AcDbLine
 10
156.0385015
 20
85.3198
 30
0.0
 11
157.8385014999999
 21
83.17489999999999
 31
0.0
  0
LINE
  5
23C
330
1E
100
AcDbEntity
  8
0
100
AcDbLine
 10
154.2465014999999
 20
85.12170000000001
 30
0.0
 11
155.9405014999999
 21
84.1928
 31
0.0
  0
LINE
  5
23E
330
1E
100
AcDbEntity
  8
0
100
AcDbLine
 10
157.5705014999999
 20
86.60540000000001
 30
0.0
 11
159.3705014999999
 21
84.46049999999999
 31
0.0
  0
LINE
  5
242
330
1E
100
AcDbEntity
  8
0
100
AcDbLine
 10
154.3035014999999
 20
87.3882
 30
0.0
 11
156.0385015
 21
85.3198
 31
0.0
  0
LINE
  5
243
330
1E
100
AcDbEntity
  8
0
100
AcDbLine
 10
152.3635014999999
 20
85.49939999999999
 30
0.0
 11
154.2465014999999
 21
85.12170000000001
 31
0.0
  0
LINE
  5
244
330
1E
100
AcDbEntity
  8
0
100
AcDbLine
 10
150.4425014999999
 20
85.4545
 30
0.0
 11
152.3635014999999
 21
85.49939999999999
 31
0.0
  0
LINE
  5
245
330
1E
100
AcDbEntity
  8
0
100
AcDbLine
 10
148.6145014999999
 20
84.83369999999998
 30
0.0
 11
150.4425014999999
 21
85.4545
 31
0.0
  0
LINE
  5
246
330
1E
100
AcDbEntity
  8
0
100
AcDbLine
 10
146.8895015
 20
83.7779
 30
0.0
 11
148.6145014999999
 21
84.83369999999998
 31
0.0
  0
LINE
  5
247
330
1E
100
AcDbEntity
  8
0
100
AcDbLine
 10
157.4555015
 20
82.85349999999999
 30
0.0
 11
158.5115014999999
 21
81.12860000000001
 31
0.0
  0
LINE
  5
248
330
1E
100
AcDbEntity
  8
0
100
AcDbLine
 10
165.6135014999999
 20
74.6868
 30
0.0
 11
166.3795014999999
 21
75.3296
 31
0.0
  0
LINE
  5
24A
330
1E
100
AcDbEntity
  8
0
100
AcDbLine
 10
166.3795014999999
 20
75.3296
 30
0.0
 11
166.4415014999999
 21
76.03399999999999
 31
0.0
  0
LINE
  5
24B
330
1E
100
AcDbEntity
  8
0
100
AcDbLine
 10
164.9095014999999
 20
74.7484
 30
0.0
 11
165.6135014999999
 21
74.6868
 31
0.0
  0
LINE
  5
24C
330
1E
100
AcDbEntity
  8
0
100
AcDbLine
 10
164.6525014999999
 20
75.0548
 30
0.0
 11
164.9095014999999
 21
74.7484
 31
0.0
  0
LINE
  5
24F
330
1E
100
AcDbEntity
  8
0
100
AcDbLine
 10
158.5115014999999
 20
81.12860000000001
 30
0.0
 11
159.1325014999999
 21
79.2998
 31
0.0
  0
LINE
  5
252
330
1E
100
AcDbEntity
  8
0
100
AcDbLine
 10
159.3705014999999
 20
84.46049999999999
 30
0.0
 11
161.1705015
 21
82.31559999999999
 31
0.0
  0
LINE
  5
253
330
1E
100
AcDbEntity
  8
0
100
AcDbLine
 10
162.4345014999999
 20
87.0316
 30
0.0
 11
164.4025014999999
 21
84.37510000000001
 31
0.0
  0
LINE
  5
254
330
1E
100
AcDbEntity
  8
0
100
AcDbLine
 10
161.1705015
 20
82.31559999999999
 30
0.0
 11
162.9055014999999
 21
80.2472
 31
0.0
  0
LINE
  5
259
330
1E
100
AcDbEntity
  8
0
100
AcDbLine
 10
159.6385014999999
 20
81.02999999999999
 30
0.0
 11
161.3735015
 21
78.96169999999999
 31
0.0
  0
LINE
  5
25A
330
1E
100
AcDbEntity
  8
0
100
AcDbLine
 10
161.3735015
 20
78.96169999999999
 30
0.0
 11
162.8525014999999
 21
77.19979999999999
 31
0.0
  0
LINE
  5
25B
330
1E
100
AcDbEntity
  8
0
100
AcDbLine
 10
165.4775015
 20
77.18309999999999
 30
0.0
 11
166.1845014999999
 21
76.3404
 31
0.0
  0
LINE
  5
25C
330
1E
100
AcDbEntity
  8
0
100
AcDbLine
 10
166.1845014999999
 20
76.3404
 30
0.0
 11
166.4415014999999
 21
76.03399999999999
 31
0.0
  0
LINE
  5
25E
330
1E
100
AcDbEntity
  8
0
100
AcDbLine
 10
162.9055014999999
 20
80.2472
 30
0.0
 11
164.3845015
 21
78.4853
 31
0.0
  0
LINE
  5
25F
330
1E
100
AcDbEntity
  8
0
100
AcDbLine
 10
164.4025014999999
 20
84.37510000000001
 30
0.0
 11
165.9135014999999
 21
80.55190000000001
 31
0.0
  0
LINE
  5
260
330
1E
100
AcDbEntity
  8
0
100
AcDbLine
 10
165.9135014999999
 20
80.55190000000001
 30
0.0
 11
166.4415014999999
 21
76.03399999999999
 31
0.0
  0
LINE
  5
261
330
1E
100
AcDbEntity
  8
0
100
AcDbLine
 10
164.3845015
 20
78.4853
 30
0.0
 11
165.4775015
 21
77.18309999999999
 31
0.0
  0
LINE
  5
264
330
1E
100
AcDbEntity
  8
0
100
AcDbLine
 10
162.8525014999999
 20
77.19979999999999
 30
0.0
 11
163.9445014999999
 21
75.89749999999999
 31
0.0
  0
LINE
  5
265
330
1E
100
AcDbEntity
  8
0
100
AcDbLine
 10
163.9445014999999
 20
75.89749999999999
 30
0.0
 11
164.6525014999999
 21
75.0548
 31
0.0
  0
LINE
  5
266
330
1E
100
AcDbEntity
  8
0
100
AcDbLine
 10
159.1325014999999
 20
79.2998
 30
0.0
 11
159.1765015
 21
77.3793
 31
0.0
  0
LINE
  5
267
330
1E
100
AcDbEntity
  8
0
100
AcDbLine
 10
158.7995014999999
 20
75.49590000000001
 30
0.0
 11
159.1765015
 21
77.3793
 31
0.0
  0
LINE
  5
268
330
1E
100
AcDbEntity
  8
0
100
AcDbLine
 10
157.8705014999999
 20
73.8027
 30
0.0
 11
158.7995014999999
 21
75.49590000000001
 31
0.0
  0
LINE
  5
269
330
1E
100
AcDbEntity
  8
0
100
AcDbLine
 10
156.5315014999999
 20
72.2873
 30
0.0
 11
157.8705014999999
 21
73.8027
 31
0.0
  0
LINE
  5
26A
330
1E
100
AcDbEntity
  8
0
100
AcDbLine
 10
84.0998015
 20
75.9089
 30
0.0
 11
88.4998015
 21
76.4344
 31
0.0
  0
LINE
  5
26B
330
1E
100
AcDbEntity
  8
0
100
AcDbLine
 10
84.0998015
 20
49.0431
 30
0.0
 11
88.4998015
 21
48.5599
 31
0.0
  0
LINE
  5
26C
330
1E
100
AcDbEntity
  8
0
100
AcDbLine
 10
83.5998015
 20
48.62709999999999
 30
0.0
 11
88.4998015
 21
48.011
 31
0.0
  0
LINE
  5
26D
330
1E
100
AcDbEntity
  8
0
100
AcDbLine
 10
126.5445015
 20
98.6893
 30
0.0
 11
127.3855014999999
 21
96.13140000000001
 31
0.0
  0
LINE
  5
26E
330
1E
100
AcDbEntity
  8
0
100
AcDbLine
 10
126.4085014999999
 20
101.1855
 30
0.0
 11
126.9765014999999
 21
103.6205
 31
0.0
  0
LINE
  5
26F
330
1E
100
AcDbEntity
  8
0
100
AcDbLine
 10
126.4085014999999
 20
101.1855
 30
0.0
 11
126.5445015
 21
98.6893
 31
0.0
  0
LINE
  5
270
330
1E
100
AcDbEntity
  8
0
100
AcDbLine
 10
146.6645015
 20
93.37999999999999
 30
0.0
 11
147.723976029764
 21
90.37860253466872
 31
0.0
  0
LINE
  5
271
330
1E
100
AcDbEntity
  8
0
100
AcDbLine
 10
132.0535014999999
 20
90.2575
 30
0.0
 11
134.1345014999999
 21
88.0879
 31
0.0
  0
LINE
  5
272
330
1E
100
AcDbEntity
  8
0
100
AcDbLine
 10
129.2525015
 20
93.12879999999999
 30
0.0
 11
132.0535014999999
 21
90.2575
 31
0.0
  0
LINE
  5
273
330
1E
100
AcDbEntity
  8
0
100
AcDbLine
 10
144.8595014999999
 20
97.087
 30
0.0
 11
146.6645015
 21
93.37999999999999
 31
0.0
  0
LINE
  5
274
330
1E
100
AcDbEntity
  8
0
100
AcDbLine
 10
143.0845014999999
 20
99.5137
 30
0.0
 11
144.8595014999999
 21
97.087
 31
0.0
  0
LINE
  5
275
330
1E
100
AcDbEntity
  8
0
100
AcDbLine
 10
140.7425015
 20
102.7705
 30
0.0
 11
143.0845014999999
 21
99.5137
 31
0.0
  0
LINE
  5
276
330
1E
100
AcDbEntity
  8
0
100
AcDbLine
 10
138.1105014999999
 20
105.1304999999999
 30
0.0
 11
140.7425015
 21
102.7705
 31
0.0
  0
LINE
  5
277
330
1E
100
AcDbEntity
  8
0
100
AcDbLine
 10
135.7375014999999
 20
106.4024999999999
 30
0.0
 11
138.1105014999999
 21
105.1304999999999
 31
0.0
  0
LINE
  5
278
330
1E
100
AcDbEntity
  8
0
100
AcDbLine
 10
133.3025014999999
 20
106.9705
 30
0.0
 11
135.7375014999999
 21
106.4024999999999
 31
0.0
  0
LINE
  5
279
330
1E
100
AcDbEntity
  8
0
100
AcDbLine
 10
130.8065014999999
 20
106.8345
 30
0.0
 11
133.3025014999999
 21
106.9705
 31
0.0
  0
LINE
  5
27A
330
1E
100
AcDbEntity
  8
0
100
AcDbLine
 10
128.5695014999999
 20
105.6105
 30
0.0
 11
130.8065014999999
 21
106.8345
 31
0.0
  0
LINE
  5
27B
330
1E
100
AcDbEntity
  8
0
100
AcDbLine
 10
127.3855014999999
 20
96.13140000000001
 30
0.0
 11
129.2525015
 21
93.12879999999999
 31
0.0
  0
LINE
  5
27C
330
1E
100
AcDbEntity
  8
0
100
AcDbLine
 10
126.9765014999999
 20
103.6205
 30
0.0
 11
128.5695014999999
 21
105.6105
 31
0.0
  0
LINE
  5
27D
330
1E
100
AcDbEntity
  8
0
100
AcDbLine
 10
88.4998015
 20
89.0295
 30
0.0
 11
93.69980150000001
 21
88.3295
 31
0.0
  0
LINE
  5
27E
330
1E
100
AcDbEntity
  8
0
100
AcDbLine
 10
160.1605014999999
 20
89.43099999999999
 30
0.0
 11
162.4345014999999
 21
87.0316
 31
0.0
  0
LINE
  5
27F
330
1E
100
AcDbEntity
  8
0
100
AcDbLine
 10
155.8355015
 20
88.67369999999999
 30
0.0
 11
157.5705014999999
 21
86.60540000000001
 31
0.0
  0
LINE
  5
281
330
1E
100
AcDbEntity
  8
0
100
AcDbLine
 10
154.3565014999999
 20
90.43559999999999
 30
0.0
 11
155.8355015
 21
88.67369999999999
 31
0.0
  0
LINE
  5
284
330
1E
100
AcDbEntity
  8
0
100
AcDbLine
 10
152.8245014999999
 20
89.1501
 30
0.0
 11
154.3035014999999
 21
87.3882
 31
0.0
  0
LINE
  5
286
330
1E
100
AcDbEntity
  8
0
100
AcDbLine
 10
151.7315014999999
 20
90.4523
 30
0.0
 11
152.8245014999999
 21
89.1501
 31
0.0
  0
LINE
  5
287
330
1E
100
AcDbEntity
  8
0
100
AcDbLine
 10
156.6575014999999
 20
91.583
 30
0.0
 11
160.1605014999999
 21
89.43099999999999
 31
0.0
  0
LINE
  5
288
330
1E
100
AcDbEntity
  8
0
100
AcDbLine
 10
153.2645014999999
 20
91.7379
 30
0.0
 11
154.3565014999999
 21
90.43559999999999
 31
0.0
  0
LINE
  5
28A
330
1E
100
AcDbEntity
  8
0
100
AcDbLine
 10
152.5575015
 20
92.5805
 30
0.0
 11
153.2645014999999
 21
91.7379
 31
0.0
  0
LINE
  5
28B
330
1E
100
AcDbEntity
  8
0
100
AcDbLine
 10
152.2995015
 20
92.887
 30
0.0
 11
152.5575015
 21
92.5805
 31
0.0
  0
LINE
  5
28C
330
1E
100
AcDbEntity
  8
0
100
AcDbLine
 10
152.2995015
 20
92.887
 30
0.0
 11
156.6575014999999
 21
91.583
 31
0.0
  0
LINE
  5
28F
330
1E
100
AcDbEntity
  8
0
100
AcDbLine
 10
151.5955014999999
 20
92.94859999999999
 30
0.0
 11
152.2995015
 21
92.887
 31
0.0
  0
LINE
  5
292
330
1E
100
AcDbEntity
  8
0
100
AcDbLine
 10
150.8295014999999
 20
92.30580000000001
 30
0.0
 11
151.5955014999999
 21
92.94859999999999
 31
0.0
  0
LINE
  5
293
330
1E
100
AcDbEntity
  8
0
100
AcDbLine
 10
151.0245014999999
 20
91.295
 30
0.0
 11
151.7315014999999
 21
90.4523
 31
0.0
  0
LINE
  5
294
330
1E
100
AcDbEntity
  8
0
100
AcDbLine
 10
150.7675014999999
 20
91.6014
 30
0.0
 11
151.0245014999999
 21
91.295
 31
0.0
  0
LINE
  5
295
330
1E
100
AcDbEntity
  8
0
100
AcDbLine
 10
150.7675014999999
 20
91.6014
 30
0.0
 11
150.8295014999999
 21
92.30580000000001
 31
0.0
  0
LINE
  5
296
330
1E
100
AcDbEntity
  8
0
100
AcDbLine
 10
147.8265014999999
 20
90.4391
 30
0.0
 11
150.7675014999999
 21
91.6014
 31
0.0
  0
LINE
  5
297
330
1E
100
AcDbEntity
  8
0
100
AcDbLine
 10
147.723976029764
 20
90.37860253466872
 30
0.0
 11
147.8265014999999
 21
90.4391
 31
0.0
  0
LINE
  5
298
330
1E
100
AcDbEntity
  8
0
100
AcDbLine
 10
83.2998015
 20
88.3295
 30
0.0
 11
88.4998015
 21
89.0295
 31
0.0
  0
LINE
  5
299
330
1E
100
AcDbEntity
  8
0
100
AcDbLine
 10
82.7998015
 20
0.0295000000000006
 30
0.0
 11
88.4998015
 21
0.0295000000000005
 31
0.0
  0
ENDSEC
  0
SECTION
  2
OBJECTS
  0
DICTIONARY
  5
C
330
0
100
AcDbDictionary
281
     1
  3
ACAD_GROUP
350
D
  3
ACAD_LAYOUT
350
19
  3
ACAD_MLINESTYLE
350
16
  3
ACAD_PLOTSETTINGS
350
18
  3
ACAD_PLOTSTYLENAME
350
E
  3
AcDbVariableDictionary
350
29E
  0
DICTIONARY
  5
D
102
{ACAD_REACTORS
330
C
102
}
330
C
100
AcDbDictionary
281
     1
  0
DICTIONARY
  5
19
102
{ACAD_REACTORS
330
C
102
}
330
C
100
AcDbDictionary
281
     1
  3
Layout1
350
1D
  3
Model
350
21
  0
DICTIONARY
  5
16
102
{ACAD_REACTORS
330
C
102
}
330
C
100
AcDbDictionary
281
     1
  3
Standard
350
17
  0
DICTIONARY
  5
18
102
{ACAD_REACTORS
330
C
102
}
330
C
100
AcDbDictionary
281
     1
  0
ACDBDICTIONARYWDFLT
  5
E
102
{ACAD_REACTORS
330
C
102
}
330
C
100
AcDbDictionary
281
     1
  3
Normal
350
F
100
AcDbDictionaryWithDefault
340
F
  0
DICTIONARY
  5
29E
102
{ACAD_REACTORS
330
C
102
}
330
C
100
AcDbDictionary
281
     1
  3
DIMASSOC
350
29F
  0
LAYOUT
  5
1D
102
{ACAD_REACTORS
330
19
102
}
330
19
100
AcDbPlotSettings
  1

  2
hp deskjet 980c series
  4

  6

 40
0.0
 41
0.0
 42
0.0
 43
0.0
 44
0.0
 45
0.0
 46
0.0
 47
0.0
 48
0.0
 49
0.0
140
0.0
141
0.0
142
1.0
143
1.0
 70
   688
 72
     0
 73
     0
 74
     5
  7

 75
    16
147
1.0
148
0.0
149
0.0
100
AcDbLayout
  1
Layout1
 70
     1
 71
     1
 10
0.0
 20
0.0
 11
12.0
 21
9.0
 12
0.0
 22
0.0
 32
0.0
 14
1.000000000000000E+20
 24
1.000000000000000E+20
 34
1.000000000000000E+20
 15
-1.000000000000000E+20
 25
-1.000000000000000E+20
 35
-1.000000000000000E+20
146
0.0
 13
0.0
 23
0.0
 33
0.0
 16
1.0
 26
0.0
 36
0.0
 17
0.0
 27
1.0
 37
0.0
 76
     0
330
1A
  0
LAYOUT
  5
21
102
{ACAD_REACTORS
330
19
102
}
330
19
100
AcDbPlotSettings
  1

  2
hp deskjet 980c series
  4

  6

 40
0.0
 41
0.0
 42
0.0
 43
0.0
 44
0.0
 45
0.0
 46
0.0
 47
0.0
 48
0.0
 49
0.0
140
0.0
141
0.0
142
1.0
143
1.0
 70
  1712
 72
     0
 73
     0
 74
     0
  7

 75
     0
147
1.0
148
0.0
149
0.0
100
AcDbLayout
  1
Model
 70
     1
 71
     0
 10
0.0
 20
0.0
 11
12.0
 21
9.0
 12
0.0
 22
0.0
 32
0.0
 14
0.0
 24
0.0
 34
0.0
 15
0.0
 25
0.0
 35
0.0
146
0.0
 13
0.0
 23
0.0
 33
0.0
 16
1.0
 26
0.0
 36
0.0
 17
0.0
 27
1.0
 37
0.0
 76
     0
330
1E
  0
MLINESTYLE
  5
17
102
{ACAD_REACTORS
330
16
102
}
330
16
100
AcDbMlineStyle
  2
STANDARD
 70
     0
  3

 62
   256
 51
90.0
 52
90.0
 71
     2
 49
0.5
 62
   256
  6
BYLAYER
 49
-0.5
 62
   256
  6
BYLAYER
  0
ACDBPLACEHOLDER
  5
F
102
{ACAD_REACTORS
330
E
102
}
330
E
  0
DICTIONARYVAR
  5
29F
102
{ACAD_REACTORS
330
29E
102
}
330
29E
100
DictionaryVariables
280
     0
  1
1
  0
ENDSEC
  0
EOF
