  0
SECTION
  2
HEADER
  9
$ACADVER
  1
AC1014
  9
$ACADMAINTVER
 70
     9
  9
$DWGCODEPAGE
  3
ANSI_1252
  9
$INSBASE
 10
0.0
 20
0.0
 30
0.0
  9
$EXTMIN
 10
0.000000000000001
 20
0.0000000000000171
 30
0.0
  9
$EXTMAX
 10
95.0
 20
212.0
 30
0.0
  9
$LIMMIN
 10
0.0
 20
0.0
  9
$LIMMAX
 10
12.0
 20
9.0
  9
$ORTHOMODE
 70
     0
  9
$REGENMODE
 70
     1
  9
$FILLMODE
 70
     1
  9
$QTEXTMODE
 70
     0
  9
$MIRRTEXT
 70
     1
  9
$DRAGMODE
 70
     2
  9
$LTSCALE
 40
1.0
  9
$OSMODE
 70
    37
  9
$ATTMODE
 70
     1
  9
$TEXTSIZE
 40
0.2
  9
$TRACEWID
 40
0.05
  9
$TEXTSTYLE
  7
STANDARD
  9
$CLAYER
  8
0
  9
$CELTYPE
  6
CONTINUOUS
  9
$CECOLOR
 62
   256
  9
$CELTSCALE
 40
1.0
  9
$DELOBJ
 70
     1
  9
$DISPSILH
 70
     0
  9
$DIMSCALE
 40
1.0
  9
$DIMASZ
 40
0.18
  9
$DIMEXO
 40
0.0625
  9
$DIMDLI
 40
0.38
  9
$DIMRND
 40
0.0
  9
$DIMDLE
 40
0.0
  9
$DIMEXE
 40
0.18
  9
$DIMTP
 40
0.0
  9
$DIMTM
 40
0.0
  9
$DIMTXT
 40
0.18
  9
$DIMCEN
 40
0.09
  9
$DIMTSZ
 40
0.0
  9
$DIMTOL
 70
     0
  9
$DIMLIM
 70
     0
  9
$DIMTIH
 70
     1
  9
$DIMTOH
 70
     1
  9
$DIMSE1
 70
     0
  9
$DIMSE2
 70
     0
  9
$DIMTAD
 70
     0
  9
$DIMZIN
 70
     0
  9
$DIMBLK
  1

  9
$DIMASO
 70
     1
  9
$DIMSHO
 70
     1
  9
$DIMPOST
  1

  9
$DIMAPOST
  1

  9
$DIMALT
 70
     0
  9
$DIMALTD
 70
     2
  9
$DIMALTF
 40
25.4
  9
$DIMLFAC
 40
1.0
  9
$DIMTOFL
 70
     0
  9
$DIMTVP
 40
0.0
  9
$DIMTIX
 70
     0
  9
$DIMSOXD
 70
     0
  9
$DIMSAH
 70
     0
  9
$DIMBLK1
  1

  9
$DIMBLK2
  1

  9
$DIMSTYLE
  2
STANDARD
  9
$DIMCLRD
 70
     0
  9
$DIMCLRE
 70
     0
  9
$DIMCLRT
 70
     0
  9
$DIMTFAC
 40
1.0
  9
$DIMGAP
 40
0.09
  9
$DIMJUST
 70
     0
  9
$DIMSD1
 70
     0
  9
$DIMSD2
 70
     0
  9
$DIMTOLJ
 70
     1
  9
$DIMTZIN
 70
     0
  9
$DIMALTZ
 70
     0
  9
$DIMALTTZ
 70
     0
  9
$DIMFIT
 70
     3
  9
$DIMUPT
 70
     0
  9
$DIMUNIT
 70
     2
  9
$DIMDEC
 70
     4
  9
$DIMTDEC
 70
     4
  9
$DIMALTU
 70
     2
  9
$DIMALTTD
 70
     2
  9
$DIMTXSTY
  7
STANDARD
  9
$DIMAUNIT
 70
     0
  9
$LUNITS
 70
     2
  9
$LUPREC
 70
     4
  9
$SKETCHINC
 40
0.1
  9
$FILLETRAD
 40
0.0
  9
$AUNITS
 70
     0
  9
$AUPREC
 70
     0
  9
$MENU
  1
.
  9
$ELEVATION
 40
0.0
  9
$PELEVATION
 40
0.0
  9
$THICKNESS
 40
0.0
  9
$LIMCHECK
 70
     0
  9
$BLIPMODE
 70
     0
  9
$CHAMFERA
 40
0.0
  9
$CHAMFERB
 40
0.0
  9
$CHAMFERC
 40
0.0
  9
$CHAMFERD
 40
0.0
  9
$SKPOLY
 70
     0
  9
$TDCREATE
 40
2454691.852199606
  9
$TDUPDATE
 40
2454691.853521585
  9
$TDINDWG
 40
0.0013221644
  9
$TDUSRTIMER
 40
0.0013221644
  9
$USRTIMER
 70
     1
  9
$ANGBASE
 50
0.0
  9
$ANGDIR
 70
     0
  9
$PDMODE
 70
     0
  9
$PDSIZE
 40
0.0
  9
$PLINEWID
 40
0.0
  9
$COORDS
 70
     1
  9
$SPLFRAME
 70
     0
  9
$SPLINETYPE
 70
     6
  9
$SPLINESEGS
 70
     8
  9
$ATTDIA
 70
     0
  9
$ATTREQ
 70
     1
  9
$HANDLING
 70
 22529
  9
$HANDSEED
  5
253
  9
$SURFTAB1
 70
     6
  9
$SURFTAB2
 70
     6
  9
$SURFTYPE
 70
     6
  9
$SURFU
 70
     6
  9
$SURFV
 70
     6
  9
$UCSNAME
  2

  9
$UCSORG
 10
0.0
 20
0.0
 30
0.0
  9
$UCSXDIR
 10
1.0
 20
0.0
 30
0.0
  9
$UCSYDIR
 10
0.0
 20
1.0
 30
0.0
  9
$PUCSNAME
  2

  9
$PUCSORG
 10
0.0
 20
0.0
 30
0.0
  9
$PUCSXDIR
 10
1.0
 20
0.0
 30
0.0
  9
$PUCSYDIR
 10
0.0
 20
1.0
 30
0.0
  9
$USERI1
 70
     0
  9
$USERI2
 70
     0
  9
$USERI3
 70
     0
  9
$USERI4
 70
     0
  9
$USERI5
 70
     0
  9
$USERR1
 40
0.0
  9
$USERR2
 40
0.0
  9
$USERR3
 40
0.0
  9
$USERR4
 40
0.0
  9
$USERR5
 40
0.0
  9
$WORLDVIEW
 70
     1
  9
$SHADEDGE
 70
     3
  9
$SHADEDIF
 70
    70
  9
$TILEMODE
 70
     1
  9
$MAXACTVP
 70
    64
  9
$PINSBASE
 10
0.0
 20
0.0
 30
0.0
  9
$PLIMCHECK
 70
     0
  9
$PEXTMIN
 10
1.000000000000000E+20
 20
1.000000000000000E+20
 30
1.000000000000000E+20
  9
$PEXTMAX
 10
-1.000000000000000E+20
 20
-1.000000000000000E+20
 30
-1.000000000000000E+20
  9
$PLIMMIN
 10
0.0
 20
0.0
  9
$PLIMMAX
 10
12.0
 20
9.0
  9
$UNITMODE
 70
     0
  9
$VISRETAIN
 70
     1
  9
$PLINEGEN
 70
     0
  9
$PSLTSCALE
 70
     1
  9
$TREEDEPTH
 70
  3020
  9
$PICKSTYLE
 70
     1
  9
$CMLSTYLE
  2
STANDARD
  9
$CMLJUST
 70
     0
  9
$CMLSCALE
 40
1.0
  9
$PROXYGRAPHICS
 70
     1
  9
$MEASUREMENT
 70
     0
  0
ENDSEC
  0
SECTION
  2
CLASSES
  0
CLASS
  1
ACDBDICTIONARYWDFLT
  2
AcDbDictionaryWithDefault
  3
AutoCAD 2000
 90
        0
280
     0
281
     0
  0
CLASS
  1
ACDBPLACEHOLDER
  2
AcDbPlaceHolder
  3
AutoCAD 2000
 90
        0
280
     0
281
     0
  0
CLASS
  1
LAYOUT
  2
AcDbLayout
  3
AutoCAD 2000
 90
        0
280
     0
281
     0
  0
CLASS
  1
DICTIONARYVAR
  2
AcDbDictionaryVar
  3
AutoCAD 2000
 90
        0
280
     0
281
     0
  0
CLASS
  1
LONG_TRANSACTION
  2
AcDbLongTransaction
  3
AutoCAD 2000
 90
        0
280
     0
281
     0
  0
CLASS
  1
LWPOLYLINE
  2
AcDbPolyline
  3
AutoCAD 2000
 90
        0
280
     0
281
     1
  0
CLASS
  1
HATCH
  2
AcDbHatch
  3
AutoCAD 2000
 90
        0
280
     0
281
     1
  0
CLASS
  1
XRECORD
  2
AcDbXrecord
  3
AutoCAD 2000
 90
        0
280
     0
281
     0
  0
ENDSEC
  0
SECTION
  2
TABLES
  0
TABLE
  2
VPORT
  5
8
330
0
100
AcDbSymbolTable
 70
     2
  0
VPORT
  5
22E
330
8
100
AcDbSymbolTableRecord
100
AcDbViewportTableRecord
  2
*ACTIVE
 70
     0
 10
0.0
 20
0.0
 11
1.0
 21
1.0
 12
47.5
 22
106.0
 13
0.0
 23
0.0
 14
1.0
 24
1.0
 15
0.0
 25
0.0
 16
0.0
 26
0.0
 36
1.0
 17
0.0
 27
0.0
 37
0.0
 40
213.626598465473
 41
2.078104993597951
 42
50.0
 43
0.0
 44
0.0
 50
0.0
 51
0.0
 71
     0
 72
   100
 73
     1
 74
     3
 75
     0
 76
     0
 77
     0
 78
     0
  0
ENDTAB
  0
TABLE
  2
LTYPE
  5
5
330
0
100
AcDbSymbolTable
 70
     1
  0
LTYPE
  5
13
330
5
100
AcDbSymbolTableRecord
100
AcDbLinetypeTableRecord
  2
BYBLOCK
 70
     0
  3

 72
    65
 73
     0
 40
0.0
  0
LTYPE
  5
14
330
5
100
AcDbSymbolTableRecord
100
AcDbLinetypeTableRecord
  2
BYLAYER
 70
     0
  3

 72
    65
 73
     0
 40
0.0
  0
LTYPE
  5
15
330
5
100
AcDbSymbolTableRecord
100
AcDbLinetypeTableRecord
  2
CONTINUOUS
 70
     0
  3
Solid line
 72
    65
 73
     0
 40
0.0
  0
ENDTAB
  0
TABLE
  2
LAYER
  5
2
330
0
100
AcDbSymbolTable
 70
     1
  0
LAYER
  5
10
330
2
100
AcDbSymbolTableRecord
100
AcDbLayerTableRecord
  2
0
 70
     0
 62
     7
  6
CONTINUOUS
  0
ENDTAB
  0
TABLE
  2
STYLE
  5
3
330
0
100
AcDbSymbolTable
 70
     1
  0
STYLE
  5
11
330
3
100
AcDbSymbolTableRecord
100
AcDbTextStyleTableRecord
  2
STANDARD
 70
     0
 40
0.0
 41
1.0
 50
0.0
 71
     0
 42
0.2
  3
txt
  4

  0
ENDTAB
  0
TABLE
  2
VIEW
  5
6
330
0
100
AcDbSymbolTable
 70
     0
  0
ENDTAB
  0
TABLE
  2
UCS
  5
7
330
0
100
AcDbSymbolTable
 70
     0
  0
ENDTAB
  0
TABLE
  2
APPID
  5
9
330
0
100
AcDbSymbolTable
 70
     1
  0
APPID
  5
12
330
9
100
AcDbSymbolTableRecord
100
AcDbRegAppTableRecord
  2
ACAD
 70
     0
  0
ENDTAB
  0
TABLE
  2
DIMSTYLE
  5
A
330
0
100
AcDbSymbolTable
 70
     1
  0
DIMSTYLE
105
21C
330
A
100
AcDbSymbolTableRecord
100
AcDbDimStyleTableRecord
  2
STANDARD
 70
     0
  3

  4

  5

  6

  7

 40
1.0
 41
0.18
 42
0.0625
 43
0.38
 44
0.18
 45
0.0
 46
0.0
 47
0.0
 48
0.0
140
0.18
141
0.09
142
0.0
143
25.4
144
1.0
145
0.0
146
1.0
147
0.09
 71
     0
 72
     0
 73
     1
 74
     1
 75
     0
 76
     0
 77
     0
 78
     0
170
     0
171
     2
172
     0
173
     0
174
     0
175
     0
176
     0
177
     0
178
     0
270
     2
271
     4
272
     4
273
     2
274
     2
340
11
275
     0
280
     0
281
     0
282
     0
283
     1
284
     0
285
     0
286
     0
287
     3
288
     0
  0
ENDTAB
  0
TABLE
  2
BLOCK_RECORD
  5
1
330
0
100
AcDbSymbolTable
 70
     0
  0
BLOCK_RECORD
  5
1E
102
{ACAD_XDICTIONARY
360
251
102
}
330
1
100
AcDbSymbolTableRecord
100
AcDbBlockTableRecord
  2
*MODEL_SPACE
  0
BLOCK_RECORD
  5
1A
102
{ACAD_XDICTIONARY
360
24F
102
}
330
1
100
AcDbSymbolTableRecord
100
AcDbBlockTableRecord
  2
*PAPER_SPACE
  0
ENDTAB
  0
ENDSEC
  0
SECTION
  2
BLOCKS
  0
BLOCK
  5
1F
330
1E
100
AcDbEntity
  8
0
100
AcDbBlockBegin
  2
*MODEL_SPACE
 70
     0
 10
0.0
 20
0.0
 30
0.0
  3
*MODEL_SPACE
  1

  0
ENDBLK
  5
20
330
1E
100
AcDbEntity
  8
0
100
AcDbBlockEnd
  0
BLOCK
  5
1B
330
1A
100
AcDbEntity
 67
     1
  8
0
100
AcDbBlockBegin
  2
*PAPER_SPACE
 70
     0
 10
0.0
 20
0.0
 30
0.0
  3
*PAPER_SPACE
  1

  0
ENDBLK
  5
1C
330
1A
100
AcDbEntity
 67
     1
  8
0
100
AcDbBlockEnd
  0
ENDSEC
  0
SECTION
  2
ENTITIES
  0
LINE
  5
22
330
1E
100
AcDbEntity
  8
0
100
AcDbLine
 10
0.000000000000001
 20
185.0
 30
0.0
 11
1.0
 21
191.9
 31
0.0
  0
LINE
  5
23
330
1E
100
AcDbEntity
  8
0
100
AcDbLine
 10
0.000000000000001
 20
185.0
 30
0.0
 11
1.0
 21
178.0999999999999
 31
0.0
  0
LINE
  5
24
330
1E
100
AcDbEntity
  8
0
100
AcDbLine
 10
4.0
 20
171.8
 30
0.0
 11
8.3
 21
166.3
 31
0.0
  0
LINE
  5
25
330
1E
100
AcDbEntity
  8
0
100
AcDbLine
 10
3.6
 20
171.6
 30
0.0
 11
8.0
 21
166.0
 31
0.0
  0
LINE
  5
26
330
1E
100
AcDbEntity
  8
0
100
AcDbLine
 10
1.5
 20
178.2
 30
0.0
 11
4.0
 21
171.8
 31
0.0
  0
LINE
  5
27
330
1E
100
AcDbEntity
  8
0
100
AcDbLine
 10
1.0
 20
178.0999999999999
 30
0.0
 11
3.6
 21
171.6
 31
0.0
  0
LINE
  5
28
330
1E
100
AcDbEntity
  8
0
100
AcDbLine
 10
16.0
 20
12.4411
 30
0.0
 11
16.39999999999999
 21
9.730530000000019
 31
0.0
  0
LINE
  5
29
330
1E
100
AcDbEntity
  8
0
100
AcDbLine
 10
16.0
 20
12.4411
 30
0.0
 11
16.0
 21
10.6488
 31
0.0
  0
LINE
  5
2A
330
1E
100
AcDbEntity
  8
0
100
AcDbLine
 10
16.0
 20
10.6488
 30
0.0
 11
16.39999999999999
 21
7.938210000000019
 31
0.0
  0
LINE
  5
2B
330
1E
100
AcDbEntity
  8
0
100
AcDbLine
 10
16.0
 20
10.6488
 30
0.0
 11
16.0
 21
12.4411
 31
0.0
  0
LINE
  5
2C
330
1E
100
AcDbEntity
  8
0
100
AcDbLine
 10
16.0
 20
30.8546
 30
0.0
 11
16.0
 21
24.66169999999999
 31
0.0
  0
LINE
  5
2D
330
1E
100
AcDbEntity
  8
0
100
AcDbLine
 10
16.0
 20
30.8546
 30
0.0
 11
16.0
 21
38.32549999999999
 31
0.0
  0
LINE
  5
2E
330
1E
100
AcDbEntity
  8
0
100
AcDbLine
 10
16.0
 20
24.66169999999999
 30
0.0
 11
16.0
 21
19.7466
 31
0.0
  0
LINE
  5
2F
330
1E
100
AcDbEntity
  8
0
100
AcDbLine
 10
16.0
 20
24.66169999999999
 30
0.0
 11
16.0
 21
30.8546
 31
0.0
  0
LINE
  5
30
330
1E
100
AcDbEntity
  8
0
100
AcDbLine
 10
16.0
 20
19.7466
 30
0.0
 11
16.0
 21
16.1095
 31
0.0
  0
LINE
  5
31
330
1E
100
AcDbEntity
  8
0
100
AcDbLine
 10
16.0
 20
19.7466
 30
0.0
 11
16.0
 21
24.66169999999999
 31
0.0
  0
LINE
  5
32
330
1E
100
AcDbEntity
  8
0
100
AcDbLine
 10
16.0
 20
16.1095
 30
0.0
 11
16.0
 21
13.84859999999999
 31
0.0
  0
LINE
  5
33
330
1E
100
AcDbEntity
  8
0
100
AcDbLine
 10
16.0
 20
16.1095
 30
0.0
 11
16.0
 21
19.7466
 31
0.0
  0
LINE
  5
34
330
1E
100
AcDbEntity
  8
0
100
AcDbLine
 10
16.0
 20
13.84859999999999
 30
0.0
 11
16.0
 21
12.50939999999999
 31
0.0
  0
LINE
  5
35
330
1E
100
AcDbEntity
  8
0
100
AcDbLine
 10
16.0
 20
13.84859999999999
 30
0.0
 11
16.0
 21
16.1095
 31
0.0
  0
LINE
  5
36
330
1E
100
AcDbEntity
  8
0
100
AcDbLine
 10
16.0
 20
12.50939999999999
 30
0.0
 11
16.39999999999999
 21
9.798810000000019
 31
0.0
  0
LINE
  5
37
330
1E
100
AcDbEntity
  8
0
100
AcDbLine
 10
16.0
 20
12.50939999999999
 30
0.0
 11
16.0
 21
13.84859999999999
 31
0.0
  0
LINE
  5
38
330
1E
100
AcDbEntity
  8
0
100
AcDbLine
 10
16.0
 20
38.32549999999999
 30
0.0
 11
16.0
 21
46.7794
 31
0.0
  0
LINE
  5
39
330
1E
100
AcDbEntity
  8
0
100
AcDbLine
 10
16.0
 20
38.32549999999999
 30
0.0
 11
16.0
 21
30.8546
 31
0.0
  0
LINE
  5
3A
330
1E
100
AcDbEntity
  8
0
100
AcDbLine
 10
16.0
 20
46.7794
 30
0.0
 11
16.0
 21
56.1179
 31
0.0
  0
LINE
  5
3B
330
1E
100
AcDbEntity
  8
0
100
AcDbLine
 10
16.0
 20
46.7794
 30
0.0
 11
16.0
 21
38.32549999999999
 31
0.0
  0
LINE
  5
3C
330
1E
100
AcDbEntity
  8
0
100
AcDbLine
 10
16.0
 20
56.1179
 30
0.0
 11
16.0
 21
66.3412
 31
0.0
  0
LINE
  5
3D
330
1E
100
AcDbEntity
  8
0
100
AcDbLine
 10
16.0
 20
56.1179
 30
0.0
 11
16.0
 21
46.7794
 31
0.0
  0
LINE
  5
3E
330
1E
100
AcDbEntity
  8
0
100
AcDbLine
 10
16.0
 20
66.3412
 30
0.0
 11
16.0
 21
76.9577
 31
0.0
  0
LINE
  5
3F
330
1E
100
AcDbEntity
  8
0
100
AcDbLine
 10
16.0
 20
66.3412
 30
0.0
 11
16.0
 21
56.1179
 31
0.0
  0
LINE
  5
40
330
1E
100
AcDbEntity
  8
0
100
AcDbLine
 10
16.0
 20
76.9577
 30
0.0
 11
16.0
 21
87.96739999999999
 31
0.0
  0
LINE
  5
41
330
1E
100
AcDbEntity
  8
0
100
AcDbLine
 10
16.0
 20
76.9577
 30
0.0
 11
16.0
 21
66.3412
 31
0.0
  0
LINE
  5
42
330
1E
100
AcDbEntity
  8
0
100
AcDbLine
 10
16.0
 20
87.96739999999999
 30
0.0
 11
16.0
 21
99.1737
 31
0.0
  0
LINE
  5
43
330
1E
100
AcDbEntity
  8
0
100
AcDbLine
 10
16.0
 20
87.96739999999999
 30
0.0
 11
16.0
 21
76.9577
 31
0.0
  0
LINE
  5
44
330
1E
100
AcDbEntity
  8
0
100
AcDbLine
 10
16.0
 20
151.5679999999999
 30
0.0
 11
16.0
 21
142.2289999999999
 31
0.0
  0
LINE
  5
45
330
1E
100
AcDbEntity
  8
0
100
AcDbLine
 10
16.0
 20
151.5679999999999
 30
0.0
 11
16.0
 21
160.022
 31
0.0
  0
LINE
  5
46
330
1E
100
AcDbEntity
  8
0
100
AcDbLine
 10
16.0
 20
142.2289999999999
 30
0.0
 11
16.0
 21
132.006
 31
0.0
  0
LINE
  5
47
330
1E
100
AcDbEntity
  8
0
100
AcDbLine
 10
16.0
 20
142.2289999999999
 30
0.0
 11
16.0
 21
151.5679999999999
 31
0.0
  0
LINE
  5
48
330
1E
100
AcDbEntity
  8
0
100
AcDbLine
 10
16.0
 20
132.006
 30
0.0
 11
16.0
 21
121.3899999999999
 31
0.0
  0
LINE
  5
49
330
1E
100
AcDbEntity
  8
0
100
AcDbLine
 10
16.0
 20
132.006
 30
0.0
 11
16.0
 21
142.2289999999999
 31
0.0
  0
LINE
  5
4A
330
1E
100
AcDbEntity
  8
0
100
AcDbLine
 10
16.0
 20
121.3899999999999
 30
0.0
 11
16.0
 21
110.3799999999999
 31
0.0
  0
LINE
  5
4B
330
1E
100
AcDbEntity
  8
0
100
AcDbLine
 10
16.0
 20
121.3899999999999
 30
0.0
 11
16.0
 21
132.006
 31
0.0
  0
LINE
  5
4C
330
1E
100
AcDbEntity
  8
0
100
AcDbLine
 10
16.0
 20
110.3799999999999
 30
0.0
 11
16.0
 21
99.1737
 31
0.0
  0
LINE
  5
4D
330
1E
100
AcDbEntity
  8
0
100
AcDbLine
 10
16.0
 20
110.3799999999999
 30
0.0
 11
16.0
 21
121.3899999999999
 31
0.0
  0
LINE
  5
4E
330
1E
100
AcDbEntity
  8
0
100
AcDbLine
 10
16.0
 20
99.1737
 30
0.0
 11
16.0
 21
110.3799999999999
 31
0.0
  0
LINE
  5
4F
330
1E
100
AcDbEntity
  8
0
100
AcDbLine
 10
16.0
 20
99.1737
 30
0.0
 11
16.0
 21
87.96739999999999
 31
0.0
  0
LINE
  5
50
330
1E
100
AcDbEntity
  8
0
100
AcDbLine
 10
27.0
 20
0.0000000000000171
 30
0.0
 11
29.8
 21
0.3872300000000171
 31
0.0
  0
LINE
  5
51
330
1E
100
AcDbEntity
  8
0
100
AcDbLine
 10
27.0
 20
0.0000000000000171
 30
0.0
 11
29.8
 21
0.3872300000000171
 31
0.0
  0
LINE
  5
52
330
1E
100
AcDbEntity
  8
0
100
AcDbLine
 10
29.8
 20
0.3872300000000171
 30
0.0
 11
32.5
 21
1.452110000000019
 31
0.0
  0
LINE
  5
53
330
1E
100
AcDbEntity
  8
0
100
AcDbLine
 10
27.0
 20
1.79233000000002
 30
0.0
 11
29.8
 21
2.179550000000019
 31
0.0
  0
LINE
  5
54
330
1E
100
AcDbEntity
  8
0
100
AcDbLine
 10
29.8
 20
0.3872300000000171
 30
0.0
 11
32.5
 21
1.452110000000019
 31
0.0
  0
LINE
  5
55
330
1E
100
AcDbEntity
  8
0
100
AcDbLine
 10
32.5
 20
1.452110000000019
 30
0.0
 11
34.79999999999999
 21
3.09784000000002
 31
0.0
  0
LINE
  5
56
330
1E
100
AcDbEntity
  8
0
100
AcDbLine
 10
29.8
 20
2.179550000000019
 30
0.0
 11
32.5
 21
3.24444000000002
 31
0.0
  0
LINE
  5
57
330
1E
100
AcDbEntity
  8
0
100
AcDbLine
 10
29.8
 20
2.247830000000019
 30
0.0
 11
32.5
 21
3.31272000000002
 31
0.0
  0
LINE
  5
58
330
1E
100
AcDbEntity
  8
0
100
AcDbLine
 10
27.0
 20
1.86060000000002
 30
0.0
 11
29.8
 21
2.247830000000019
 31
0.0
  0
LINE
  5
59
330
1E
100
AcDbEntity
  8
0
100
AcDbLine
 10
24.19999999999999
 20
2.179550000000019
 30
0.0
 11
27.0
 21
1.79233000000002
 31
0.0
  0
LINE
  5
5A
330
1E
100
AcDbEntity
  8
0
100
AcDbLine
 10
24.19999999999999
 20
0.3872300000000171
 30
0.0
 11
27.0
 21
0.0000000000000171
 31
0.0
  0
LINE
  5
5B
330
1E
100
AcDbEntity
  8
0
100
AcDbLine
 10
24.19999999999999
 20
0.3872300000000171
 30
0.0
 11
27.0
 21
0.0000000000000171
 31
0.0
  0
LINE
  5
5C
330
1E
100
AcDbEntity
  8
0
100
AcDbLine
 10
21.49999999999999
 20
1.452110000000019
 30
0.0
 11
24.19999999999999
 21
0.3872300000000171
 31
0.0
  0
LINE
  5
5D
330
1E
100
AcDbEntity
  8
0
100
AcDbLine
 10
21.49999999999999
 20
1.452110000000019
 30
0.0
 11
24.19999999999999
 21
0.3872300000000171
 31
0.0
  0
LINE
  5
5E
330
1E
100
AcDbEntity
  8
0
100
AcDbLine
 10
19.19999999999999
 20
4.890160000000019
 30
0.0
 11
21.49999999999999
 21
3.24444000000002
 31
0.0
  0
LINE
  5
5F
330
1E
100
AcDbEntity
  8
0
100
AcDbLine
 10
21.49999999999999
 20
3.24444000000002
 30
0.0
 11
24.19999999999999
 21
2.179550000000019
 31
0.0
  0
LINE
  5
60
330
1E
100
AcDbEntity
  8
0
100
AcDbLine
 10
19.19999999999999
 20
3.09784000000002
 30
0.0
 11
21.49999999999999
 21
1.452110000000019
 31
0.0
  0
LINE
  5
61
330
1E
100
AcDbEntity
  8
0
100
AcDbLine
 10
16.39999999999999
 20
9.730530000000019
 30
0.0
 11
17.5
 21
7.116730000000019
 31
0.0
  0
LINE
  5
62
330
1E
100
AcDbEntity
  8
0
100
AcDbLine
 10
17.5
 20
7.116730000000019
 30
0.0
 11
19.19999999999999
 21
4.890160000000019
 31
0.0
  0
LINE
  5
63
330
1E
100
AcDbEntity
  8
0
100
AcDbLine
 10
17.5
 20
5.324410000000019
 30
0.0
 11
19.19999999999999
 21
3.09784000000002
 31
0.0
  0
LINE
  5
64
330
1E
100
AcDbEntity
  8
0
100
AcDbLine
 10
16.39999999999999
 20
7.938210000000019
 30
0.0
 11
17.5
 21
5.324410000000019
 31
0.0
  0
LINE
  5
65
330
1E
100
AcDbEntity
  8
0
100
AcDbLine
 10
16.39999999999999
 20
9.798810000000019
 30
0.0
 11
17.5
 21
7.185010000000018
 31
0.0
  0
LINE
  5
66
330
1E
100
AcDbEntity
  8
0
100
AcDbLine
 10
17.5
 20
7.185010000000018
 30
0.0
 11
19.19999999999999
 21
4.958440000000019
 31
0.0
  0
LINE
  5
67
330
1E
100
AcDbEntity
  8
0
100
AcDbLine
 10
19.19999999999999
 20
4.958440000000019
 30
0.0
 11
21.49999999999999
 21
3.31272000000002
 31
0.0
  0
LINE
  5
68
330
1E
100
AcDbEntity
  8
0
100
AcDbLine
 10
32.5
 20
3.24444000000002
 30
0.0
 11
34.79999999999999
 21
4.890160000000019
 31
0.0
  0
LINE
  5
69
330
1E
100
AcDbEntity
  8
0
100
AcDbLine
 10
34.79999999999999
 20
3.09784000000002
 30
0.0
 11
36.5
 21
5.324410000000019
 31
0.0
  0
LINE
  5
6A
330
1E
100
AcDbEntity
  8
0
100
AcDbLine
 10
34.79999999999999
 20
4.890160000000019
 30
0.0
 11
36.5
 21
7.116730000000019
 31
0.0
  0
LINE
  5
6B
330
1E
100
AcDbEntity
  8
0
100
AcDbLine
 10
36.5
 20
7.116730000000019
 30
0.0
 11
37.6
 21
9.730530000000019
 31
0.0
  0
LINE
  5
6C
330
1E
100
AcDbEntity
  8
0
100
AcDbLine
 10
36.5
 20
5.324410000000019
 30
0.0
 11
37.6
 21
7.938210000000019
 31
0.0
  0
LINE
  5
6D
330
1E
100
AcDbEntity
  8
0
100
AcDbLine
 10
37.6
 20
9.730530000000019
 30
0.0
 11
38.0
 21
12.4411
 31
0.0
  0
LINE
  5
6E
330
1E
100
AcDbEntity
  8
0
100
AcDbLine
 10
37.6
 20
7.938210000000019
 30
0.0
 11
38.0
 21
10.6488
 31
0.0
  0
LINE
  5
6F
330
1E
100
AcDbEntity
  8
0
100
AcDbLine
 10
38.0
 20
10.6488
 30
0.0
 11
38.0
 21
12.4411
 31
0.0
  0
LINE
  5
70
330
1E
100
AcDbEntity
  8
0
100
AcDbLine
 10
38.0
 20
12.4411
 30
0.0
 11
38.0
 21
10.6488
 31
0.0
  0
LINE
  5
71
330
1E
100
AcDbEntity
  8
0
100
AcDbLine
 10
38.0
 20
12.50939999999999
 30
0.0
 11
38.0
 21
13.84859999999999
 31
0.0
  0
LINE
  5
72
330
1E
100
AcDbEntity
  8
0
100
AcDbLine
 10
38.0
 20
46.7794
 30
0.0
 11
38.0
 21
56.1179
 31
0.0
  0
LINE
  5
73
330
1E
100
AcDbEntity
  8
0
100
AcDbLine
 10
38.0
 20
46.7794
 30
0.0
 11
38.0
 21
38.32549999999999
 31
0.0
  0
LINE
  5
74
330
1E
100
AcDbEntity
  8
0
100
AcDbLine
 10
38.0
 20
56.1179
 30
0.0
 11
38.0
 21
66.3412
 31
0.0
  0
LINE
  5
75
330
1E
100
AcDbEntity
  8
0
100
AcDbLine
 10
38.0
 20
56.1179
 30
0.0
 11
38.0
 21
46.7794
 31
0.0
  0
LINE
  5
76
330
1E
100
AcDbEntity
  8
0
100
AcDbLine
 10
38.0
 20
66.3412
 30
0.0
 11
38.0
 21
76.9577
 31
0.0
  0
LINE
  5
77
330
1E
100
AcDbEntity
  8
0
100
AcDbLine
 10
38.0
 20
66.3412
 30
0.0
 11
38.0
 21
56.1179
 31
0.0
  0
LINE
  5
78
330
1E
100
AcDbEntity
  8
0
100
AcDbLine
 10
38.0
 20
76.9577
 30
0.0
 11
38.0
 21
87.96739999999999
 31
0.0
  0
LINE
  5
79
330
1E
100
AcDbEntity
  8
0
100
AcDbLine
 10
38.0
 20
76.9577
 30
0.0
 11
38.0
 21
66.3412
 31
0.0
  0
LINE
  5
7A
330
1E
100
AcDbEntity
  8
0
100
AcDbLine
 10
38.0
 20
87.96739999999999
 30
0.0
 11
38.0
 21
99.1737
 31
0.0
  0
LINE
  5
7B
330
1E
100
AcDbEntity
  8
0
100
AcDbLine
 10
38.0
 20
87.96739999999999
 30
0.0
 11
38.0
 21
76.9577
 31
0.0
  0
LINE
  5
7C
330
1E
100
AcDbEntity
  8
0
100
AcDbLine
 10
38.0
 20
38.32549999999999
 30
0.0
 11
38.0
 21
30.8546
 31
0.0
  0
LINE
  5
7D
330
1E
100
AcDbEntity
  8
0
100
AcDbLine
 10
38.0
 20
38.32549999999999
 30
0.0
 11
38.0
 21
46.7794
 31
0.0
  0
LINE
  5
7E
330
1E
100
AcDbEntity
  8
0
100
AcDbLine
 10
38.0
 20
30.8546
 30
0.0
 11
38.0
 21
24.66169999999999
 31
0.0
  0
LINE
  5
7F
330
1E
100
AcDbEntity
  8
0
100
AcDbLine
 10
38.0
 20
30.8546
 30
0.0
 11
38.0
 21
38.32549999999999
 31
0.0
  0
LINE
  5
80
330
1E
100
AcDbEntity
  8
0
100
AcDbLine
 10
38.0
 20
24.66169999999999
 30
0.0
 11
38.0
 21
19.7466
 31
0.0
  0
LINE
  5
81
330
1E
100
AcDbEntity
  8
0
100
AcDbLine
 10
38.0
 20
24.66169999999999
 30
0.0
 11
38.0
 21
30.8546
 31
0.0
  0
LINE
  5
82
330
1E
100
AcDbEntity
  8
0
100
AcDbLine
 10
38.0
 20
19.7466
 30
0.0
 11
38.0
 21
16.1095
 31
0.0
  0
LINE
  5
83
330
1E
100
AcDbEntity
  8
0
100
AcDbLine
 10
38.0
 20
19.7466
 30
0.0
 11
38.0
 21
24.66169999999999
 31
0.0
  0
LINE
  5
84
330
1E
100
AcDbEntity
  8
0
100
AcDbLine
 10
38.0
 20
16.1095
 30
0.0
 11
38.0
 21
13.84859999999999
 31
0.0
  0
LINE
  5
85
330
1E
100
AcDbEntity
  8
0
100
AcDbLine
 10
38.0
 20
16.1095
 30
0.0
 11
38.0
 21
19.7466
 31
0.0
  0
LINE
  5
86
330
1E
100
AcDbEntity
  8
0
100
AcDbLine
 10
38.0
 20
13.84859999999999
 30
0.0
 11
38.0
 21
12.50939999999999
 31
0.0
  0
LINE
  5
87
330
1E
100
AcDbEntity
  8
0
100
AcDbLine
 10
38.0
 20
13.84859999999999
 30
0.0
 11
38.0
 21
16.1095
 31
0.0
  0
LINE
  5
88
330
1E
100
AcDbEntity
  8
0
100
AcDbLine
 10
37.6
 20
9.798810000000019
 30
0.0
 11
38.0
 21
12.50939999999999
 31
0.0
  0
LINE
  5
89
330
1E
100
AcDbEntity
  8
0
100
AcDbLine
 10
36.5
 20
7.185010000000018
 30
0.0
 11
37.6
 21
9.798810000000019
 31
0.0
  0
LINE
  5
8A
330
1E
100
AcDbEntity
  8
0
100
AcDbLine
 10
34.79999999999999
 20
4.958440000000019
 30
0.0
 11
36.5
 21
7.185010000000018
 31
0.0
  0
LINE
  5
8B
330
1E
100
AcDbEntity
  8
0
100
AcDbLine
 10
32.5
 20
3.31272000000002
 30
0.0
 11
34.79999999999999
 21
4.958440000000019
 31
0.0
  0
LINE
  5
8C
330
1E
100
AcDbEntity
  8
0
100
AcDbLine
 10
38.0
 20
99.1737
 30
0.0
 11
38.0
 21
110.3799999999999
 31
0.0
  0
LINE
  5
8D
330
1E
100
AcDbEntity
  8
0
100
AcDbLine
 10
38.0
 20
99.1737
 30
0.0
 11
38.0
 21
87.96739999999999
 31
0.0
  0
LINE
  5
8E
330
1E
100
AcDbEntity
  8
0
100
AcDbLine
 10
38.0
 20
160.022
 30
0.0
 11
38.0
 21
151.5679999999999
 31
0.0
  0
LINE
  5
8F
330
1E
100
AcDbEntity
  8
0
100
AcDbLine
 10
38.0
 20
160.022
 30
0.0
 11
38.0
 21
167.4929999999999
 31
0.0
  0
LINE
  5
90
330
1E
100
AcDbEntity
  8
0
100
AcDbLine
 10
38.0
 20
151.5679999999999
 30
0.0
 11
38.0
 21
142.2289999999999
 31
0.0
  0
LINE
  5
91
330
1E
100
AcDbEntity
  8
0
100
AcDbLine
 10
38.0
 20
151.5679999999999
 30
0.0
 11
38.0
 21
160.022
 31
0.0
  0
LINE
  5
92
330
1E
100
AcDbEntity
  8
0
100
AcDbLine
 10
38.0
 20
142.2289999999999
 30
0.0
 11
38.0
 21
132.006
 31
0.0
  0
LINE
  5
93
330
1E
100
AcDbEntity
  8
0
100
AcDbLine
 10
38.0
 20
142.2289999999999
 30
0.0
 11
38.0
 21
151.5679999999999
 31
0.0
  0
LINE
  5
94
330
1E
100
AcDbEntity
  8
0
100
AcDbLine
 10
38.0
 20
132.006
 30
0.0
 11
38.0
 21
121.3899999999999
 31
0.0
  0
LINE
  5
95
330
1E
100
AcDbEntity
  8
0
100
AcDbLine
 10
38.0
 20
132.006
 30
0.0
 11
38.0
 21
142.2289999999999
 31
0.0
  0
LINE
  5
96
330
1E
100
AcDbEntity
  8
0
100
AcDbLine
 10
38.0
 20
121.3899999999999
 30
0.0
 11
38.0
 21
110.3799999999999
 31
0.0
  0
LINE
  5
97
330
1E
100
AcDbEntity
  8
0
100
AcDbLine
 10
38.0
 20
121.3899999999999
 30
0.0
 11
38.0
 21
132.006
 31
0.0
  0
LINE
  5
98
330
1E
100
AcDbEntity
  8
0
100
AcDbLine
 10
38.0
 20
110.3799999999999
 30
0.0
 11
38.0
 21
99.1737
 31
0.0
  0
LINE
  5
99
330
1E
100
AcDbEntity
  8
0
100
AcDbLine
 10
38.0
 20
110.3799999999999
 30
0.0
 11
38.0
 21
121.3899999999999
 31
0.0
  0
LINE
  5
9A
330
1E
100
AcDbEntity
  8
0
100
AcDbLine
 10
21.49999999999999
 20
3.31272000000002
 30
0.0
 11
24.19999999999999
 21
2.247830000000019
 31
0.0
  0
LINE
  5
9B
330
1E
100
AcDbEntity
  8
0
100
AcDbLine
 10
24.19999999999999
 20
2.247830000000019
 30
0.0
 11
27.0
 21
1.86060000000002
 31
0.0
  0
LINE
  5
9C
330
1E
100
AcDbEntity
  8
0
100
AcDbLine
 10
16.0
 20
160.022
 30
0.0
 11
16.0
 21
167.4929999999999
 31
0.0
  0
LINE
  5
9D
330
1E
100
AcDbEntity
  8
0
100
AcDbLine
 10
16.0
 20
160.022
 30
0.0
 11
16.0
 21
151.5679999999999
 31
0.0
  0
LINE
  5
9E
330
1E
100
AcDbEntity
  8
0
100
AcDbLine
 10
13.8
 20
162.0
 30
0.0
 11
16.0
 21
161.1406249999999
 31
0.0
  0
LINE
  5
9F
330
1E
100
AcDbEntity
  8
0
100
AcDbLine
 10
13.6
 20
161.5999999999999
 30
0.0
 11
16.0
 21
160.6399999999999
 31
0.0
  0
LINE
  5
A0
330
1E
100
AcDbEntity
  8
0
100
AcDbLine
 10
38.0
 20
161.1406249999999
 30
0.0
 11
40.2
 21
162.0
 31
0.0
  0
LINE
  5
A1
330
1E
100
AcDbEntity
  8
0
100
AcDbLine
 10
38.0
 20
164.0
 30
0.0
 11
58.0
 21
164.0
 31
0.0
  0
LINE
  5
A2
330
1E
100
AcDbEntity
  8
0
100
AcDbLine
 10
40.2
 20
162.0
 30
0.0
 11
42.7581395348837
 21
164.0
 31
0.0
  0
LINE
  5
A3
330
1E
100
AcDbEntity
  8
0
100
AcDbLine
 10
58.0
 20
164.8
 30
0.0
 11
58.0
 21
166.8
 31
0.0
  0
LINE
  5
A4
330
1E
100
AcDbEntity
  8
0
100
AcDbLine
 10
58.0
 20
164.8
 30
0.0
 11
58.0
 21
164.0
 31
0.0
  0
LINE
  5
A5
330
1E
100
AcDbEntity
  8
0
100
AcDbLine
 10
58.0
 20
164.0
 30
0.0
 11
58.0
 21
164.8
 31
0.0
  0
LINE
  5
A6
330
1E
100
AcDbEntity
  8
0
100
AcDbLine
 10
58.0
 20
164.0
 30
0.0
 11
59.0
 21
165.0
 31
0.0
  0
LINE
  5
A7
330
1E
100
AcDbEntity
  8
0
100
AcDbLine
 10
40.4
 20
161.5999999999999
 30
0.0
 11
43.4545454545455
 21
164.0
 31
0.0
  0
LINE
  5
A8
330
1E
100
AcDbEntity
  8
0
100
AcDbLine
 10
38.0
 20
160.6399999999999
 30
0.0
 11
40.4
 21
161.5999999999999
 31
0.0
  0
LINE
  5
A9
330
1E
100
AcDbEntity
  8
0
100
AcDbLine
 10
62.396
 20
164.0
 30
0.0
 11
92.88200000000001
 21
164.0
 31
0.0
  0
LINE
  5
AA
330
1E
100
AcDbEntity
  8
0
100
AcDbLine
 10
62.072
 20
164.7499999999999
 30
0.0
 11
62.396
 21
164.0
 31
0.0
  0
LINE
  5
AB
330
1E
100
AcDbEntity
  8
0
100
AcDbLine
 10
59.593
 20
165.0
 30
0.0
 11
61.99450806931171
 21
165.239956247811
 31
0.0
  0
LINE
  5
AC
330
1E
100
AcDbEntity
  8
0
100
AcDbLine
 10
38.0
 20
167.4929999999999
 30
0.0
 11
38.0
 21
173.6859999999999
 31
0.0
  0
LINE
  5
AD
330
1E
100
AcDbEntity
  8
0
100
AcDbLine
 10
38.0
 20
167.4929999999999
 30
0.0
 11
38.0
 21
160.022
 31
0.0
  0
LINE
  5
AE
330
1E
100
AcDbEntity
  8
0
100
AcDbLine
 10
16.0
 20
167.4929999999999
 30
0.0
 11
16.0
 21
173.6859999999999
 31
0.0
  0
LINE
  5
AF
330
1E
100
AcDbEntity
  8
0
100
AcDbLine
 10
16.0
 20
167.4929999999999
 30
0.0
 11
16.0
 21
160.022
 31
0.0
  0
LINE
  5
B0
330
1E
100
AcDbEntity
  8
0
100
AcDbLine
 10
58.0
 20
166.8
 30
0.0
 11
58.0
 21
170.1999999999999
 31
0.0
  0
LINE
  5
B1
330
1E
100
AcDbEntity
  8
0
100
AcDbLine
 10
58.0
 20
166.8
 30
0.0
 11
58.0
 21
164.8
 31
0.0
  0
LINE
  5
B2
330
1E
100
AcDbEntity
  8
0
100
AcDbLine
 10
38.0
 20
167.263636363636
 30
0.0
 11
41.79999999999999
 21
170.1999999999999
 31
0.0
  0
LINE
  5
B3
330
1E
100
AcDbEntity
  8
0
100
AcDbLine
 10
8.3
 20
166.3
 30
0.0
 11
13.8
 21
162.0
 31
0.0
  0
LINE
  5
B4
330
1E
100
AcDbEntity
  8
0
100
AcDbLine
 10
8.0
 20
166.0
 30
0.0
 11
13.6
 21
161.5999999999999
 31
0.0
  0
LINE
  5
B5
330
1E
100
AcDbEntity
  8
0
100
AcDbLine
 10
59.0
 20
167.6999999999999
 30
0.0
 11
59.0
 21
170.9
 31
0.0
  0
LINE
  5
B6
330
1E
100
AcDbEntity
  8
0
100
AcDbLine
 10
59.0
 20
167.6999999999999
 30
0.0
 11
59.0
 21
165.7
 31
0.0
  0
LINE
  5
B7
330
1E
100
AcDbEntity
  8
0
100
AcDbLine
 10
38.0
 20
168.5380952380949
 30
0.0
 11
41.1
 21
170.9
 31
0.0
  0
LINE
  5
B8
330
1E
100
AcDbEntity
  8
0
100
AcDbLine
 10
12.19999999999999
 20
170.1999999999999
 30
0.0
 11
16.0
 21
167.263636363636
 31
0.0
  0
LINE
  5
B9
330
1E
100
AcDbEntity
  8
0
100
AcDbLine
 10
38.0
 20
173.6859999999999
 30
0.0
 11
38.0
 21
178.601
 31
0.0
  0
LINE
  5
BA
330
1E
100
AcDbEntity
  8
0
100
AcDbLine
 10
38.0
 20
173.6859999999999
 30
0.0
 11
38.0
 21
167.4929999999999
 31
0.0
  0
LINE
  5
BB
330
1E
100
AcDbEntity
  8
0
100
AcDbLine
 10
16.0
 20
173.6859999999999
 30
0.0
 11
16.0
 21
178.601
 31
0.0
  0
LINE
  5
BC
330
1E
100
AcDbEntity
  8
0
100
AcDbLine
 10
16.0
 20
173.6859999999999
 30
0.0
 11
16.0
 21
167.4929999999999
 31
0.0
  0
LINE
  5
BD
330
1E
100
AcDbEntity
  8
0
100
AcDbLine
 10
12.9
 20
170.9
 30
0.0
 11
16.0
 21
168.5380952380949
 31
0.0
  0
LINE
  5
BE
330
1E
100
AcDbEntity
  8
0
100
AcDbLine
 10
8.8
 20
174.5999999999999
 30
0.0
 11
12.19999999999999
 21
170.1999999999999
 31
0.0
  0
LINE
  5
BF
330
1E
100
AcDbEntity
  8
0
100
AcDbLine
 10
41.1
 20
170.9
 30
0.0
 11
44.29999999999999
 21
175.0999999999999
 31
0.0
  0
LINE
  5
C0
330
1E
100
AcDbEntity
  8
0
100
AcDbLine
 10
41.79999999999999
 20
170.1999999999999
 30
0.0
 11
45.2
 21
174.5999999999999
 31
0.0
  0
LINE
  5
C1
330
1E
100
AcDbEntity
  8
0
100
AcDbLine
 10
59.0
 20
170.9
 30
0.0
 11
59.0
 21
175.0999999999999
 31
0.0
  0
LINE
  5
C2
330
1E
100
AcDbEntity
  8
0
100
AcDbLine
 10
59.0
 20
170.9
 30
0.0
 11
59.0
 21
167.6999999999999
 31
0.0
  0
LINE
  5
C3
330
1E
100
AcDbEntity
  8
0
100
AcDbLine
 10
58.0
 20
174.5999999999999
 30
0.0
 11
58.0
 21
179.6
 31
0.0
  0
LINE
  5
C4
330
1E
100
AcDbEntity
  8
0
100
AcDbLine
 10
58.0
 20
174.5999999999999
 30
0.0
 11
58.0
 21
170.1999999999999
 31
0.0
  0
LINE
  5
C5
330
1E
100
AcDbEntity
  8
0
100
AcDbLine
 10
58.0
 20
170.1999999999999
 30
0.0
 11
58.0
 21
174.5999999999999
 31
0.0
  0
LINE
  5
C6
330
1E
100
AcDbEntity
  8
0
100
AcDbLine
 10
58.0
 20
170.1999999999999
 30
0.0
 11
58.0
 21
166.8
 31
0.0
  0
LINE
  5
C7
330
1E
100
AcDbEntity
  8
0
100
AcDbLine
 10
45.2
 20
174.5999999999999
 30
0.0
 11
47.2
 21
179.6
 31
0.0
  0
LINE
  5
C8
330
1E
100
AcDbEntity
  8
0
100
AcDbLine
 10
11.8
 20
169.8
 30
0.0
 11
16.0
 21
166.626666666667
 31
0.0
  0
LINE
  5
C9
330
1E
100
AcDbEntity
  8
0
100
AcDbLine
 10
8.4
 20
174.3
 30
0.0
 11
11.8
 21
169.8
 31
0.0
  0
LINE
  5
CA
330
1E
100
AcDbEntity
  8
0
100
AcDbLine
 10
6.0
 20
185.0
 30
0.0
 11
6.799999999999999
 21
190.4
 31
0.0
  0
LINE
  5
CB
330
1E
100
AcDbEntity
  8
0
100
AcDbLine
 10
6.0
 20
185.0
 30
0.0
 11
6.799999999999999
 21
179.6
 31
0.0
  0
LINE
  5
CC
330
1E
100
AcDbEntity
  8
0
100
AcDbLine
 10
38.0
 20
178.601
 30
0.0
 11
38.0
 21
182.238
 31
0.0
  0
LINE
  5
CD
330
1E
100
AcDbEntity
  8
0
100
AcDbLine
 10
38.0
 20
178.601
 30
0.0
 11
38.0
 21
173.6859999999999
 31
0.0
  0
LINE
  5
CE
330
1E
100
AcDbEntity
  8
0
100
AcDbLine
 10
16.0
 20
178.601
 30
0.0
 11
16.0
 21
182.238
 31
0.0
  0
LINE
  5
CF
330
1E
100
AcDbEntity
  8
0
100
AcDbLine
 10
16.0
 20
178.601
 30
0.0
 11
16.0
 21
173.6859999999999
 31
0.0
  0
LINE
  5
D0
330
1E
100
AcDbEntity
  8
0
100
AcDbLine
 10
9.699999999999999
 20
175.0999999999999
 30
0.0
 11
12.9
 21
170.9
 31
0.0
  0
LINE
  5
D1
330
1E
100
AcDbEntity
  8
0
100
AcDbLine
 10
7.7
 20
179.9
 30
0.0
 11
9.699999999999999
 21
175.0999999999999
 31
0.0
  0
LINE
  5
D2
330
1E
100
AcDbEntity
  8
0
100
AcDbLine
 10
6.799999999999999
 20
179.6
 30
0.0
 11
8.8
 21
174.5999999999999
 31
0.0
  0
LINE
  5
D3
330
1E
100
AcDbEntity
  8
0
100
AcDbLine
 10
44.29999999999999
 20
175.0999999999999
 30
0.0
 11
46.29999999999999
 21
179.9
 31
0.0
  0
LINE
  5
D4
330
1E
100
AcDbEntity
  8
0
100
AcDbLine
 10
16.0
 20
182.238
 30
0.0
 11
16.0
 21
184.499
 31
0.0
  0
LINE
  5
D5
330
1E
100
AcDbEntity
  8
0
100
AcDbLine
 10
16.0
 20
182.238
 30
0.0
 11
16.0
 21
178.601
 31
0.0
  0
LINE
  5
D6
330
1E
100
AcDbEntity
  8
0
100
AcDbLine
 10
38.0
 20
182.238
 30
0.0
 11
38.0
 21
184.499
 31
0.0
  0
LINE
  5
D7
330
1E
100
AcDbEntity
  8
0
100
AcDbLine
 10
38.0
 20
182.238
 30
0.0
 11
38.0
 21
178.601
 31
0.0
  0
LINE
  5
D8
330
1E
100
AcDbEntity
  8
0
100
AcDbLine
 10
38.0
 20
184.499
 30
0.0
 11
38.0
 21
185.187
 31
0.0
  0
LINE
  5
D9
330
1E
100
AcDbEntity
  8
0
100
AcDbLine
 10
38.0
 20
184.499
 30
0.0
 11
38.0
 21
182.238
 31
0.0
  0
LINE
  5
DA
330
1E
100
AcDbEntity
  8
0
100
AcDbLine
 10
16.0
 20
184.499
 30
0.0
 11
16.0
 21
185.187
 31
0.0
  0
LINE
  5
DB
330
1E
100
AcDbEntity
  8
0
100
AcDbLine
 10
16.0
 20
184.499
 30
0.0
 11
16.0
 21
182.238
 31
0.0
  0
LINE
  5
DC
330
1E
100
AcDbEntity
  8
0
100
AcDbLine
 10
46.29999999999999
 20
179.9
 30
0.0
 11
47.0
 21
185.0
 31
0.0
  0
LINE
  5
DD
330
1E
100
AcDbEntity
  8
0
100
AcDbLine
 10
59.0
 20
175.0999999999999
 30
0.0
 11
59.0
 21
179.9
 31
0.0
  0
LINE
  5
DE
330
1E
100
AcDbEntity
  8
0
100
AcDbLine
 10
59.0
 20
175.0999999999999
 30
0.0
 11
59.0
 21
170.9
 31
0.0
  0
LINE
  5
DF
330
1E
100
AcDbEntity
  8
0
100
AcDbLine
 10
59.0
 20
179.9
 30
0.0
 11
59.0
 21
185.0
 31
0.0
  0
LINE
  5
E0
330
1E
100
AcDbEntity
  8
0
100
AcDbLine
 10
59.0
 20
179.9
 30
0.0
 11
59.0
 21
175.0999999999999
 31
0.0
  0
LINE
  5
E1
330
1E
100
AcDbEntity
  8
0
100
AcDbLine
 10
58.0
 20
185.0
 30
0.0
 11
58.0
 21
179.6
 31
0.0
  0
LINE
  5
E2
330
1E
100
AcDbEntity
  8
0
100
AcDbLine
 10
58.0
 20
185.0
 30
0.0
 11
58.0
 21
190.4
 31
0.0
  0
LINE
  5
E3
330
1E
100
AcDbEntity
  8
0
100
AcDbLine
 10
58.0
 20
179.6
 30
0.0
 11
58.0
 21
185.0
 31
0.0
  0
LINE
  5
E4
330
1E
100
AcDbEntity
  8
0
100
AcDbLine
 10
58.0
 20
179.6
 30
0.0
 11
58.0
 21
174.5999999999999
 31
0.0
  0
LINE
  5
E5
330
1E
100
AcDbEntity
  8
0
100
AcDbLine
 10
47.2
 20
179.6
 30
0.0
 11
48.0
 21
185.0
 31
0.0
  0
LINE
  5
E6
330
1E
100
AcDbEntity
  8
0
100
AcDbLine
 10
7.0
 20
185.0
 30
0.0
 11
7.7
 21
190.0999999999999
 31
0.0
  0
LINE
  5
E7
330
1E
100
AcDbEntity
  8
0
100
AcDbLine
 10
7.0
 20
185.0
 30
0.0
 11
7.7
 21
179.9
 31
0.0
  0
LINE
  5
E8
330
1E
100
AcDbEntity
  8
0
100
AcDbLine
 10
6.299999999999999
 20
179.4999999999999
 30
0.0
 11
8.4
 21
174.3
 31
0.0
  0
LINE
  5
E9
330
1E
100
AcDbEntity
  8
0
100
AcDbLine
 10
59.0
 20
185.0
 30
0.0
 11
59.0
 21
179.8149999999999
 31
0.0
  0
LINE
  5
EA
330
1E
100
AcDbEntity
  8
0
100
AcDbLine
 10
59.0
 20
185.0
 30
0.0
 11
59.0
 21
179.9
 31
0.0
  0
LINE
  5
EB
330
1E
100
AcDbEntity
  8
0
100
AcDbLine
 10
59.0
 20
185.0
 30
0.0
 11
59.0
 21
190.0999999999999
 31
0.0
  0
LINE
  5
EC
330
1E
100
AcDbEntity
  8
0
100
AcDbLine
 10
59.0
 20
179.8149999999999
 30
0.0
 11
59.0
 21
175.074
 31
0.0
  0
LINE
  5
ED
330
1E
100
AcDbEntity
  8
0
100
AcDbLine
 10
59.0
 20
175.074
 30
0.0
 11
59.0
 21
170.852
 31
0.0
  0
LINE
  5
EE
330
1E
100
AcDbEntity
  8
0
100
AcDbLine
 10
59.0
 20
170.852
 30
0.0
 11
59.0
 21
167.667
 31
0.0
  0
LINE
  5
EF
330
1E
100
AcDbEntity
  8
0
100
AcDbLine
 10
59.0
 20
167.667
 30
0.0
 11
59.0
 21
165.7409999999999
 31
0.0
  0
LINE
  5
F0
330
1E
100
AcDbEntity
  8
0
100
AcDbLine
 10
61.0
 20
185.0
 30
0.0
 11
61.05
 21
180.1249999999999
 31
0.0
  0
LINE
  5
F1
330
1E
100
AcDbEntity
  8
0
100
AcDbLine
 10
61.0
 20
185.0
 30
0.0
 11
61.05
 21
189.8749999999999
 31
0.0
  0
LINE
  5
F2
330
1E
100
AcDbEntity
  8
0
100
AcDbLine
 10
61.05
 20
180.1249999999999
 30
0.0
 11
61.19399999999999
 21
174.9499999999999
 31
0.0
  0
LINE
  5
F3
330
1E
100
AcDbEntity
  8
0
100
AcDbLine
 10
61.19399999999999
 20
174.9499999999999
 30
0.0
 11
61.424
 21
170.375
 31
0.0
  0
LINE
  5
F4
330
1E
100
AcDbEntity
  8
0
100
AcDbLine
 10
81.0
 20
176.3
 30
0.0
 11
81.0
 21
176.0999999999999
 31
0.0
  0
LINE
  5
F5
330
1E
100
AcDbEntity
  8
0
100
AcDbLine
 10
81.0
 20
176.3
 30
0.0
 11
81.0
 21
176.6999999999999
 31
0.0
  0
LINE
  5
F6
330
1E
100
AcDbEntity
  8
0
100
AcDbLine
 10
81.0
 20
176.0999999999999
 30
0.0
 11
81.0
 21
176.0
 31
0.0
  0
LINE
  5
F7
330
1E
100
AcDbEntity
  8
0
100
AcDbLine
 10
81.0
 20
176.0999999999999
 30
0.0
 11
81.0
 21
176.3
 31
0.0
  0
LINE
  5
F8
330
1E
100
AcDbEntity
  8
0
100
AcDbLine
 10
81.0
 20
176.6999999999999
 30
0.0
 11
81.0
 21
177.1559999999999
 31
0.0
  0
LINE
  5
F9
330
1E
100
AcDbEntity
  8
0
100
AcDbLine
 10
81.0
 20
176.6999999999999
 30
0.0
 11
81.0
 21
176.3
 31
0.0
  0
LINE
  5
FA
330
1E
100
AcDbEntity
  8
0
100
AcDbLine
 10
81.0
 20
177.1559999999999
 30
0.0
 11
81.0
 21
177.7579999999999
 31
0.0
  0
LINE
  5
FB
330
1E
100
AcDbEntity
  8
0
100
AcDbLine
 10
81.0
 20
177.1559999999999
 30
0.0
 11
81.0
 21
176.6999999999999
 31
0.0
  0
LINE
  5
FC
330
1E
100
AcDbEntity
  8
0
100
AcDbLine
 10
81.0
 20
177.7579999999999
 30
0.0
 11
81.0
 21
178.57
 31
0.0
  0
LINE
  5
FD
330
1E
100
AcDbEntity
  8
0
100
AcDbLine
 10
81.0
 20
177.7579999999999
 30
0.0
 11
81.0
 21
177.1559999999999
 31
0.0
  0
LINE
  5
FE
330
1E
100
AcDbEntity
  8
0
100
AcDbLine
 10
81.0
 20
182.6999999999999
 30
0.0
 11
81.0
 21
183.8
 31
0.0
  0
LINE
  5
FF
330
1E
100
AcDbEntity
  8
0
100
AcDbLine
 10
81.0
 20
182.6999999999999
 30
0.0
 11
81.0
 21
181.6
 31
0.0
  0
LINE
  5
100
330
1E
100
AcDbEntity
  8
0
100
AcDbLine
 10
81.0
 20
183.8
 30
0.0
 11
81.0
 21
185.0
 31
0.0
  0
LINE
  5
101
330
1E
100
AcDbEntity
  8
0
100
AcDbLine
 10
81.0
 20
183.8
 30
0.0
 11
81.0
 21
182.6999999999999
 31
0.0
  0
LINE
  5
102
330
1E
100
AcDbEntity
  8
0
100
AcDbLine
 10
81.0
 20
181.6
 30
0.0
 11
81.0
 21
180.522
 31
0.0
  0
LINE
  5
103
330
1E
100
AcDbEntity
  8
0
100
AcDbLine
 10
81.0
 20
181.6
 30
0.0
 11
81.0
 21
182.6999999999999
 31
0.0
  0
LINE
  5
104
330
1E
100
AcDbEntity
  8
0
100
AcDbLine
 10
81.0
 20
180.522
 30
0.0
 11
81.0
 21
179.58
 31
0.0
  0
LINE
  5
105
330
1E
100
AcDbEntity
  8
0
100
AcDbLine
 10
81.0
 20
180.522
 30
0.0
 11
81.0
 21
181.6
 31
0.0
  0
LINE
  5
106
330
1E
100
AcDbEntity
  8
0
100
AcDbLine
 10
81.0
 20
179.58
 30
0.0
 11
81.0
 21
178.57
 31
0.0
  0
LINE
  5
107
330
1E
100
AcDbEntity
  8
0
100
AcDbLine
 10
81.0
 20
179.58
 30
0.0
 11
81.0
 21
180.522
 31
0.0
  0
LINE
  5
108
330
1E
100
AcDbEntity
  8
0
100
AcDbLine
 10
81.0
 20
178.57
 30
0.0
 11
81.0
 21
179.58
 31
0.0
  0
LINE
  5
109
330
1E
100
AcDbEntity
  8
0
100
AcDbLine
 10
81.0
 20
178.57
 30
0.0
 11
81.0
 21
177.7579999999999
 31
0.0
  0
LINE
  5
10B
330
1E
100
AcDbEntity
  8
0
100
AcDbLine
 10
81.0
 20
176.0
 30
0.0
 11
81.0
 21
176.0999999999999
 31
0.0
  0
LINE
  5
10C
330
1E
100
AcDbEntity
  8
0
100
AcDbLine
 10
61.424
 20
170.375
 30
0.0
 11
61.728
 21
166.925
 31
0.0
  0
LINE
  5
10D
330
1E
100
AcDbEntity
  8
0
100
AcDbLine
 10
61.728
 20
166.925
 30
0.0
 11
62.072
 21
164.7499999999999
 31
0.0
  0
LINE
  5
10E
330
1E
100
AcDbEntity
  8
0
100
AcDbLine
 10
59.0
 20
165.7
 30
0.0
 11
59.0
 21
165.0
 31
0.0
  0
LINE
  5
10F
330
1E
100
AcDbEntity
  8
0
100
AcDbLine
 10
59.0
 20
165.7
 30
0.0
 11
59.0
 21
167.6999999999999
 31
0.0
  0
LINE
  5
110
330
1E
100
AcDbEntity
  8
0
100
AcDbLine
 10
59.0
 20
165.0
 30
0.0
 11
59.593
 21
165.0
 31
0.0
  0
LINE
  5
111
330
1E
100
AcDbEntity
  8
0
100
AcDbLine
 10
59.0
 20
165.0
 30
0.0
 11
59.0
 21
165.7
 31
0.0
  0
LINE
  5
113
330
1E
100
AcDbEntity
  8
0
100
AcDbLine
 10
87.0
 20
176.3
 30
0.0
 11
87.0
 21
176.0999999999999
 31
0.0
  0
LINE
  5
114
330
1E
100
AcDbEntity
  8
0
100
AcDbLine
 10
87.0
 20
176.3
 30
0.0
 11
87.0
 21
176.6999999999999
 31
0.0
  0
LINE
  5
115
330
1E
100
AcDbEntity
  8
0
100
AcDbLine
 10
87.0
 20
176.0
 30
0.0
 11
87.0
 21
176.0999999999999
 31
0.0
  0
LINE
  5
116
330
1E
100
AcDbEntity
  8
0
100
AcDbLine
 10
87.0
 20
176.0999999999999
 30
0.0
 11
87.0
 21
176.0
 31
0.0
  0
LINE
  5
117
330
1E
100
AcDbEntity
  8
0
100
AcDbLine
 10
87.0
 20
176.0999999999999
 30
0.0
 11
87.0
 21
176.3
 31
0.0
  0
LINE
  5
118
330
1E
100
AcDbEntity
  8
0
100
AcDbLine
 10
87.0
 20
176.6999999999999
 30
0.0
 11
87.0
 21
177.1559999999999
 31
0.0
  0
LINE
  5
119
330
1E
100
AcDbEntity
  8
0
100
AcDbLine
 10
87.0
 20
176.6999999999999
 30
0.0
 11
87.0
 21
176.3
 31
0.0
  0
LINE
  5
11A
330
1E
100
AcDbEntity
  8
0
100
AcDbLine
 10
87.0
 20
177.1559999999999
 30
0.0
 11
87.0
 21
177.7579999999999
 31
0.0
  0
LINE
  5
11B
330
1E
100
AcDbEntity
  8
0
100
AcDbLine
 10
87.0
 20
177.1559999999999
 30
0.0
 11
87.0
 21
176.6999999999999
 31
0.0
  0
LINE
  5
11C
330
1E
100
AcDbEntity
  8
0
100
AcDbLine
 10
87.0
 20
177.7579999999999
 30
0.0
 11
87.0
 21
178.57
 31
0.0
  0
LINE
  5
11D
330
1E
100
AcDbEntity
  8
0
100
AcDbLine
 10
87.0
 20
177.7579999999999
 30
0.0
 11
87.0
 21
177.1559999999999
 31
0.0
  0
LINE
  5
11E
330
1E
100
AcDbEntity
  8
0
100
AcDbLine
 10
87.0
 20
178.57
 30
0.0
 11
87.0
 21
179.58
 31
0.0
  0
LINE
  5
11F
330
1E
100
AcDbEntity
  8
0
100
AcDbLine
 10
87.0
 20
178.57
 30
0.0
 11
87.0
 21
177.7579999999999
 31
0.0
  0
LINE
  5
120
330
1E
100
AcDbEntity
  8
0
100
AcDbLine
 10
87.0
 20
180.522
 30
0.0
 11
87.0
 21
179.58
 31
0.0
  0
LINE
  5
121
330
1E
100
AcDbEntity
  8
0
100
AcDbLine
 10
87.0
 20
180.522
 30
0.0
 11
87.0
 21
181.6
 31
0.0
  0
LINE
  5
122
330
1E
100
AcDbEntity
  8
0
100
AcDbLine
 10
87.0
 20
179.58
 30
0.0
 11
87.0
 21
178.57
 31
0.0
  0
LINE
  5
123
330
1E
100
AcDbEntity
  8
0
100
AcDbLine
 10
87.0
 20
179.58
 30
0.0
 11
87.0
 21
180.522
 31
0.0
  0
LINE
  5
124
330
1E
100
AcDbEntity
  8
0
100
AcDbLine
 10
87.0
 20
181.6
 30
0.0
 11
87.0
 21
182.6999999999999
 31
0.0
  0
LINE
  5
125
330
1E
100
AcDbEntity
  8
0
100
AcDbLine
 10
87.0
 20
181.6
 30
0.0
 11
87.0
 21
180.522
 31
0.0
  0
LINE
  5
126
330
1E
100
AcDbEntity
  8
0
100
AcDbLine
 10
87.0
 20
182.6999999999999
 30
0.0
 11
87.0
 21
183.8
 31
0.0
  0
LINE
  5
127
330
1E
100
AcDbEntity
  8
0
100
AcDbLine
 10
87.0
 20
182.6999999999999
 30
0.0
 11
87.0
 21
181.6
 31
0.0
  0
LINE
  5
128
330
1E
100
AcDbEntity
  8
0
100
AcDbLine
 10
87.0
 20
183.8
 30
0.0
 11
87.0
 21
185.0
 31
0.0
  0
LINE
  5
129
330
1E
100
AcDbEntity
  8
0
100
AcDbLine
 10
87.0
 20
183.8
 30
0.0
 11
87.0
 21
182.6999999999999
 31
0.0
  0
LINE
  5
12A
330
1E
100
AcDbEntity
  8
0
100
AcDbLine
 10
81.0
 20
185.0
 30
0.0
 11
81.0
 21
186.1999999999999
 31
0.0
  0
LINE
  5
12B
330
1E
100
AcDbEntity
  8
0
100
AcDbLine
 10
81.0
 20
185.0
 30
0.0
 11
81.0
 21
183.8
 31
0.0
  0
LINE
  5
12C
330
1E
100
AcDbEntity
  8
0
100
AcDbLine
 10
38.0
 20
185.187
 30
0.0
 11
38.0
 21
184.499
 31
0.0
  0
LINE
  5
12D
330
1E
100
AcDbEntity
  8
0
100
AcDbLine
 10
16.0
 20
185.187
 30
0.0
 11
16.39999999999999
 21
187.939
 31
0.0
  0
LINE
  5
12E
330
1E
100
AcDbEntity
  8
0
100
AcDbLine
 10
16.0
 20
185.187
 30
0.0
 11
16.39999999999999
 21
187.939
 31
0.0
  0
LINE
  5
12F
330
1E
100
AcDbEntity
  8
0
100
AcDbLine
 10
16.0
 20
185.187
 30
0.0
 11
16.0
 21
184.499
 31
0.0
  0
LINE
  5
130
330
1E
100
AcDbEntity
  8
0
100
AcDbLine
 10
37.6
 20
187.939
 30
0.0
 11
38.0
 21
185.187
 31
0.0
  0
LINE
  5
131
330
1E
100
AcDbEntity
  8
0
100
AcDbLine
 10
16.39999999999999
 20
187.939
 30
0.0
 11
17.5
 21
190.5929999999999
 31
0.0
  0
LINE
  5
132
330
1E
100
AcDbEntity
  8
0
100
AcDbLine
 10
81.0
 20
188.4
 30
0.0
 11
81.0
 21
187.3
 31
0.0
  0
LINE
  5
133
330
1E
100
AcDbEntity
  8
0
100
AcDbLine
 10
81.0
 20
188.4
 30
0.0
 11
81.0
 21
189.4779999999999
 31
0.0
  0
LINE
  5
134
330
1E
100
AcDbEntity
  8
0
100
AcDbLine
 10
81.0
 20
187.3
 30
0.0
 11
81.0
 21
186.1999999999999
 31
0.0
  0
LINE
  5
135
330
1E
100
AcDbEntity
  8
0
100
AcDbLine
 10
81.0
 20
187.3
 30
0.0
 11
81.0
 21
188.4
 31
0.0
  0
LINE
  5
136
330
1E
100
AcDbEntity
  8
0
100
AcDbLine
 10
81.0
 20
186.1999999999999
 30
0.0
 11
81.0
 21
185.0
 31
0.0
  0
LINE
  5
137
330
1E
100
AcDbEntity
  8
0
100
AcDbLine
 10
81.0
 20
186.1999999999999
 30
0.0
 11
81.0
 21
187.3
 31
0.0
  0
LINE
  5
138
330
1E
100
AcDbEntity
  8
0
100
AcDbLine
 10
7.7
 20
190.0999999999999
 30
0.0
 11
9.699999999999999
 21
194.9
 31
0.0
  0
LINE
  5
139
330
1E
100
AcDbEntity
  8
0
100
AcDbLine
 10
6.799999999999999
 20
190.4
 30
0.0
 11
8.8
 21
195.4
 31
0.0
  0
LINE
  5
13A
330
1E
100
AcDbEntity
  8
0
100
AcDbLine
 10
59.0
 20
190.0999999999999
 30
0.0
 11
59.0
 21
194.9
 31
0.0
  0
LINE
  5
13B
330
1E
100
AcDbEntity
  8
0
100
AcDbLine
 10
59.0
 20
190.0999999999999
 30
0.0
 11
59.0
 21
185.0
 31
0.0
  0
LINE
  5
13C
330
1E
100
AcDbEntity
  8
0
100
AcDbLine
 10
58.0
 20
190.4
 30
0.0
 11
58.0
 21
195.4
 31
0.0
  0
LINE
  5
13D
330
1E
100
AcDbEntity
  8
0
100
AcDbLine
 10
58.0
 20
190.4
 30
0.0
 11
58.0
 21
185.0
 31
0.0
  0
LINE
  5
13E
330
1E
100
AcDbEntity
  8
0
100
AcDbLine
 10
46.29999999999999
 20
190.0999999999999
 30
0.0
 11
47.0
 21
185.0
 31
0.0
  0
LINE
  5
13F
330
1E
100
AcDbEntity
  8
0
100
AcDbLine
 10
47.2
 20
190.4
 30
0.0
 11
48.0
 21
185.0
 31
0.0
  0
LINE
  5
140
330
1E
100
AcDbEntity
  8
0
100
AcDbLine
 10
81.0
 20
189.4779999999999
 30
0.0
 11
81.0
 21
190.4199999999999
 31
0.0
  0
LINE
  5
141
330
1E
100
AcDbEntity
  8
0
100
AcDbLine
 10
81.0
 20
189.4779999999999
 30
0.0
 11
81.0
 21
188.4
 31
0.0
  0
LINE
  5
142
330
1E
100
AcDbEntity
  8
0
100
AcDbLine
 10
87.0
 20
189.4779999999999
 30
0.0
 11
87.0
 21
190.4199999999999
 31
0.0
  0
LINE
  5
143
330
1E
100
AcDbEntity
  8
0
100
AcDbLine
 10
87.0
 20
189.4779999999999
 30
0.0
 11
87.0
 21
188.4
 31
0.0
  0
LINE
  5
144
330
1E
100
AcDbEntity
  8
0
100
AcDbLine
 10
81.0
 20
190.4199999999999
 30
0.0
 11
81.0
 21
191.43
 31
0.0
  0
LINE
  5
145
330
1E
100
AcDbEntity
  8
0
100
AcDbLine
 10
81.0
 20
190.4199999999999
 30
0.0
 11
81.0
 21
189.4779999999999
 31
0.0
  0
LINE
  5
146
330
1E
100
AcDbEntity
  8
0
100
AcDbLine
 10
87.0
 20
190.4199999999999
 30
0.0
 11
87.0
 21
191.43
 31
0.0
  0
LINE
  5
147
330
1E
100
AcDbEntity
  8
0
100
AcDbLine
 10
87.0
 20
190.4199999999999
 30
0.0
 11
87.0
 21
189.4779999999999
 31
0.0
  0
LINE
  5
148
330
1E
100
AcDbEntity
  8
0
100
AcDbLine
 10
61.05
 20
189.8749999999999
 30
0.0
 11
61.19399999999999
 21
195.05
 31
0.0
  0
LINE
  5
149
330
1E
100
AcDbEntity
  8
0
100
AcDbLine
 10
59.0
 20
190.1849999999999
 30
0.0
 11
59.0
 21
185.0
 31
0.0
  0
LINE
  5
14A
330
1E
100
AcDbEntity
  8
0
100
AcDbLine
 10
87.0
 20
188.4
 30
0.0
 11
87.0
 21
187.3
 31
0.0
  0
LINE
  5
14B
330
1E
100
AcDbEntity
  8
0
100
AcDbLine
 10
87.0
 20
188.4
 30
0.0
 11
87.0
 21
189.4779999999999
 31
0.0
  0
LINE
  5
14C
330
1E
100
AcDbEntity
  8
0
100
AcDbLine
 10
87.0
 20
187.3
 30
0.0
 11
87.0
 21
186.1999999999999
 31
0.0
  0
LINE
  5
14D
330
1E
100
AcDbEntity
  8
0
100
AcDbLine
 10
87.0
 20
187.3
 30
0.0
 11
87.0
 21
188.4
 31
0.0
  0
LINE
  5
14E
330
1E
100
AcDbEntity
  8
0
100
AcDbLine
 10
87.0
 20
185.0
 30
0.0
 11
87.0
 21
186.1999999999999
 31
0.0
  0
LINE
  5
14F
330
1E
100
AcDbEntity
  8
0
100
AcDbLine
 10
87.0
 20
185.0
 30
0.0
 11
87.0
 21
183.8
 31
0.0
  0
LINE
  5
150
330
1E
100
AcDbEntity
  8
0
100
AcDbLine
 10
92.88200000000001
 20
164.0
 30
0.0
 11
93.87
 21
164.4499999999999
 31
0.0
  0
LINE
  5
151
330
1E
100
AcDbEntity
  8
0
100
AcDbLine
 10
93.87
 20
189.7249999999999
 30
0.0
 11
93.87
 21
194.8249999999999
 31
0.0
  0
LINE
  5
152
330
1E
100
AcDbEntity
  8
0
100
AcDbLine
 10
93.87
 20
189.7249999999999
 30
0.0
 11
93.87
 21
185.0
 31
0.0
  0
LINE
  5
153
330
1E
100
AcDbEntity
  8
0
100
AcDbLine
 10
93.87
 20
185.0
 30
0.0
 11
93.87
 21
180.2749999999999
 31
0.0
  0
LINE
  5
154
330
1E
100
AcDbEntity
  8
0
100
AcDbLine
 10
93.87
 20
185.0
 30
0.0
 11
93.87
 21
189.7249999999999
 31
0.0
  0
LINE
  5
155
330
1E
100
AcDbEntity
  8
0
100
AcDbLine
 10
93.87
 20
180.2749999999999
 30
0.0
 11
93.87
 21
185.0
 31
0.0
  0
LINE
  5
156
330
1E
100
AcDbEntity
  8
0
100
AcDbLine
 10
93.87
 20
180.2749999999999
 30
0.0
 11
93.87
 21
175.175
 31
0.0
  0
LINE
  5
157
330
1E
100
AcDbEntity
  8
0
100
AcDbLine
 10
93.87
 20
175.175
 30
0.0
 11
93.87
 21
180.2749999999999
 31
0.0
  0
LINE
  5
158
330
1E
100
AcDbEntity
  8
0
100
AcDbLine
 10
93.87
 20
175.175
 30
0.0
 11
93.87
 21
170.75
 31
0.0
  0
LINE
  5
159
330
1E
100
AcDbEntity
  8
0
100
AcDbLine
 10
93.87
 20
170.75
 30
0.0
 11
93.87
 21
175.175
 31
0.0
  0
LINE
  5
15A
330
1E
100
AcDbEntity
  8
0
100
AcDbLine
 10
93.87
 20
170.75
 30
0.0
 11
93.87
 21
167.3
 31
0.0
  0
LINE
  5
15B
330
1E
100
AcDbEntity
  8
0
100
AcDbLine
 10
93.87
 20
167.3
 30
0.0
 11
93.87
 21
170.75
 31
0.0
  0
LINE
  5
15C
330
1E
100
AcDbEntity
  8
0
100
AcDbLine
 10
93.87
 20
167.3
 30
0.0
 11
93.87
 21
165.1999999999999
 31
0.0
  0
LINE
  5
15D
330
1E
100
AcDbEntity
  8
0
100
AcDbLine
 10
94.4243049382716
 20
177.1949999999999
 30
0.0
 11
94.762
 21
177.1949999999999
 31
0.0
  0
LINE
  5
15E
330
1E
100
AcDbEntity
  8
0
100
AcDbLine
 10
94.5214888888889
 20
175.1949999999999
 30
0.0
 11
94.762
 21
175.1949999999999
 31
0.0
  0
LINE
  5
15F
330
1E
100
AcDbEntity
  8
0
100
AcDbLine
 10
94.71200000000001
 20
176.451
 30
0.0
 11
94.71700000000002
 21
176.6909999999999
 31
0.0
  0
LINE
  5
160
330
1E
100
AcDbEntity
  8
0
100
AcDbLine
 10
94.71
 20
176.1949999999999
 30
0.0
 11
94.71200000000001
 21
175.939
 31
0.0
  0
LINE
  5
161
330
1E
100
AcDbEntity
  8
0
100
AcDbLine
 10
94.71
 20
176.1949999999999
 30
0.0
 11
94.71200000000001
 21
176.451
 31
0.0
  0
LINE
  5
162
330
1E
100
AcDbEntity
  8
0
100
AcDbLine
 10
94.71700000000002
 20
176.6909999999999
 30
0.0
 11
94.725
 21
176.9029999999999
 31
0.0
  0
LINE
  5
163
330
1E
100
AcDbEntity
  8
0
100
AcDbLine
 10
94.725
 20
176.9029999999999
 30
0.0
 11
94.73600000000001
 21
177.0629999999999
 31
0.0
  0
LINE
  5
164
330
1E
100
AcDbEntity
  8
0
100
AcDbLine
 10
94.71200000000001
 20
175.939
 30
0.0
 11
94.71700000000002
 21
175.699
 31
0.0
  0
LINE
  5
165
330
1E
100
AcDbEntity
  8
0
100
AcDbLine
 10
94.71700000000002
 20
175.699
 30
0.0
 11
94.725
 21
175.4869999999999
 31
0.0
  0
LINE
  5
166
330
1E
100
AcDbEntity
  8
0
100
AcDbLine
 10
94.73600000000001
 20
177.0629999999999
 30
0.0
 11
94.74899999999999
 21
177.159
 31
0.0
  0
LINE
  5
167
330
1E
100
AcDbEntity
  8
0
100
AcDbLine
 10
94.725
 20
175.4869999999999
 30
0.0
 11
94.73600000000001
 21
175.327
 31
0.0
  0
LINE
  5
168
330
1E
100
AcDbEntity
  8
0
100
AcDbLine
 10
94.73600000000001
 20
175.327
 30
0.0
 11
94.74899999999999
 21
175.231
 31
0.0
  0
LINE
  5
169
330
1E
100
AcDbEntity
  8
0
100
AcDbLine
 10
94.775
 20
175.231
 30
0.0
 11
94.78799999999999
 21
175.327
 31
0.0
  0
LINE
  5
16A
330
1E
100
AcDbEntity
  8
0
100
AcDbLine
 10
94.79899999999998
 20
175.4869999999999
 30
0.0
 11
94.807
 21
175.699
 31
0.0
  0
LINE
  5
16B
330
1E
100
AcDbEntity
  8
0
100
AcDbLine
 10
94.78799999999999
 20
175.327
 30
0.0
 11
94.79899999999998
 21
175.4869999999999
 31
0.0
  0
LINE
  5
16C
330
1E
100
AcDbEntity
  8
0
100
AcDbLine
 10
94.81200000000001
 20
175.939
 30
0.0
 11
94.81399999999998
 21
176.1949999999999
 31
0.0
  0
LINE
  5
16D
330
1E
100
AcDbEntity
  8
0
100
AcDbLine
 10
94.807
 20
175.699
 30
0.0
 11
94.81200000000001
 21
175.939
 31
0.0
  0
LINE
  5
16E
330
1E
100
AcDbEntity
  8
0
100
AcDbLine
 10
94.81200000000001
 20
176.451
 30
0.0
 11
94.81399999999998
 21
176.1949999999999
 31
0.0
  0
LINE
  5
16F
330
1E
100
AcDbEntity
  8
0
100
AcDbLine
 10
94.807
 20
176.6909999999999
 30
0.0
 11
94.81200000000001
 21
176.451
 31
0.0
  0
LINE
  5
170
330
1E
100
AcDbEntity
  8
0
100
AcDbLine
 10
94.79899999999998
 20
176.9029999999999
 30
0.0
 11
94.807
 21
176.6909999999999
 31
0.0
  0
LINE
  5
171
330
1E
100
AcDbEntity
  8
0
100
AcDbLine
 10
94.78799999999999
 20
177.0629999999999
 30
0.0
 11
94.79899999999998
 21
176.9029999999999
 31
0.0
  0
LINE
  5
172
330
1E
100
AcDbEntity
  8
0
100
AcDbLine
 10
94.775
 20
177.159
 30
0.0
 11
94.78799999999999
 21
177.0629999999999
 31
0.0
  0
LINE
  5
173
330
1E
100
AcDbEntity
  8
0
100
AcDbLine
 10
94.7550964444445
 20
177.1949999999999
 30
0.0
 11
95.0
 21
185.0
 31
0.0
  0
LINE
  5
174
330
1E
100
AcDbEntity
  8
0
100
AcDbLine
 10
94.647
 20
173.75
 30
0.0
 11
94.69234088888891
 21
175.1949999999999
 31
0.0
  0
LINE
  5
175
330
1E
100
AcDbEntity
  8
0
100
AcDbLine
 10
94.29399999999999
 20
165.5
 30
0.0
 11
94.647
 21
173.75
 31
0.0
  0
LINE
  5
176
330
1E
100
AcDbEntity
  8
0
100
AcDbLine
 10
93.87
 20
165.1999999999999
 30
0.0
 11
93.87
 21
167.3
 31
0.0
  0
LINE
  5
177
330
1E
100
AcDbEntity
  8
0
100
AcDbLine
 10
93.87
 20
165.1999999999999
 30
0.0
 11
93.87
 21
164.4499999999999
 31
0.0
  0
LINE
  5
178
330
1E
100
AcDbEntity
  8
0
100
AcDbLine
 10
93.87
 20
164.4499999999999
 30
0.0
 11
93.87
 21
165.1999999999999
 31
0.0
  0
LINE
  5
179
330
1E
100
AcDbEntity
  8
0
100
AcDbLine
 10
93.87
 20
164.4499999999999
 30
0.0
 11
94.29399999999999
 21
165.5
 31
0.0
  0
LINE
  5
17A
330
1E
100
AcDbEntity
  8
0
100
AcDbLine
 10
87.0
 20
186.1999999999999
 30
0.0
 11
87.0
 21
185.0
 31
0.0
  0
LINE
  5
17B
330
1E
100
AcDbEntity
  8
0
100
AcDbLine
 10
87.0
 20
186.1999999999999
 30
0.0
 11
87.0
 21
187.3
 31
0.0
  0
LINE
  5
17C
330
1E
100
AcDbEntity
  8
0
100
AcDbLine
 10
36.5
 20
190.5929999999999
 30
0.0
 11
37.6
 21
187.939
 31
0.0
  0
LINE
  5
17D
330
1E
100
AcDbEntity
  8
0
100
AcDbLine
 10
17.5
 20
190.5929999999999
 30
0.0
 11
19.19999999999999
 21
192.854
 31
0.0
  0
LINE
  5
17E
330
1E
100
AcDbEntity
  8
0
100
AcDbLine
 10
81.0
 20
191.43
 30
0.0
 11
81.0
 21
190.4199999999999
 31
0.0
  0
LINE
  5
17F
330
1E
100
AcDbEntity
  8
0
100
AcDbLine
 10
81.0
 20
191.43
 30
0.0
 11
81.0
 21
192.242
 31
0.0
  0
LINE
  5
180
330
1E
100
AcDbEntity
  8
0
100
AcDbLine
 10
87.0
 20
191.43
 30
0.0
 11
87.0
 21
190.4199999999999
 31
0.0
  0
LINE
  5
181
330
1E
100
AcDbEntity
  8
0
100
AcDbLine
 10
87.0
 20
191.43
 30
0.0
 11
87.0
 21
192.242
 31
0.0
  0
LINE
  5
182
330
1E
100
AcDbEntity
  8
0
100
AcDbLine
 10
6.299999999999999
 20
190.5
 30
0.0
 11
8.4
 21
195.6999999999999
 31
0.0
  0
LINE
  5
183
330
1E
100
AcDbEntity
  8
0
100
AcDbLine
 10
5.5
 20
185.0
 30
0.0
 11
6.299999999999999
 21
190.5
 31
0.0
  0
LINE
  5
184
330
1E
100
AcDbEntity
  8
0
100
AcDbLine
 10
5.5
 20
185.0
 30
0.0
 11
6.299999999999999
 21
179.4999999999999
 31
0.0
  0
LINE
  5
185
330
1E
100
AcDbEntity
  8
0
100
AcDbLine
 10
1.5
 20
191.8
 30
0.0
 11
4.0
 21
198.2
 31
0.0
  0
LINE
  5
186
330
1E
100
AcDbEntity
  8
0
100
AcDbLine
 10
0.500000000000001
 20
185.0
 30
0.0
 11
1.5
 21
191.8
 31
0.0
  0
LINE
  5
187
330
1E
100
AcDbEntity
  8
0
100
AcDbLine
 10
0.500000000000001
 20
185.0
 30
0.0
 11
1.5
 21
178.2
 31
0.0
  0
LINE
  5
188
330
1E
100
AcDbEntity
  8
0
100
AcDbLine
 10
4.0
 20
198.2
 30
0.0
 11
8.3
 21
203.6999999999999
 31
0.0
  0
LINE
  5
189
330
1E
100
AcDbEntity
  8
0
100
AcDbLine
 10
19.19999999999999
 20
192.854
 30
0.0
 11
21.49999999999999
 21
194.525
 31
0.0
  0
LINE
  5
18A
330
1E
100
AcDbEntity
  8
0
100
AcDbLine
 10
34.79999999999999
 20
192.854
 30
0.0
 11
36.5
 21
190.5929999999999
 31
0.0
  0
LINE
  5
18B
330
1E
100
AcDbEntity
  8
0
100
AcDbLine
 10
32.5
 20
194.525
 30
0.0
 11
34.79999999999999
 21
192.854
 31
0.0
  0
LINE
  5
18C
330
1E
100
AcDbEntity
  8
0
100
AcDbLine
 10
21.49999999999999
 20
194.525
 30
0.0
 11
24.19999999999999
 21
195.607
 31
0.0
  0
LINE
  5
18D
330
1E
100
AcDbEntity
  8
0
100
AcDbLine
 10
9.699999999999999
 20
194.9
 30
0.0
 11
12.9
 21
199.0999999999999
 31
0.0
  0
LINE
  5
18E
330
1E
100
AcDbEntity
  8
0
100
AcDbLine
 10
59.0
 20
194.9
 30
0.0
 11
59.0
 21
199.0999999999999
 31
0.0
  0
LINE
  5
18F
330
1E
100
AcDbEntity
  8
0
100
AcDbLine
 10
59.0
 20
194.9
 30
0.0
 11
59.0
 21
190.0999999999999
 31
0.0
  0
LINE
  5
190
330
1E
100
AcDbEntity
  8
0
100
AcDbLine
 10
44.29999999999999
 20
194.9
 30
0.0
 11
46.29999999999999
 21
190.0999999999999
 31
0.0
  0
LINE
  5
191
330
1E
100
AcDbEntity
  8
0
100
AcDbLine
 10
29.8
 20
195.607
 30
0.0
 11
32.5
 21
194.525
 31
0.0
  0
LINE
  5
192
330
1E
100
AcDbEntity
  8
0
100
AcDbLine
 10
27.0
 20
196.0
 30
0.0
 11
29.8
 21
195.607
 31
0.0
  0
LINE
  5
193
330
1E
100
AcDbEntity
  8
0
100
AcDbLine
 10
24.19999999999999
 20
195.607
 30
0.0
 11
27.0
 21
196.0
 31
0.0
  0
LINE
  5
194
330
1E
100
AcDbEntity
  8
0
100
AcDbLine
 10
12.9
 20
199.0999999999999
 30
0.0
 11
17.1
 21
202.3
 31
0.0
  0
LINE
  5
195
330
1E
100
AcDbEntity
  8
0
100
AcDbLine
 10
8.8
 20
195.4
 30
0.0
 11
12.19999999999999
 21
199.8
 31
0.0
  0
LINE
  5
196
330
1E
100
AcDbEntity
  8
0
100
AcDbLine
 10
12.19999999999999
 20
199.8
 30
0.0
 11
16.6
 21
203.2
 31
0.0
  0
LINE
  5
197
330
1E
100
AcDbEntity
  8
0
100
AcDbLine
 10
41.1
 20
199.0999999999999
 30
0.0
 11
44.29999999999999
 21
194.9
 31
0.0
  0
LINE
  5
198
330
1E
100
AcDbEntity
  8
0
100
AcDbLine
 10
41.79999999999999
 20
199.8
 30
0.0
 11
45.2
 21
195.4
 31
0.0
  0
LINE
  5
199
330
1E
100
AcDbEntity
  8
0
100
AcDbLine
 10
59.0
 20
199.0999999999999
 30
0.0
 11
59.0
 21
202.3
 31
0.0
  0
LINE
  5
19A
330
1E
100
AcDbEntity
  8
0
100
AcDbLine
 10
59.0
 20
199.0999999999999
 30
0.0
 11
59.0
 21
194.9
 31
0.0
  0
LINE
  5
19B
330
1E
100
AcDbEntity
  8
0
100
AcDbLine
 10
58.0
 20
195.4
 30
0.0
 11
58.0
 21
199.8
 31
0.0
  0
LINE
  5
19C
330
1E
100
AcDbEntity
  8
0
100
AcDbLine
 10
58.0
 20
195.4
 30
0.0
 11
58.0
 21
190.4
 31
0.0
  0
LINE
  5
19D
330
1E
100
AcDbEntity
  8
0
100
AcDbLine
 10
58.0
 20
199.8
 30
0.0
 11
58.0
 21
203.2
 31
0.0
  0
LINE
  5
19E
330
1E
100
AcDbEntity
  8
0
100
AcDbLine
 10
58.0
 20
199.8
 30
0.0
 11
58.0
 21
195.4
 31
0.0
  0
LINE
  5
19F
330
1E
100
AcDbEntity
  8
0
100
AcDbLine
 10
45.2
 20
195.4
 30
0.0
 11
47.2
 21
190.4
 31
0.0
  0
LINE
  5
1A0
330
1E
100
AcDbEntity
  8
0
100
AcDbLine
 10
59.0
 20
194.9259999999999
 30
0.0
 11
59.0
 21
190.1849999999999
 31
0.0
  0
LINE
  5
1A1
330
1E
100
AcDbEntity
  8
0
100
AcDbLine
 10
81.0
 20
192.844
 30
0.0
 11
81.0
 21
192.242
 31
0.0
  0
LINE
  5
1A2
330
1E
100
AcDbEntity
  8
0
100
AcDbLine
 10
81.0
 20
192.844
 30
0.0
 11
81.0
 21
193.3
 31
0.0
  0
LINE
  5
1A3
330
1E
100
AcDbEntity
  8
0
100
AcDbLine
 10
81.0
 20
192.242
 30
0.0
 11
81.0
 21
191.43
 31
0.0
  0
LINE
  5
1A4
330
1E
100
AcDbEntity
  8
0
100
AcDbLine
 10
81.0
 20
192.242
 30
0.0
 11
81.0
 21
192.844
 31
0.0
  0
LINE
  5
1A5
330
1E
100
AcDbEntity
  8
0
100
AcDbLine
 10
81.0
 20
193.3
 30
0.0
 11
81.0
 21
193.6999999999999
 31
0.0
  0
LINE
  5
1A6
330
1E
100
AcDbEntity
  8
0
100
AcDbLine
 10
81.0
 20
193.3
 30
0.0
 11
81.0
 21
192.844
 31
0.0
  0
LINE
  5
1A7
330
1E
100
AcDbEntity
  8
0
100
AcDbLine
 10
81.0
 20
193.6999999999999
 30
0.0
 11
81.0
 21
193.9
 31
0.0
  0
LINE
  5
1A8
330
1E
100
AcDbEntity
  8
0
100
AcDbLine
 10
81.0
 20
193.6999999999999
 30
0.0
 11
81.0
 21
193.3
 31
0.0
  0
LINE
  5
1A9
330
1E
100
AcDbEntity
  8
0
100
AcDbLine
 10
81.0
 20
193.9
 30
0.0
 11
81.0
 21
194.0
 31
0.0
  0
LINE
  5
1AA
330
1E
100
AcDbEntity
  8
0
100
AcDbLine
 10
81.0
 20
193.9
 30
0.0
 11
81.0
 21
193.6999999999999
 31
0.0
  0
LINE
  5
1AB
330
1E
100
AcDbEntity
  8
0
100
AcDbLine
 10
81.0
 20
194.0
 30
0.0
 11
81.09999999999999
 21
194.8
 31
0.0
  0
LINE
  5
1AC
330
1E
100
AcDbEntity
  8
0
100
AcDbLine
 10
81.0
 20
194.0
 30
0.0
 11
81.0
 21
193.9
 31
0.0
  0
LINE
  5
1AD
330
1E
100
AcDbEntity
  8
0
100
AcDbLine
 10
81.09999999999999
 20
194.8
 30
0.0
 11
81.4
 21
195.5
 31
0.0
  0
LINE
  5
1AE
330
1E
100
AcDbEntity
  8
0
100
AcDbLine
 10
81.4
 20
195.5
 30
0.0
 11
81.90000000000001
 21
196.1
 31
0.0
  0
LINE
  5
1AF
330
1E
100
AcDbEntity
  8
0
100
AcDbLine
 10
81.90000000000001
 20
196.1
 30
0.0
 11
82.5
 21
196.6
 31
0.0
  0
LINE
  5
1B0
330
1E
100
AcDbEntity
  8
0
100
AcDbLine
 10
82.5
 20
196.6
 30
0.0
 11
83.2
 21
196.9
 31
0.0
  0
LINE
  5
1B1
330
1E
100
AcDbEntity
  8
0
100
AcDbLine
 10
83.2
 20
196.9
 30
0.0
 11
84.0
 21
197.0
 31
0.0
  0
LINE
  5
1B2
330
1E
100
AcDbEntity
  8
0
100
AcDbLine
 10
87.0
 20
193.6999999999999
 30
0.0
 11
87.0
 21
193.9
 31
0.0
  0
LINE
  5
1B3
330
1E
100
AcDbEntity
  8
0
100
AcDbLine
 10
87.0
 20
193.6999999999999
 30
0.0
 11
87.0
 21
193.3
 31
0.0
  0
LINE
  5
1B4
330
1E
100
AcDbEntity
  8
0
100
AcDbLine
 10
87.0
 20
193.9
 30
0.0
 11
87.0
 21
194.0
 31
0.0
  0
LINE
  5
1B5
330
1E
100
AcDbEntity
  8
0
100
AcDbLine
 10
87.0
 20
193.9
 30
0.0
 11
87.0
 21
193.6999999999999
 31
0.0
  0
LINE
  5
1B6
330
1E
100
AcDbEntity
  8
0
100
AcDbLine
 10
87.0
 20
194.0
 30
0.0
 11
87.0
 21
193.9
 31
0.0
  0
LINE
  5
1B7
330
1E
100
AcDbEntity
  8
0
100
AcDbLine
 10
87.0
 20
193.3
 30
0.0
 11
87.0
 21
192.844
 31
0.0
  0
LINE
  5
1B8
330
1E
100
AcDbEntity
  8
0
100
AcDbLine
 10
87.0
 20
193.3
 30
0.0
 11
87.0
 21
193.6999999999999
 31
0.0
  0
LINE
  5
1B9
330
1E
100
AcDbEntity
  8
0
100
AcDbLine
 10
87.0
 20
192.844
 30
0.0
 11
87.0
 21
192.242
 31
0.0
  0
LINE
  5
1BA
330
1E
100
AcDbEntity
  8
0
100
AcDbLine
 10
87.0
 20
192.844
 30
0.0
 11
87.0
 21
193.3
 31
0.0
  0
LINE
  5
1BB
330
1E
100
AcDbEntity
  8
0
100
AcDbLine
 10
87.0
 20
192.242
 30
0.0
 11
87.0
 21
191.43
 31
0.0
  0
LINE
  5
1BC
330
1E
100
AcDbEntity
  8
0
100
AcDbLine
 10
87.0
 20
192.242
 30
0.0
 11
87.0
 21
192.844
 31
0.0
  0
LINE
  5
1BD
330
1E
100
AcDbEntity
  8
0
100
AcDbLine
 10
86.90000000000001
 20
194.8
 30
0.0
 11
87.0
 21
194.0
 31
0.0
  0
LINE
  5
1BE
330
1E
100
AcDbEntity
  8
0
100
AcDbLine
 10
86.6
 20
195.5
 30
0.0
 11
86.90000000000001
 21
194.8
 31
0.0
  0
LINE
  5
1BF
330
1E
100
AcDbEntity
  8
0
100
AcDbLine
 10
86.09999999999999
 20
196.1
 30
0.0
 11
86.6
 21
195.5
 31
0.0
  0
LINE
  5
1C0
330
1E
100
AcDbEntity
  8
0
100
AcDbLine
 10
85.5
 20
196.6
 30
0.0
 11
86.09999999999999
 21
196.1
 31
0.0
  0
LINE
  5
1C1
330
1E
100
AcDbEntity
  8
0
100
AcDbLine
 10
84.8
 20
196.9
 30
0.0
 11
85.5
 21
196.6
 31
0.0
  0
LINE
  5
1C2
330
1E
100
AcDbEntity
  8
0
100
AcDbLine
 10
84.0
 20
197.0
 30
0.0
 11
84.8
 21
196.9
 31
0.0
  0
LINE
  5
1C3
330
1E
100
AcDbEntity
  8
0
100
AcDbLine
 10
94.4243049382716
 20
192.8049999999999
 30
0.0
 11
94.762
 21
192.8049999999999
 31
0.0
  0
LINE
  5
1C4
330
1E
100
AcDbEntity
  8
0
100
AcDbLine
 10
94.5214888888889
 20
194.805
 30
0.0
 11
94.762
 21
194.805
 31
0.0
  0
LINE
  5
1C5
330
1E
100
AcDbEntity
  8
0
100
AcDbLine
 10
94.71200000000001
 20
193.549
 30
0.0
 11
94.71700000000002
 21
193.309
 31
0.0
  0
LINE
  5
1C6
330
1E
100
AcDbEntity
  8
0
100
AcDbLine
 10
94.71700000000002
 20
193.309
 30
0.0
 11
94.725
 21
193.097
 31
0.0
  0
LINE
  5
1C7
330
1E
100
AcDbEntity
  8
0
100
AcDbLine
 10
94.71
 20
193.805
 30
0.0
 11
94.71200000000001
 21
194.0609999999999
 31
0.0
  0
LINE
  5
1C8
330
1E
100
AcDbEntity
  8
0
100
AcDbLine
 10
94.71
 20
193.805
 30
0.0
 11
94.71200000000001
 21
193.549
 31
0.0
  0
LINE
  5
1C9
330
1E
100
AcDbEntity
  8
0
100
AcDbLine
 10
94.71200000000001
 20
194.0609999999999
 30
0.0
 11
94.71700000000002
 21
194.3009999999999
 31
0.0
  0
LINE
  5
1CA
330
1E
100
AcDbEntity
  8
0
100
AcDbLine
 10
94.725
 20
193.097
 30
0.0
 11
94.73600000000001
 21
192.937
 31
0.0
  0
LINE
  5
1CB
330
1E
100
AcDbEntity
  8
0
100
AcDbLine
 10
94.73600000000001
 20
192.937
 30
0.0
 11
94.74899999999999
 21
192.8409999999999
 31
0.0
  0
LINE
  5
1CC
330
1E
100
AcDbEntity
  8
0
100
AcDbLine
 10
94.71700000000002
 20
194.3009999999999
 30
0.0
 11
94.725
 21
194.5129999999999
 31
0.0
  0
LINE
  5
1CD
330
1E
100
AcDbEntity
  8
0
100
AcDbLine
 10
94.725
 20
194.5129999999999
 30
0.0
 11
94.73600000000001
 21
194.673
 31
0.0
  0
LINE
  5
1CE
330
1E
100
AcDbEntity
  8
0
100
AcDbLine
 10
94.775
 20
192.8409999999999
 30
0.0
 11
94.78799999999999
 21
192.937
 31
0.0
  0
LINE
  5
1CF
330
1E
100
AcDbEntity
  8
0
100
AcDbLine
 10
94.78799999999999
 20
194.673
 30
0.0
 11
94.79899999999998
 21
194.5129999999999
 31
0.0
  0
LINE
  5
1D0
330
1E
100
AcDbEntity
  8
0
100
AcDbLine
 10
94.775
 20
194.769
 30
0.0
 11
94.78799999999999
 21
194.673
 31
0.0
  0
LINE
  5
1D1
330
1E
100
AcDbEntity
  8
0
100
AcDbLine
 10
94.807
 20
194.3009999999999
 30
0.0
 11
94.81200000000001
 21
194.0609999999999
 31
0.0
  0
LINE
  5
1D2
330
1E
100
AcDbEntity
  8
0
100
AcDbLine
 10
94.79899999999998
 20
194.5129999999999
 30
0.0
 11
94.807
 21
194.3009999999999
 31
0.0
  0
LINE
  5
1D3
330
1E
100
AcDbEntity
  8
0
100
AcDbLine
 10
94.81200000000001
 20
194.0609999999999
 30
0.0
 11
94.81399999999998
 21
193.805
 31
0.0
  0
LINE
  5
1D4
330
1E
100
AcDbEntity
  8
0
100
AcDbLine
 10
94.81200000000001
 20
193.549
 30
0.0
 11
94.81399999999998
 21
193.805
 31
0.0
  0
LINE
  5
1D5
330
1E
100
AcDbEntity
  8
0
100
AcDbLine
 10
94.807
 20
193.309
 30
0.0
 11
94.81200000000001
 21
193.549
 31
0.0
  0
LINE
  5
1D6
330
1E
100
AcDbEntity
  8
0
100
AcDbLine
 10
94.79899999999998
 20
193.097
 30
0.0
 11
94.807
 21
193.309
 31
0.0
  0
LINE
  5
1D7
330
1E
100
AcDbEntity
  8
0
100
AcDbLine
 10
94.78799999999999
 20
192.937
 30
0.0
 11
94.79899999999998
 21
193.097
 31
0.0
  0
LINE
  5
1D8
330
1E
100
AcDbEntity
  8
0
100
AcDbLine
 10
94.73600000000001
 20
194.673
 30
0.0
 11
94.74899999999999
 21
194.769
 31
0.0
  0
LINE
  5
1D9
330
1E
100
AcDbEntity
  8
0
100
AcDbLine
 10
94.647
 20
196.25
 30
0.0
 11
94.69234088888891
 21
194.805
 31
0.0
  0
LINE
  5
1DA
330
1E
100
AcDbEntity
  8
0
100
AcDbLine
 10
94.7550964444445
 20
192.8049999999999
 30
0.0
 11
95.0
 21
185.0
 31
0.0
  0
LINE
  5
1DB
330
1E
100
AcDbEntity
  8
0
100
AcDbLine
 10
93.87
 20
194.8249999999999
 30
0.0
 11
93.87
 21
199.2499999999999
 31
0.0
  0
LINE
  5
1DC
330
1E
100
AcDbEntity
  8
0
100
AcDbLine
 10
93.87
 20
194.8249999999999
 30
0.0
 11
93.87
 21
189.7249999999999
 31
0.0
  0
LINE
  5
1DD
330
1E
100
AcDbEntity
  8
0
100
AcDbLine
 10
93.87
 20
199.2499999999999
 30
0.0
 11
93.87
 21
202.7
 31
0.0
  0
LINE
  5
1DE
330
1E
100
AcDbEntity
  8
0
100
AcDbLine
 10
93.87
 20
199.2499999999999
 30
0.0
 11
93.87
 21
194.8249999999999
 31
0.0
  0
LINE
  5
1DF
330
1E
100
AcDbEntity
  8
0
100
AcDbLine
 10
61.19399999999999
 20
195.05
 30
0.0
 11
61.424
 21
199.625
 31
0.0
  0
LINE
  5
1E0
330
1E
100
AcDbEntity
  8
0
100
AcDbLine
 10
61.424
 20
199.625
 30
0.0
 11
61.728
 21
203.0749999999999
 31
0.0
  0
LINE
  5
1E1
330
1E
100
AcDbEntity
  8
0
100
AcDbLine
 10
59.0
 20
199.1479999999999
 30
0.0
 11
59.0
 21
194.9259999999999
 31
0.0
  0
LINE
  5
1E2
330
1E
100
AcDbEntity
  8
0
100
AcDbLine
 10
17.1
 20
202.3
 30
0.0
 11
21.89999999999999
 21
204.3
 31
0.0
  0
LINE
  5
1E3
330
1E
100
AcDbEntity
  8
0
100
AcDbLine
 10
59.0
 20
202.3
 30
0.0
 11
59.0
 21
204.3
 31
0.0
  0
LINE
  5
1E4
330
1E
100
AcDbEntity
  8
0
100
AcDbLine
 10
59.0
 20
202.3
 30
0.0
 11
59.0
 21
199.0999999999999
 31
0.0
  0
LINE
  5
1E5
330
1E
100
AcDbEntity
  8
0
100
AcDbLine
 10
36.89999999999999
 20
202.3
 30
0.0
 11
41.1
 21
199.0999999999999
 31
0.0
  0
LINE
  5
1E6
330
1E
100
AcDbEntity
  8
0
100
AcDbLine
 10
58.0
 20
203.2
 30
0.0
 11
58.0
 21
205.2
 31
0.0
  0
LINE
  5
1E7
330
1E
100
AcDbEntity
  8
0
100
AcDbLine
 10
58.0
 20
203.2
 30
0.0
 11
58.0
 21
199.8
 31
0.0
  0
LINE
  5
1E8
330
1E
100
AcDbEntity
  8
0
100
AcDbLine
 10
16.6
 20
203.2
 30
0.0
 11
21.6
 21
205.2
 31
0.0
  0
LINE
  5
1E9
330
1E
100
AcDbEntity
  8
0
100
AcDbLine
 10
37.4
 20
203.2
 30
0.0
 11
41.79999999999999
 21
199.8
 31
0.0
  0
LINE
  5
1EA
330
1E
100
AcDbEntity
  8
0
100
AcDbLine
 10
93.87
 20
202.7
 30
0.0
 11
93.87
 21
204.8
 31
0.0
  0
LINE
  5
1EB
330
1E
100
AcDbEntity
  8
0
100
AcDbLine
 10
93.87
 20
202.7
 30
0.0
 11
93.87
 21
199.2499999999999
 31
0.0
  0
LINE
  5
1EC
330
1E
100
AcDbEntity
  8
0
100
AcDbLine
 10
61.728
 20
203.0749999999999
 30
0.0
 11
62.072
 21
205.25
 31
0.0
  0
LINE
  5
1ED
330
1E
100
AcDbEntity
  8
0
100
AcDbLine
 10
59.0
 20
202.333
 30
0.0
 11
59.0
 21
199.1479999999999
 31
0.0
  0
LINE
  5
1EE
330
1E
100
AcDbEntity
  8
0
100
AcDbLine
 10
16.3
 20
203.6
 30
0.0
 11
21.49999999999999
 21
205.6999999999999
 31
0.0
  0
LINE
  5
1EF
330
1E
100
AcDbEntity
  8
0
100
AcDbLine
 10
11.8
 20
200.1999999999999
 30
0.0
 11
16.3
 21
203.6
 31
0.0
  0
LINE
  5
1F0
330
1E
100
AcDbEntity
  8
0
100
AcDbLine
 10
8.4
 20
195.6999999999999
 30
0.0
 11
11.8
 21
200.1999999999999
 31
0.0
  0
LINE
  5
1F1
330
1E
100
AcDbEntity
  8
0
100
AcDbLine
 10
21.89999999999999
 20
204.3
 30
0.0
 11
27.0
 21
205.0
 31
0.0
  0
LINE
  5
1F2
330
1E
100
AcDbEntity
  8
0
100
AcDbLine
 10
21.6
 20
205.2
 30
0.0
 11
27.0
 21
206.0
 31
0.0
  0
LINE
  5
1F3
330
1E
100
AcDbEntity
  8
0
100
AcDbLine
 10
27.0
 20
205.0
 30
0.0
 11
32.1
 21
204.3
 31
0.0
  0
LINE
  5
1F4
330
1E
100
AcDbEntity
  8
0
100
AcDbLine
 10
32.1
 20
204.3
 30
0.0
 11
36.89999999999999
 21
202.3
 31
0.0
  0
LINE
  5
1F5
330
1E
100
AcDbEntity
  8
0
100
AcDbLine
 10
59.0
 20
204.3
 30
0.0
 11
59.0
 21
205.0
 31
0.0
  0
LINE
  5
1F6
330
1E
100
AcDbEntity
  8
0
100
AcDbLine
 10
59.0
 20
204.3
 30
0.0
 11
59.0
 21
202.3
 31
0.0
  0
LINE
  5
1F7
330
1E
100
AcDbEntity
  8
0
100
AcDbLine
 10
58.0
 20
205.2
 30
0.0
 11
58.0
 21
206.0
 31
0.0
  0
LINE
  5
1F8
330
1E
100
AcDbEntity
  8
0
100
AcDbLine
 10
58.0
 20
205.2
 30
0.0
 11
58.0
 21
203.2
 31
0.0
  0
LINE
  5
1F9
330
1E
100
AcDbEntity
  8
0
100
AcDbLine
 10
32.4
 20
205.2
 30
0.0
 11
37.4
 21
203.2
 31
0.0
  0
LINE
  5
1FA
330
1E
100
AcDbEntity
  8
0
100
AcDbLine
 10
59.0
 20
204.259
 30
0.0
 11
59.0
 21
202.333
 31
0.0
  0
LINE
  5
1FB
330
1E
100
AcDbEntity
  8
0
100
AcDbLine
 10
94.29399999999999
 20
204.4999999999999
 30
0.0
 11
94.647
 21
196.25
 31
0.0
  0
LINE
  5
1FC
330
1E
100
AcDbEntity
  8
0
100
AcDbLine
 10
93.87
 20
204.8
 30
0.0
 11
93.87
 21
205.55
 31
0.0
  0
LINE
  5
1FD
330
1E
100
AcDbEntity
  8
0
100
AcDbLine
 10
93.87
 20
204.8
 30
0.0
 11
93.87
 21
202.7
 31
0.0
  0
LINE
  5
1FE
330
1E
100
AcDbEntity
  8
0
100
AcDbLine
 10
93.87
 20
205.55
 30
0.0
 11
93.87
 21
204.8
 31
0.0
  0
LINE
  5
1FF
330
1E
100
AcDbEntity
  8
0
100
AcDbLine
 10
93.87
 20
205.55
 30
0.0
 11
94.29399999999999
 21
204.4999999999999
 31
0.0
  0
LINE
  5
200
330
1E
100
AcDbEntity
  8
0
100
AcDbLine
 10
62.072
 20
205.25
 30
0.0
 11
62.396
 21
206.0
 31
0.0
  0
LINE
  5
201
330
1E
100
AcDbEntity
  8
0
100
AcDbLine
 10
59.593
 20
205.0
 30
0.0
 11
61.99450806931171
 21
204.7600437521889
 31
0.0
  0
LINE
  5
202
330
1E
100
AcDbEntity
  8
0
100
AcDbLine
 10
59.0
 20
205.0
 30
0.0
 11
59.0
 21
204.3
 31
0.0
  0
LINE
  5
203
330
1E
100
AcDbEntity
  8
0
100
AcDbLine
 10
59.0
 20
205.0
 30
0.0
 11
59.593
 21
205.0
 31
0.0
  0
LINE
  5
204
330
1E
100
AcDbEntity
  8
0
100
AcDbLine
 10
58.0
 20
206.0
 30
0.0
 11
58.0
 21
205.2
 31
0.0
  0
LINE
  5
205
330
1E
100
AcDbEntity
  8
0
100
AcDbLine
 10
58.0
 20
206.0
 30
0.0
 11
59.0
 21
205.0
 31
0.0
  0
LINE
  5
206
330
1E
100
AcDbEntity
  8
0
100
AcDbLine
 10
27.0
 20
206.4999999999999
 30
0.0
 11
30.4374999999999
 21
206.0
 31
0.0
  0
LINE
  5
207
330
1E
100
AcDbEntity
  8
0
100
AcDbLine
 10
40.2
 20
208.0
 30
0.0
 11
42.7581395348837
 21
206.0
 31
0.0
  0
LINE
  5
208
330
1E
100
AcDbEntity
  8
0
100
AcDbLine
 10
40.4
 20
208.4
 30
0.0
 11
43.4545454545455
 21
206.0
 31
0.0
  0
LINE
  5
209
330
1E
100
AcDbEntity
  8
0
100
AcDbLine
 10
27.0
 20
206.0
 30
0.0
 11
32.4
 21
205.2
 31
0.0
  0
LINE
  5
20A
330
1E
100
AcDbEntity
  8
0
100
AcDbLine
 10
27.0
 20
206.0
 30
0.0
 11
58.0
 21
206.0
 31
0.0
  0
LINE
  5
20B
330
1E
100
AcDbEntity
  8
0
100
AcDbLine
 10
92.88200000000001
 20
206.0
 30
0.0
 11
93.87
 21
205.55
 31
0.0
  0
LINE
  5
20C
330
1E
100
AcDbEntity
  8
0
100
AcDbLine
 10
62.396
 20
206.0
 30
0.0
 11
92.88200000000001
 21
206.0
 31
0.0
  0
LINE
  5
20D
330
1E
100
AcDbEntity
  8
0
100
AcDbLine
 10
21.49999999999999
 20
205.6999999999999
 30
0.0
 11
27.0
 21
206.4999999999999
 31
0.0
  0
LINE
  5
20E
330
1E
100
AcDbEntity
  8
0
100
AcDbLine
 10
13.8
 20
208.0
 30
0.0
 11
20.2
 21
210.4999999999999
 31
0.0
  0
LINE
  5
20F
330
1E
100
AcDbEntity
  8
0
100
AcDbLine
 10
8.3
 20
203.6999999999999
 30
0.0
 11
13.8
 21
208.0
 31
0.0
  0
LINE
  5
210
330
1E
100
AcDbEntity
  8
0
100
AcDbLine
 10
8.0
 20
204.0
 30
0.0
 11
13.6
 21
208.4
 31
0.0
  0
LINE
  5
211
330
1E
100
AcDbEntity
  8
0
100
AcDbLine
 10
33.79999999999999
 20
210.4999999999999
 30
0.0
 11
40.2
 21
208.0
 31
0.0
  0
LINE
  5
212
330
1E
100
AcDbEntity
  8
0
100
AcDbLine
 10
27.0
 20
211.5
 30
0.0
 11
33.79999999999999
 21
210.4999999999999
 31
0.0
  0
LINE
  5
213
330
1E
100
AcDbEntity
  8
0
100
AcDbLine
 10
27.0
 20
212.0
 30
0.0
 11
33.9
 21
211.0
 31
0.0
  0
LINE
  5
214
330
1E
100
AcDbEntity
  8
0
100
AcDbLine
 10
33.9
 20
211.0
 30
0.0
 11
40.4
 21
208.4
 31
0.0
  0
LINE
  5
215
330
1E
100
AcDbEntity
  8
0
100
AcDbLine
 10
20.2
 20
210.4999999999999
 30
0.0
 11
27.0
 21
211.5
 31
0.0
  0
LINE
  5
216
330
1E
100
AcDbEntity
  8
0
100
AcDbLine
 10
20.1
 20
211.0
 30
0.0
 11
27.0
 21
212.0
 31
0.0
  0
LINE
  5
217
330
1E
100
AcDbEntity
  8
0
100
AcDbLine
 10
13.6
 20
208.4
 30
0.0
 11
20.1
 21
211.0
 31
0.0
  0
LINE
  5
218
330
1E
100
AcDbEntity
  8
0
100
AcDbLine
 10
3.6
 20
198.4
 30
0.0
 11
8.0
 21
204.0
 31
0.0
  0
LINE
  5
219
330
1E
100
AcDbEntity
  8
0
100
AcDbLine
 10
1.0
 20
191.9
 30
0.0
 11
3.6
 21
198.4
 31
0.0
  0
LINE
  5
21A
330
1E
100
AcDbEntity
  8
0
100
AcDbLine
 10
0.0000000000000011
 20
185.0
 30
0.0
 11
1.0
 21
191.9
 31
0.0
  0
LINE
  5
21B
330
1E
100
AcDbEntity
  8
0
100
AcDbLine
 10
0.0000000000000011
 20
185.0
 30
0.0
 11
1.0
 21
178.0999999999999
 31
0.0
  0
LINE
  5
220
330
1E
100
AcDbEntity
  8
0
100
AcDbLine
 10
84.0
 20
173.0
 30
0.0
 11
84.8
 21
173.0999999999999
 31
0.0
  0
LINE
  5
221
330
1E
100
AcDbEntity
  8
0
100
AcDbLine
 10
82.5
 20
173.3999999999999
 30
0.0
 11
83.2
 21
173.0999999999999
 31
0.0
  0
LINE
  5
222
330
1E
100
AcDbEntity
  8
0
100
AcDbLine
 10
81.4
 20
174.5
 30
0.0
 11
81.90000000000001
 21
173.9
 31
0.0
  0
LINE
  5
223
330
1E
100
AcDbEntity
  8
0
100
AcDbLine
 10
81.09999999999999
 20
175.1999999999999
 30
0.0
 11
81.4
 21
174.5
 31
0.0
  0
LINE
  5
224
330
1E
100
AcDbEntity
  8
0
100
AcDbLine
 10
81.0
 20
176.0
 30
0.0
 11
81.09999999999999
 21
175.1999999999999
 31
0.0
  0
LINE
  5
225
330
1E
100
AcDbEntity
  8
0
100
AcDbLine
 10
81.90000000000001
 20
173.9
 30
0.0
 11
82.5
 21
173.3999999999999
 31
0.0
  0
LINE
  5
226
330
1E
100
AcDbEntity
  8
0
100
AcDbLine
 10
83.2
 20
173.0999999999999
 30
0.0
 11
84.0
 21
173.0
 31
0.0
  0
LINE
  5
227
330
1E
100
AcDbEntity
  8
0
100
AcDbLine
 10
86.09999999999999
 20
173.9
 30
0.0
 11
86.6
 21
174.5
 31
0.0
  0
LINE
  5
228
330
1E
100
AcDbEntity
  8
0
100
AcDbLine
 10
85.5
 20
173.3999999999999
 30
0.0
 11
86.09999999999999
 21
173.9
 31
0.0
  0
LINE
  5
229
330
1E
100
AcDbEntity
  8
0
100
AcDbLine
 10
84.8
 20
173.0999999999999
 30
0.0
 11
85.5
 21
173.3999999999999
 31
0.0
  0
LINE
  5
22A
330
1E
100
AcDbEntity
  8
0
100
AcDbLine
 10
86.6
 20
174.5
 30
0.0
 11
86.90000000000001
 21
175.1999999999999
 31
0.0
  0
LINE
  5
22B
330
1E
100
AcDbEntity
  8
0
100
AcDbLine
 10
86.90000000000001
 20
175.1999999999999
 30
0.0
 11
87.0
 21
176.0
 31
0.0
  0
ENDSEC
  0
SECTION
  2
OBJECTS
  0
DICTIONARY
  5
C
330
0
100
AcDbDictionary
  3
ACAD_GROUP
350
D
  3
ACAD_LAYOUT
350
19
  3
ACAD_MLINESTYLE
350
16
  3
ACAD_PLOTSETTINGS
350
18
  3
ACAD_PLOTSTYLENAME
350
E
  3
ACDBHEADERROUNDTRIPXREC
350
22F
  3
ACDBVARIABLEDICTIONARY
350
22C
  0
DICTIONARY
  5
251
330
1E
100
AcDbDictionary
280
     1
  3
ACAD_LAYOUTSELFREF
360
252
  0
DICTIONARY
  5
24F
330
1A
100
AcDbDictionary
280
     1
  3
ACAD_LAYOUTSELFREF
360
250
  0
DICTIONARY
  5
D
102
{ACAD_REACTORS
330
C
102
}
330
C
100
AcDbDictionary
  0
DICTIONARY
  5
19
102
{ACAD_REACTORS
330
C
102
}
330
C
100
AcDbDictionary
  0
DICTIONARY
  5
16
102
{ACAD_REACTORS
330
C
102
}
330
C
100
AcDbDictionary
  3
STANDARD
350
17
  0
DICTIONARY
  5
18
102
{ACAD_REACTORS
330
C
102
}
330
C
100
AcDbDictionary
  0
ACDBDICTIONARYWDFLT
  5
E
102
{ACAD_REACTORS
330
C
102
}
330
C
100
AcDbDictionary
281
     1
  3
Normal
350
F
100
AcDbDictionaryWithDefault
340
F
  0
DICTIONARY
  5
22F
102
{ACAD_REACTORS
330
C
102
}
330
C
100
AcDbDictionary
  3
CEPSNTYPE
350
239
  3
FINGERPRINTGUID
350
23A
  3
HYPERLINKBASE
350
232
  3
INSUNITS
350
238
  3
LAYOUTDICT
350
234
  3
LWETCUNION
350
237
  3
PLOTSETDICT
350
235
  3
PLOTSTYLNAMDICT
350
236
  3
PSVPSCALE
350
23C
  3
PUCSBASE
350
23F
  3
PUCSORGBACK
350
245
  3
PUCSORGBOTTOM
350
241
  3
PUCSORGFRONT
350
244
  3
PUCSORGLEFT
350
242
  3
PUCSORGRIGHT
350
243
  3
PUCSORGTOP
350
240
  3
PUCSORTHOREF
350
23D
  3
PUCSORTHOVIEW
350
23E
  3
STYLESHEET
350
233
  3
TSTACKALIGN
350
230
  3
TSTACKSIZE
350
231
  3
UCSBASE
350
248
  3
UCSORGBACK
350
24E
  3
UCSORGBOTTOM
350
24A
  3
UCSORGFRONT
350
24D
  3
UCSORGLEFT
350
24B
  3
UCSORGRIGHT
350
24C
  3
UCSORGTOP
350
249
  3
UCSORTHOREF
350
246
  3
UCSORTHOVIEW
350
247
  3
VERSIONGUID
350
23B
  0
DICTIONARY
  5
22C
102
{ACAD_REACTORS
330
C
102
}
330
C
100
AcDbDictionary
  3
DIMASSOC
350
22D
  0
XRECORD
  5
252
102
{ACAD_REACTORS
330
251
102
}
330
251
100
AcDbXrecord
340
1E
  0
XRECORD
  5
250
102
{ACAD_REACTORS
330
24F
102
}
330
24F
100
AcDbXrecord
340
1A
  0
MLINESTYLE
  5
17
102
{ACAD_REACTORS
330
16
102
}
330
16
100
AcDbMlineStyle
  2
STANDARD
 70
     0
  3

 62
   256
 51
90.0
 52
90.0
 71
     2
 49
0.5
 62
   256
  6
BYLAYER
 49
-0.5
 62
   256
  6
BYLAYER
  0
ACDBPLACEHOLDER
  5
F
102
{ACAD_REACTORS
330
E
102
}
330
E
100
AcDbPlaceHolder
280
     0
  0
XRECORD
  5
239
102
{ACAD_REACTORS
330
22F
102
}
330
22F
100
AcDbXrecord
 90
        0
  0
XRECORD
  5
23A
102
{ACAD_REACTORS
330
22F
102
}
330
22F
100
AcDbXrecord
  1
{0ABD9696-24A3-47BA-BC1A-C16349175965}
  0
XRECORD
  5
232
102
{ACAD_REACTORS
330
22F
102
}
330
22F
100
AcDbXrecord
  1

  0
XRECORD
  5
238
102
{ACAD_REACTORS
330
22F
102
}
330
22F
100
AcDbXrecord
 90
        0
  0
XRECORD
  5
234
102
{ACAD_REACTORS
330
22F
102
}
330
22F
100
AcDbXrecord
340
19
  0
XRECORD
  5
237
102
{ACAD_REACTORS
330
22F
102
}
330
22F
100
AcDbXrecord
 90
    10781
  0
XRECORD
  5
235
102
{ACAD_REACTORS
330
22F
102
}
330
22F
100
AcDbXrecord
340
18
  0
XRECORD
  5
236
102
{ACAD_REACTORS
330
22F
102
}
330
22F
100
AcDbXrecord
340
E
  0
XRECORD
  5
23C
102
{ACAD_REACTORS
330
22F
102
}
330
22F
100
AcDbXrecord
 40
0.0
  0
XRECORD
  5
23F
102
{ACAD_REACTORS
330
22F
102
}
330
22F
100
AcDbXrecord
340
0
  0
XRECORD
  5
245
102
{ACAD_REACTORS
330
22F
102
}
330
22F
100
AcDbXrecord
 10
0.0
 20
0.0
 30
0.0
  0
XRECORD
  5
241
102
{ACAD_REACTORS
330
22F
102
}
330
22F
100
AcDbXrecord
 10
0.0
 20
0.0
 30
0.0
  0
XRECORD
  5
244
102
{ACAD_REACTORS
330
22F
102
}
330
22F
100
AcDbXrecord
 10
0.0
 20
0.0
 30
0.0
  0
XRECORD
  5
242
102
{ACAD_REACTORS
330
22F
102
}
330
22F
100
AcDbXrecord
 10
0.0
 20
0.0
 30
0.0
  0
XRECORD
  5
243
102
{ACAD_REACTORS
330
22F
102
}
330
22F
100
AcDbXrecord
 10
0.0
 20
0.0
 30
0.0
  0
XRECORD
  5
240
102
{ACAD_REACTORS
330
22F
102
}
330
22F
100
AcDbXrecord
 10
0.0
 20
0.0
 30
0.0
  0
XRECORD
  5
23D
102
{ACAD_REACTORS
330
22F
102
}
330
22F
100
AcDbXrecord
340
0
  0
XRECORD
  5
23E
102
{ACAD_REACTORS
330
22F
102
}
330
22F
100
AcDbXrecord
 70
     0
  0
XRECORD
  5
233
102
{ACAD_REACTORS
330
22F
102
}
330
22F
100
AcDbXrecord
  1

  0
XRECORD
  5
230
102
{ACAD_REACTORS
330
22F
102
}
330
22F
100
AcDbXrecord
 90
        1
  0
XRECORD
  5
231
102
{ACAD_REACTORS
330
22F
102
}
330
22F
100
AcDbXrecord
 90
       70
  0
XRECORD
  5
248
102
{ACAD_REACTORS
330
22F
102
}
330
22F
100
AcDbXrecord
340
0
  0
XRECORD
  5
24E
102
{ACAD_REACTORS
330
22F
102
}
330
22F
100
AcDbXrecord
 10
0.0
 20
0.0
 30
0.0
  0
XRECORD
  5
24A
102
{ACAD_REACTORS
330
22F
102
}
330
22F
100
AcDbXrecord
 10
0.0
 20
0.0
 30
0.0
  0
XRECORD
  5
24D
102
{ACAD_REACTORS
330
22F
102
}
330
22F
100
AcDbXrecord
 10
0.0
 20
0.0
 30
0.0
  0
XRECORD
  5
24B
102
{ACAD_REACTORS
330
22F
102
}
330
22F
100
AcDbXrecord
 10
0.0
 20
0.0
 30
0.0
  0
XRECORD
  5
24C
102
{ACAD_REACTORS
330
22F
102
}
330
22F
100
AcDbXrecord
 10
0.0
 20
0.0
 30
0.0
  0
XRECORD
  5
249
102
{ACAD_REACTORS
330
22F
102
}
330
22F
100
AcDbXrecord
 10
0.0
 20
0.0
 30
0.0
  0
XRECORD
  5
246
102
{ACAD_REACTORS
330
22F
102
}
330
22F
100
AcDbXrecord
340
0
  0
XRECORD
  5
247
102
{ACAD_REACTORS
330
22F
102
}
330
22F
100
AcDbXrecord
 70
     1
  0
XRECORD
  5
23B
102
{ACAD_REACTORS
330
22F
102
}
330
22F
100
AcDbXrecord
  1
{CE1C9F38-8A36-457F-B940-3E49012BEFE2}
  0
DICTIONARYVAR
  5
22D
102
{ACAD_REACTORS
330
22C
102
}
330
22C
100
DictionaryVariables
280
     0
  1
1
  0
ENDSEC
  0
EOF
