  0
SECTION
  2
HEADER
  9
$ACADVER
  1
AC1014
  9
$ACADMAINTVER
 70
     9
  9
$DWGCODEPAGE
  3
ANSI_1252
  9
$INSBASE
 10
0.0
 20
0.0
 30
0.0
  9
$EXTMIN
 10
-0.193979999999986
 20
-0.0000000000000181
 30
0.0
  9
$EXTMAX
 10
214.1939799999999
 20
270.0
 30
0.0
  9
$LIMMIN
 10
0.0
 20
0.0
  9
$LIMMAX
 10
12.0
 20
9.0
  9
$ORTHOMODE
 70
     0
  9
$REGENMODE
 70
     1
  9
$FILLMODE
 70
     1
  9
$QTEXTMODE
 70
     0
  9
$MIRRTEXT
 70
     1
  9
$DRAGMODE
 70
     2
  9
$LTSCALE
 40
1.0
  9
$OSMODE
 70
    37
  9
$ATTMODE
 70
     1
  9
$TEXTSIZE
 40
0.2
  9
$TRACEWID
 40
0.05
  9
$TEXTSTYLE
  7
STANDARD
  9
$CLAYER
  8
0
  9
$CELTYPE
  6
CONTINUOUS
  9
$CECOLOR
 62
   256
  9
$CELTSCALE
 40
1.0
  9
$DELOBJ
 70
     1
  9
$DISPSILH
 70
     0
  9
$DIMSCALE
 40
1.0
  9
$DIMASZ
 40
0.18
  9
$DIMEXO
 40
0.0625
  9
$DIMDLI
 40
0.38
  9
$DIMRND
 40
0.0
  9
$DIMDLE
 40
0.0
  9
$DIMEXE
 40
0.18
  9
$DIMTP
 40
0.0
  9
$DIMTM
 40
0.0
  9
$DIMTXT
 40
0.18
  9
$DIMCEN
 40
0.09
  9
$DIMTSZ
 40
0.0
  9
$DIMTOL
 70
     0
  9
$DIMLIM
 70
     0
  9
$DIMTIH
 70
     1
  9
$DIMTOH
 70
     1
  9
$DIMSE1
 70
     0
  9
$DIMSE2
 70
     0
  9
$DIMTAD
 70
     0
  9
$DIMZIN
 70
     0
  9
$DIMBLK
  1

  9
$DIMASO
 70
     1
  9
$DIMSHO
 70
     1
  9
$DIMPOST
  1

  9
$DIMAPOST
  1

  9
$DIMALT
 70
     0
  9
$DIMALTD
 70
     2
  9
$DIMALTF
 40
25.4
  9
$DIMLFAC
 40
1.0
  9
$DIMTOFL
 70
     0
  9
$DIMTVP
 40
0.0
  9
$DIMTIX
 70
     0
  9
$DIMSOXD
 70
     0
  9
$DIMSAH
 70
     0
  9
$DIMBLK1
  1

  9
$DIMBLK2
  1

  9
$DIMSTYLE
  2
STANDARD
  9
$DIMCLRD
 70
     0
  9
$DIMCLRE
 70
     0
  9
$DIMCLRT
 70
     0
  9
$DIMTFAC
 40
1.0
  9
$DIMGAP
 40
0.09
  9
$DIMJUST
 70
     0
  9
$DIMSD1
 70
     0
  9
$DIMSD2
 70
     0
  9
$DIMTOLJ
 70
     1
  9
$DIMTZIN
 70
     0
  9
$DIMALTZ
 70
     0
  9
$DIMALTTZ
 70
     0
  9
$DIMFIT
 70
     3
  9
$DIMUPT
 70
     0
  9
$DIMUNIT
 70
     2
  9
$DIMDEC
 70
     4
  9
$DIMTDEC
 70
     4
  9
$DIMALTU
 70
     2
  9
$DIMALTTD
 70
     2
  9
$DIMTXSTY
  7
STANDARD
  9
$DIMAUNIT
 70
     0
  9
$LUNITS
 70
     2
  9
$LUPREC
 70
     4
  9
$SKETCHINC
 40
0.1
  9
$FILLETRAD
 40
0.0
  9
$AUNITS
 70
     0
  9
$AUPREC
 70
     0
  9
$MENU
  1
.
  9
$ELEVATION
 40
0.0
  9
$PELEVATION
 40
0.0
  9
$THICKNESS
 40
0.0
  9
$LIMCHECK
 70
     0
  9
$BLIPMODE
 70
     0
  9
$CHAMFERA
 40
0.0
  9
$CHAMFERB
 40
0.0
  9
$CHAMFERC
 40
0.0
  9
$CHAMFERD
 40
0.0
  9
$SKPOLY
 70
     0
  9
$TDCREATE
 40
2454691.844247314
  9
$TDUPDATE
 40
2454691.844374815
  9
$TDINDWG
 40
0.0001275000
  9
$TDUSRTIMER
 40
0.0001275000
  9
$USRTIMER
 70
     1
  9
$ANGBASE
 50
0.0
  9
$ANGDIR
 70
     0
  9
$PDMODE
 70
     0
  9
$PDSIZE
 40
0.0
  9
$PLINEWID
 40
0.0
  9
$COORDS
 70
     1
  9
$SPLFRAME
 70
     0
  9
$SPLINETYPE
 70
     6
  9
$SPLINESEGS
 70
     8
  9
$ATTDIA
 70
     0
  9
$ATTREQ
 70
     1
  9
$HANDLING
 70
 22529
  9
$HANDSEED
  5
14B
  9
$SURFTAB1
 70
     6
  9
$SURFTAB2
 70
     6
  9
$SURFTYPE
 70
     6
  9
$SURFU
 70
     6
  9
$SURFV
 70
     6
  9
$UCSNAME
  2

  9
$UCSORG
 10
0.0
 20
0.0
 30
0.0
  9
$UCSXDIR
 10
1.0
 20
0.0
 30
0.0
  9
$UCSYDIR
 10
0.0
 20
1.0
 30
0.0
  9
$PUCSNAME
  2

  9
$PUCSORG
 10
0.0
 20
0.0
 30
0.0
  9
$PUCSXDIR
 10
1.0
 20
0.0
 30
0.0
  9
$PUCSYDIR
 10
0.0
 20
1.0
 30
0.0
  9
$USERI1
 70
     0
  9
$USERI2
 70
     0
  9
$USERI3
 70
     0
  9
$USERI4
 70
     0
  9
$USERI5
 70
     0
  9
$USERR1
 40
0.0
  9
$USERR2
 40
0.0
  9
$USERR3
 40
0.0
  9
$USERR4
 40
0.0
  9
$USERR5
 40
0.0
  9
$WORLDVIEW
 70
     1
  9
$SHADEDGE
 70
     3
  9
$SHADEDIF
 70
    70
  9
$TILEMODE
 70
     1
  9
$MAXACTVP
 70
    64
  9
$PINSBASE
 10
0.0
 20
0.0
 30
0.0
  9
$PLIMCHECK
 70
     0
  9
$PEXTMIN
 10
1.000000000000000E+20
 20
1.000000000000000E+20
 30
1.000000000000000E+20
  9
$PEXTMAX
 10
-1.000000000000000E+20
 20
-1.000000000000000E+20
 30
-1.000000000000000E+20
  9
$PLIMMIN
 10
0.0
 20
0.0
  9
$PLIMMAX
 10
12.0
 20
9.0
  9
$UNITMODE
 70
     0
  9
$VISRETAIN
 70
     1
  9
$PLINEGEN
 70
     0
  9
$PSLTSCALE
 70
     1
  9
$TREEDEPTH
 70
  3020
  9
$PICKSTYLE
 70
     1
  9
$CMLSTYLE
  2
STANDARD
  9
$CMLJUST
 70
     0
  9
$CMLSCALE
 40
1.0
  9
$PROXYGRAPHICS
 70
     1
  9
$MEASUREMENT
 70
     0
  0
ENDSEC
  0
SECTION
  2
CLASSES
  0
CLASS
  1
ACDBDICTIONARYWDFLT
  2
AcDbDictionaryWithDefault
  3
AutoCAD 2000
 90
        0
280
     0
281
     0
  0
CLASS
  1
ACDBPLACEHOLDER
  2
AcDbPlaceHolder
  3
AutoCAD 2000
 90
        0
280
     0
281
     0
  0
CLASS
  1
LAYOUT
  2
AcDbLayout
  3
AutoCAD 2000
 90
        0
280
     0
281
     0
  0
CLASS
  1
DICTIONARYVAR
  2
AcDbDictionaryVar
  3
AutoCAD 2000
 90
        0
280
     0
281
     0
  0
CLASS
  1
LONG_TRANSACTION
  2
AcDbLongTransaction
  3
AutoCAD 2000
 90
        0
280
     0
281
     0
  0
CLASS
  1
LWPOLYLINE
  2
AcDbPolyline
  3
AutoCAD 2000
 90
        0
280
     0
281
     1
  0
CLASS
  1
HATCH
  2
AcDbHatch
  3
AutoCAD 2000
 90
        0
280
     0
281
     1
  0
CLASS
  1
XRECORD
  2
AcDbXrecord
  3
AutoCAD 2000
 90
        0
280
     0
281
     0
  0
ENDSEC
  0
SECTION
  2
TABLES
  0
TABLE
  2
VPORT
  5
8
330
0
100
AcDbSymbolTable
 70
     2
  0
VPORT
  5
126
330
8
100
AcDbSymbolTableRecord
100
AcDbViewportTableRecord
  2
*ACTIVE
 70
     0
 10
0.0
 20
0.0
 11
1.0
 21
1.0
 12
107.0
 22
134.9999999999999
 13
0.0
 23
0.0
 14
1.0
 24
1.0
 15
0.0
 25
0.0
 16
0.0
 26
0.0
 36
1.0
 17
0.0
 27
0.0
 37
0.0
 40
272.0716112531969
 41
2.078104993597951
 42
50.0
 43
0.0
 44
0.0
 50
0.0
 51
0.0
 71
     0
 72
   100
 73
     1
 74
     3
 75
     0
 76
     0
 77
     0
 78
     0
  0
ENDTAB
  0
TABLE
  2
LTYPE
  5
5
330
0
100
AcDbSymbolTable
 70
     1
  0
LTYPE
  5
13
330
5
100
AcDbSymbolTableRecord
100
AcDbLinetypeTableRecord
  2
BYBLOCK
 70
     0
  3

 72
    65
 73
     0
 40
0.0
  0
LTYPE
  5
14
330
5
100
AcDbSymbolTableRecord
100
AcDbLinetypeTableRecord
  2
BYLAYER
 70
     0
  3

 72
    65
 73
     0
 40
0.0
  0
LTYPE
  5
15
330
5
100
AcDbSymbolTableRecord
100
AcDbLinetypeTableRecord
  2
CONTINUOUS
 70
     0
  3
Solid line
 72
    65
 73
     0
 40
0.0
  0
ENDTAB
  0
TABLE
  2
LAYER
  5
2
330
0
100
AcDbSymbolTable
 70
     1
  0
LAYER
  5
10
330
2
100
AcDbSymbolTableRecord
100
AcDbLayerTableRecord
  2
0
 70
     0
 62
     7
  6
CONTINUOUS
  0
ENDTAB
  0
TABLE
  2
STYLE
  5
3
330
0
100
AcDbSymbolTable
 70
     1
  0
STYLE
  5
11
330
3
100
AcDbSymbolTableRecord
100
AcDbTextStyleTableRecord
  2
STANDARD
 70
     0
 40
0.0
 41
1.0
 50
0.0
 71
     0
 42
0.2
  3
txt
  4

  0
ENDTAB
  0
TABLE
  2
VIEW
  5
6
330
0
100
AcDbSymbolTable
 70
     0
  0
ENDTAB
  0
TABLE
  2
UCS
  5
7
330
0
100
AcDbSymbolTable
 70
     0
  0
ENDTAB
  0
TABLE
  2
APPID
  5
9
330
0
100
AcDbSymbolTable
 70
     1
  0
APPID
  5
12
330
9
100
AcDbSymbolTableRecord
100
AcDbRegAppTableRecord
  2
ACAD
 70
     0
  0
ENDTAB
  0
TABLE
  2
DIMSTYLE
  5
A
330
0
100
AcDbSymbolTable
 70
     1
  0
DIMSTYLE
105
120
330
A
100
AcDbSymbolTableRecord
100
AcDbDimStyleTableRecord
  2
STANDARD
 70
     0
  3

  4

  5

  6

  7

 40
1.0
 41
0.18
 42
0.0625
 43
0.38
 44
0.18
 45
0.0
 46
0.0
 47
0.0
 48
0.0
140
0.18
141
0.09
142
0.0
143
25.4
144
1.0
145
0.0
146
1.0
147
0.09
 71
     0
 72
     0
 73
     1
 74
     1
 75
     0
 76
     0
 77
     0
 78
     0
170
     0
171
     2
172
     0
173
     0
174
     0
175
     0
176
     0
177
     0
178
     0
270
     2
271
     4
272
     4
273
     2
274
     2
340
11
275
     0
280
     0
281
     0
282
     0
283
     1
284
     0
285
     0
286
     0
287
     3
288
     0
  0
ENDTAB
  0
TABLE
  2
BLOCK_RECORD
  5
1
330
0
100
AcDbSymbolTable
 70
     0
  0
BLOCK_RECORD
  5
1E
102
{ACAD_XDICTIONARY
360
149
102
}
330
1
100
AcDbSymbolTableRecord
100
AcDbBlockTableRecord
  2
*MODEL_SPACE
  0
BLOCK_RECORD
  5
1A
102
{ACAD_XDICTIONARY
360
147
102
}
330
1
100
AcDbSymbolTableRecord
100
AcDbBlockTableRecord
  2
*PAPER_SPACE
  0
ENDTAB
  0
ENDSEC
  0
SECTION
  2
BLOCKS
  0
BLOCK
  5
1F
330
1E
100
AcDbEntity
  8
0
100
AcDbBlockBegin
  2
*MODEL_SPACE
 70
     0
 10
0.0
 20
0.0
 30
0.0
  3
*MODEL_SPACE
  1

  0
ENDBLK
  5
20
330
1E
100
AcDbEntity
  8
0
100
AcDbBlockEnd
  0
BLOCK
  5
1B
330
1A
100
AcDbEntity
 67
     1
  8
0
100
AcDbBlockBegin
  2
*PAPER_SPACE
 70
     0
 10
0.0
 20
0.0
 30
0.0
  3
*PAPER_SPACE
  1

  0
ENDBLK
  5
1C
330
1A
100
AcDbEntity
 67
     1
  8
0
100
AcDbBlockEnd
  0
ENDSEC
  0
SECTION
  2
ENTITIES
  0
LINE
  5
22
330
1E
100
AcDbEntity
  8
0
100
AcDbLine
 10
163.09398
 20
-0.000000000000015
 30
0.0
 11
165.69398
 21
-0.0000000000000152
 31
0.0
  0
LINE
  5
23
330
1E
100
AcDbEntity
  8
0
100
AcDbLine
 10
162.1939799999999
 20
-0.0000000000000149
 30
0.0
 11
163.09398
 21
-0.000000000000015
 31
0.0
  0
LINE
  5
24
330
1E
100
AcDbEntity
  8
0
100
AcDbLine
 10
162.1939799999999
 20
-0.0000000000000149
 30
0.0
 11
162.1939799999999
 21
4.49999999999998
 31
0.0
  0
LINE
  5
25
330
1E
100
AcDbEntity
  8
0
100
AcDbLine
 10
165.69398
 20
-0.0000000000000152
 30
0.0
 11
169.79398
 21
-0.0000000000000154
 31
0.0
  0
LINE
  5
26
330
1E
100
AcDbEntity
  8
0
100
AcDbLine
 10
175.29398
 20
4.49999999999998
 30
0.0
 11
181.4939799999999
 21
4.49999999999998
 31
0.0
  0
LINE
  5
27
330
1E
100
AcDbEntity
  8
0
100
AcDbLine
 10
181.4939799999999
 20
4.49999999999998
 30
0.0
 11
188.1939799999999
 21
4.49999999999998
 31
0.0
  0
LINE
  5
28
330
1E
100
AcDbEntity
  8
0
100
AcDbLine
 10
175.29398
 20
-0.0000000000000158
 30
0.0
 11
181.4939799999999
 21
-0.0000000000000161
 31
0.0
  0
LINE
  5
29
330
1E
100
AcDbEntity
  8
0
100
AcDbLine
 10
181.4939799999999
 20
-0.0000000000000161
 30
0.0
 11
188.1939799999999
 21
-0.0000000000000165
 31
0.0
  0
LINE
  5
2A
330
1E
100
AcDbEntity
  8
0
100
AcDbLine
 10
169.79398
 20
-0.0000000000000154
 30
0.0
 11
175.29398
 21
-0.0000000000000158
 31
0.0
  0
LINE
  5
2B
330
1E
100
AcDbEntity
  8
0
100
AcDbLine
 10
163.09398
 20
4.49999999999998
 30
0.0
 11
165.69398
 21
4.49999999999998
 31
0.0
  0
LINE
  5
2C
330
1E
100
AcDbEntity
  8
0
100
AcDbLine
 10
165.69398
 20
4.49999999999998
 30
0.0
 11
169.79398
 21
4.49999999999998
 31
0.0
  0
LINE
  5
2D
330
1E
100
AcDbEntity
  8
0
100
AcDbLine
 10
169.79398
 20
4.49999999999998
 30
0.0
 11
175.29398
 21
4.49999999999998
 31
0.0
  0
LINE
  5
2E
330
1E
100
AcDbEntity
  8
0
100
AcDbLine
 10
163.59398
 20
4.99999999999998
 30
0.0
 11
166.09398
 21
4.99999999999998
 31
0.0
  0
LINE
  5
2F
330
1E
100
AcDbEntity
  8
0
100
AcDbLine
 10
166.09398
 20
4.99999999999998
 30
0.0
 11
170.19398
 21
4.99999999999998
 31
0.0
  0
LINE
  5
30
330
1E
100
AcDbEntity
  8
0
100
AcDbLine
 10
176.09398
 20
4.99999999999998
 30
0.0
 11
178.29398
 21
4.99999999999998
 31
0.0
  0
LINE
  5
31
330
1E
100
AcDbEntity
  8
0
100
AcDbLine
 10
174.19398
 20
4.99999999999998
 30
0.0
 11
174.19398
 21
48.5
 31
0.0
  0
LINE
  5
32
330
1E
100
AcDbEntity
  8
0
100
AcDbLine
 10
174.19398
 20
4.99999999999998
 30
0.0
 11
174.19398
 21
5.999999999999981
 31
0.0
  0
LINE
  5
33
330
1E
100
AcDbEntity
  8
0
100
AcDbLine
 10
170.19398
 20
4.99999999999998
 30
0.0
 11
175.49398
 21
4.99999999999998
 31
0.0
  0
LINE
  5
34
330
1E
100
AcDbEntity
  8
0
100
AcDbLine
 10
162.69398
 20
4.99999999999999
 30
0.0
 11
163.59398
 21
4.99999999999998
 31
0.0
  0
LINE
  5
35
330
1E
100
AcDbEntity
  8
0
100
AcDbLine
 10
175.49398
 20
4.99999999999998
 30
0.0
 11
176.09398
 21
4.99999999999998
 31
0.0
  0
LINE
  5
36
330
1E
100
AcDbEntity
  8
0
100
AcDbLine
 10
175.49398
 20
4.99999999999998
 30
0.0
 11
181.59398
 21
4.99999999999998
 31
0.0
  0
LINE
  5
37
330
1E
100
AcDbEntity
  8
0
100
AcDbLine
 10
188.1939799999999
 20
5.999999999999981
 30
0.0
 11
191.79398
 21
5.999999999999981
 31
0.0
  0
LINE
  5
38
330
1E
100
AcDbEntity
  8
0
100
AcDbLine
 10
181.59398
 20
4.99999999999998
 30
0.0
 11
188.1939799999999
 21
4.99999999999998
 31
0.0
  0
LINE
  5
39
330
1E
100
AcDbEntity
  8
0
100
AcDbLine
 10
178.29398
 20
4.99999999999998
 30
0.0
 11
181.59398
 21
4.99999999999998
 31
0.0
  0
LINE
  5
3A
330
1E
100
AcDbEntity
  8
0
100
AcDbLine
 10
162.1939799999999
 20
4.49999999999998
 30
0.0
 11
162.1939799999999
 21
-0.000000000000015
 31
0.0
  0
LINE
  5
3B
330
1E
100
AcDbEntity
  8
0
100
AcDbLine
 10
162.1939799999999
 20
4.49999999999998
 30
0.0
 11
162.69398
 21
4.99999999999999
 31
0.0
  0
LINE
  5
3C
330
1E
100
AcDbEntity
  8
0
100
AcDbLine
 10
162.1939799999999
 20
4.49999999999998
 30
0.0
 11
163.09398
 21
4.49999999999998
 31
0.0
  0
LINE
  5
3D
330
1E
100
AcDbEntity
  8
0
100
AcDbLine
 10
188.1939799999999
 20
4.99999999999998
 30
0.0
 11
194.79398
 21
4.99999999999998
 31
0.0
  0
LINE
  5
3E
330
1E
100
AcDbEntity
  8
0
100
AcDbLine
 10
188.1939799999999
 20
4.99999999999998
 30
0.0
 11
191.79398
 21
4.99999999999998
 31
0.0
  0
LINE
  5
3F
330
1E
100
AcDbEntity
  8
0
100
AcDbLine
 10
188.1939799999999
 20
4.49999999999998
 30
0.0
 11
194.8939799999999
 21
4.49999999999998
 31
0.0
  0
LINE
  5
40
330
1E
100
AcDbEntity
  8
0
100
AcDbLine
 10
191.79398
 20
5.999999999999981
 30
0.0
 11
195.19398
 21
5.999999999999981
 31
0.0
  0
LINE
  5
41
330
1E
100
AcDbEntity
  8
0
100
AcDbLine
 10
191.79398
 20
4.99999999999998
 30
0.0
 11
194.79398
 21
4.99999999999998
 31
0.0
  0
LINE
  5
42
330
1E
100
AcDbEntity
  8
0
100
AcDbLine
 10
194.79398
 20
4.99999999999998
 30
0.0
 11
200.8939799999999
 21
4.99999999999998
 31
0.0
  0
LINE
  5
43
330
1E
100
AcDbEntity
  8
0
100
AcDbLine
 10
198.09398
 20
5.999999999999981
 30
0.0
 11
200.29398
 21
5.999999999999981
 31
0.0
  0
LINE
  5
44
330
1E
100
AcDbEntity
  8
0
100
AcDbLine
 10
195.19398
 20
5.999999999999981
 30
0.0
 11
198.09398
 21
5.999999999999981
 31
0.0
  0
LINE
  5
45
330
1E
100
AcDbEntity
  8
0
100
AcDbLine
 10
200.8939799999999
 20
4.99999999999998
 30
0.0
 11
206.19398
 21
4.99999999999998
 31
0.0
  0
LINE
  5
46
330
1E
100
AcDbEntity
  8
0
100
AcDbLine
 10
201.09398
 20
4.49999999999998
 30
0.0
 11
206.59398
 21
4.49999999999998
 31
0.0
  0
LINE
  5
47
330
1E
100
AcDbEntity
  8
0
100
AcDbLine
 10
194.8939799999999
 20
4.49999999999998
 30
0.0
 11
201.09398
 21
4.49999999999998
 31
0.0
  0
LINE
  5
48
330
1E
100
AcDbEntity
  8
0
100
AcDbLine
 10
194.8939799999999
 20
-0.000000000000017
 30
0.0
 11
201.09398
 21
-0.0000000000000173
 31
0.0
  0
LINE
  5
49
330
1E
100
AcDbEntity
  8
0
100
AcDbLine
 10
188.1939799999999
 20
-0.0000000000000165
 30
0.0
 11
194.8939799999999
 21
-0.000000000000017
 31
0.0
  0
LINE
  5
4A
330
1E
100
AcDbEntity
  8
0
100
AcDbLine
 10
174.19398
 20
5.999999999999981
 30
0.0
 11
174.19398
 21
4.99999999999998
 31
0.0
  0
LINE
  5
4B
330
1E
100
AcDbEntity
  8
0
100
AcDbLine
 10
174.19398
 20
5.999999999999981
 30
0.0
 11
174.6939799999999
 21
5.999999999999981
 31
0.0
  0
LINE
  5
4C
330
1E
100
AcDbEntity
  8
0
100
AcDbLine
 10
176.09398
 20
5.999999999999981
 30
0.0
 11
178.29398
 21
5.999999999999981
 31
0.0
  0
LINE
  5
4D
330
1E
100
AcDbEntity
  8
0
100
AcDbLine
 10
178.29398
 20
5.999999999999981
 30
0.0
 11
181.19398
 21
5.999999999999981
 31
0.0
  0
LINE
  5
4E
330
1E
100
AcDbEntity
  8
0
100
AcDbLine
 10
181.19398
 20
5.999999999999981
 30
0.0
 11
184.59398
 21
5.999999999999981
 31
0.0
  0
LINE
  5
4F
330
1E
100
AcDbEntity
  8
0
100
AcDbLine
 10
181.19398
 20
6.19999999999998
 30
0.0
 11
184.59398
 21
6.19999999999998
 31
0.0
  0
LINE
  5
50
330
1E
100
AcDbEntity
  8
0
100
AcDbLine
 10
174.6939799999999
 20
5.999999999999981
 30
0.0
 11
174.6939799999999
 21
6.19999999999999
 31
0.0
  0
LINE
  5
51
330
1E
100
AcDbEntity
  8
0
100
AcDbLine
 10
174.6939799999999
 20
5.999999999999981
 30
0.0
 11
176.09398
 21
5.999999999999981
 31
0.0
  0
LINE
  5
52
330
1E
100
AcDbEntity
  8
0
100
AcDbLine
 10
178.69398
 20
6.19999999999998
 30
0.0
 11
181.4939799999999
 21
6.19999999999998
 31
0.0
  0
LINE
  5
53
330
1E
100
AcDbEntity
  8
0
100
AcDbLine
 10
184.59398
 20
6.19999999999998
 30
0.0
 11
188.1939799999999
 21
6.19999999999998
 31
0.0
  0
LINE
  5
54
330
1E
100
AcDbEntity
  8
0
100
AcDbLine
 10
181.4939799999999
 20
6.19999999999998
 30
0.0
 11
184.69398
 21
6.19999999999998
 31
0.0
  0
LINE
  5
55
330
1E
100
AcDbEntity
  8
0
100
AcDbLine
 10
178.29398
 20
6.19999999999998
 30
0.0
 11
178.69398
 21
6.19999999999998
 31
0.0
  0
LINE
  5
56
330
1E
100
AcDbEntity
  8
0
100
AcDbLine
 10
178.29398
 20
6.19999999999998
 30
0.0
 11
181.19398
 21
6.19999999999998
 31
0.0
  0
LINE
  5
57
330
1E
100
AcDbEntity
  8
0
100
AcDbLine
 10
184.69398
 20
5.999999999999981
 30
0.0
 11
188.1939799999999
 21
5.999999999999981
 31
0.0
  0
LINE
  5
58
330
1E
100
AcDbEntity
  8
0
100
AcDbLine
 10
184.69398
 20
6.19999999999998
 30
0.0
 11
188.1939799999999
 21
6.19999999999998
 31
0.0
  0
LINE
  5
59
330
1E
100
AcDbEntity
  8
0
100
AcDbLine
 10
184.59398
 20
5.999999999999981
 30
0.0
 11
184.69398
 21
5.999999999999981
 31
0.0
  0
LINE
  5
5A
330
1E
100
AcDbEntity
  8
0
100
AcDbLine
 10
184.59398
 20
5.999999999999981
 30
0.0
 11
188.1939799999999
 21
5.999999999999981
 31
0.0
  0
LINE
  5
5B
330
1E
100
AcDbEntity
  8
0
100
AcDbLine
 10
174.6939799999999
 20
49.0
 30
0.0
 11
175.19398
 21
49.0
 31
0.0
  0
LINE
  5
5C
330
1E
100
AcDbEntity
  8
0
100
AcDbLine
 10
174.6939799999999
 20
48.5
 30
0.0
 11
176.09398
 21
48.5
 31
0.0
  0
LINE
  5
5D
330
1E
100
AcDbEntity
  8
0
100
AcDbLine
 10
174.19398
 20
48.5
 30
0.0
 11
174.19398
 21
6.19999999999999
 31
0.0
  0
LINE
  5
5E
330
1E
100
AcDbEntity
  8
0
100
AcDbLine
 10
174.19398
 20
48.5
 30
0.0
 11
174.6939799999999
 21
49.0
 31
0.0
  0
LINE
  5
5F
330
1E
100
AcDbEntity
  8
0
100
AcDbLine
 10
174.19398
 20
48.5
 30
0.0
 11
174.6939799999999
 21
48.5
 31
0.0
  0
LINE
  5
60
330
1E
100
AcDbEntity
  8
0
100
AcDbLine
 10
174.19398
 20
48.5
 30
0.0
 11
174.19398
 21
4.99999999999998
 31
0.0
  0
LINE
  5
61
330
1E
100
AcDbEntity
  8
0
100
AcDbLine
 10
174.19398
 20
6.19999999999999
 30
0.0
 11
174.6939799999999
 21
6.19999999999999
 31
0.0
  0
LINE
  5
62
330
1E
100
AcDbEntity
  8
0
100
AcDbLine
 10
174.19398
 20
6.19999999999999
 30
0.0
 11
174.19398
 21
48.5
 31
0.0
  0
LINE
  5
63
330
1E
100
AcDbEntity
  8
0
100
AcDbLine
 10
176.09398
 20
6.19999999999999
 30
0.0
 11
178.29398
 21
6.19999999999998
 31
0.0
  0
LINE
  5
64
330
1E
100
AcDbEntity
  8
0
100
AcDbLine
 10
176.09398
 20
48.5
 30
0.0
 11
178.29398
 21
48.5
 31
0.0
  0
LINE
  5
65
330
1E
100
AcDbEntity
  8
0
100
AcDbLine
 10
178.29398
 20
48.5
 30
0.0
 11
181.19398
 21
48.5
 31
0.0
  0
LINE
  5
66
330
1E
100
AcDbEntity
  8
0
100
AcDbLine
 10
175.19398
 20
49.0
 30
0.0
 11
176.49398
 21
49.0
 31
0.0
  0
LINE
  5
67
330
1E
100
AcDbEntity
  8
0
100
AcDbLine
 10
177.19398
 20
49.0
 30
0.0
 11
177.19398
 21
171.5
 31
0.0
  0
LINE
  5
68
330
1E
100
AcDbEntity
  8
0
100
AcDbLine
 10
176.49398
 20
49.0
 30
0.0
 11
178.69398
 21
49.0
 31
0.0
  0
LINE
  5
69
330
1E
100
AcDbEntity
  8
0
100
AcDbLine
 10
178.69398
 20
49.0
 30
0.0
 11
181.4939799999999
 21
49.0
 31
0.0
  0
LINE
  5
6A
330
1E
100
AcDbEntity
  8
0
100
AcDbLine
 10
181.4939799999999
 20
49.0
 30
0.0
 11
184.69398
 21
49.0
 31
0.0
  0
LINE
  5
6B
330
1E
100
AcDbEntity
  8
0
100
AcDbLine
 10
181.19398
 20
48.5
 30
0.0
 11
184.59398
 21
48.5
 31
0.0
  0
LINE
  5
6C
330
1E
100
AcDbEntity
  8
0
100
AcDbLine
 10
184.69398
 20
49.0
 30
0.0
 11
188.1939799999999
 21
49.0
 31
0.0
  0
LINE
  5
6D
330
1E
100
AcDbEntity
  8
0
100
AcDbLine
 10
184.59398
 20
48.5
 30
0.0
 11
188.1939799999999
 21
48.5
 31
0.0
  0
LINE
  5
6E
330
1E
100
AcDbEntity
  8
0
100
AcDbLine
 10
175.19398
 20
6.19999999999999
 30
0.0
 11
176.09398
 21
6.19999999999999
 31
0.0
  0
LINE
  5
6F
330
1E
100
AcDbEntity
  8
0
100
AcDbLine
 10
174.6939799999999
 20
6.19999999999999
 30
0.0
 11
174.6939799999999
 21
5.999999999999981
 31
0.0
  0
LINE
  5
70
330
1E
100
AcDbEntity
  8
0
100
AcDbLine
 10
174.6939799999999
 20
6.19999999999999
 30
0.0
 11
175.19398
 21
6.19999999999999
 31
0.0
  0
LINE
  5
71
330
1E
100
AcDbEntity
  8
0
100
AcDbLine
 10
174.6939799999999
 20
6.19999999999999
 30
0.0
 11
176.09398
 21
6.19999999999999
 31
0.0
  0
LINE
  5
72
330
1E
100
AcDbEntity
  8
0
100
AcDbLine
 10
1.59033400000001
 20
164.6159999999999
 30
0.0
 11
3.264510000000009
 21
164.321
 31
0.0
  0
LINE
  5
73
330
1E
100
AcDbEntity
  8
0
100
AcDbLine
 10
0.199950000000014
 20
165.369
 30
0.0
 11
1.283235000000009
 21
165.178
 31
0.0
  0
LINE
  5
74
330
1E
100
AcDbEntity
  8
0
100
AcDbLine
 10
-0.193979999999986
 20
165.4379999999999
 30
0.0
 11
1.62932900000001
 21
175.779
 31
0.0
  0
LINE
  5
75
330
1E
100
AcDbEntity
  8
0
100
AcDbLine
 10
0.199950000000014
 20
165.369
 30
0.0
 11
1.283235000000009
 21
165.178
 31
0.0
  0
LINE
  5
76
330
1E
100
AcDbEntity
  8
0
100
AcDbLine
 10
0.2116000000000139
 20
164.859
 30
0.0
 11
0.6055300000000141
 21
164.789
 31
0.0
  0
LINE
  5
77
330
1E
100
AcDbEntity
  8
0
100
AcDbLine
 10
-0.193979999999986
 20
165.4379999999999
 30
0.0
 11
1.62932900000001
 21
175.779
 31
0.0
  0
LINE
  5
78
330
1E
100
AcDbEntity
  8
0
100
AcDbLine
 10
-0.193979999999986
 20
165.4379999999999
 30
0.0
 11
0.2116000000000139
 21
164.859
 31
0.0
  0
LINE
  5
79
330
1E
100
AcDbEntity
  8
0
100
AcDbLine
 10
-0.193979999999986
 20
165.4379999999999
 30
0.0
 11
0.199950000000014
 21
165.369
 31
0.0
  0
LINE
  5
7A
330
1E
100
AcDbEntity
  8
0
100
AcDbLine
 10
-0.193979999999986
 20
165.4379999999999
 30
0.0
 11
0.2116000000000139
 21
164.859
 31
0.0
  0
LINE
  5
7B
330
1E
100
AcDbEntity
  8
0
100
AcDbLine
 10
-0.193979999999986
 20
165.4379999999999
 30
0.0
 11
0.199950000000014
 21
165.369
 31
0.0
  0
LINE
  5
7C
330
1E
100
AcDbEntity
  8
0
100
AcDbLine
 10
0.6055300000000141
 20
164.789
 30
0.0
 11
1.59033400000001
 21
164.6159999999999
 31
0.0
  0
LINE
  5
7D
330
1E
100
AcDbEntity
  8
0
100
AcDbLine
 10
1.283235000000009
 20
165.178
 30
0.0
 11
2.957408000000009
 21
164.882
 31
0.0
  0
LINE
  5
7E
330
1E
100
AcDbEntity
  8
0
100
AcDbLine
 10
1.62932900000001
 20
175.779
 30
0.0
 11
2.156462000000019
 21
175.889
 31
0.0
  0
LINE
  5
7F
330
1E
100
AcDbEntity
  8
0
100
AcDbLine
 10
1.62932900000001
 20
175.779
 30
0.0
 11
2.02325200000001
 21
175.7089999999999
 31
0.0
  0
LINE
  5
80
330
1E
100
AcDbEntity
  8
0
100
AcDbLine
 10
0.6055300000000141
 20
164.789
 30
0.0
 11
1.59033400000001
 21
164.6159999999999
 31
0.0
  0
LINE
  5
81
330
1E
100
AcDbEntity
  8
0
100
AcDbLine
 10
1.59033400000001
 20
164.6159999999999
 30
0.0
 11
3.264510000000009
 21
164.321
 31
0.0
  0
LINE
  5
82
330
1E
100
AcDbEntity
  8
0
100
AcDbLine
 10
2.957408000000009
 20
164.882
 30
0.0
 11
5.222470000000009
 21
164.4829999999999
 31
0.0
  0
LINE
  5
83
330
1E
100
AcDbEntity
  8
0
100
AcDbLine
 10
5.222470000000009
 20
164.4829999999999
 30
0.0
 11
7.881450000000018
 21
164.014
 31
0.0
  0
LINE
  5
84
330
1E
100
AcDbEntity
  8
0
100
AcDbLine
 10
3.264510000000009
 20
164.321
 30
0.0
 11
5.431080000000009
 21
163.939
 31
0.0
  0
LINE
  5
85
330
1E
100
AcDbEntity
  8
0
100
AcDbLine
 10
20.49868
 20
161.282
 30
0.0
 11
20.89258
 21
161.212
 31
0.0
  0
LINE
  5
86
330
1E
100
AcDbEntity
  8
0
100
AcDbLine
 10
19.51388
 20
161.455
 30
0.0
 11
20.49868
 21
161.282
 31
0.0
  0
LINE
  5
87
330
1E
100
AcDbEntity
  8
0
100
AcDbLine
 10
21.07788
 20
161.687
 30
0.0
 11
21.47177999999999
 21
161.6179999999999
 31
0.0
  0
LINE
  5
88
330
1E
100
AcDbEntity
  8
0
100
AcDbLine
 10
21.47177999999999
 20
161.6179999999999
 30
0.0
 11
23.29508
 21
171.958
 31
0.0
  0
LINE
  5
89
330
1E
100
AcDbEntity
  8
0
100
AcDbLine
 10
20.89258
 20
161.212
 30
0.0
 11
21.47177999999999
 21
161.6179999999999
 31
0.0
  0
LINE
  5
8A
330
1E
100
AcDbEntity
  8
0
100
AcDbLine
 10
19.99457999999999
 20
161.8779999999999
 30
0.0
 11
21.07788
 21
161.687
 31
0.0
  0
LINE
  5
8B
330
1E
100
AcDbEntity
  8
0
100
AcDbLine
 10
18.32038
 20
162.174
 30
0.0
 11
19.99457999999999
 21
161.8779999999999
 31
0.0
  0
LINE
  5
8C
330
1E
100
AcDbEntity
  8
0
100
AcDbLine
 10
16.05538
 20
162.5729999999999
 30
0.0
 11
18.32038
 21
162.174
 31
0.0
  0
LINE
  5
8D
330
1E
100
AcDbEntity
  8
0
100
AcDbLine
 10
15.67307999999999
 20
162.1329999999999
 30
0.0
 11
17.83967999999999
 21
161.751
 31
0.0
  0
LINE
  5
8E
330
1E
100
AcDbEntity
  8
0
100
AcDbLine
 10
17.83967999999999
 20
161.751
 30
0.0
 11
19.51388
 21
161.455
 31
0.0
  0
LINE
  5
8F
330
1E
100
AcDbEntity
  8
0
100
AcDbLine
 10
13.21107999999999
 20
162.567
 30
0.0
 11
15.67307999999999
 21
162.1329999999999
 31
0.0
  0
LINE
  5
90
330
1E
100
AcDbEntity
  8
0
100
AcDbLine
 10
13.39637999999999
 20
163.0419999999999
 30
0.0
 11
16.05538
 21
162.5729999999999
 31
0.0
  0
LINE
  5
91
330
1E
100
AcDbEntity
  8
0
100
AcDbLine
 10
22.44348
 20
172.312
 30
0.0
 11
22.83738
 21
172.242
 31
0.0
  0
LINE
  5
92
330
1E
100
AcDbEntity
  8
0
100
AcDbLine
 10
21.81788
 20
172.219
 30
0.0
 11
22.90118
 21
172.0279999999999
 31
0.0
  0
LINE
  5
93
330
1E
100
AcDbEntity
  8
0
100
AcDbLine
 10
10.63891
 20
163.5279999999999
 30
0.0
 11
13.39637999999999
 21
163.0419999999999
 31
0.0
  0
LINE
  5
94
330
1E
100
AcDbEntity
  8
0
100
AcDbLine
 10
7.881450000000018
 20
164.014
 30
0.0
 11
10.63891
 21
163.5279999999999
 31
0.0
  0
LINE
  5
95
330
1E
100
AcDbEntity
  8
0
100
AcDbLine
 10
7.893100000000009
 20
163.504
 30
0.0
 11
10.55208
 21
163.036
 31
0.0
  0
LINE
  5
96
330
1E
100
AcDbEntity
  8
0
100
AcDbLine
 10
22.90118
 20
172.0279999999999
 30
0.0
 11
23.29508
 21
171.958
 31
0.0
  0
LINE
  5
97
330
1E
100
AcDbEntity
  8
0
100
AcDbLine
 10
22.83738
 20
172.242
 30
0.0
 11
23.29508
 21
171.958
 31
0.0
  0
LINE
  5
98
330
1E
100
AcDbEntity
  8
0
100
AcDbLine
 10
22.83738
 20
172.242
 30
0.0
 11
23.36457999999999
 21
172.352
 31
0.0
  0
LINE
  5
99
330
1E
100
AcDbEntity
  8
0
100
AcDbLine
 10
10.55208
 20
163.036
 30
0.0
 11
13.21107999999999
 21
162.567
 31
0.0
  0
LINE
  5
9A
330
1E
100
AcDbEntity
  8
0
100
AcDbLine
 10
5.431080000000009
 20
163.939
 30
0.0
 11
7.893100000000009
 21
163.504
 31
0.0
  0
LINE
  5
9B
330
1E
100
AcDbEntity
  8
0
100
AcDbLine
 10
2.156462000000019
 20
175.889
 30
0.0
 11
2.55038600000002
 21
175.819
 31
0.0
  0
LINE
  5
9C
330
1E
100
AcDbEntity
  8
0
100
AcDbLine
 10
2.55038600000002
 20
175.819
 30
0.0
 11
3.53519000000002
 21
175.6459999999999
 31
0.0
  0
LINE
  5
9D
330
1E
100
AcDbEntity
  8
0
100
AcDbLine
 10
2.02325200000001
 20
175.7089999999999
 30
0.0
 11
3.106541000000009
 21
175.518
 31
0.0
  0
LINE
  5
9E
330
1E
100
AcDbEntity
  8
0
100
AcDbLine
 10
2.092711000000019
 20
176.1029999999999
 30
0.0
 11
3.17600000000002
 21
175.912
 31
0.0
  0
LINE
  5
9F
330
1E
100
AcDbEntity
  8
0
100
AcDbLine
 10
3.106541000000009
 20
175.518
 30
0.0
 11
4.780710000000019
 21
175.2229999999999
 31
0.0
  0
LINE
  5
A0
330
1E
100
AcDbEntity
  8
0
100
AcDbLine
 10
5.209370000000009
 20
175.35
 30
0.0
 11
7.375940000000019
 21
174.9679999999999
 31
0.0
  0
LINE
  5
A1
330
1E
100
AcDbEntity
  8
0
100
AcDbLine
 10
4.780710000000019
 20
175.2229999999999
 30
0.0
 11
7.045770000000018
 21
174.824
 31
0.0
  0
LINE
  5
A2
330
1E
100
AcDbEntity
  8
0
100
AcDbLine
 10
7.045770000000018
 20
174.824
 30
0.0
 11
9.704750000000018
 21
174.3549999999999
 31
0.0
  0
LINE
  5
A3
330
1E
100
AcDbEntity
  8
0
100
AcDbLine
 10
12.49698
 20
174.065
 30
0.0
 11
15.15587999999999
 21
173.597
 31
0.0
  0
LINE
  5
A4
330
1E
100
AcDbEntity
  8
0
100
AcDbLine
 10
12.46218
 20
173.869
 30
0.0
 11
15.21968
 21
173.382
 31
0.0
  0
LINE
  5
A5
330
1E
100
AcDbEntity
  8
0
100
AcDbLine
 10
9.837960000000009
 20
174.534
 30
0.0
 11
12.49698
 21
174.065
 31
0.0
  0
LINE
  5
A6
330
1E
100
AcDbEntity
  8
0
100
AcDbLine
 10
9.704750000000018
 20
174.3549999999999
 30
0.0
 11
12.46218
 21
173.869
 31
0.0
  0
LINE
  5
A7
330
1E
100
AcDbEntity
  8
0
100
AcDbLine
 10
17.61797999999999
 20
173.1629999999999
 30
0.0
 11
19.78448
 21
172.78
 31
0.0
  0
LINE
  5
A8
330
1E
100
AcDbEntity
  8
0
100
AcDbLine
 10
17.87868
 20
172.9129999999999
 30
0.0
 11
20.14368
 21
172.514
 31
0.0
  0
LINE
  5
A9
330
1E
100
AcDbEntity
  8
0
100
AcDbLine
 10
15.15587999999999
 20
173.597
 30
0.0
 11
17.61797999999999
 21
173.1629999999999
 31
0.0
  0
LINE
  5
AA
330
1E
100
AcDbEntity
  8
0
100
AcDbLine
 10
15.21968
 20
173.382
 30
0.0
 11
17.87868
 21
172.9129999999999
 31
0.0
  0
LINE
  5
AB
330
1E
100
AcDbEntity
  8
0
100
AcDbLine
 10
21.45867999999999
 20
172.485
 30
0.0
 11
22.44348
 21
172.312
 31
0.0
  0
LINE
  5
AC
330
1E
100
AcDbEntity
  8
0
100
AcDbLine
 10
19.78448
 20
172.78
 30
0.0
 11
21.45867999999999
 21
172.485
 31
0.0
  0
LINE
  5
AD
330
1E
100
AcDbEntity
  8
0
100
AcDbLine
 10
20.14368
 20
172.514
 30
0.0
 11
21.81788
 21
172.219
 31
0.0
  0
LINE
  5
AE
330
1E
100
AcDbEntity
  8
0
100
AcDbLine
 10
22.97067999999999
 20
172.422
 30
0.0
 11
23.36457999999999
 21
172.352
 31
0.0
  0
LINE
  5
AF
330
1E
100
AcDbEntity
  8
0
100
AcDbLine
 10
21.88738
 20
172.6129999999999
 30
0.0
 11
22.97067999999999
 21
172.422
 31
0.0
  0
LINE
  5
B0
330
1E
100
AcDbEntity
  8
0
100
AcDbLine
 10
20.21317999999999
 20
172.9079999999999
 30
0.0
 11
21.88738
 21
172.6129999999999
 31
0.0
  0
LINE
  5
B1
330
1E
100
AcDbEntity
  8
0
100
AcDbLine
 10
17.94807999999999
 20
173.307
 30
0.0
 11
20.21317999999999
 21
172.9079999999999
 31
0.0
  0
LINE
  5
B2
330
1E
100
AcDbEntity
  8
0
100
AcDbLine
 10
15.28917999999999
 20
173.7759999999999
 30
0.0
 11
17.94807999999999
 21
173.307
 31
0.0
  0
LINE
  5
B3
330
1E
100
AcDbEntity
  8
0
100
AcDbLine
 10
12.53168
 20
174.262
 30
0.0
 11
15.28917999999999
 21
173.7759999999999
 31
0.0
  0
LINE
  5
B4
330
1E
100
AcDbEntity
  8
0
100
AcDbLine
 10
7.375940000000019
 20
174.9679999999999
 30
0.0
 11
9.837960000000009
 21
174.534
 31
0.0
  0
LINE
  5
B5
330
1E
100
AcDbEntity
  8
0
100
AcDbLine
 10
9.774210000000019
 20
174.749
 30
0.0
 11
12.53168
 21
174.262
 31
0.0
  0
LINE
  5
B6
330
1E
100
AcDbEntity
  8
0
100
AcDbLine
 10
7.115230000000019
 20
175.217
 30
0.0
 11
9.774210000000019
 21
174.749
 31
0.0
  0
LINE
  5
B7
330
1E
100
AcDbEntity
  8
0
100
AcDbLine
 10
3.53519000000002
 20
175.6459999999999
 30
0.0
 11
5.209370000000009
 21
175.35
 31
0.0
  0
LINE
  5
B8
330
1E
100
AcDbEntity
  8
0
100
AcDbLine
 10
4.850170000000019
 20
175.617
 30
0.0
 11
7.115230000000019
 21
175.217
 31
0.0
  0
LINE
  5
B9
330
1E
100
AcDbEntity
  8
0
100
AcDbLine
 10
3.17600000000002
 20
175.912
 30
0.0
 11
4.850170000000019
 21
175.617
 31
0.0
  0
LINE
  5
BA
330
1E
100
AcDbEntity
  8
0
100
AcDbLine
 10
26.79397999999999
 20
191.3
 30
0.0
 11
29.99398
 21
200.8
 31
0.0
  0
LINE
  5
BB
330
1E
100
AcDbEntity
  8
0
100
AcDbLine
 10
24.89397999999999
 20
181.4999999999999
 30
0.0
 11
26.79397999999999
 21
191.3
 31
0.0
  0
LINE
  5
BC
330
1E
100
AcDbEntity
  8
0
100
AcDbLine
 10
2.99398000000002
 20
184.3
 30
0.0
 11
5.593980000000018
 21
197.0
 31
0.0
  0
LINE
  5
BD
330
1E
100
AcDbEntity
  8
0
100
AcDbLine
 10
23.36457999999999
 20
172.352
 30
0.0
 11
24.89397999999999
 21
181.4999999999999
 31
0.0
  0
LINE
  5
BE
330
1E
100
AcDbEntity
  8
0
100
AcDbLine
 10
1.698788000000019
 20
176.173
 30
0.0
 11
2.99398000000002
 21
184.3
 31
0.0
  0
LINE
  5
BF
330
1E
100
AcDbEntity
  8
0
100
AcDbLine
 10
1.698788000000019
 20
176.173
 30
0.0
 11
2.156462000000019
 21
175.889
 31
0.0
  0
LINE
  5
C0
330
1E
100
AcDbEntity
  8
0
100
AcDbLine
 10
1.698788000000019
 20
176.173
 30
0.0
 11
2.092711000000019
 21
176.1029999999999
 31
0.0
  0
LINE
  5
C1
330
1E
100
AcDbEntity
  8
0
100
AcDbLine
 10
29.99398
 20
200.8
 30
0.0
 11
34.39398
 21
209.6999999999999
 31
0.0
  0
LINE
  5
C2
330
1E
100
AcDbEntity
  8
0
100
AcDbLine
 10
34.39398
 20
209.6999999999999
 30
0.0
 11
39.99398
 21
218.1
 31
0.0
  0
LINE
  5
C3
330
1E
100
AcDbEntity
  8
0
100
AcDbLine
 10
9.693980000000019
 20
209.2
 30
0.0
 11
15.39398
 21
220.6999999999999
 31
0.0
  0
LINE
  5
C4
330
1E
100
AcDbEntity
  8
0
100
AcDbLine
 10
5.593980000000018
 20
197.0
 30
0.0
 11
9.693980000000019
 21
209.2
 31
0.0
  0
LINE
  5
C5
330
1E
100
AcDbEntity
  8
0
100
AcDbLine
 10
39.99398
 20
218.1
 30
0.0
 11
46.59398
 21
225.5999999999999
 31
0.0
  0
LINE
  5
C6
330
1E
100
AcDbEntity
  8
0
100
AcDbLine
 10
15.39398
 20
220.6999999999999
 30
0.0
 11
22.49398
 21
231.4
 31
0.0
  0
LINE
  5
C7
330
1E
100
AcDbEntity
  8
0
100
AcDbLine
 10
46.59398
 20
225.5999999999999
 30
0.0
 11
54.09398
 21
232.2
 31
0.0
  0
LINE
  5
C8
330
1E
100
AcDbEntity
  8
0
100
AcDbLine
 10
22.49398
 20
231.4
 30
0.0
 11
31.09398
 21
241.1
 31
0.0
  0
LINE
  5
C9
330
1E
100
AcDbEntity
  8
0
100
AcDbLine
 10
54.09398
 20
232.2
 30
0.0
 11
62.49398000000001
 21
237.8
 31
0.0
  0
LINE
  5
CA
330
1E
100
AcDbEntity
  8
0
100
AcDbLine
 10
31.09398
 20
241.1
 30
0.0
 11
40.79398
 21
249.6999999999999
 31
0.0
  0
LINE
  5
CB
330
1E
100
AcDbEntity
  8
0
100
AcDbLine
 10
62.49398000000001
 20
237.8
 30
0.0
 11
71.39397999999999
 21
242.2
 31
0.0
  0
LINE
  5
CC
330
1E
100
AcDbEntity
  8
0
100
AcDbLine
 10
71.39397999999999
 20
242.2
 30
0.0
 11
80.89398
 21
245.4
 31
0.0
  0
LINE
  5
CD
330
1E
100
AcDbEntity
  8
0
100
AcDbLine
 10
80.89398
 20
245.4
 30
0.0
 11
90.69398000000001
 21
247.3
 31
0.0
  0
LINE
  5
CE
330
1E
100
AcDbEntity
  8
0
100
AcDbLine
 10
90.69398000000001
 20
247.3
 30
0.0
 11
100.69398
 21
248.0
 31
0.0
  0
LINE
  5
CF
330
1E
100
AcDbEntity
  8
0
100
AcDbLine
 10
40.79398
 20
249.6999999999999
 30
0.0
 11
51.49398
 21
256.8
 31
0.0
  0
LINE
  5
D0
330
1E
100
AcDbEntity
  8
0
100
AcDbLine
 10
51.49398
 20
256.8
 30
0.0
 11
62.99398
 21
262.5
 31
0.0
  0
LINE
  5
D1
330
1E
100
AcDbEntity
  8
0
100
AcDbLine
 10
62.99398
 20
262.5
 30
0.0
 11
75.19398000000001
 21
266.6
 31
0.0
  0
LINE
  5
D2
330
1E
100
AcDbEntity
  8
0
100
AcDbLine
 10
75.19398000000001
 20
266.6
 30
0.0
 11
87.89398
 21
269.1999999999999
 31
0.0
  0
LINE
  5
D3
330
1E
100
AcDbEntity
  8
0
100
AcDbLine
 10
87.89398
 20
269.1999999999999
 30
0.0
 11
100.69398
 21
270.0
 31
0.0
  0
LINE
  5
D4
330
1E
100
AcDbEntity
  8
0
100
AcDbLine
 10
100.69398
 20
248.0
 30
0.0
 11
110.69398
 21
247.3
 31
0.0
  0
LINE
  5
D5
330
1E
100
AcDbEntity
  8
0
100
AcDbLine
 10
147.2939799999999
 20
232.2
 30
0.0
 11
154.7939799999999
 21
225.5999999999999
 31
0.0
  0
LINE
  5
D6
330
1E
100
AcDbEntity
  8
0
100
AcDbLine
 10
160.59398
 20
249.6999999999999
 30
0.0
 11
170.29398
 21
241.1
 31
0.0
  0
LINE
  5
D7
330
1E
100
AcDbEntity
  8
0
100
AcDbLine
 10
138.8939799999999
 20
237.8
 30
0.0
 11
147.2939799999999
 21
232.2
 31
0.0
  0
LINE
  5
D8
330
1E
100
AcDbEntity
  8
0
100
AcDbLine
 10
149.89398
 20
256.8
 30
0.0
 11
160.59398
 21
249.6999999999999
 31
0.0
  0
LINE
  5
D9
330
1E
100
AcDbEntity
  8
0
100
AcDbLine
 10
129.9939799999999
 20
242.2
 30
0.0
 11
138.8939799999999
 21
237.8
 31
0.0
  0
LINE
  5
DA
330
1E
100
AcDbEntity
  8
0
100
AcDbLine
 10
138.39398
 20
262.5
 30
0.0
 11
149.89398
 21
256.8
 31
0.0
  0
LINE
  5
DB
330
1E
100
AcDbEntity
  8
0
100
AcDbLine
 10
120.49398
 20
245.4
 30
0.0
 11
129.9939799999999
 21
242.2
 31
0.0
  0
LINE
  5
DC
330
1E
100
AcDbEntity
  8
0
100
AcDbLine
 10
126.19398
 20
266.6
 30
0.0
 11
138.39398
 21
262.5
 31
0.0
  0
LINE
  5
DD
330
1E
100
AcDbEntity
  8
0
100
AcDbLine
 10
110.69398
 20
247.3
 30
0.0
 11
120.49398
 21
245.4
 31
0.0
  0
LINE
  5
DE
330
1E
100
AcDbEntity
  8
0
100
AcDbLine
 10
113.49398
 20
269.1999999999999
 30
0.0
 11
126.19398
 21
266.6
 31
0.0
  0
LINE
  5
DF
330
1E
100
AcDbEntity
  8
0
100
AcDbLine
 10
100.69398
 20
270.0
 30
0.0
 11
113.49398
 21
269.1999999999999
 31
0.0
  0
LINE
  5
E0
330
1E
100
AcDbEntity
  8
0
100
AcDbLine
 10
154.7939799999999
 20
225.5999999999999
 30
0.0
 11
161.3939799999999
 21
218.1
 31
0.0
  0
LINE
  5
E1
330
1E
100
AcDbEntity
  8
0
100
AcDbLine
 10
170.29398
 20
241.1
 30
0.0
 11
178.89398
 21
231.4
 31
0.0
  0
LINE
  5
E2
330
1E
100
AcDbEntity
  8
0
100
AcDbLine
 10
161.3939799999999
 20
218.1
 30
0.0
 11
166.9939799999999
 21
209.6999999999999
 31
0.0
  0
LINE
  5
E3
330
1E
100
AcDbEntity
  8
0
100
AcDbLine
 10
166.9939799999999
 20
209.6999999999999
 30
0.0
 11
171.39398
 21
200.8
 31
0.0
  0
LINE
  5
E4
330
1E
100
AcDbEntity
  8
0
100
AcDbLine
 10
171.39398
 20
200.8
 30
0.0
 11
174.59398
 21
191.3
 31
0.0
  0
LINE
  5
E5
330
1E
100
AcDbEntity
  8
0
100
AcDbLine
 10
174.59398
 20
191.3
 30
0.0
 11
176.49398
 21
181.4999999999999
 31
0.0
  0
LINE
  5
E6
330
1E
100
AcDbEntity
  8
0
100
AcDbLine
 10
177.19398
 20
171.5
 30
0.0
 11
177.19398
 21
49.0
 31
0.0
  0
LINE
  5
E7
330
1E
100
AcDbEntity
  8
0
100
AcDbLine
 10
178.89398
 20
231.4
 30
0.0
 11
185.99398
 21
220.6999999999999
 31
0.0
  0
LINE
  5
E8
330
1E
100
AcDbEntity
  8
0
100
AcDbLine
 10
185.99398
 20
220.6999999999999
 30
0.0
 11
191.69398
 21
209.2
 31
0.0
  0
LINE
  5
E9
330
1E
100
AcDbEntity
  8
0
100
AcDbLine
 10
176.49398
 20
181.4999999999999
 30
0.0
 11
177.19398
 21
171.5
 31
0.0
  0
LINE
  5
EA
330
1E
100
AcDbEntity
  8
0
100
AcDbLine
 10
188.1939799999999
 20
49.0
 30
0.0
 11
191.69398
 21
49.0
 31
0.0
  0
LINE
  5
EB
330
1E
100
AcDbEntity
  8
0
100
AcDbLine
 10
191.69398
 20
209.2
 30
0.0
 11
195.79398
 21
197.0
 31
0.0
  0
LINE
  5
EC
330
1E
100
AcDbEntity
  8
0
100
AcDbLine
 10
191.69398
 20
49.0
 30
0.0
 11
194.8939799999999
 21
49.0
 31
0.0
  0
LINE
  5
ED
330
1E
100
AcDbEntity
  8
0
100
AcDbLine
 10
188.1939799999999
 20
48.5
 30
0.0
 11
191.79398
 21
48.5
 31
0.0
  0
LINE
  5
EE
330
1E
100
AcDbEntity
  8
0
100
AcDbLine
 10
188.1939799999999
 20
6.19999999999998
 30
0.0
 11
191.69398
 21
6.19999999999998
 31
0.0
  0
LINE
  5
EF
330
1E
100
AcDbEntity
  8
0
100
AcDbLine
 10
188.1939799999999
 20
6.19999999999998
 30
0.0
 11
191.79398
 21
6.19999999999998
 31
0.0
  0
LINE
  5
F0
330
1E
100
AcDbEntity
  8
0
100
AcDbLine
 10
195.19398
 20
6.19999999999998
 30
0.0
 11
198.09398
 21
6.19999999999998
 31
0.0
  0
LINE
  5
F1
330
1E
100
AcDbEntity
  8
0
100
AcDbLine
 10
200.29398
 20
6.19999999999998
 30
0.0
 11
201.69398
 21
6.19999999999998
 31
0.0
  0
LINE
  5
F2
330
1E
100
AcDbEntity
  8
0
100
AcDbLine
 10
198.09398
 20
6.19999999999998
 30
0.0
 11
200.29398
 21
6.19999999999998
 31
0.0
  0
LINE
  5
F3
330
1E
100
AcDbEntity
  8
0
100
AcDbLine
 10
199.89398
 20
6.19999999999998
 30
0.0
 11
201.1939799999999
 21
6.19999999999998
 31
0.0
  0
LINE
  5
F4
330
1E
100
AcDbEntity
  8
0
100
AcDbLine
 10
197.69398
 20
6.19999999999998
 30
0.0
 11
199.89398
 21
6.19999999999998
 31
0.0
  0
LINE
  5
F5
330
1E
100
AcDbEntity
  8
0
100
AcDbLine
 10
191.79398
 20
48.5
 30
0.0
 11
195.19398
 21
48.5
 31
0.0
  0
LINE
  5
F6
330
1E
100
AcDbEntity
  8
0
100
AcDbLine
 10
200.29398
 20
48.5
 30
0.0
 11
201.69398
 21
48.5
 31
0.0
  0
LINE
  5
F7
330
1E
100
AcDbEntity
  8
0
100
AcDbLine
 10
198.09398
 20
48.5
 30
0.0
 11
200.29398
 21
48.5
 31
0.0
  0
LINE
  5
F8
330
1E
100
AcDbEntity
  8
0
100
AcDbLine
 10
199.19398
 20
49.0
 30
0.0
 11
199.19398
 21
171.5
 31
0.0
  0
LINE
  5
F9
330
1E
100
AcDbEntity
  8
0
100
AcDbLine
 10
199.89398
 20
49.0
 30
0.0
 11
201.1939799999999
 21
49.0
 31
0.0
  0
LINE
  5
FA
330
1E
100
AcDbEntity
  8
0
100
AcDbLine
 10
195.79398
 20
197.0
 30
0.0
 11
198.39398
 21
184.3
 31
0.0
  0
LINE
  5
FB
330
1E
100
AcDbEntity
  8
0
100
AcDbLine
 10
199.19398
 20
171.5
 30
0.0
 11
199.19398
 21
49.0
 31
0.0
  0
LINE
  5
FC
330
1E
100
AcDbEntity
  8
0
100
AcDbLine
 10
198.39398
 20
184.3
 30
0.0
 11
199.19398
 21
171.5
 31
0.0
  0
LINE
  5
FD
330
1E
100
AcDbEntity
  8
0
100
AcDbLine
 10
197.69398
 20
49.0
 30
0.0
 11
199.89398
 21
49.0
 31
0.0
  0
LINE
  5
FE
330
1E
100
AcDbEntity
  8
0
100
AcDbLine
 10
194.8939799999999
 20
49.0
 30
0.0
 11
197.69398
 21
49.0
 31
0.0
  0
LINE
  5
FF
330
1E
100
AcDbEntity
  8
0
100
AcDbLine
 10
195.19398
 20
48.5
 30
0.0
 11
198.09398
 21
48.5
 31
0.0
  0
LINE
  5
100
330
1E
100
AcDbEntity
  8
0
100
AcDbLine
 10
191.79398
 20
6.19999999999998
 30
0.0
 11
195.19398
 21
6.19999999999998
 31
0.0
  0
LINE
  5
101
330
1E
100
AcDbEntity
  8
0
100
AcDbLine
 10
194.8939799999999
 20
6.19999999999998
 30
0.0
 11
197.69398
 21
6.19999999999998
 31
0.0
  0
LINE
  5
102
330
1E
100
AcDbEntity
  8
0
100
AcDbLine
 10
191.69398
 20
6.19999999999998
 30
0.0
 11
191.79398
 21
6.19999999999998
 31
0.0
  0
LINE
  5
103
330
1E
100
AcDbEntity
  8
0
100
AcDbLine
 10
191.69398
 20
6.19999999999998
 30
0.0
 11
194.8939799999999
 21
6.19999999999998
 31
0.0
  0
LINE
  5
104
330
1E
100
AcDbEntity
  8
0
100
AcDbLine
 10
200.29398
 20
5.999999999999981
 30
0.0
 11
201.69398
 21
5.999999999999981
 31
0.0
  0
LINE
  5
105
330
1E
100
AcDbEntity
  8
0
100
AcDbLine
 10
214.1939799999999
 20
-0.0000000000000181
 30
0.0
 11
214.1939799999999
 21
4.49999999999998
 31
0.0
  0
LINE
  5
106
330
1E
100
AcDbEntity
  8
0
100
AcDbLine
 10
202.19398
 20
4.99999999999998
 30
0.0
 11
202.19398
 21
5.999999999999981
 31
0.0
  0
LINE
  5
107
330
1E
100
AcDbEntity
  8
0
100
AcDbLine
 10
202.19398
 20
5.999999999999981
 30
0.0
 11
202.19398
 21
6.19999999999998
 31
0.0
  0
LINE
  5
108
330
1E
100
AcDbEntity
  8
0
100
AcDbLine
 10
202.19398
 20
5.999999999999981
 30
0.0
 11
202.19398
 21
4.99999999999998
 31
0.0
  0
LINE
  5
109
330
1E
100
AcDbEntity
  8
0
100
AcDbLine
 10
201.1939799999999
 20
49.0
 30
0.0
 11
201.69398
 21
49.0
 31
0.0
  0
LINE
  5
10A
330
1E
100
AcDbEntity
  8
0
100
AcDbLine
 10
201.69398
 20
48.5
 30
0.0
 11
202.19398
 21
48.5
 31
0.0
  0
LINE
  5
10B
330
1E
100
AcDbEntity
  8
0
100
AcDbLine
 10
201.1939799999999
 20
6.19999999999998
 30
0.0
 11
201.69398
 21
6.19999999999998
 31
0.0
  0
LINE
  5
10C
330
1E
100
AcDbEntity
  8
0
100
AcDbLine
 10
201.69398
 20
49.0
 30
0.0
 11
202.19398
 21
48.5
 31
0.0
  0
LINE
  5
10D
330
1E
100
AcDbEntity
  8
0
100
AcDbLine
 10
202.19398
 20
6.19999999999998
 30
0.0
 11
202.19398
 21
5.999999999999981
 31
0.0
  0
LINE
  5
10E
330
1E
100
AcDbEntity
  8
0
100
AcDbLine
 10
202.19398
 20
48.5
 30
0.0
 11
202.19398
 21
6.19999999999999
 31
0.0
  0
LINE
  5
10F
330
1E
100
AcDbEntity
  8
0
100
AcDbLine
 10
202.19398
 20
6.19999999999998
 30
0.0
 11
202.19398
 21
48.5
 31
0.0
  0
LINE
  5
110
330
1E
100
AcDbEntity
  8
0
100
AcDbLine
 10
201.69398
 20
6.19999999999998
 30
0.0
 11
202.19398
 21
6.19999999999998
 31
0.0
  0
LINE
  5
111
330
1E
100
AcDbEntity
  8
0
100
AcDbLine
 10
201.69398
 20
6.19999999999998
 30
0.0
 11
201.69398
 21
5.999999999999981
 31
0.0
  0
LINE
  5
112
330
1E
100
AcDbEntity
  8
0
100
AcDbLine
 10
201.69398
 20
5.999999999999981
 30
0.0
 11
201.69398
 21
6.19999999999998
 31
0.0
  0
LINE
  5
113
330
1E
100
AcDbEntity
  8
0
100
AcDbLine
 10
201.69398
 20
5.999999999999981
 30
0.0
 11
202.19398
 21
5.999999999999981
 31
0.0
  0
LINE
  5
114
330
1E
100
AcDbEntity
  8
0
100
AcDbLine
 10
206.59398
 20
4.49999999999998
 30
0.0
 11
210.6939799999999
 21
4.49999999999998
 31
0.0
  0
LINE
  5
115
330
1E
100
AcDbEntity
  8
0
100
AcDbLine
 10
210.2939799999999
 20
4.99999999999998
 30
0.0
 11
212.7939799999999
 21
4.99999999999998
 31
0.0
  0
LINE
  5
116
330
1E
100
AcDbEntity
  8
0
100
AcDbLine
 10
213.2939799999999
 20
4.49999999999998
 30
0.0
 11
214.1939799999999
 21
4.49999999999998
 31
0.0
  0
LINE
  5
117
330
1E
100
AcDbEntity
  8
0
100
AcDbLine
 10
212.7939799999999
 20
4.99999999999998
 30
0.0
 11
213.6939799999999
 21
4.99999999999998
 31
0.0
  0
LINE
  5
118
330
1E
100
AcDbEntity
  8
0
100
AcDbLine
 10
214.1939799999999
 20
4.49999999999998
 30
0.0
 11
214.1939799999999
 21
-0.0000000000000178
 31
0.0
  0
LINE
  5
119
330
1E
100
AcDbEntity
  8
0
100
AcDbLine
 10
210.6939799999999
 20
4.49999999999998
 30
0.0
 11
213.2939799999999
 21
4.49999999999998
 31
0.0
  0
LINE
  5
11A
330
1E
100
AcDbEntity
  8
0
100
AcDbLine
 10
210.6939799999999
 20
-0.0000000000000179
 30
0.0
 11
213.2939799999999
 21
-0.0000000000000181
 31
0.0
  0
LINE
  5
11B
330
1E
100
AcDbEntity
  8
0
100
AcDbLine
 10
206.59398
 20
-0.0000000000000177
 30
0.0
 11
210.6939799999999
 21
-0.0000000000000179
 31
0.0
  0
LINE
  5
11C
330
1E
100
AcDbEntity
  8
0
100
AcDbLine
 10
213.6939799999999
 20
4.99999999999998
 30
0.0
 11
214.1939799999999
 21
4.49999999999998
 31
0.0
  0
LINE
  5
11D
330
1E
100
AcDbEntity
  8
0
100
AcDbLine
 10
206.19398
 20
4.99999999999998
 30
0.0
 11
210.2939799999999
 21
4.99999999999998
 31
0.0
  0
LINE
  5
11E
330
1E
100
AcDbEntity
  8
0
100
AcDbLine
 10
213.2939799999999
 20
-0.0000000000000181
 30
0.0
 11
214.1939799999999
 21
-0.0000000000000181
 31
0.0
  0
LINE
  5
11F
330
1E
100
AcDbEntity
  8
0
100
AcDbLine
 10
201.09398
 20
-0.0000000000000173
 30
0.0
 11
206.59398
 21
-0.0000000000000177
 31
0.0
  0
ENDSEC
  0
SECTION
  2
OBJECTS
  0
DICTIONARY
  5
C
330
0
100
AcDbDictionary
  3
ACAD_GROUP
350
D
  3
ACAD_LAYOUT
350
19
  3
ACAD_MLINESTYLE
350
16
  3
ACAD_PLOTSETTINGS
350
18
  3
ACAD_PLOTSTYLENAME
350
E
  3
ACDBHEADERROUNDTRIPXREC
350
127
  3
ACDBVARIABLEDICTIONARY
350
124
  0
DICTIONARY
  5
149
330
1E
100
AcDbDictionary
280
     1
  3
ACAD_LAYOUTSELFREF
360
14A
  0
DICTIONARY
  5
147
330
1A
100
AcDbDictionary
280
     1
  3
ACAD_LAYOUTSELFREF
360
148
  0
DICTIONARY
  5
D
102
{ACAD_REACTORS
330
C
102
}
330
C
100
AcDbDictionary
  0
DICTIONARY
  5
19
102
{ACAD_REACTORS
330
C
102
}
330
C
100
AcDbDictionary
  0
DICTIONARY
  5
16
102
{ACAD_REACTORS
330
C
102
}
330
C
100
AcDbDictionary
  3
STANDARD
350
17
  0
DICTIONARY
  5
18
102
{ACAD_REACTORS
330
C
102
}
330
C
100
AcDbDictionary
  0
ACDBDICTIONARYWDFLT
  5
E
102
{ACAD_REACTORS
330
C
102
}
330
C
100
AcDbDictionary
281
     1
  3
Normal
350
F
100
AcDbDictionaryWithDefault
340
F
  0
DICTIONARY
  5
127
102
{ACAD_REACTORS
330
C
102
}
330
C
100
AcDbDictionary
  3
CEPSNTYPE
350
131
  3
FINGERPRINTGUID
350
132
  3
HYPERLINKBASE
350
12A
  3
INSUNITS
350
130
  3
LAYOUTDICT
350
12C
  3
LWETCUNION
350
12F
  3
PLOTSETDICT
350
12D
  3
PLOTSTYLNAMDICT
350
12E
  3
PSVPSCALE
350
134
  3
PUCSBASE
350
137
  3
PUCSORGBACK
350
13D
  3
PUCSORGBOTTOM
350
139
  3
PUCSORGFRONT
350
13C
  3
PUCSORGLEFT
350
13A
  3
PUCSORGRIGHT
350
13B
  3
PUCSORGTOP
350
138
  3
PUCSORTHOREF
350
135
  3
PUCSORTHOVIEW
350
136
  3
STYLESHEET
350
12B
  3
TSTACKALIGN
350
128
  3
TSTACKSIZE
350
129
  3
UCSBASE
350
140
  3
UCSORGBACK
350
146
  3
UCSORGBOTTOM
350
142
  3
UCSORGFRONT
350
145
  3
UCSORGLEFT
350
143
  3
UCSORGRIGHT
350
144
  3
UCSORGTOP
350
141
  3
UCSORTHOREF
350
13E
  3
UCSORTHOVIEW
350
13F
  3
VERSIONGUID
350
133
  0
DICTIONARY
  5
124
102
{ACAD_REACTORS
330
C
102
}
330
C
100
AcDbDictionary
  3
DIMASSOC
350
125
  0
XRECORD
  5
14A
102
{ACAD_REACTORS
330
149
102
}
330
149
100
AcDbXrecord
340
1E
  0
XRECORD
  5
148
102
{ACAD_REACTORS
330
147
102
}
330
147
100
AcDbXrecord
340
1A
  0
MLINESTYLE
  5
17
102
{ACAD_REACTORS
330
16
102
}
330
16
100
AcDbMlineStyle
  2
STANDARD
 70
     0
  3

 62
   256
 51
90.0
 52
90.0
 71
     2
 49
0.5
 62
   256
  6
BYLAYER
 49
-0.5
 62
   256
  6
BYLAYER
  0
ACDBPLACEHOLDER
  5
F
102
{ACAD_REACTORS
330
E
102
}
330
E
100
AcDbPlaceHolder
280
     0
  0
XRECORD
  5
131
102
{ACAD_REACTORS
330
127
102
}
330
127
100
AcDbXrecord
 90
        0
  0
XRECORD
  5
132
102
{ACAD_REACTORS
330
127
102
}
330
127
100
AcDbXrecord
  1
{361FAA65-CA8A-404A-B903-CC8CF602CB67}
  0
XRECORD
  5
12A
102
{ACAD_REACTORS
330
127
102
}
330
127
100
AcDbXrecord
  1

  0
XRECORD
  5
130
102
{ACAD_REACTORS
330
127
102
}
330
127
100
AcDbXrecord
 90
        0
  0
XRECORD
  5
12C
102
{ACAD_REACTORS
330
127
102
}
330
127
100
AcDbXrecord
340
19
  0
XRECORD
  5
12F
102
{ACAD_REACTORS
330
127
102
}
330
127
100
AcDbXrecord
 90
    10781
  0
XRECORD
  5
12D
102
{ACAD_REACTORS
330
127
102
}
330
127
100
AcDbXrecord
340
18
  0
XRECORD
  5
12E
102
{ACAD_REACTORS
330
127
102
}
330
127
100
AcDbXrecord
340
E
  0
XRECORD
  5
134
102
{ACAD_REACTORS
330
127
102
}
330
127
100
AcDbXrecord
 40
0.0
  0
XRECORD
  5
137
102
{ACAD_REACTORS
330
127
102
}
330
127
100
AcDbXrecord
340
0
  0
XRECORD
  5
13D
102
{ACAD_REACTORS
330
127
102
}
330
127
100
AcDbXrecord
 10
0.0
 20
0.0
 30
0.0
  0
XRECORD
  5
139
102
{ACAD_REACTORS
330
127
102
}
330
127
100
AcDbXrecord
 10
0.0
 20
0.0
 30
0.0
  0
XRECORD
  5
13C
102
{ACAD_REACTORS
330
127
102
}
330
127
100
AcDbXrecord
 10
0.0
 20
0.0
 30
0.0
  0
XRECORD
  5
13A
102
{ACAD_REACTORS
330
127
102
}
330
127
100
AcDbXrecord
 10
0.0
 20
0.0
 30
0.0
  0
XRECORD
  5
13B
102
{ACAD_REACTORS
330
127
102
}
330
127
100
AcDbXrecord
 10
0.0
 20
0.0
 30
0.0
  0
XRECORD
  5
138
102
{ACAD_REACTORS
330
127
102
}
330
127
100
AcDbXrecord
 10
0.0
 20
0.0
 30
0.0
  0
XRECORD
  5
135
102
{ACAD_REACTORS
330
127
102
}
330
127
100
AcDbXrecord
340
0
  0
XRECORD
  5
136
102
{ACAD_REACTORS
330
127
102
}
330
127
100
AcDbXrecord
 70
     0
  0
XRECORD
  5
12B
102
{ACAD_REACTORS
330
127
102
}
330
127
100
AcDbXrecord
  1

  0
XRECORD
  5
128
102
{ACAD_REACTORS
330
127
102
}
330
127
100
AcDbXrecord
 90
        1
  0
XRECORD
  5
129
102
{ACAD_REACTORS
330
127
102
}
330
127
100
AcDbXrecord
 90
       70
  0
XRECORD
  5
140
102
{ACAD_REACTORS
330
127
102
}
330
127
100
AcDbXrecord
340
0
  0
XRECORD
  5
146
102
{ACAD_REACTORS
330
127
102
}
330
127
100
AcDbXrecord
 10
0.0
 20
0.0
 30
0.0
  0
XRECORD
  5
142
102
{ACAD_REACTORS
330
127
102
}
330
127
100
AcDbXrecord
 10
0.0
 20
0.0
 30
0.0
  0
XRECORD
  5
145
102
{ACAD_REACTORS
330
127
102
}
330
127
100
AcDbXrecord
 10
0.0
 20
0.0
 30
0.0
  0
XRECORD
  5
143
102
{ACAD_REACTORS
330
127
102
}
330
127
100
AcDbXrecord
 10
0.0
 20
0.0
 30
0.0
  0
XRECORD
  5
144
102
{ACAD_REACTORS
330
127
102
}
330
127
100
AcDbXrecord
 10
0.0
 20
0.0
 30
0.0
  0
XRECORD
  5
141
102
{ACAD_REACTORS
330
127
102
}
330
127
100
AcDbXrecord
 10
0.0
 20
0.0
 30
0.0
  0
XRECORD
  5
13E
102
{ACAD_REACTORS
330
127
102
}
330
127
100
AcDbXrecord
340
0
  0
XRECORD
  5
13F
102
{ACAD_REACTORS
330
127
102
}
330
127
100
AcDbXrecord
 70
     1
  0
XRECORD
  5
133
102
{ACAD_REACTORS
330
127
102
}
330
127
100
AcDbXrecord
  1
{FE77F2D6-E749-4112-A548-024199CAD22B}
  0
DICTIONARYVAR
  5
125
102
{ACAD_REACTORS
330
124
102
}
330
124
100
DictionaryVariables
280
     0
  1
1
  0
ENDSEC
  0
EOF
