  0
SECTION
  2
HEADER
  9
$ACADVER
  1
AC1014
  9
$ACADMAINTVER
 70
     9
  9
$DWGCODEPAGE
  3
ANSI_1252
  9
$INSBASE
 10
0.0
 20
0.0
 30
0.0
  9
$EXTMIN
 10
0.0000000000000012
 20
-0.0000000000000033
 30
0.0
  9
$EXTMAX
 10
170.1494323058892
 20
170.0
 30
0.0
  9
$LIMMIN
 10
0.0
 20
0.0
  9
$LIMMAX
 10
12.0
 20
9.0
  9
$ORTHOMODE
 70
     0
  9
$REGENMODE
 70
     1
  9
$FILLMODE
 70
     1
  9
$QTEXTMODE
 70
     0
  9
$MIRRTEXT
 70
     1
  9
$DRAGMODE
 70
     2
  9
$LTSCALE
 40
1.0
  9
$OSMODE
 70
    37
  9
$ATTMODE
 70
     1
  9
$TEXTSIZE
 40
0.2
  9
$TRACEWID
 40
0.05
  9
$TEXTSTYLE
  7
STANDARD
  9
$CLAYER
  8
0
  9
$CELTYPE
  6
CONTINUOUS
  9
$CECOLOR
 62
   256
  9
$CELTSCALE
 40
1.0
  9
$DELOBJ
 70
     1
  9
$DISPSILH
 70
     0
  9
$DIMSCALE
 40
1.0
  9
$DIMASZ
 40
0.18
  9
$DIMEXO
 40
0.0625
  9
$DIMDLI
 40
0.38
  9
$DIMRND
 40
0.0
  9
$DIMDLE
 40
0.0
  9
$DIMEXE
 40
0.18
  9
$DIMTP
 40
0.0
  9
$DIMTM
 40
0.0
  9
$DIMTXT
 40
0.18
  9
$DIMCEN
 40
0.09
  9
$DIMTSZ
 40
0.0
  9
$DIMTOL
 70
     0
  9
$DIMLIM
 70
     0
  9
$DIMTIH
 70
     1
  9
$DIMTOH
 70
     1
  9
$DIMSE1
 70
     0
  9
$DIMSE2
 70
     0
  9
$DIMTAD
 70
     0
  9
$DIMZIN
 70
     0
  9
$DIMBLK
  1

  9
$DIMASO
 70
     1
  9
$DIMSHO
 70
     1
  9
$DIMPOST
  1

  9
$DIMAPOST
  1

  9
$DIMALT
 70
     0
  9
$DIMALTD
 70
     2
  9
$DIMALTF
 40
25.4
  9
$DIMLFAC
 40
1.0
  9
$DIMTOFL
 70
     0
  9
$DIMTVP
 40
0.0
  9
$DIMTIX
 70
     0
  9
$DIMSOXD
 70
     0
  9
$DIMSAH
 70
     0
  9
$DIMBLK1
  1

  9
$DIMBLK2
  1

  9
$DIMSTYLE
  2
STANDARD
  9
$DIMCLRD
 70
     0
  9
$DIMCLRE
 70
     0
  9
$DIMCLRT
 70
     0
  9
$DIMTFAC
 40
1.0
  9
$DIMGAP
 40
0.09
  9
$DIMJUST
 70
     0
  9
$DIMSD1
 70
     0
  9
$DIMSD2
 70
     0
  9
$DIMTOLJ
 70
     1
  9
$DIMTZIN
 70
     0
  9
$DIMALTZ
 70
     0
  9
$DIMALTTZ
 70
     0
  9
$DIMFIT
 70
     3
  9
$DIMUPT
 70
     0
  9
$DIMUNIT
 70
     2
  9
$DIMDEC
 70
     4
  9
$DIMTDEC
 70
     4
  9
$DIMALTU
 70
     2
  9
$DIMALTTD
 70
     2
  9
$DIMTXSTY
  7
STANDARD
  9
$DIMAUNIT
 70
     0
  9
$LUNITS
 70
     2
  9
$LUPREC
 70
     4
  9
$SKETCHINC
 40
0.1
  9
$FILLETRAD
 40
0.0
  9
$AUNITS
 70
     0
  9
$AUPREC
 70
     0
  9
$MENU
  1
.
  9
$ELEVATION
 40
0.0
  9
$PELEVATION
 40
0.0
  9
$THICKNESS
 40
0.0
  9
$LIMCHECK
 70
     0
  9
$BLIPMODE
 70
     0
  9
$CHAMFERA
 40
0.0
  9
$CHAMFERB
 40
0.0
  9
$CHAMFERC
 40
0.0
  9
$CHAMFERD
 40
0.0
  9
$SKPOLY
 70
     0
  9
$TDCREATE
 40
2454692.761884039
  9
$TDUPDATE
 40
2454692.763459016
  9
$TDINDWG
 40
0.0015749769
  9
$TDUSRTIMER
 40
0.0015749769
  9
$USRTIMER
 70
     1
  9
$ANGBASE
 50
0.0
  9
$ANGDIR
 70
     0
  9
$PDMODE
 70
     0
  9
$PDSIZE
 40
0.0
  9
$PLINEWID
 40
0.0
  9
$COORDS
 70
     1
  9
$SPLFRAME
 70
     0
  9
$SPLINETYPE
 70
     6
  9
$SPLINESEGS
 70
     8
  9
$ATTDIA
 70
     0
  9
$ATTREQ
 70
     1
  9
$HANDLING
 70
 22529
  9
$HANDSEED
  5
10B
  9
$SURFTAB1
 70
     6
  9
$SURFTAB2
 70
     6
  9
$SURFTYPE
 70
     6
  9
$SURFU
 70
     6
  9
$SURFV
 70
     6
  9
$UCSNAME
  2

  9
$UCSORG
 10
0.0
 20
0.0
 30
0.0
  9
$UCSXDIR
 10
1.0
 20
0.0
 30
0.0
  9
$UCSYDIR
 10
0.0
 20
1.0
 30
0.0
  9
$PUCSNAME
  2

  9
$PUCSORG
 10
0.0
 20
0.0
 30
0.0
  9
$PUCSXDIR
 10
1.0
 20
0.0
 30
0.0
  9
$PUCSYDIR
 10
0.0
 20
1.0
 30
0.0
  9
$USERI1
 70
     0
  9
$USERI2
 70
     0
  9
$USERI3
 70
     0
  9
$USERI4
 70
     0
  9
$USERI5
 70
     0
  9
$USERR1
 40
0.0
  9
$USERR2
 40
0.0
  9
$USERR3
 40
0.0
  9
$USERR4
 40
0.0
  9
$USERR5
 40
0.0
  9
$WORLDVIEW
 70
     1
  9
$SHADEDGE
 70
     3
  9
$SHADEDIF
 70
    70
  9
$TILEMODE
 70
     1
  9
$MAXACTVP
 70
    64
  9
$PINSBASE
 10
0.0
 20
0.0
 30
0.0
  9
$PLIMCHECK
 70
     0
  9
$PEXTMIN
 10
1.000000000000000E+20
 20
1.000000000000000E+20
 30
1.000000000000000E+20
  9
$PEXTMAX
 10
-1.000000000000000E+20
 20
-1.000000000000000E+20
 30
-1.000000000000000E+20
  9
$PLIMMIN
 10
0.0
 20
0.0
  9
$PLIMMAX
 10
12.0
 20
9.0
  9
$UNITMODE
 70
     0
  9
$VISRETAIN
 70
     1
  9
$PLINEGEN
 70
     0
  9
$PSLTSCALE
 70
     1
  9
$TREEDEPTH
 70
  3020
  9
$PICKSTYLE
 70
     1
  9
$CMLSTYLE
  2
STANDARD
  9
$CMLJUST
 70
     0
  9
$CMLSCALE
 40
1.0
  9
$PROXYGRAPHICS
 70
     1
  9
$MEASUREMENT
 70
     0
  0
ENDSEC
  0
SECTION
  2
CLASSES
  0
CLASS
  1
ACDBDICTIONARYWDFLT
  2
AcDbDictionaryWithDefault
  3
AutoCAD 2000
 90
        0
280
     0
281
     0
  0
CLASS
  1
ACDBPLACEHOLDER
  2
AcDbPlaceHolder
  3
AutoCAD 2000
 90
        0
280
     0
281
     0
  0
CLASS
  1
LAYOUT
  2
AcDbLayout
  3
AutoCAD 2000
 90
        0
280
     0
281
     0
  0
CLASS
  1
DICTIONARYVAR
  2
AcDbDictionaryVar
  3
AutoCAD 2000
 90
        0
280
     0
281
     0
  0
CLASS
  1
LONG_TRANSACTION
  2
AcDbLongTransaction
  3
AutoCAD 2000
 90
        0
280
     0
281
     0
  0
CLASS
  1
LWPOLYLINE
  2
AcDbPolyline
  3
AutoCAD 2000
 90
        0
280
     0
281
     1
  0
CLASS
  1
HATCH
  2
AcDbHatch
  3
AutoCAD 2000
 90
        0
280
     0
281
     1
  0
CLASS
  1
XRECORD
  2
AcDbXrecord
  3
AutoCAD 2000
 90
        0
280
     0
281
     0
  0
ENDSEC
  0
SECTION
  2
TABLES
  0
TABLE
  2
VPORT
  5
8
330
0
100
AcDbSymbolTable
 70
     2
  0
VPORT
  5
E6
330
8
100
AcDbSymbolTableRecord
100
AcDbViewportTableRecord
  2
*ACTIVE
 70
     0
 10
0.0
 20
0.0
 11
1.0
 21
1.0
 12
85.07471615294463
 22
85.0
 13
0.0
 23
0.0
 14
1.0
 24
1.0
 15
0.0
 25
0.0
 16
0.0
 26
0.0
 36
1.0
 17
0.0
 27
0.0
 37
0.0
 40
171.3043478260869
 41
2.078104993597951
 42
50.0
 43
0.0
 44
0.0
 50
0.0
 51
0.0
 71
     0
 72
   100
 73
     1
 74
     3
 75
     0
 76
     0
 77
     0
 78
     0
  0
ENDTAB
  0
TABLE
  2
LTYPE
  5
5
330
0
100
AcDbSymbolTable
 70
     1
  0
LTYPE
  5
13
330
5
100
AcDbSymbolTableRecord
100
AcDbLinetypeTableRecord
  2
BYBLOCK
 70
     0
  3

 72
    65
 73
     0
 40
0.0
  0
LTYPE
  5
14
330
5
100
AcDbSymbolTableRecord
100
AcDbLinetypeTableRecord
  2
BYLAYER
 70
     0
  3

 72
    65
 73
     0
 40
0.0
  0
LTYPE
  5
15
330
5
100
AcDbSymbolTableRecord
100
AcDbLinetypeTableRecord
  2
CONTINUOUS
 70
     0
  3
Solid line
 72
    65
 73
     0
 40
0.0
  0
ENDTAB
  0
TABLE
  2
LAYER
  5
2
330
0
100
AcDbSymbolTable
 70
     1
  0
LAYER
  5
10
330
2
100
AcDbSymbolTableRecord
100
AcDbLayerTableRecord
  2
0
 70
     0
 62
     7
  6
CONTINUOUS
  0
ENDTAB
  0
TABLE
  2
STYLE
  5
3
330
0
100
AcDbSymbolTable
 70
     1
  0
STYLE
  5
11
330
3
100
AcDbSymbolTableRecord
100
AcDbTextStyleTableRecord
  2
STANDARD
 70
     0
 40
0.0
 41
1.0
 50
0.0
 71
     0
 42
0.2
  3
txt
  4

  0
ENDTAB
  0
TABLE
  2
VIEW
  5
6
330
0
100
AcDbSymbolTable
 70
     0
  0
ENDTAB
  0
TABLE
  2
UCS
  5
7
330
0
100
AcDbSymbolTable
 70
     0
  0
ENDTAB
  0
TABLE
  2
APPID
  5
9
330
0
100
AcDbSymbolTable
 70
     1
  0
APPID
  5
12
330
9
100
AcDbSymbolTableRecord
100
AcDbRegAppTableRecord
  2
ACAD
 70
     0
  0
ENDTAB
  0
TABLE
  2
DIMSTYLE
  5
A
330
0
100
AcDbSymbolTable
 70
     1
  0
DIMSTYLE
105
D3
330
A
100
AcDbSymbolTableRecord
100
AcDbDimStyleTableRecord
  2
STANDARD
 70
     0
  3

  4

  5

  6

  7

 40
1.0
 41
0.18
 42
0.0625
 43
0.38
 44
0.18
 45
0.0
 46
0.0
 47
0.0
 48
0.0
140
0.18
141
0.09
142
0.0
143
25.4
144
1.0
145
0.0
146
1.0
147
0.09
 71
     0
 72
     0
 73
     1
 74
     1
 75
     0
 76
     0
 77
     0
 78
     0
170
     0
171
     2
172
     0
173
     0
174
     0
175
     0
176
     0
177
     0
178
     0
270
     2
271
     4
272
     4
273
     2
274
     2
340
11
275
     0
280
     0
281
     0
282
     0
283
     1
284
     0
285
     0
286
     0
287
     3
288
     0
  0
ENDTAB
  0
TABLE
  2
BLOCK_RECORD
  5
1
330
0
100
AcDbSymbolTable
 70
     0
  0
BLOCK_RECORD
  5
1E
102
{ACAD_XDICTIONARY
360
109
102
}
330
1
100
AcDbSymbolTableRecord
100
AcDbBlockTableRecord
  2
*MODEL_SPACE
  0
BLOCK_RECORD
  5
1A
102
{ACAD_XDICTIONARY
360
107
102
}
330
1
100
AcDbSymbolTableRecord
100
AcDbBlockTableRecord
  2
*PAPER_SPACE
  0
ENDTAB
  0
ENDSEC
  0
SECTION
  2
BLOCKS
  0
BLOCK
  5
1F
330
1E
100
AcDbEntity
  8
0
100
AcDbBlockBegin
  2
*MODEL_SPACE
 70
     0
 10
0.0
 20
0.0
 30
0.0
  3
*MODEL_SPACE
  1

  0
ENDBLK
  5
20
330
1E
100
AcDbEntity
  8
0
100
AcDbBlockEnd
  0
BLOCK
  5
1B
330
1A
100
AcDbEntity
 67
     1
  8
0
100
AcDbBlockBegin
  2
*PAPER_SPACE
 70
     0
 10
0.0
 20
0.0
 30
0.0
  3
*PAPER_SPACE
  1

  0
ENDBLK
  5
1C
330
1A
100
AcDbEntity
 67
     1
  8
0
100
AcDbBlockEnd
  0
ENDSEC
  0
SECTION
  2
ENTITIES
  0
LINE
  5
22
330
1E
100
AcDbEntity
  8
0
100
AcDbLine
 10
33.3
 20
17.7
 30
0.0
 11
42.7
 21
11.4
 31
0.0
  0
LINE
  5
23
330
1E
100
AcDbEntity
  8
0
100
AcDbLine
 10
42.7
 20
11.4
 30
0.0
 11
52.5
 21
6.599999999999999
 31
0.0
  0
LINE
  5
24
330
1E
100
AcDbEntity
  8
0
100
AcDbLine
 10
52.5
 20
6.599999999999999
 30
0.0
 11
63.1
 21
3.1
 31
0.0
  0
LINE
  5
25
330
1E
100
AcDbEntity
  8
0
100
AcDbLine
 10
25.0
 20
25.0
 30
0.0
 11
33.3
 21
17.7
 31
0.0
  0
LINE
  5
26
330
1E
100
AcDbEntity
  8
0
100
AcDbLine
 10
17.7
 20
33.3
 30
0.0
 11
25.0
 21
25.0
 31
0.0
  0
LINE
  5
27
330
1E
100
AcDbEntity
  8
0
100
AcDbLine
 10
6.599999999999999
 20
52.5
 30
0.0
 11
11.4
 21
42.7
 31
0.0
  0
LINE
  5
28
330
1E
100
AcDbEntity
  8
0
100
AcDbLine
 10
0.900000000000001
 20
73.9
 30
0.0
 11
3.1
 21
63.1
 31
0.0
  0
LINE
  5
29
330
1E
100
AcDbEntity
  8
0
100
AcDbLine
 10
58.3
 20
81.5
 30
0.0
 11
59.0
 21
78.0
 31
0.0
  0
LINE
  5
2A
330
1E
100
AcDbEntity
  8
0
100
AcDbLine
 10
58.0
 20
77.8
 30
0.0
 11
59.2
 21
74.29999999999999
 31
0.0
  0
LINE
  5
2B
330
1E
100
AcDbEntity
  8
0
100
AcDbLine
 10
57.3
 20
81.4
 30
0.0
 11
58.0
 21
77.8
 31
0.0
  0
LINE
  5
2C
330
1E
100
AcDbEntity
  8
0
100
AcDbLine
 10
57.0
 20
85.0
 30
0.0
 11
57.3
 21
81.4
 31
0.0
  0
LINE
  5
2D
330
1E
100
AcDbEntity
  8
0
100
AcDbLine
 10
57.0
 20
85.0
 30
0.0
 11
57.3
 21
88.59999999999999
 31
0.0
  0
LINE
  5
2E
330
1E
100
AcDbEntity
  8
0
100
AcDbLine
 10
0.900000000000001
 20
73.9
 30
0.0
 11
3.1
 21
63.1
 31
0.0
  0
LINE
  5
2F
330
1E
100
AcDbEntity
  8
0
100
AcDbLine
 10
3.1
 20
63.1
 30
0.0
 11
6.599999999999999
 21
52.5
 31
0.0
  0
LINE
  5
30
330
1E
100
AcDbEntity
  8
0
100
AcDbLine
 10
0.0000000000000012
 20
85.0
 30
0.0
 11
0.900000000000001
 21
73.9
 31
0.0
  0
LINE
  5
31
330
1E
100
AcDbEntity
  8
0
100
AcDbLine
 10
0.0000000000000012
 20
85.0
 30
0.0
 11
0.900000000000001
 21
96.09999999999999
 31
0.0
  0
LINE
  5
32
330
1E
100
AcDbEntity
  8
0
100
AcDbLine
 10
11.4
 20
127.2999999999999
 30
0.0
 11
17.7
 21
136.6999999999999
 31
0.0
  0
LINE
  5
33
330
1E
100
AcDbEntity
  8
0
100
AcDbLine
 10
3.1
 20
106.9
 30
0.0
 11
6.599999999999999
 21
117.5
 31
0.0
  0
LINE
  5
34
330
1E
100
AcDbEntity
  8
0
100
AcDbLine
 10
0.9000000000000021
 20
96.09999999999999
 30
0.0
 11
3.1
 21
106.9
 31
0.0
  0
LINE
  5
35
330
1E
100
AcDbEntity
  8
0
100
AcDbLine
 10
25.0
 20
145.0
 30
0.0
 11
33.3
 21
152.3
 31
0.0
  0
LINE
  5
36
330
1E
100
AcDbEntity
  8
0
100
AcDbLine
 10
42.7
 20
158.6
 30
0.0
 11
52.5
 21
163.4
 31
0.0
  0
LINE
  5
37
330
1E
100
AcDbEntity
  8
0
100
AcDbLine
 10
58.0
 20
92.2
 30
0.0
 11
59.2
 21
95.7
 31
0.0
  0
LINE
  5
38
330
1E
100
AcDbEntity
  8
0
100
AcDbLine
 10
57.3
 20
88.59999999999999
 30
0.0
 11
58.0
 21
92.2
 31
0.0
  0
LINE
  5
39
330
1E
100
AcDbEntity
  8
0
100
AcDbLine
 10
58.3
 20
88.49999999999999
 30
0.0
 11
59.0
 21
92.0
 31
0.0
  0
LINE
  5
3D
330
1E
100
AcDbEntity
  8
0
100
AcDbLine
 10
58.0
 20
85.0
 30
0.0
 11
58.3
 21
81.5
 31
0.0
  0
LINE
  5
3E
330
1E
100
AcDbEntity
  8
0
100
AcDbLine
 10
58.0
 20
85.0
 30
0.0
 11
58.3
 21
88.49999999999999
 31
0.0
  0
LINE
  5
3F
330
1E
100
AcDbEntity
  8
0
100
AcDbLine
 10
63.1
 20
3.1
 30
0.0
 11
73.9
 21
0.8999999999999969
 31
0.0
  0
LINE
  5
40
330
1E
100
AcDbEntity
  8
0
100
AcDbLine
 10
63.1
 20
3.1
 30
0.0
 11
73.9
 21
0.8999999999999969
 31
0.0
  0
LINE
  5
41
330
1E
100
AcDbEntity
  8
0
100
AcDbLine
 10
65.9
 20
65.9
 30
0.0
 11
68.59999999999999
 21
63.6
 31
0.0
  0
LINE
  5
42
330
1E
100
AcDbEntity
  8
0
100
AcDbLine
 10
63.6
 20
68.59999999999999
 30
0.0
 11
65.9
 21
65.9
 31
0.0
  0
LINE
  5
43
330
1E
100
AcDbEntity
  8
0
100
AcDbLine
 10
65.2
 20
65.2
 30
0.0
 11
68.0
 21
62.8
 31
0.0
  0
LINE
  5
44
330
1E
100
AcDbEntity
  8
0
100
AcDbLine
 10
62.8
 20
68.0
 30
0.0
 11
65.2
 21
65.2
 31
0.0
  0
LINE
  5
45
330
1E
100
AcDbEntity
  8
0
100
AcDbLine
 10
61.6533333333333
 20
71.52000000000009
 30
0.0
 11
63.6
 21
68.59999999999999
 31
0.0
  0
LINE
  5
46
330
1E
100
AcDbEntity
  8
0
100
AcDbLine
 10
60.8
 20
71.09999999999999
 30
0.0
 11
62.8
 21
68.0
 31
0.0
  0
LINE
  5
47
330
1E
100
AcDbEntity
  8
0
100
AcDbLine
 10
73.9
 20
0.8999999999999969
 30
0.0
 11
85.0
 21
-0.0000000000000033
 31
0.0
  0
LINE
  5
48
330
1E
100
AcDbEntity
  8
0
100
AcDbLine
 10
73.9
 20
0.8999999999999969
 30
0.0
 11
85.0
 21
-0.0000000000000032
 31
0.0
  0
LINE
  5
49
330
1E
100
AcDbEntity
  8
0
100
AcDbLine
 10
77.8
 20
58.0
 30
0.0
 11
81.4
 21
57.3
 31
0.0
  0
LINE
  5
4A
330
1E
100
AcDbEntity
  8
0
100
AcDbLine
 10
71.64966850828729
 20
61.57596685082871
 30
0.0
 11
74.7
 21
60.1
 31
0.0
  0
LINE
  5
4B
330
1E
100
AcDbEntity
  8
0
100
AcDbLine
 10
71.09999999999999
 20
60.8
 30
0.0
 11
74.29999999999999
 21
59.2
 31
0.0
  0
LINE
  5
4C
330
1E
100
AcDbEntity
  8
0
100
AcDbLine
 10
74.7
 20
60.1
 30
0.0
 11
78.0
 21
59.0
 31
0.0
  0
LINE
  5
4D
330
1E
100
AcDbEntity
  8
0
100
AcDbLine
 10
78.0
 20
59.0
 30
0.0
 11
81.5
 21
58.3
 31
0.0
  0
LINE
  5
4E
330
1E
100
AcDbEntity
  8
0
100
AcDbLine
 10
74.29999999999999
 20
59.2
 30
0.0
 11
77.8
 21
58.0
 31
0.0
  0
LINE
  5
50
330
1E
100
AcDbEntity
  8
0
100
AcDbLine
 10
85.0
 20
57.0
 30
0.0
 11
88.59999999999999
 21
57.3
 31
0.0
  0
LINE
  5
51
330
1E
100
AcDbEntity
  8
0
100
AcDbLine
 10
85.0
 20
-0.0000000000000033
 30
0.0
 11
96.09999999999999
 21
0.8999999999999969
 31
0.0
  0
LINE
  5
52
330
1E
100
AcDbEntity
  8
0
100
AcDbLine
 10
85.0
 20
-0.0000000000000032
 30
0.0
 11
96.09999999999999
 21
0.8999999999999969
 31
0.0
  0
LINE
  5
53
330
1E
100
AcDbEntity
  8
0
100
AcDbLine
 10
85.0
 20
58.0
 30
0.0
 11
88.49999999999999
 21
58.3
 31
0.0
  0
LINE
  5
54
330
1E
100
AcDbEntity
  8
0
100
AcDbLine
 10
81.5
 20
58.3
 30
0.0
 11
85.0
 21
58.0
 31
0.0
  0
LINE
  5
55
330
1E
100
AcDbEntity
  8
0
100
AcDbLine
 10
81.4
 20
57.3
 30
0.0
 11
85.0
 21
57.0
 31
0.0
  0
LINE
  5
56
330
1E
100
AcDbEntity
  8
0
100
AcDbLine
 10
96.09999999999999
 20
0.8999999999999969
 30
0.0
 11
106.9
 21
3.1
 31
0.0
  0
LINE
  5
57
330
1E
100
AcDbEntity
  8
0
100
AcDbLine
 10
136.6999999999999
 20
17.7
 30
0.0
 11
145.0
 21
25.0
 31
0.0
  0
LINE
  5
58
330
1E
100
AcDbEntity
  8
0
100
AcDbLine
 10
117.5
 20
6.599999999999999
 30
0.0
 11
127.2999999999999
 21
11.4
 31
0.0
  0
LINE
  5
59
330
1E
100
AcDbEntity
  8
0
100
AcDbLine
 10
96.09999999999999
 20
0.8999999999999969
 30
0.0
 11
106.9
 21
3.1
 31
0.0
  0
LINE
  5
5A
330
1E
100
AcDbEntity
  8
0
100
AcDbLine
 10
88.49999999999999
 20
58.3
 30
0.0
 11
92.0
 21
59.0
 31
0.0
  0
LINE
  5
5B
330
1E
100
AcDbEntity
  8
0
100
AcDbLine
 10
92.2
 20
58.0
 30
0.0
 11
95.7
 21
59.2
 31
0.0
  0
LINE
  5
5C
330
1E
100
AcDbEntity
  8
0
100
AcDbLine
 10
88.59999999999999
 20
57.3
 30
0.0
 11
92.2
 21
58.0
 31
0.0
  0
LINE
  5
5D
330
1E
100
AcDbEntity
  8
0
100
AcDbLine
 10
158.6
 20
42.7
 30
0.0
 11
163.4
 21
52.5
 31
0.0
  0
LINE
  5
5E
330
1E
100
AcDbEntity
  8
0
100
AcDbLine
 10
163.4
 20
52.5
 30
0.0
 11
166.9
 21
63.1
 31
0.0
  0
LINE
  5
5F
330
1E
100
AcDbEntity
  8
0
100
AcDbLine
 10
145.0
 20
25.0
 30
0.0
 11
152.3
 21
33.3
 31
0.0
  0
LINE
  5
62
330
1E
100
AcDbEntity
  8
0
100
AcDbLine
 10
95.29999999999999
 20
60.1
 30
0.0
 11
98.35033149171271
 21
61.57596685082871
 31
0.0
  0
LINE
  5
63
330
1E
100
AcDbEntity
  8
0
100
AcDbLine
 10
92.0
 20
59.0
 30
0.0
 11
95.29999999999999
 21
60.1
 31
0.0
  0
LINE
  5
64
330
1E
100
AcDbEntity
  8
0
100
AcDbLine
 10
95.7
 20
59.2
 30
0.0
 11
98.9
 21
60.8
 31
0.0
  0
LINE
  5
66
330
1E
100
AcDbEntity
  8
0
100
AcDbLine
 10
98.9
 20
60.8
 30
0.0
 11
102.0
 21
62.8
 31
0.0
  0
LINE
  5
6A
330
1E
100
AcDbEntity
  8
0
100
AcDbLine
 10
98.48
 20
61.65333333333339
 30
0.0
 11
101.4
 21
63.6
 31
0.0
  0
LINE
  5
6B
330
1E
100
AcDbEntity
  8
0
100
AcDbLine
 10
102.0
 20
62.8
 30
0.0
 11
104.8
 21
65.2
 31
0.0
  0
LINE
  5
6C
330
1E
100
AcDbEntity
  8
0
100
AcDbLine
 10
101.4
 20
63.6
 30
0.0
 11
104.0999999999999
 21
65.9
 31
0.0
  0
LINE
  5
6D
330
1E
100
AcDbEntity
  8
0
100
AcDbLine
 10
68.59999999999999
 20
63.6
 30
0.0
 11
71.52000000000009
 21
61.6533333333333
 31
0.0
  0
LINE
  5
6E
330
1E
100
AcDbEntity
  8
0
100
AcDbLine
 10
68.0
 20
62.8
 30
0.0
 11
71.09999999999999
 21
60.8
 31
0.0
  0
LINE
  5
6F
330
1E
100
AcDbEntity
  8
0
100
AcDbLine
 10
104.0999999999999
 20
65.9
 30
0.0
 11
106.4
 21
68.59999999999999
 31
0.0
  0
LINE
  5
70
330
1E
100
AcDbEntity
  8
0
100
AcDbLine
 10
166.9
 20
63.1
 30
0.0
 11
169.1
 21
73.9
 31
0.0
  0
LINE
  5
71
330
1E
100
AcDbEntity
  8
0
100
AcDbLine
 10
104.8
 20
65.2
 30
0.0
 11
107.2
 21
68.0
 31
0.0
  0
LINE
  5
72
330
1E
100
AcDbEntity
  8
0
100
AcDbLine
 10
106.4
 20
68.59999999999999
 30
0.0
 11
108.346666666667
 21
71.52000000000009
 31
0.0
  0
LINE
  5
73
330
1E
100
AcDbEntity
  8
0
100
AcDbLine
 10
107.2
 20
68.0
 30
0.0
 11
109.2
 21
71.09999999999999
 31
0.0
  0
LINE
  5
74
330
1E
100
AcDbEntity
  8
0
100
AcDbLine
 10
109.2
 20
71.09999999999999
 30
0.0
 11
110.8
 21
74.29999999999999
 31
0.0
  0
LINE
  5
7B
330
1E
100
AcDbEntity
  8
0
100
AcDbLine
 10
59.0
 20
92.0
 30
0.0
 11
60.1
 21
95.29999999999999
 31
0.0
  0
LINE
  5
7C
330
1E
100
AcDbEntity
  8
0
100
AcDbLine
 10
59.2
 20
95.7
 30
0.0
 11
60.8
 21
98.9
 31
0.0
  0
LINE
  5
7D
330
1E
100
AcDbEntity
  8
0
100
AcDbLine
 10
60.1
 20
95.29999999999999
 30
0.0
 11
61.57596685082871
 21
98.35033149171271
 31
0.0
  0
LINE
  5
7E
330
1E
100
AcDbEntity
  8
0
100
AcDbLine
 10
60.1
 20
74.7
 30
0.0
 11
61.57596685082871
 21
71.6496685082872
 31
0.0
  0
LINE
  5
7F
330
1E
100
AcDbEntity
  8
0
100
AcDbLine
 10
59.0
 20
78.0
 30
0.0
 11
60.1
 21
74.7
 31
0.0
  0
LINE
  5
80
330
1E
100
AcDbEntity
  8
0
100
AcDbLine
 10
59.2
 20
74.29999999999999
 30
0.0
 11
60.8
 21
71.09999999999999
 31
0.0
  0
LINE
  5
81
330
1E
100
AcDbEntity
  8
0
100
AcDbLine
 10
108.424033149171
 20
71.6496685082872
 30
0.0
 11
109.8999999999999
 21
74.7
 31
0.0
  0
LINE
  5
82
330
1E
100
AcDbEntity
  8
0
100
AcDbLine
 10
108.424033149171
 20
71.64966850828729
 30
0.0
 11
109.8999999999999
 21
74.7
 31
0.0
  0
LINE
  5
83
330
1E
100
AcDbEntity
  8
0
100
AcDbLine
 10
108.424033149171
 20
98.35033149171271
 30
0.0
 11
109.8999999999999
 21
95.29999999999999
 31
0.0
  0
LINE
  5
84
330
1E
100
AcDbEntity
  8
0
100
AcDbLine
 10
110.8
 20
95.7
 30
0.0
 11
112.0
 21
92.2
 31
0.0
  0
LINE
  5
85
330
1E
100
AcDbEntity
  8
0
100
AcDbLine
 10
109.8999999999999
 20
95.29999999999999
 30
0.0
 11
111.0
 21
92.0
 31
0.0
  0
LINE
  5
86
330
1E
100
AcDbEntity
  8
0
100
AcDbLine
 10
111.0
 20
92.0
 30
0.0
 11
111.6999999999999
 21
88.49999999999999
 31
0.0
  0
LINE
  5
87
330
1E
100
AcDbEntity
  8
0
100
AcDbLine
 10
109.8999999999999
 20
74.7
 30
0.0
 11
111.0
 21
78.0
 31
0.0
  0
LINE
  5
88
330
1E
100
AcDbEntity
  8
0
100
AcDbLine
 10
111.0
 20
78.0
 30
0.0
 11
111.6999999999999
 21
81.5
 31
0.0
  0
LINE
  5
89
330
1E
100
AcDbEntity
  8
0
100
AcDbLine
 10
110.8
 20
74.29999999999999
 30
0.0
 11
112.0
 21
77.8
 31
0.0
  0
LINE
  5
8C
330
1E
100
AcDbEntity
  8
0
100
AcDbLine
 10
60.8
 20
98.9
 30
0.0
 11
62.8
 21
102.0
 31
0.0
  0
LINE
  5
8D
330
1E
100
AcDbEntity
  8
0
100
AcDbLine
 10
106.4
 20
101.4
 30
0.0
 11
108.346666666667
 21
98.48
 31
0.0
  0
LINE
  5
8E
330
1E
100
AcDbEntity
  8
0
100
AcDbLine
 10
109.2
 20
98.9
 30
0.0
 11
110.8
 21
95.7
 31
0.0
  0
LINE
  5
8F
330
1E
100
AcDbEntity
  8
0
100
AcDbLine
 10
107.2
 20
102.0
 30
0.0
 11
109.2
 21
98.9
 31
0.0
  0
LINE
  5
90
330
1E
100
AcDbEntity
  8
0
100
AcDbLine
 10
62.8
 20
102.0
 30
0.0
 11
65.2
 21
104.8
 31
0.0
  0
LINE
  5
91
330
1E
100
AcDbEntity
  8
0
100
AcDbLine
 10
63.6
 20
101.4
 30
0.0
 11
65.9
 21
104.0999999999999
 31
0.0
  0
LINE
  5
92
330
1E
100
AcDbEntity
  8
0
100
AcDbLine
 10
61.65333333333339
 20
98.48
 30
0.0
 11
63.6
 21
101.4
 31
0.0
  0
LINE
  5
95
330
1E
100
AcDbEntity
  8
0
100
AcDbLine
 10
65.9
 20
104.0999999999999
 30
0.0
 11
68.59999999999999
 21
106.4
 31
0.0
  0
LINE
  5
96
330
1E
100
AcDbEntity
  8
0
100
AcDbLine
 10
65.2
 20
104.8
 30
0.0
 11
68.0
 21
107.2
 31
0.0
  0
LINE
  5
97
330
1E
100
AcDbEntity
  8
0
100
AcDbLine
 10
68.59999999999999
 20
106.4
 30
0.0
 11
71.52000000000009
 21
108.346666666667
 31
0.0
  0
LINE
  5
98
330
1E
100
AcDbEntity
  8
0
100
AcDbLine
 10
68.0
 20
107.2
 30
0.0
 11
71.09999999999999
 21
109.2
 31
0.0
  0
LINE
  5
99
330
1E
100
AcDbEntity
  8
0
100
AcDbLine
 10
71.09999999999999
 20
109.2
 30
0.0
 11
74.29999999999999
 21
110.8
 31
0.0
  0
LINE
  5
9B
330
1E
100
AcDbEntity
  8
0
100
AcDbLine
 10
71.64966850828729
 20
108.424033149171
 30
0.0
 11
74.7
 21
109.8999999999999
 31
0.0
  0
LINE
  5
9C
330
1E
100
AcDbEntity
  8
0
100
AcDbLine
 10
74.7
 20
109.8999999999999
 30
0.0
 11
78.0
 21
111.0
 31
0.0
  0
LINE
  5
9D
330
1E
100
AcDbEntity
  8
0
100
AcDbLine
 10
74.29999999999999
 20
110.8
 30
0.0
 11
77.8
 21
112.0
 31
0.0
  0
LINE
  5
9E
330
1E
100
AcDbEntity
  8
0
100
AcDbLine
 10
78.0
 20
111.0
 30
0.0
 11
80.0
 21
111.4
 31
0.0
  0
LINE
  5
9F
330
1E
100
AcDbEntity
  8
0
100
AcDbLine
 10
80.0
 20
111.2857142857139
 30
0.0
 11
80.0
 21
115.0
 31
0.0
  0
LINE
  5
A0
330
1E
100
AcDbEntity
  8
0
100
AcDbLine
 10
90.0
 20
111.2857142857139
 30
0.0
 11
90.0
 21
115.0
 31
0.0
  0
LINE
  5
A1
330
1E
100
AcDbEntity
  8
0
100
AcDbLine
 10
90.0
 20
111.4
 30
0.0
 11
92.0
 21
111.0
 31
0.0
  0
LINE
  5
A2
330
1E
100
AcDbEntity
  8
0
100
AcDbLine
 10
77.8
 20
112.0
 30
0.0
 11
80.0
 21
112.4277777777779
 31
0.0
  0
LINE
  5
A5
330
1E
100
AcDbEntity
  8
0
100
AcDbLine
 10
80.0
 20
115.0
 30
0.0
 11
80.4
 21
115.0
 31
0.0
  0
LINE
  5
A6
330
1E
100
AcDbEntity
  8
0
100
AcDbLine
 10
80.4
 20
115.0
 30
0.0
 11
81.5
 21
115.0
 31
0.0
  0
LINE
  5
A8
330
1E
100
AcDbEntity
  8
0
100
AcDbLine
 10
81.5
 20
115.0
 30
0.0
 11
83.1
 21
115.0
 31
0.0
  0
LINE
  5
A9
330
1E
100
AcDbEntity
  8
0
100
AcDbLine
 10
83.1
 20
115.0
 30
0.0
 11
85.0
 21
115.0
 31
0.0
  0
LINE
  5
AA
330
1E
100
AcDbEntity
  8
0
100
AcDbLine
 10
89.59999999999999
 20
115.0
 30
0.0
 11
90.0
 21
115.0
 31
0.0
  0
LINE
  5
AB
330
1E
100
AcDbEntity
  8
0
100
AcDbLine
 10
88.49999999999999
 20
115.0
 30
0.0
 11
89.59999999999999
 21
115.0
 31
0.0
  0
LINE
  5
AC
330
1E
100
AcDbEntity
  8
0
100
AcDbLine
 10
86.90000000000001
 20
115.0
 30
0.0
 11
88.49999999999999
 21
115.0
 31
0.0
  0
LINE
  5
AD
330
1E
100
AcDbEntity
  8
0
100
AcDbLine
 10
85.0
 20
115.0
 30
0.0
 11
86.90000000000001
 21
115.0
 31
0.0
  0
LINE
  5
AE
330
1E
100
AcDbEntity
  8
0
100
AcDbLine
 10
73.9
 20
169.1
 30
0.0
 11
85.0
 21
170.0
 31
0.0
  0
LINE
  5
AF
330
1E
100
AcDbEntity
  8
0
100
AcDbLine
 10
63.1
 20
166.9
 30
0.0
 11
73.9
 21
169.1
 31
0.0
  0
LINE
  5
B0
330
1E
100
AcDbEntity
  8
0
100
AcDbLine
 10
85.0
 20
170.0
 30
0.0
 11
96.09999999999999
 21
169.1
 31
0.0
  0
LINE
  5
B1
330
1E
100
AcDbEntity
  8
0
100
AcDbLine
 10
90.0
 20
112.4277777777779
 30
0.0
 11
92.2
 21
112.0
 31
0.0
  0
LINE
  5
B3
330
1E
100
AcDbEntity
  8
0
100
AcDbLine
 10
95.29999999999999
 20
109.8999999999999
 30
0.0
 11
98.35033149171271
 21
108.424033149171
 31
0.0
  0
LINE
  5
B4
330
1E
100
AcDbEntity
  8
0
100
AcDbLine
 10
95.7
 20
110.8
 30
0.0
 11
98.9
 21
109.2
 31
0.0
  0
LINE
  5
B5
330
1E
100
AcDbEntity
  8
0
100
AcDbLine
 10
92.0
 20
111.0
 30
0.0
 11
95.29999999999999
 21
109.8999999999999
 31
0.0
  0
LINE
  5
B6
330
1E
100
AcDbEntity
  8
0
100
AcDbLine
 10
96.09999999999999
 20
169.1
 30
0.0
 11
106.9
 21
166.9
 31
0.0
  0
LINE
  5
B7
330
1E
100
AcDbEntity
  8
0
100
AcDbLine
 10
92.2
 20
112.0
 30
0.0
 11
95.7
 21
110.8
 31
0.0
  0
LINE
  5
B8
330
1E
100
AcDbEntity
  8
0
100
AcDbLine
 10
104.8
 20
104.8
 30
0.0
 11
107.2
 21
102.0
 31
0.0
  0
LINE
  5
B9
330
1E
100
AcDbEntity
  8
0
100
AcDbLine
 10
104.0999999999999
 20
104.0999999999999
 30
0.0
 11
106.4
 21
101.4
 31
0.0
  0
LINE
  5
BA
330
1E
100
AcDbEntity
  8
0
100
AcDbLine
 10
101.4
 20
106.4
 30
0.0
 11
104.0999999999999
 21
104.0999999999999
 31
0.0
  0
LINE
  5
BB
330
1E
100
AcDbEntity
  8
0
100
AcDbLine
 10
102.0
 20
107.2
 30
0.0
 11
104.8
 21
104.8
 31
0.0
  0
LINE
  5
BC
330
1E
100
AcDbEntity
  8
0
100
AcDbLine
 10
98.48
 20
108.346666666667
 30
0.0
 11
101.4
 21
106.4
 31
0.0
  0
LINE
  5
BD
330
1E
100
AcDbEntity
  8
0
100
AcDbLine
 10
106.9
 20
166.9
 30
0.0
 11
117.5
 21
163.4
 31
0.0
  0
LINE
  5
BE
330
1E
100
AcDbEntity
  8
0
100
AcDbLine
 10
98.9
 20
109.2
 30
0.0
 11
102.0
 21
107.2
 31
0.0
  0
LINE
  5
C3
330
1E
100
AcDbEntity
  8
0
100
AcDbLine
 10
112.0
 20
77.8
 30
0.0
 11
112.7
 21
81.4
 31
0.0
  0
LINE
  5
C4
330
1E
100
AcDbEntity
  8
0
100
AcDbLine
 10
111.6999999999999
 20
88.49999999999999
 30
0.0
 11
112.0
 21
85.0
 31
0.0
  0
LINE
  5
C5
330
1E
100
AcDbEntity
  8
0
100
AcDbLine
 10
136.6999999999999
 20
152.3
 30
0.0
 11
145.0
 21
145.0
 31
0.0
  0
LINE
  5
C6
330
1E
100
AcDbEntity
  8
0
100
AcDbLine
 10
127.2999999999999
 20
158.6
 30
0.0
 11
136.6999999999999
 21
152.3
 31
0.0
  0
LINE
  5
C7
330
1E
100
AcDbEntity
  8
0
100
AcDbLine
 10
117.5
 20
163.4
 30
0.0
 11
127.2999999999999
 21
158.6
 31
0.0
  0
LINE
  5
C8
330
1E
100
AcDbEntity
  8
0
100
AcDbLine
 10
158.6
 20
127.2999999999999
 30
0.0
 11
163.4
 21
117.5
 31
0.0
  0
LINE
  5
C9
330
1E
100
AcDbEntity
  8
0
100
AcDbLine
 10
163.4
 20
117.5
 30
0.0
 11
166.9
 21
106.9
 31
0.0
  0
LINE
  5
CA
330
1E
100
AcDbEntity
  8
0
100
AcDbLine
 10
145.0
 20
145.0
 30
0.0
 11
152.3
 21
136.6999999999999
 31
0.0
  0
LINE
  5
CB
330
1E
100
AcDbEntity
  8
0
100
AcDbLine
 10
166.9
 20
106.9
 30
0.0
 11
169.1
 21
96.09999999999999
 31
0.0
  0
LINE
  5
CC
330
1E
100
AcDbEntity
  8
0
100
AcDbLine
 10
112.0
 20
92.2
 30
0.0
 11
112.7
 21
88.59999999999999
 31
0.0
  0
LINE
  5
CD
330
1E
100
AcDbEntity
  8
0
100
AcDbLine
 10
112.7
 20
88.59999999999999
 30
0.0
 11
113.0
 21
85.0
 31
0.0
  0
LINE
  5
CE
330
1E
100
AcDbEntity
  8
0
100
AcDbLine
 10
111.6999999999999
 20
81.5
 30
0.0
 11
112.0
 21
85.0
 31
0.0
  0
LINE
  5
CF
330
1E
100
AcDbEntity
  8
0
100
AcDbLine
 10
112.7
 20
81.4
 30
0.0
 11
113.0
 21
85.0
 31
0.0
  0
LINE
  5
D7
330
1E
100
AcDbEntity
  8
0
100
AcDbLine
 10
52.5
 20
163.4
 30
0.0
 11
63.1
 21
166.9
 31
0.0
  0
LINE
  5
D8
330
1E
100
AcDbEntity
  8
0
100
AcDbLine
 10
152.3
 20
136.6999999999999
 30
0.0
 11
158.6
 21
127.2999999999999
 31
0.0
  0
LINE
  5
D9
330
1E
100
AcDbEntity
  8
0
100
AcDbLine
 10
169.1
 20
96.09999999999999
 30
0.0
 11
170.1494323058892
 21
84.23329273592537
 31
0.0
  0
LINE
  5
DA
330
1E
100
AcDbEntity
  8
0
100
AcDbLine
 10
170.1494323058892
 20
84.23329273592537
 30
0.0
 11
169.1
 21
73.9
 31
0.0
  0
LINE
  5
DB
330
1E
100
AcDbEntity
  8
0
100
AcDbLine
 10
158.6
 20
42.7
 30
0.0
 11
152.3
 21
33.3
 31
0.0
  0
LINE
  5
DC
330
1E
100
AcDbEntity
  8
0
100
AcDbLine
 10
136.6999999999999
 20
17.7
 30
0.0
 11
127.2999999999999
 21
11.4
 31
0.0
  0
LINE
  5
DD
330
1E
100
AcDbEntity
  8
0
100
AcDbLine
 10
106.9
 20
3.1
 30
0.0
 11
117.5
 21
6.599999999999999
 31
0.0
  0
LINE
  5
DE
330
1E
100
AcDbEntity
  8
0
100
AcDbLine
 10
17.7
 20
33.3
 30
0.0
 11
11.4
 21
42.7
 31
0.0
  0
LINE
  5
DF
330
1E
100
AcDbEntity
  8
0
100
AcDbLine
 10
42.7
 20
158.6
 30
0.0
 11
33.3
 21
152.3
 31
0.0
  0
LINE
  5
E0
330
1E
100
AcDbEntity
  8
0
100
AcDbLine
 10
25.0
 20
145.0
 30
0.0
 11
17.7
 21
136.6999999999999
 31
0.0
  0
LINE
  5
E1
330
1E
100
AcDbEntity
  8
0
100
AcDbLine
 10
11.4
 20
127.2999999999999
 30
0.0
 11
6.599999999999999
 21
117.5
 31
0.0
  0
LINE
  5
E2
330
1E
100
AcDbEntity
  8
0
100
AcDbLine
 10
80.0
 20
111.4
 30
0.0
 11
84.84279006581379
 21
111.7447256438648
 31
0.0
  0
LINE
  5
E3
330
1E
100
AcDbEntity
  8
0
100
AcDbLine
 10
84.84279006581379
 20
111.7447256438648
 30
0.0
 11
90.0
 21
111.4
 31
0.0
  0
ENDSEC
  0
SECTION
  2
OBJECTS
  0
DICTIONARY
  5
C
330
0
100
AcDbDictionary
  3
ACAD_GROUP
350
D
  3
ACAD_LAYOUT
350
19
  3
ACAD_MLINESTYLE
350
16
  3
ACAD_PLOTSETTINGS
350
18
  3
ACAD_PLOTSTYLENAME
350
E
  3
ACDBHEADERROUNDTRIPXREC
350
E7
  3
ACDBVARIABLEDICTIONARY
350
E4
  0
DICTIONARY
  5
109
330
1E
100
AcDbDictionary
280
     1
  3
ACAD_LAYOUTSELFREF
360
10A
  0
DICTIONARY
  5
107
330
1A
100
AcDbDictionary
280
     1
  3
ACAD_LAYOUTSELFREF
360
108
  0
DICTIONARY
  5
D
102
{ACAD_REACTORS
330
C
102
}
330
C
100
AcDbDictionary
  0
DICTIONARY
  5
19
102
{ACAD_REACTORS
330
C
102
}
330
C
100
AcDbDictionary
  0
DICTIONARY
  5
16
102
{ACAD_REACTORS
330
C
102
}
330
C
100
AcDbDictionary
  3
STANDARD
350
17
  0
DICTIONARY
  5
18
102
{ACAD_REACTORS
330
C
102
}
330
C
100
AcDbDictionary
  0
ACDBDICTIONARYWDFLT
  5
E
102
{ACAD_REACTORS
330
C
102
}
330
C
100
AcDbDictionary
281
     1
  3
Normal
350
F
100
AcDbDictionaryWithDefault
340
F
  0
DICTIONARY
  5
E7
102
{ACAD_REACTORS
330
C
102
}
330
C
100
AcDbDictionary
  3
CEPSNTYPE
350
F1
  3
FINGERPRINTGUID
350
F2
  3
HYPERLINKBASE
350
EA
  3
INSUNITS
350
F0
  3
LAYOUTDICT
350
EC
  3
LWETCUNION
350
EF
  3
PLOTSETDICT
350
ED
  3
PLOTSTYLNAMDICT
350
EE
  3
PSVPSCALE
350
F4
  3
PUCSBASE
350
F7
  3
PUCSORGBACK
350
FD
  3
PUCSORGBOTTOM
350
F9
  3
PUCSORGFRONT
350
FC
  3
PUCSORGLEFT
350
FA
  3
PUCSORGRIGHT
350
FB
  3
PUCSORGTOP
350
F8
  3
PUCSORTHOREF
350
F5
  3
PUCSORTHOVIEW
350
F6
  3
STYLESHEET
350
EB
  3
TSTACKALIGN
350
E8
  3
TSTACKSIZE
350
E9
  3
UCSBASE
350
100
  3
UCSORGBACK
350
106
  3
UCSORGBOTTOM
350
102
  3
UCSORGFRONT
350
105
  3
UCSORGLEFT
350
103
  3
UCSORGRIGHT
350
104
  3
UCSORGTOP
350
101
  3
UCSORTHOREF
350
FE
  3
UCSORTHOVIEW
350
FF
  3
VERSIONGUID
350
F3
  0
DICTIONARY
  5
E4
102
{ACAD_REACTORS
330
C
102
}
330
C
100
AcDbDictionary
  3
DIMASSOC
350
E5
  0
XRECORD
  5
10A
102
{ACAD_REACTORS
330
109
102
}
330
109
100
AcDbXrecord
340
1E
  0
XRECORD
  5
108
102
{ACAD_REACTORS
330
107
102
}
330
107
100
AcDbXrecord
340
1A
  0
MLINESTYLE
  5
17
102
{ACAD_REACTORS
330
16
102
}
330
16
100
AcDbMlineStyle
  2
STANDARD
 70
     0
  3

 62
   256
 51
90.0
 52
90.0
 71
     2
 49
0.5
 62
   256
  6
BYLAYER
 49
-0.5
 62
   256
  6
BYLAYER
  0
ACDBPLACEHOLDER
  5
F
102
{ACAD_REACTORS
330
E
102
}
330
E
100
AcDbPlaceHolder
280
     0
  0
XRECORD
  5
F1
102
{ACAD_REACTORS
330
E7
102
}
330
E7
100
AcDbXrecord
 90
        0
  0
XRECORD
  5
F2
102
{ACAD_REACTORS
330
E7
102
}
330
E7
100
AcDbXrecord
  1
{8AB977DE-6FCB-4218-B35C-58BBD55CC97A}
  0
XRECORD
  5
EA
102
{ACAD_REACTORS
330
E7
102
}
330
E7
100
AcDbXrecord
  1

  0
XRECORD
  5
F0
102
{ACAD_REACTORS
330
E7
102
}
330
E7
100
AcDbXrecord
 90
        0
  0
XRECORD
  5
EC
102
{ACAD_REACTORS
330
E7
102
}
330
E7
100
AcDbXrecord
340
19
  0
XRECORD
  5
EF
102
{ACAD_REACTORS
330
E7
102
}
330
E7
100
AcDbXrecord
 90
    10781
  0
XRECORD
  5
ED
102
{ACAD_REACTORS
330
E7
102
}
330
E7
100
AcDbXrecord
340
18
  0
XRECORD
  5
EE
102
{ACAD_REACTORS
330
E7
102
}
330
E7
100
AcDbXrecord
340
E
  0
XRECORD
  5
F4
102
{ACAD_REACTORS
330
E7
102
}
330
E7
100
AcDbXrecord
 40
0.0
  0
XRECORD
  5
F7
102
{ACAD_REACTORS
330
E7
102
}
330
E7
100
AcDbXrecord
340
0
  0
XRECORD
  5
FD
102
{ACAD_REACTORS
330
E7
102
}
330
E7
100
AcDbXrecord
 10
0.0
 20
0.0
 30
0.0
  0
XRECORD
  5
F9
102
{ACAD_REACTORS
330
E7
102
}
330
E7
100
AcDbXrecord
 10
0.0
 20
0.0
 30
0.0
  0
XRECORD
  5
FC
102
{ACAD_REACTORS
330
E7
102
}
330
E7
100
AcDbXrecord
 10
0.0
 20
0.0
 30
0.0
  0
XRECORD
  5
FA
102
{ACAD_REACTORS
330
E7
102
}
330
E7
100
AcDbXrecord
 10
0.0
 20
0.0
 30
0.0
  0
XRECORD
  5
FB
102
{ACAD_REACTORS
330
E7
102
}
330
E7
100
AcDbXrecord
 10
0.0
 20
0.0
 30
0.0
  0
XRECORD
  5
F8
102
{ACAD_REACTORS
330
E7
102
}
330
E7
100
AcDbXrecord
 10
0.0
 20
0.0
 30
0.0
  0
XRECORD
  5
F5
102
{ACAD_REACTORS
330
E7
102
}
330
E7
100
AcDbXrecord
340
0
  0
XRECORD
  5
F6
102
{ACAD_REACTORS
330
E7
102
}
330
E7
100
AcDbXrecord
 70
     0
  0
XRECORD
  5
EB
102
{ACAD_REACTORS
330
E7
102
}
330
E7
100
AcDbXrecord
  1

  0
XRECORD
  5
E8
102
{ACAD_REACTORS
330
E7
102
}
330
E7
100
AcDbXrecord
 90
        1
  0
XRECORD
  5
E9
102
{ACAD_REACTORS
330
E7
102
}
330
E7
100
AcDbXrecord
 90
       70
  0
XRECORD
  5
100
102
{ACAD_REACTORS
330
E7
102
}
330
E7
100
AcDbXrecord
340
0
  0
XRECORD
  5
106
102
{ACAD_REACTORS
330
E7
102
}
330
E7
100
AcDbXrecord
 10
0.0
 20
0.0
 30
0.0
  0
XRECORD
  5
102
102
{ACAD_REACTORS
330
E7
102
}
330
E7
100
AcDbXrecord
 10
0.0
 20
0.0
 30
0.0
  0
XRECORD
  5
105
102
{ACAD_REACTORS
330
E7
102
}
330
E7
100
AcDbXrecord
 10
0.0
 20
0.0
 30
0.0
  0
XRECORD
  5
103
102
{ACAD_REACTORS
330
E7
102
}
330
E7
100
AcDbXrecord
 10
0.0
 20
0.0
 30
0.0
  0
XRECORD
  5
104
102
{ACAD_REACTORS
330
E7
102
}
330
E7
100
AcDbXrecord
 10
0.0
 20
0.0
 30
0.0
  0
XRECORD
  5
101
102
{ACAD_REACTORS
330
E7
102
}
330
E7
100
AcDbXrecord
 10
0.0
 20
0.0
 30
0.0
  0
XRECORD
  5
FE
102
{ACAD_REACTORS
330
E7
102
}
330
E7
100
AcDbXrecord
340
0
  0
XRECORD
  5
FF
102
{ACAD_REACTORS
330
E7
102
}
330
E7
100
AcDbXrecord
 70
     1
  0
XRECORD
  5
F3
102
{ACAD_REACTORS
330
E7
102
}
330
E7
100
AcDbXrecord
  1
{B272E992-C077-4258-877F-CDBDD43E2EFC}
  0
DICTIONARYVAR
  5
E5
102
{ACAD_REACTORS
330
E4
102
}
330
E4
100
DictionaryVariables
280
     0
  1
1
  0
ENDSEC
  0
EOF
