  0
SECTION
  2
HEADER
  9
$ACADVER
  1
AC1014
  9
$ACADMAINTVER
 70
     9
  9
$DWGCODEPAGE
  3
ANSI_1252
  9
$INSBASE
 10
0.0
 20
0.0
 30
0.0
  9
$EXTMIN
 10
0.0000000000000006
 20
-0.0000000000000081
 30
0.0
  9
$EXTMAX
 10
46.0
 20
155.0
 30
0.0
  9
$LIMMIN
 10
0.0
 20
0.0
  9
$LIMMAX
 10
12.0
 20
9.0
  9
$ORTHOMODE
 70
     0
  9
$REGENMODE
 70
     1
  9
$FILLMODE
 70
     1
  9
$QTEXTMODE
 70
     0
  9
$MIRRTEXT
 70
     1
  9
$DRAGMODE
 70
     2
  9
$LTSCALE
 40
1.0
  9
$OSMODE
 70
    37
  9
$ATTMODE
 70
     1
  9
$TEXTSIZE
 40
0.2
  9
$TRACEWID
 40
0.05
  9
$TEXTSTYLE
  7
STANDARD
  9
$CLAYER
  8
0
  9
$CELTYPE
  6
CONTINUOUS
  9
$CECOLOR
 62
   256
  9
$CELTSCALE
 40
1.0
  9
$DELOBJ
 70
     1
  9
$DISPSILH
 70
     0
  9
$DIMSCALE
 40
1.0
  9
$DIMASZ
 40
0.18
  9
$DIMEXO
 40
0.0625
  9
$DIMDLI
 40
0.38
  9
$DIMRND
 40
0.0
  9
$DIMDLE
 40
0.0
  9
$DIMEXE
 40
0.18
  9
$DIMTP
 40
0.0
  9
$DIMTM
 40
0.0
  9
$DIMTXT
 40
0.18
  9
$DIMCEN
 40
0.09
  9
$DIMTSZ
 40
0.0
  9
$DIMTOL
 70
     0
  9
$DIMLIM
 70
     0
  9
$DIMTIH
 70
     1
  9
$DIMTOH
 70
     1
  9
$DIMSE1
 70
     0
  9
$DIMSE2
 70
     0
  9
$DIMTAD
 70
     0
  9
$DIMZIN
 70
     0
  9
$DIMBLK
  1

  9
$DIMASO
 70
     1
  9
$DIMSHO
 70
     1
  9
$DIMPOST
  1

  9
$DIMAPOST
  1

  9
$DIMALT
 70
     0
  9
$DIMALTD
 70
     2
  9
$DIMALTF
 40
25.4
  9
$DIMLFAC
 40
1.0
  9
$DIMTOFL
 70
     0
  9
$DIMTVP
 40
0.0
  9
$DIMTIX
 70
     0
  9
$DIMSOXD
 70
     0
  9
$DIMSAH
 70
     0
  9
$DIMBLK1
  1

  9
$DIMBLK2
  1

  9
$DIMSTYLE
  2
STANDARD
  9
$DIMCLRD
 70
     0
  9
$DIMCLRE
 70
     0
  9
$DIMCLRT
 70
     0
  9
$DIMTFAC
 40
1.0
  9
$DIMGAP
 40
0.09
  9
$DIMJUST
 70
     0
  9
$DIMSD1
 70
     0
  9
$DIMSD2
 70
     0
  9
$DIMTOLJ
 70
     1
  9
$DIMTZIN
 70
     0
  9
$DIMALTZ
 70
     0
  9
$DIMALTTZ
 70
     0
  9
$DIMFIT
 70
     3
  9
$DIMUPT
 70
     0
  9
$DIMUNIT
 70
     2
  9
$DIMDEC
 70
     4
  9
$DIMTDEC
 70
     4
  9
$DIMALTU
 70
     2
  9
$DIMALTTD
 70
     2
  9
$DIMTXSTY
  7
STANDARD
  9
$DIMAUNIT
 70
     0
  9
$LUNITS
 70
     2
  9
$LUPREC
 70
     4
  9
$SKETCHINC
 40
0.1
  9
$FILLETRAD
 40
0.0
  9
$AUNITS
 70
     0
  9
$AUPREC
 70
     0
  9
$MENU
  1
.
  9
$ELEVATION
 40
0.0
  9
$PELEVATION
 40
0.0
  9
$THICKNESS
 40
0.0
  9
$LIMCHECK
 70
     0
  9
$BLIPMODE
 70
     0
  9
$CHAMFERA
 40
0.0
  9
$CHAMFERB
 40
0.0
  9
$CHAMFERC
 40
0.0
  9
$CHAMFERD
 40
0.0
  9
$SKPOLY
 70
     0
  9
$TDCREATE
 40
2454691.726668472
  9
$TDUPDATE
 40
2454691.728279432
  9
$TDINDWG
 40
0.0016111458
  9
$TDUSRTIMER
 40
0.0016111458
  9
$USRTIMER
 70
     1
  9
$ANGBASE
 50
0.0
  9
$ANGDIR
 70
     0
  9
$PDMODE
 70
     0
  9
$PDSIZE
 40
0.0
  9
$PLINEWID
 40
0.0
  9
$COORDS
 70
     1
  9
$SPLFRAME
 70
     0
  9
$SPLINETYPE
 70
     6
  9
$SPLINESEGS
 70
     8
  9
$ATTDIA
 70
     0
  9
$ATTREQ
 70
     1
  9
$HANDLING
 70
 22529
  9
$HANDSEED
  5
14A
  9
$SURFTAB1
 70
     6
  9
$SURFTAB2
 70
     6
  9
$SURFTYPE
 70
     6
  9
$SURFU
 70
     6
  9
$SURFV
 70
     6
  9
$UCSNAME
  2

  9
$UCSORG
 10
0.0
 20
0.0
 30
0.0
  9
$UCSXDIR
 10
1.0
 20
0.0
 30
0.0
  9
$UCSYDIR
 10
0.0
 20
1.0
 30
0.0
  9
$PUCSNAME
  2

  9
$PUCSORG
 10
0.0
 20
0.0
 30
0.0
  9
$PUCSXDIR
 10
1.0
 20
0.0
 30
0.0
  9
$PUCSYDIR
 10
0.0
 20
1.0
 30
0.0
  9
$USERI1
 70
     0
  9
$USERI2
 70
     0
  9
$USERI3
 70
     0
  9
$USERI4
 70
     0
  9
$USERI5
 70
     0
  9
$USERR1
 40
0.0
  9
$USERR2
 40
0.0
  9
$USERR3
 40
0.0
  9
$USERR4
 40
0.0
  9
$USERR5
 40
0.0
  9
$WORLDVIEW
 70
     1
  9
$SHADEDGE
 70
     3
  9
$SHADEDIF
 70
    70
  9
$TILEMODE
 70
     1
  9
$MAXACTVP
 70
    64
  9
$PINSBASE
 10
0.0
 20
0.0
 30
0.0
  9
$PLIMCHECK
 70
     0
  9
$PEXTMIN
 10
1.000000000000000E+20
 20
1.000000000000000E+20
 30
1.000000000000000E+20
  9
$PEXTMAX
 10
-1.000000000000000E+20
 20
-1.000000000000000E+20
 30
-1.000000000000000E+20
  9
$PLIMMIN
 10
0.0
 20
0.0
  9
$PLIMMAX
 10
12.0
 20
9.0
  9
$UNITMODE
 70
     0
  9
$VISRETAIN
 70
     1
  9
$PLINEGEN
 70
     0
  9
$PSLTSCALE
 70
     1
  9
$TREEDEPTH
 70
  3020
  9
$PICKSTYLE
 70
     1
  9
$CMLSTYLE
  2
STANDARD
  9
$CMLJUST
 70
     0
  9
$CMLSCALE
 40
1.0
  9
$PROXYGRAPHICS
 70
     1
  9
$MEASUREMENT
 70
     0
  0
ENDSEC
  0
SECTION
  2
CLASSES
  0
CLASS
  1
ACDBDICTIONARYWDFLT
  2
AcDbDictionaryWithDefault
  3
AutoCAD 2000
 90
        0
280
     0
281
     0
  0
CLASS
  1
ACDBPLACEHOLDER
  2
AcDbPlaceHolder
  3
AutoCAD 2000
 90
        0
280
     0
281
     0
  0
CLASS
  1
LAYOUT
  2
AcDbLayout
  3
AutoCAD 2000
 90
        0
280
     0
281
     0
  0
CLASS
  1
DICTIONARYVAR
  2
AcDbDictionaryVar
  3
AutoCAD 2000
 90
        0
280
     0
281
     0
  0
CLASS
  1
LONG_TRANSACTION
  2
AcDbLongTransaction
  3
AutoCAD 2000
 90
        0
280
     0
281
     0
  0
CLASS
  1
LWPOLYLINE
  2
AcDbPolyline
  3
AutoCAD 2000
 90
        0
280
     0
281
     1
  0
CLASS
  1
HATCH
  2
AcDbHatch
  3
AutoCAD 2000
 90
        0
280
     0
281
     1
  0
CLASS
  1
XRECORD
  2
AcDbXrecord
  3
AutoCAD 2000
 90
        0
280
     0
281
     0
  0
ENDSEC
  0
SECTION
  2
TABLES
  0
TABLE
  2
VPORT
  5
8
330
0
100
AcDbSymbolTable
 70
     2
  0
VPORT
  5
125
330
8
100
AcDbSymbolTableRecord
100
AcDbViewportTableRecord
  2
*ACTIVE
 70
     0
 10
0.0
 20
0.0
 11
1.0
 21
1.0
 12
23.0
 22
77.49999999999999
 13
0.0
 23
0.0
 14
1.0
 24
1.0
 15
0.0
 25
0.0
 16
0.0
 26
0.0
 36
1.0
 17
0.0
 27
0.0
 37
0.0
 40
156.1892583120204
 41
2.043533930857874
 42
50.0
 43
0.0
 44
0.0
 50
0.0
 51
0.0
 71
     0
 72
   100
 73
     1
 74
     3
 75
     0
 76
     0
 77
     0
 78
     0
  0
ENDTAB
  0
TABLE
  2
LTYPE
  5
5
330
0
100
AcDbSymbolTable
 70
     1
  0
LTYPE
  5
13
330
5
100
AcDbSymbolTableRecord
100
AcDbLinetypeTableRecord
  2
BYBLOCK
 70
     0
  3

 72
    65
 73
     0
 40
0.0
  0
LTYPE
  5
14
330
5
100
AcDbSymbolTableRecord
100
AcDbLinetypeTableRecord
  2
BYLAYER
 70
     0
  3

 72
    65
 73
     0
 40
0.0
  0
LTYPE
  5
15
330
5
100
AcDbSymbolTableRecord
100
AcDbLinetypeTableRecord
  2
CONTINUOUS
 70
     0
  3
Solid line
 72
    65
 73
     0
 40
0.0
  0
ENDTAB
  0
TABLE
  2
LAYER
  5
2
330
0
100
AcDbSymbolTable
 70
     1
  0
LAYER
  5
10
330
2
100
AcDbSymbolTableRecord
100
AcDbLayerTableRecord
  2
0
 70
     0
 62
     7
  6
CONTINUOUS
  0
ENDTAB
  0
TABLE
  2
STYLE
  5
3
330
0
100
AcDbSymbolTable
 70
     1
  0
STYLE
  5
11
330
3
100
AcDbSymbolTableRecord
100
AcDbTextStyleTableRecord
  2
STANDARD
 70
     0
 40
0.0
 41
1.0
 50
0.0
 71
     0
 42
0.2
  3
txt
  4

  0
ENDTAB
  0
TABLE
  2
VIEW
  5
6
330
0
100
AcDbSymbolTable
 70
     0
  0
ENDTAB
  0
TABLE
  2
UCS
  5
7
330
0
100
AcDbSymbolTable
 70
     0
  0
ENDTAB
  0
TABLE
  2
APPID
  5
9
330
0
100
AcDbSymbolTable
 70
     1
  0
APPID
  5
12
330
9
100
AcDbSymbolTableRecord
100
AcDbRegAppTableRecord
  2
ACAD
 70
     0
  0
ENDTAB
  0
TABLE
  2
DIMSTYLE
  5
A
330
0
100
AcDbSymbolTable
 70
     1
  0
DIMSTYLE
105
11F
330
A
100
AcDbSymbolTableRecord
100
AcDbDimStyleTableRecord
  2
STANDARD
 70
     0
  3

  4

  5

  6

  7

 40
1.0
 41
0.18
 42
0.0625
 43
0.38
 44
0.18
 45
0.0
 46
0.0
 47
0.0
 48
0.0
140
0.18
141
0.09
142
0.0
143
25.4
144
1.0
145
0.0
146
1.0
147
0.09
 71
     0
 72
     0
 73
     1
 74
     1
 75
     0
 76
     0
 77
     0
 78
     0
170
     0
171
     2
172
     0
173
     0
174
     0
175
     0
176
     0
177
     0
178
     0
270
     2
271
     4
272
     4
273
     2
274
     2
340
11
275
     0
280
     0
281
     0
282
     0
283
     1
284
     0
285
     0
286
     0
287
     3
288
     0
  0
ENDTAB
  0
TABLE
  2
BLOCK_RECORD
  5
1
330
0
100
AcDbSymbolTable
 70
     0
  0
BLOCK_RECORD
  5
1E
102
{ACAD_XDICTIONARY
360
148
102
}
330
1
100
AcDbSymbolTableRecord
100
AcDbBlockTableRecord
  2
*MODEL_SPACE
  0
BLOCK_RECORD
  5
1A
102
{ACAD_XDICTIONARY
360
146
102
}
330
1
100
AcDbSymbolTableRecord
100
AcDbBlockTableRecord
  2
*PAPER_SPACE
  0
ENDTAB
  0
ENDSEC
  0
SECTION
  2
BLOCKS
  0
BLOCK
  5
1F
330
1E
100
AcDbEntity
  8
0
100
AcDbBlockBegin
  2
*MODEL_SPACE
 70
     0
 10
0.0
 20
0.0
 30
0.0
  3
*MODEL_SPACE
  1

  0
ENDBLK
  5
20
330
1E
100
AcDbEntity
  8
0
100
AcDbBlockEnd
  0
BLOCK
  5
1B
330
1A
100
AcDbEntity
 67
     1
  8
0
100
AcDbBlockBegin
  2
*PAPER_SPACE
 70
     0
 10
0.0
 20
0.0
 30
0.0
  3
*PAPER_SPACE
  1

  0
ENDBLK
  5
1C
330
1A
100
AcDbEntity
 67
     1
  8
0
100
AcDbBlockEnd
  0
ENDSEC
  0
SECTION
  2
ENTITIES
  0
LINE
  5
22
330
1E
100
AcDbEntity
  8
0
100
AcDbLine
 10
0.0000000000000006
 20
3.99999999999999
 30
0.0
 11
0.0000000000000006
 21
-0.0000000000000065
 31
0.0
  0
LINE
  5
23
330
1E
100
AcDbEntity
  8
0
100
AcDbLine
 10
0.0000000000000006
 20
3.99999999999999
 30
0.0
 11
0.800000000000001
 21
3.99999999999999
 31
0.0
  0
LINE
  5
24
330
1E
100
AcDbEntity
  8
0
100
AcDbLine
 10
0.8
 20
-0.000000000000007
 30
0.0
 11
3.1
 21
-0.0000000000000074
 31
0.0
  0
LINE
  5
25
330
1E
100
AcDbEntity
  8
0
100
AcDbLine
 10
0.800000000000001
 20
-0.000000000000007
 30
0.0
 11
3.1
 21
-0.0000000000000074
 31
0.0
  0
LINE
  5
26
330
1E
100
AcDbEntity
  8
0
100
AcDbLine
 10
3.1
 20
-0.0000000000000074
 30
0.0
 11
6.799999999999999
 21
-0.0000000000000077
 31
0.0
  0
LINE
  5
27
330
1E
100
AcDbEntity
  8
0
100
AcDbLine
 10
6.799999999999999
 20
-0.0000000000000077
 30
0.0
 11
11.59999999999999
 21
-0.0000000000000079
 31
0.0
  0
LINE
  5
28
330
1E
100
AcDbEntity
  8
0
100
AcDbLine
 10
0.800000000000001
 20
-0.0000000000000063
 30
0.0
 11
3.1
 21
-0.000000000000006
 31
0.0
  0
LINE
  5
29
330
1E
100
AcDbEntity
  8
0
100
AcDbLine
 10
0.800000000000001
 20
3.99999999999999
 30
0.0
 11
3.1
 21
3.99999999999999
 31
0.0
  0
LINE
  5
2A
330
1E
100
AcDbEntity
  8
0
100
AcDbLine
 10
3.1
 20
3.99999999999999
 30
0.0
 11
6.799999999999999
 21
3.99999999999999
 31
0.0
  0
LINE
  5
2B
330
1E
100
AcDbEntity
  8
0
100
AcDbLine
 10
0.8
 20
3.99999999999999
 30
0.0
 11
3.1
 21
3.99999999999999
 31
0.0
  0
LINE
  5
2C
330
1E
100
AcDbEntity
  8
0
100
AcDbLine
 10
6.799999999999999
 20
-0.0000000000000057
 30
0.0
 11
11.59999999999999
 21
-0.0000000000000054
 31
0.0
  0
LINE
  5
2D
330
1E
100
AcDbEntity
  8
0
100
AcDbLine
 10
6.799999999999999
 20
3.99999999999999
 30
0.0
 11
11.59999999999999
 21
3.99999999999999
 31
0.0
  0
LINE
  5
2E
330
1E
100
AcDbEntity
  8
0
100
AcDbLine
 10
8.5
 20
4.99999999999999
 30
0.0
 11
10.0
 21
4.99999999999999
 31
0.0
  0
LINE
  5
2F
330
1E
100
AcDbEntity
  8
0
100
AcDbLine
 10
8.0
 20
4.99999999999999
 30
0.0
 11
8.5
 21
4.99999999999999
 31
0.0
  0
LINE
  5
30
330
1E
100
AcDbEntity
  8
0
100
AcDbLine
 10
8.0
 20
4.99999999999999
 30
0.0
 11
9.0
 21
6.99999999999999
 31
0.0
  0
LINE
  5
31
330
1E
100
AcDbEntity
  8
0
100
AcDbLine
 10
6.0
 20
3.99999999999999
 30
0.0
 11
8.0
 21
4.99999999999999
 31
0.0
  0
LINE
  5
32
330
1E
100
AcDbEntity
  8
0
100
AcDbLine
 10
3.1
 20
-0.000000000000006
 30
0.0
 11
6.799999999999999
 21
-0.0000000000000057
 31
0.0
  0
LINE
  5
33
330
1E
100
AcDbEntity
  8
0
100
AcDbLine
 10
0.8
 20
-0.0000000000000063
 30
0.0
 11
3.1
 21
-0.000000000000006
 31
0.0
  0
LINE
  5
34
330
1E
100
AcDbEntity
  8
0
100
AcDbLine
 10
0.0000000000000006
 20
-0.0000000000000067
 30
0.0
 11
0.800000000000001
 21
-0.0000000000000063
 31
0.0
  0
LINE
  5
35
330
1E
100
AcDbEntity
  8
0
100
AcDbLine
 10
0.0000000000000006
 20
-0.0000000000000067
 30
0.0
 11
0.800000000000001
 21
-0.000000000000007
 31
0.0
  0
LINE
  5
36
330
1E
100
AcDbEntity
  8
0
100
AcDbLine
 10
0.0000000000000006
 20
-0.0000000000000067
 30
0.0
 11
0.0000000000000006
 21
3.99999999999999
 31
0.0
  0
LINE
  5
37
330
1E
100
AcDbEntity
  8
0
100
AcDbLine
 10
9.0
 20
114.8739999999999
 30
0.0
 11
9.336
 21
115.0
 31
0.0
  0
LINE
  5
38
330
1E
100
AcDbEntity
  8
0
100
AcDbLine
 10
9.0
 20
114.8739999999999
 30
0.0
 11
9.0
 21
114.126
 31
0.0
  0
LINE
  5
39
330
1E
100
AcDbEntity
  8
0
100
AcDbLine
 10
9.0
 20
114.8739999999999
 30
0.0
 11
9.503999999999999
 21
114.8739999999999
 31
0.0
  0
LINE
  5
3A
330
1E
100
AcDbEntity
  8
0
100
AcDbLine
 10
9.0
 20
114.126
 30
0.0
 11
9.336
 21
114.0
 31
0.0
  0
LINE
  5
3B
330
1E
100
AcDbEntity
  8
0
100
AcDbLine
 10
9.0
 20
114.126
 30
0.0
 11
9.503999999999999
 21
114.126
 31
0.0
  0
LINE
  5
3C
330
1E
100
AcDbEntity
  8
0
100
AcDbLine
 10
9.0
 20
114.126
 30
0.0
 11
9.0
 21
114.8739999999999
 31
0.0
  0
LINE
  5
3D
330
1E
100
AcDbEntity
  8
0
100
AcDbLine
 10
9.0
 20
113.4229999999999
 30
0.0
 11
9.336
 21
114.0
 31
0.0
  0
LINE
  5
3E
330
1E
100
AcDbEntity
  8
0
100
AcDbLine
 10
9.0
 20
113.4229999999999
 30
0.0
 11
9.0
 21
7.0
 31
0.0
  0
LINE
  5
3F
330
1E
100
AcDbEntity
  8
0
100
AcDbLine
 10
9.0
 20
6.99999999999999
 30
0.0
 11
9.0
 21
113.4229999999999
 31
0.0
  0
LINE
  5
40
330
1E
100
AcDbEntity
  8
0
100
AcDbLine
 10
9.0
 20
154.4229999999999
 30
0.0
 11
9.0
 21
115.577
 31
0.0
  0
LINE
  5
41
330
1E
100
AcDbEntity
  8
0
100
AcDbLine
 10
9.0
 20
154.4229999999999
 30
0.0
 11
9.336
 21
155.0
 31
0.0
  0
LINE
  5
42
330
1E
100
AcDbEntity
  8
0
100
AcDbLine
 10
9.839999999999999
 20
114.0
 30
0.0
 11
11.184
 21
114.0
 31
0.0
  0
LINE
  5
43
330
1E
100
AcDbEntity
  8
0
100
AcDbLine
 10
9.503999999999999
 20
114.8739999999999
 30
0.0
 11
10.84799999999999
 21
114.8739999999999
 31
0.0
  0
LINE
  5
44
330
1E
100
AcDbEntity
  8
0
100
AcDbLine
 10
9.503999999999999
 20
114.126
 30
0.0
 11
10.84799999999999
 21
114.126
 31
0.0
  0
LINE
  5
45
330
1E
100
AcDbEntity
  8
0
100
AcDbLine
 10
9.336
 20
114.0
 30
0.0
 11
9.839999999999999
 21
114.0
 31
0.0
  0
LINE
  5
46
330
1E
100
AcDbEntity
  8
0
100
AcDbLine
 10
11.59999999999999
 20
-0.0000000000000079
 30
0.0
 11
17.1
 21
-0.000000000000008
 31
0.0
  0
LINE
  5
47
330
1E
100
AcDbEntity
  8
0
100
AcDbLine
 10
11.59999999999999
 20
3.99999999999999
 30
0.0
 11
17.1
 21
3.99999999999999
 31
0.0
  0
LINE
  5
48
330
1E
100
AcDbEntity
  8
0
100
AcDbLine
 10
11.59999999999999
 20
-0.0000000000000054
 30
0.0
 11
17.1
 21
-0.0000000000000053
 31
0.0
  0
LINE
  5
49
330
1E
100
AcDbEntity
  8
0
100
AcDbLine
 10
12.396
 20
69.4246
 30
0.0
 11
12.66
 21
69.14629999999999
 31
0.0
  0
LINE
  5
4A
330
1E
100
AcDbEntity
  8
0
100
AcDbLine
 10
12.264
 20
69.86369999999999
 30
0.0
 11
12.66
 21
70.5811
 31
0.0
  0
LINE
  5
4B
330
1E
100
AcDbEntity
  8
0
100
AcDbLine
 10
12.264
 20
69.86369999999999
 30
0.0
 11
12.66
 21
69.14629999999999
 31
0.0
  0
LINE
  5
4C
330
1E
100
AcDbEntity
  8
0
100
AcDbLine
 10
12.0
 20
91.4545
 30
0.0
 11
12.0
 21
88.435
 31
0.0
  0
LINE
  5
4D
330
1E
100
AcDbEntity
  8
0
100
AcDbLine
 10
12.0
 20
91.4545
 30
0.0
 11
12.0
 21
93.35259999999999
 31
0.0
  0
LINE
  5
4E
330
1E
100
AcDbEntity
  8
0
100
AcDbLine
 10
12.0
 20
93.35259999999999
 30
0.0
 11
12.0
 21
94.0
 31
0.0
  0
LINE
  5
4F
330
1E
100
AcDbEntity
  8
0
100
AcDbLine
 10
12.0
 20
93.35259999999999
 30
0.0
 11
12.0
 21
91.4545
 31
0.0
  0
LINE
  5
50
330
1E
100
AcDbEntity
  8
0
100
AcDbLine
 10
12.0
 20
88.435
 30
0.0
 11
12.0
 21
84.50000000000001
 31
0.0
  0
LINE
  5
51
330
1E
100
AcDbEntity
  8
0
100
AcDbLine
 10
12.0
 20
88.435
 30
0.0
 11
12.0
 21
91.4545
 31
0.0
  0
LINE
  5
52
330
1E
100
AcDbEntity
  8
0
100
AcDbLine
 10
12.0
 20
94.0
 30
0.0
 11
12.396
 21
96.81600000000001
 31
0.0
  0
LINE
  5
53
330
1E
100
AcDbEntity
  8
0
100
AcDbLine
 10
12.0
 20
94.0
 30
0.0
 11
12.0
 21
93.35259999999999
 31
0.0
  0
LINE
  5
54
330
1E
100
AcDbEntity
  8
0
100
AcDbLine
 10
12.396
 20
96.81600000000001
 30
0.0
 11
13.452
 21
99.456
 31
0.0
  0
LINE
  5
55
330
1E
100
AcDbEntity
  8
0
100
AcDbLine
 10
12.0
 20
84.50000000000001
 30
0.0
 11
12.0
 21
79.91759999999999
 31
0.0
  0
LINE
  5
56
330
1E
100
AcDbEntity
  8
0
100
AcDbLine
 10
12.0
 20
84.50000000000001
 30
0.0
 11
12.0
 21
88.435
 31
0.0
  0
LINE
  5
57
330
1E
100
AcDbEntity
  8
0
100
AcDbLine
 10
12.0
 20
79.91759999999999
 30
0.0
 11
12.0
 21
70.15349999999999
 31
0.0
  0
LINE
  5
58
330
1E
100
AcDbEntity
  8
0
100
AcDbLine
 10
12.0
 20
79.91759999999999
 30
0.0
 11
12.0
 21
84.50000000000001
 31
0.0
  0
LINE
  5
59
330
1E
100
AcDbEntity
  8
0
100
AcDbLine
 10
12.396
 20
70.8823
 30
0.0
 11
13.452
 21
71.5656
 31
0.0
  0
LINE
  5
5A
330
1E
100
AcDbEntity
  8
0
100
AcDbLine
 10
12.0
 20
70.15349999999999
 30
0.0
 11
12.0
 21
79.91759999999999
 31
0.0
  0
LINE
  5
5B
330
1E
100
AcDbEntity
  8
0
100
AcDbLine
 10
12.0
 20
70.15349999999999
 30
0.0
 11
12.396
 21
70.8823
 31
0.0
  0
LINE
  5
5C
330
1E
100
AcDbEntity
  8
0
100
AcDbLine
 10
12.0
 20
70.15349999999999
 30
0.0
 11
12.396
 21
69.4246
 31
0.0
  0
LINE
  5
5D
330
1E
100
AcDbEntity
  8
0
100
AcDbLine
 10
13.36
 20
65.6272
 30
0.0
 11
13.6
 21
65.34780000000001
 31
0.0
  0
LINE
  5
5E
330
1E
100
AcDbEntity
  8
0
100
AcDbLine
 10
13.24
 20
66.0
 30
0.0
 11
13.6
 21
66.65219999999999
 31
0.0
  0
LINE
  5
5F
330
1E
100
AcDbEntity
  8
0
100
AcDbLine
 10
13.24
 20
66.0
 30
0.0
 11
13.6
 21
65.34780000000001
 31
0.0
  0
LINE
  5
60
330
1E
100
AcDbEntity
  8
0
100
AcDbLine
 10
12.66
 20
69.14629999999999
 30
0.0
 11
13.0
 21
68.9336068181818
 31
0.0
  0
LINE
  5
61
330
1E
100
AcDbEntity
  8
0
100
AcDbLine
 10
12.66
 20
70.5811
 30
0.0
 11
13.71599999999999
 21
71.24169999999999
 31
0.0
  0
LINE
  5
62
330
1E
100
AcDbEntity
  8
0
100
AcDbLine
 10
13.0
 20
69.86369999999999
 30
0.0
 11
13.0
 21
66.2898
 31
0.0
  0
LINE
  5
63
330
1E
100
AcDbEntity
  8
0
100
AcDbLine
 10
13.36
 20
66.9524
 30
0.0
 11
14.32
 21
67.57349999999999
 31
0.0
  0
LINE
  5
64
330
1E
100
AcDbEntity
  8
0
100
AcDbLine
 10
13.0
 20
66.2898
 30
0.0
 11
13.0
 21
69.86369999999999
 31
0.0
  0
LINE
  5
65
330
1E
100
AcDbEntity
  8
0
100
AcDbLine
 10
13.0
 20
66.2898
 30
0.0
 11
13.36
 21
66.9524
 31
0.0
  0
LINE
  5
66
330
1E
100
AcDbEntity
  8
0
100
AcDbLine
 10
13.0
 20
66.2898
 30
0.0
 11
13.36
 21
65.6272
 31
0.0
  0
LINE
  5
67
330
1E
100
AcDbEntity
  8
0
100
AcDbLine
 10
12.4
 20
4.99999999999999
 30
0.0
 11
15.5
 21
4.99999999999999
 31
0.0
  0
LINE
  5
68
330
1E
100
AcDbEntity
  8
0
100
AcDbLine
 10
10.0
 20
4.99999999999999
 30
0.0
 11
12.4
 21
4.99999999999999
 31
0.0
  0
LINE
  5
69
330
1E
100
AcDbEntity
  8
0
100
AcDbLine
 10
13.368
 20
114.0
 30
0.0
 11
16.224
 21
114.0
 31
0.0
  0
LINE
  5
6A
330
1E
100
AcDbEntity
  8
0
100
AcDbLine
 10
10.84799999999999
 20
114.8739999999999
 30
0.0
 11
13.08799999999999
 21
114.8739999999999
 31
0.0
  0
LINE
  5
6B
330
1E
100
AcDbEntity
  8
0
100
AcDbLine
 10
13.08799999999999
 20
114.8739999999999
 30
0.0
 11
16.05599999999999
 21
114.8739999999999
 31
0.0
  0
LINE
  5
6C
330
1E
100
AcDbEntity
  8
0
100
AcDbLine
 10
13.08799999999999
 20
114.126
 30
0.0
 11
16.05599999999999
 21
114.126
 31
0.0
  0
LINE
  5
6D
330
1E
100
AcDbEntity
  8
0
100
AcDbLine
 10
10.84799999999999
 20
114.126
 30
0.0
 11
13.08799999999999
 21
114.126
 31
0.0
  0
LINE
  5
6E
330
1E
100
AcDbEntity
  8
0
100
AcDbLine
 10
11.184
 20
114.0
 30
0.0
 11
13.368
 21
114.0
 31
0.0
  0
LINE
  5
6F
330
1E
100
AcDbEntity
  8
0
100
AcDbLine
 10
17.1
 20
-0.000000000000008
 30
0.0
 11
23.0
 21
-0.0000000000000081
 31
0.0
  0
LINE
  5
70
330
1E
100
AcDbEntity
  8
0
100
AcDbLine
 10
13.6
 20
65.34780000000001
 30
0.0
 11
14.56
 21
64.7473
 31
0.0
  0
LINE
  5
71
330
1E
100
AcDbEntity
  8
0
100
AcDbLine
 10
13.452
 20
99.456
 30
0.0
 11
15.212
 21
101.7879999999999
 31
0.0
  0
LINE
  5
72
330
1E
100
AcDbEntity
  8
0
100
AcDbLine
 10
13.71599999999999
 20
71.24169999999999
 30
0.0
 11
15.432
 21
71.8224
 31
0.0
  0
LINE
  5
73
330
1E
100
AcDbEntity
  8
0
100
AcDbLine
 10
13.452
 20
71.5656
 30
0.0
 11
15.212
 21
72.1692
 31
0.0
  0
LINE
  5
74
330
1E
100
AcDbEntity
  8
0
100
AcDbLine
 10
13.6
 20
66.65219999999999
 30
0.0
 11
14.56
 21
67.2527
 31
0.0
  0
LINE
  5
75
330
1E
100
AcDbEntity
  8
0
100
AcDbLine
 10
14.56
 20
64.7473
 30
0.0
 11
16.12
 21
64.2193
 31
0.0
  0
LINE
  5
76
330
1E
100
AcDbEntity
  8
0
100
AcDbLine
 10
16.12
 20
64.2193
 30
0.0
 11
18.16
 21
63.8156
 31
0.0
  0
LINE
  5
77
330
1E
100
AcDbEntity
  8
0
100
AcDbLine
 10
16.12
 20
67.78069999999999
 30
0.0
 11
18.16
 21
68.18439999999999
 31
0.0
  0
LINE
  5
78
330
1E
100
AcDbEntity
  8
0
100
AcDbLine
 10
14.56
 20
67.2527
 30
0.0
 11
16.12
 21
67.78069999999999
 31
0.0
  0
LINE
  5
79
330
1E
100
AcDbEntity
  8
0
100
AcDbLine
 10
15.212
 20
101.7879999999999
 30
0.0
 11
17.544
 21
103.5479999999999
 31
0.0
  0
LINE
  5
7A
330
1E
100
AcDbEntity
  8
0
100
AcDbLine
 10
15.432
 20
71.8224
 30
0.0
 11
17.67599999999999
 21
72.26659999999999
 31
0.0
  0
LINE
  5
7B
330
1E
100
AcDbEntity
  8
0
100
AcDbLine
 10
15.212
 20
72.1692
 30
0.0
 11
17.544
 21
72.6247
 31
0.0
  0
LINE
  5
7C
330
1E
100
AcDbEntity
  8
0
100
AcDbLine
 10
15.92
 20
68.1222
 30
0.0
 11
18.04
 21
68.53629999999999
 31
0.0
  0
LINE
  5
7D
330
1E
100
AcDbEntity
  8
0
100
AcDbLine
 10
14.32
 20
67.57349999999999
 30
0.0
 11
15.92
 21
68.1222
 31
0.0
  0
LINE
  5
7E
330
1E
100
AcDbEntity
  8
0
100
AcDbLine
 10
15.5
 20
4.99999999999999
 30
0.0
 11
19.1
 21
4.99999999999999
 31
0.0
  0
LINE
  5
7F
330
1E
100
AcDbEntity
  8
0
100
AcDbLine
 10
17.67599999999999
 20
72.26659999999999
 30
0.0
 11
20.22799999999999
 21
72.5399
 31
0.0
  0
LINE
  5
80
330
1E
100
AcDbEntity
  8
0
100
AcDbLine
 10
17.544
 20
103.5479999999999
 30
0.0
 11
20.184
 21
104.604
 31
0.0
  0
LINE
  5
81
330
1E
100
AcDbEntity
  8
0
100
AcDbLine
 10
17.544
 20
72.6247
 30
0.0
 11
20.184
 21
72.89799999999999
 31
0.0
  0
LINE
  5
82
330
1E
100
AcDbEntity
  8
0
100
AcDbLine
 10
18.16
 20
63.8156
 30
0.0
 11
20.48
 21
63.5671
 31
0.0
  0
LINE
  5
83
330
1E
100
AcDbEntity
  8
0
100
AcDbLine
 10
18.16
 20
68.18439999999999
 30
0.0
 11
20.48
 21
68.4329
 31
0.0
  0
LINE
  5
84
330
1E
100
AcDbEntity
  8
0
100
AcDbLine
 10
18.04
 20
68.53629999999999
 30
0.0
 11
20.44
 21
68.7848
 31
0.0
  0
LINE
  5
85
330
1E
100
AcDbEntity
  8
0
100
AcDbLine
 10
19.1
 20
4.99999999999999
 30
0.0
 11
23.0
 21
4.99999999999999
 31
0.0
  0
LINE
  5
86
330
1E
100
AcDbEntity
  8
0
100
AcDbLine
 10
17.1
 20
3.99999999999999
 30
0.0
 11
23.0
 21
3.99999999999999
 31
0.0
  0
LINE
  5
87
330
1E
100
AcDbEntity
  8
0
100
AcDbLine
 10
17.1
 20
-0.0000000000000053
 30
0.0
 11
23.0
 21
-0.0000000000000053
 31
0.0
  0
LINE
  5
88
330
1E
100
AcDbEntity
  8
0
100
AcDbLine
 10
19.472
 20
114.0
 30
0.0
 11
23.0
 21
114.0
 31
0.0
  0
LINE
  5
89
330
1E
100
AcDbEntity
  8
0
100
AcDbLine
 10
16.05599999999999
 20
114.8739999999999
 30
0.0
 11
19.416
 21
114.8739999999999
 31
0.0
  0
LINE
  5
8A
330
1E
100
AcDbEntity
  8
0
100
AcDbLine
 10
19.416
 20
114.8739999999999
 30
0.0
 11
23.0
 21
114.8739999999999
 31
0.0
  0
LINE
  5
8B
330
1E
100
AcDbEntity
  8
0
100
AcDbLine
 10
19.416
 20
114.126
 30
0.0
 11
23.0
 21
114.126
 31
0.0
  0
LINE
  5
8C
330
1E
100
AcDbEntity
  8
0
100
AcDbLine
 10
16.05599999999999
 20
114.126
 30
0.0
 11
19.416
 21
114.126
 31
0.0
  0
LINE
  5
8D
330
1E
100
AcDbEntity
  8
0
100
AcDbLine
 10
16.224
 20
114.0
 30
0.0
 11
19.472
 21
114.0
 31
0.0
  0
LINE
  5
8E
330
1E
100
AcDbEntity
  8
0
100
AcDbLine
 10
23.0
 20
-0.0000000000000053
 30
0.0
 11
28.9
 21
-0.0000000000000053
 31
0.0
  0
LINE
  5
8F
330
1E
100
AcDbEntity
  8
0
100
AcDbLine
 10
20.22799999999999
 20
72.5399
 30
0.0
 11
23.0
 21
72.6424
 31
0.0
  0
LINE
  5
90
330
1E
100
AcDbEntity
  8
0
100
AcDbLine
 10
20.184
 20
104.604
 30
0.0
 11
23.0
 21
105.0
 31
0.0
  0
LINE
  5
91
330
1E
100
AcDbEntity
  8
0
100
AcDbLine
 10
20.184
 20
72.89799999999999
 30
0.0
 11
23.0
 21
73.0005
 31
0.0
  0
LINE
  5
92
330
1E
100
AcDbEntity
  8
0
100
AcDbLine
 10
23.0
 20
63.4739
 30
0.0
 11
25.52
 21
63.5671
 31
0.0
  0
LINE
  5
93
330
1E
100
AcDbEntity
  8
0
100
AcDbLine
 10
20.48
 20
63.5671
 30
0.0
 11
23.0
 21
63.4739
 31
0.0
  0
LINE
  5
94
330
1E
100
AcDbEntity
  8
0
100
AcDbLine
 10
23.0
 20
68.5261
 30
0.0
 11
25.52
 21
68.4329
 31
0.0
  0
LINE
  5
95
330
1E
100
AcDbEntity
  8
0
100
AcDbLine
 10
23.0
 20
68.878
 30
0.0
 11
25.56
 21
68.7848
 31
0.0
  0
LINE
  5
96
330
1E
100
AcDbEntity
  8
0
100
AcDbLine
 10
23.0
 20
105.0
 30
0.0
 11
25.81599999999999
 21
104.604
 31
0.0
  0
LINE
  5
97
330
1E
100
AcDbEntity
  8
0
100
AcDbLine
 10
23.0
 20
72.6424
 30
0.0
 11
25.77199999999999
 21
72.5399
 31
0.0
  0
LINE
  5
98
330
1E
100
AcDbEntity
  8
0
100
AcDbLine
 10
23.0
 20
73.0005
 30
0.0
 11
25.81599999999999
 21
72.89799999999999
 31
0.0
  0
LINE
  5
99
330
1E
100
AcDbEntity
  8
0
100
AcDbLine
 10
20.48
 20
68.4329
 30
0.0
 11
23.0
 21
68.5261
 31
0.0
  0
LINE
  5
9A
330
1E
100
AcDbEntity
  8
0
100
AcDbLine
 10
20.44
 20
68.7848
 30
0.0
 11
23.0
 21
68.878
 31
0.0
  0
LINE
  5
9B
330
1E
100
AcDbEntity
  8
0
100
AcDbLine
 10
23.0
 20
4.99999999999999
 30
0.0
 11
26.89999999999999
 21
4.99999999999999
 31
0.0
  0
LINE
  5
9C
330
1E
100
AcDbEntity
  8
0
100
AcDbLine
 10
23.0
 20
3.99999999999999
 30
0.0
 11
28.9
 21
3.99999999999999
 31
0.0
  0
LINE
  5
9D
330
1E
100
AcDbEntity
  8
0
100
AcDbLine
 10
25.52
 20
63.5671
 30
0.0
 11
27.84
 21
63.8156
 31
0.0
  0
LINE
  5
9E
330
1E
100
AcDbEntity
  8
0
100
AcDbLine
 10
25.52
 20
68.4329
 30
0.0
 11
27.84
 21
68.18439999999999
 31
0.0
  0
LINE
  5
9F
330
1E
100
AcDbEntity
  8
0
100
AcDbLine
 10
25.56
 20
68.7848
 30
0.0
 11
27.96
 21
68.53629999999999
 31
0.0
  0
LINE
  5
A0
330
1E
100
AcDbEntity
  8
0
100
AcDbLine
 10
25.77199999999999
 20
72.5399
 30
0.0
 11
28.324
 21
72.26659999999999
 31
0.0
  0
LINE
  5
A1
330
1E
100
AcDbEntity
  8
0
100
AcDbLine
 10
25.81599999999999
 20
104.604
 30
0.0
 11
28.456
 21
103.5479999999999
 31
0.0
  0
LINE
  5
A2
330
1E
100
AcDbEntity
  8
0
100
AcDbLine
 10
25.81599999999999
 20
72.89799999999999
 30
0.0
 11
28.456
 21
72.6247
 31
0.0
  0
LINE
  5
A3
330
1E
100
AcDbEntity
  8
0
100
AcDbLine
 10
23.0
 20
-0.0000000000000081
 30
0.0
 11
28.9
 21
-0.000000000000008
 31
0.0
  0
LINE
  5
A4
330
1E
100
AcDbEntity
  8
0
100
AcDbLine
 10
23.0
 20
114.8739999999999
 30
0.0
 11
26.584
 21
114.8739999999999
 31
0.0
  0
LINE
  5
A5
330
1E
100
AcDbEntity
  8
0
100
AcDbLine
 10
23.0
 20
114.126
 30
0.0
 11
26.584
 21
114.126
 31
0.0
  0
LINE
  5
A6
330
1E
100
AcDbEntity
  8
0
100
AcDbLine
 10
23.0
 20
114.0
 30
0.0
 11
26.528
 21
114.0
 31
0.0
  0
LINE
  5
A7
330
1E
100
AcDbEntity
  8
0
100
AcDbLine
 10
26.528
 20
114.0
 30
0.0
 11
29.776
 21
114.0
 31
0.0
  0
LINE
  5
A8
330
1E
100
AcDbEntity
  8
0
100
AcDbLine
 10
23.0
 20
115.0
 30
0.0
 11
26.528
 21
115.0
 31
0.0
  0
LINE
  5
A9
330
1E
100
AcDbEntity
  8
0
100
AcDbLine
 10
27.84
 20
63.8156
 30
0.0
 11
29.87999999999999
 21
64.2193
 31
0.0
  0
LINE
  5
AA
330
1E
100
AcDbEntity
  8
0
100
AcDbLine
 10
27.84
 20
68.18439999999999
 30
0.0
 11
29.87999999999999
 21
67.78069999999999
 31
0.0
  0
LINE
  5
AB
330
1E
100
AcDbEntity
  8
0
100
AcDbLine
 10
27.96
 20
68.53629999999999
 30
0.0
 11
30.08
 21
68.1222
 31
0.0
  0
LINE
  5
AC
330
1E
100
AcDbEntity
  8
0
100
AcDbLine
 10
28.456
 20
103.5479999999999
 30
0.0
 11
30.788
 21
101.7879999999999
 31
0.0
  0
LINE
  5
AD
330
1E
100
AcDbEntity
  8
0
100
AcDbLine
 10
28.324
 20
72.26659999999999
 30
0.0
 11
30.568
 21
71.8224
 31
0.0
  0
LINE
  5
AE
330
1E
100
AcDbEntity
  8
0
100
AcDbLine
 10
28.456
 20
72.6247
 30
0.0
 11
30.788
 21
72.1692
 31
0.0
  0
LINE
  5
AF
330
1E
100
AcDbEntity
  8
0
100
AcDbLine
 10
26.89999999999999
 20
4.99999999999999
 30
0.0
 11
30.5
 21
4.99999999999999
 31
0.0
  0
LINE
  5
B0
330
1E
100
AcDbEntity
  8
0
100
AcDbLine
 10
28.9
 20
3.99999999999999
 30
0.0
 11
34.39999999999999
 21
3.99999999999999
 31
0.0
  0
LINE
  5
B1
330
1E
100
AcDbEntity
  8
0
100
AcDbLine
 10
28.9
 20
-0.0000000000000053
 30
0.0
 11
34.39999999999999
 21
-0.0000000000000054
 31
0.0
  0
LINE
  5
B2
330
1E
100
AcDbEntity
  8
0
100
AcDbLine
 10
28.9
 20
-0.000000000000008
 30
0.0
 11
34.39999999999999
 21
-0.0000000000000079
 31
0.0
  0
LINE
  5
B3
330
1E
100
AcDbEntity
  8
0
100
AcDbLine
 10
29.87999999999999
 20
64.2193
 30
0.0
 11
31.44
 21
64.7473
 31
0.0
  0
LINE
  5
B4
330
1E
100
AcDbEntity
  8
0
100
AcDbLine
 10
31.44
 20
64.7473
 30
0.0
 11
32.4
 21
65.34780000000001
 31
0.0
  0
LINE
  5
B5
330
1E
100
AcDbEntity
  8
0
100
AcDbLine
 10
29.87999999999999
 20
67.78069999999999
 30
0.0
 11
31.44
 21
67.2527
 31
0.0
  0
LINE
  5
B6
330
1E
100
AcDbEntity
  8
0
100
AcDbLine
 10
31.44
 20
67.2527
 30
0.0
 11
32.4
 21
66.65219999999999
 31
0.0
  0
LINE
  5
B7
330
1E
100
AcDbEntity
  8
0
100
AcDbLine
 10
30.08
 20
68.1222
 30
0.0
 11
31.68
 21
67.57349999999999
 31
0.0
  0
LINE
  5
B8
330
1E
100
AcDbEntity
  8
0
100
AcDbLine
 10
31.68
 20
67.57349999999999
 30
0.0
 11
32.64
 21
66.9524
 31
0.0
  0
LINE
  5
B9
330
1E
100
AcDbEntity
  8
0
100
AcDbLine
 10
30.568
 20
71.8224
 30
0.0
 11
32.284
 21
71.24169999999999
 31
0.0
  0
LINE
  5
BA
330
1E
100
AcDbEntity
  8
0
100
AcDbLine
 10
32.4
 20
65.34780000000001
 30
0.0
 11
32.75999999999999
 21
66.0
 31
0.0
  0
LINE
  5
BB
330
1E
100
AcDbEntity
  8
0
100
AcDbLine
 10
32.4
 20
65.34780000000001
 30
0.0
 11
32.64
 21
65.6272
 31
0.0
  0
LINE
  5
BC
330
1E
100
AcDbEntity
  8
0
100
AcDbLine
 10
32.4
 20
66.65219999999999
 30
0.0
 11
32.75999999999999
 21
66.0
 31
0.0
  0
LINE
  5
BD
330
1E
100
AcDbEntity
  8
0
100
AcDbLine
 10
32.284
 20
71.24169999999999
 30
0.0
 11
33.34
 21
70.5811
 31
0.0
  0
LINE
  5
BE
330
1E
100
AcDbEntity
  8
0
100
AcDbLine
 10
30.788
 20
101.7879999999999
 30
0.0
 11
32.548
 21
99.456
 31
0.0
  0
LINE
  5
BF
330
1E
100
AcDbEntity
  8
0
100
AcDbLine
 10
32.548
 20
99.456
 30
0.0
 11
33.604
 21
96.81600000000001
 31
0.0
  0
LINE
  5
C0
330
1E
100
AcDbEntity
  8
0
100
AcDbLine
 10
30.788
 20
72.1692
 30
0.0
 11
32.548
 21
71.5656
 31
0.0
  0
LINE
  5
C1
330
1E
100
AcDbEntity
  8
0
100
AcDbLine
 10
32.548
 20
71.5656
 30
0.0
 11
33.604
 21
70.8823
 31
0.0
  0
LINE
  5
C2
330
1E
100
AcDbEntity
  8
0
100
AcDbLine
 10
30.5
 20
4.99999999999999
 30
0.0
 11
33.6
 21
4.99999999999999
 31
0.0
  0
LINE
  5
C3
330
1E
100
AcDbEntity
  8
0
100
AcDbLine
 10
29.776
 20
114.0
 30
0.0
 11
32.63199999999999
 21
114.0
 31
0.0
  0
LINE
  5
C4
330
1E
100
AcDbEntity
  8
0
100
AcDbLine
 10
26.584
 20
114.8739999999999
 30
0.0
 11
29.944
 21
114.8739999999999
 31
0.0
  0
LINE
  5
C5
330
1E
100
AcDbEntity
  8
0
100
AcDbLine
 10
26.584
 20
114.126
 30
0.0
 11
29.944
 21
114.126
 31
0.0
  0
LINE
  5
C6
330
1E
100
AcDbEntity
  8
0
100
AcDbLine
 10
29.944
 20
114.8739999999999
 30
0.0
 11
32.91199999999999
 21
114.8739999999999
 31
0.0
  0
LINE
  5
C7
330
1E
100
AcDbEntity
  8
0
100
AcDbLine
 10
29.944
 20
114.126
 30
0.0
 11
32.91199999999999
 21
114.126
 31
0.0
  0
LINE
  5
C8
330
1E
100
AcDbEntity
  8
0
100
AcDbLine
 10
32.63199999999999
 20
114.0
 30
0.0
 11
34.816
 21
114.0
 31
0.0
  0
LINE
  5
C9
330
1E
100
AcDbEntity
  8
0
100
AcDbLine
 10
26.528
 20
115.0
 30
0.0
 11
29.776
 21
115.0
 31
0.0
  0
LINE
  5
CA
330
1E
100
AcDbEntity
  8
0
100
AcDbLine
 10
29.776
 20
115.0
 30
0.0
 11
32.63199999999999
 21
115.0
 31
0.0
  0
LINE
  5
CB
330
1E
100
AcDbEntity
  8
0
100
AcDbLine
 10
33.0
 20
66.2898
 30
0.0
 11
33.0
 21
69.86369999999999
 31
0.0
  0
LINE
  5
CC
330
1E
100
AcDbEntity
  8
0
100
AcDbLine
 10
32.64
 20
65.6272
 30
0.0
 11
33.0
 21
66.2898
 31
0.0
  0
LINE
  5
CD
330
1E
100
AcDbEntity
  8
0
100
AcDbLine
 10
32.64
 20
66.9524
 30
0.0
 11
33.0
 21
66.2898
 31
0.0
  0
LINE
  5
CE
330
1E
100
AcDbEntity
  8
0
100
AcDbLine
 10
33.0
 20
68.9336068181818
 30
0.0
 11
33.34
 21
69.14629999999999
 31
0.0
  0
LINE
  5
CF
330
1E
100
AcDbEntity
  8
0
100
AcDbLine
 10
33.0
 20
69.86369999999999
 30
0.0
 11
33.0
 21
66.2898
 31
0.0
  0
LINE
  5
D0
330
1E
100
AcDbEntity
  8
0
100
AcDbLine
 10
33.34
 20
69.14629999999999
 30
0.0
 11
33.73599999999999
 21
69.86369999999999
 31
0.0
  0
LINE
  5
D1
330
1E
100
AcDbEntity
  8
0
100
AcDbLine
 10
33.34
 20
69.14629999999999
 30
0.0
 11
33.604
 21
69.4246
 31
0.0
  0
LINE
  5
D2
330
1E
100
AcDbEntity
  8
0
100
AcDbLine
 10
33.604
 20
69.4246
 30
0.0
 11
34.0
 21
70.15349999999999
 31
0.0
  0
LINE
  5
D3
330
1E
100
AcDbEntity
  8
0
100
AcDbLine
 10
33.604
 20
96.81600000000001
 30
0.0
 11
34.0
 21
94.0
 31
0.0
  0
LINE
  5
D4
330
1E
100
AcDbEntity
  8
0
100
AcDbLine
 10
33.34
 20
70.5811
 30
0.0
 11
33.73599999999999
 21
69.86369999999999
 31
0.0
  0
LINE
  5
D5
330
1E
100
AcDbEntity
  8
0
100
AcDbLine
 10
34.0
 20
70.15349999999999
 30
0.0
 11
34.0
 21
79.91759999999999
 31
0.0
  0
LINE
  5
D6
330
1E
100
AcDbEntity
  8
0
100
AcDbLine
 10
34.0
 20
91.4545
 30
0.0
 11
34.0
 21
88.435
 31
0.0
  0
LINE
  5
D7
330
1E
100
AcDbEntity
  8
0
100
AcDbLine
 10
34.0
 20
91.4545
 30
0.0
 11
34.0
 21
93.35259999999999
 31
0.0
  0
LINE
  5
D8
330
1E
100
AcDbEntity
  8
0
100
AcDbLine
 10
34.0
 20
88.435
 30
0.0
 11
34.0
 21
84.50000000000001
 31
0.0
  0
LINE
  5
D9
330
1E
100
AcDbEntity
  8
0
100
AcDbLine
 10
34.0
 20
88.435
 30
0.0
 11
34.0
 21
91.4545
 31
0.0
  0
LINE
  5
DA
330
1E
100
AcDbEntity
  8
0
100
AcDbLine
 10
34.0
 20
93.35259999999999
 30
0.0
 11
34.0
 21
94.0
 31
0.0
  0
LINE
  5
DB
330
1E
100
AcDbEntity
  8
0
100
AcDbLine
 10
34.0
 20
93.35259999999999
 30
0.0
 11
34.0
 21
91.4545
 31
0.0
  0
LINE
  5
DC
330
1E
100
AcDbEntity
  8
0
100
AcDbLine
 10
34.0
 20
94.0
 30
0.0
 11
34.0
 21
93.35259999999999
 31
0.0
  0
LINE
  5
DD
330
1E
100
AcDbEntity
  8
0
100
AcDbLine
 10
34.0
 20
84.50000000000001
 30
0.0
 11
34.0
 21
79.91759999999999
 31
0.0
  0
LINE
  5
DE
330
1E
100
AcDbEntity
  8
0
100
AcDbLine
 10
34.0
 20
84.50000000000001
 30
0.0
 11
34.0
 21
88.435
 31
0.0
  0
LINE
  5
DF
330
1E
100
AcDbEntity
  8
0
100
AcDbLine
 10
34.0
 20
79.91759999999999
 30
0.0
 11
34.0
 21
70.15349999999999
 31
0.0
  0
LINE
  5
E0
330
1E
100
AcDbEntity
  8
0
100
AcDbLine
 10
34.0
 20
79.91759999999999
 30
0.0
 11
34.0
 21
84.50000000000001
 31
0.0
  0
LINE
  5
E1
330
1E
100
AcDbEntity
  8
0
100
AcDbLine
 10
33.604
 20
70.8823
 30
0.0
 11
34.0
 21
70.15349999999999
 31
0.0
  0
LINE
  5
E2
330
1E
100
AcDbEntity
  8
0
100
AcDbLine
 10
33.6
 20
4.99999999999999
 30
0.0
 11
36.0
 21
4.99999999999999
 31
0.0
  0
LINE
  5
E3
330
1E
100
AcDbEntity
  8
0
100
AcDbLine
 10
34.39999999999999
 20
3.99999999999999
 30
0.0
 11
39.2
 21
3.99999999999999
 31
0.0
  0
LINE
  5
E4
330
1E
100
AcDbEntity
  8
0
100
AcDbLine
 10
34.39999999999999
 20
-0.0000000000000054
 30
0.0
 11
39.2
 21
-0.0000000000000057
 31
0.0
  0
LINE
  5
E5
330
1E
100
AcDbEntity
  8
0
100
AcDbLine
 10
34.39999999999999
 20
-0.0000000000000079
 30
0.0
 11
39.2
 21
-0.0000000000000077
 31
0.0
  0
LINE
  5
E6
330
1E
100
AcDbEntity
  8
0
100
AcDbLine
 10
36.0
 20
4.99999999999999
 30
0.0
 11
37.5
 21
4.99999999999999
 31
0.0
  0
LINE
  5
E7
330
1E
100
AcDbEntity
  8
0
100
AcDbLine
 10
34.816
 20
114.0
 30
0.0
 11
36.15999999999999
 21
114.0
 31
0.0
  0
LINE
  5
E8
330
1E
100
AcDbEntity
  8
0
100
AcDbLine
 10
32.91199999999999
 20
114.8739999999999
 30
0.0
 11
35.152
 21
114.8739999999999
 31
0.0
  0
LINE
  5
E9
330
1E
100
AcDbEntity
  8
0
100
AcDbLine
 10
32.91199999999999
 20
114.126
 30
0.0
 11
35.152
 21
114.126
 31
0.0
  0
LINE
  5
EA
330
1E
100
AcDbEntity
  8
0
100
AcDbLine
 10
35.152
 20
114.8739999999999
 30
0.0
 11
36.496
 21
114.8739999999999
 31
0.0
  0
LINE
  5
EB
330
1E
100
AcDbEntity
  8
0
100
AcDbLine
 10
35.152
 20
114.126
 30
0.0
 11
36.496
 21
114.126
 31
0.0
  0
LINE
  5
EC
330
1E
100
AcDbEntity
  8
0
100
AcDbLine
 10
36.15999999999999
 20
114.0
 30
0.0
 11
36.664
 21
114.0
 31
0.0
  0
LINE
  5
ED
330
1E
100
AcDbEntity
  8
0
100
AcDbLine
 10
32.63199999999999
 20
115.0
 30
0.0
 11
34.816
 21
115.0
 31
0.0
  0
LINE
  5
EE
330
1E
100
AcDbEntity
  8
0
100
AcDbLine
 10
34.816
 20
115.0
 30
0.0
 11
36.15999999999999
 21
115.0
 31
0.0
  0
LINE
  5
EF
330
1E
100
AcDbEntity
  8
0
100
AcDbLine
 10
39.2
 20
-0.0000000000000077
 30
0.0
 11
42.9
 21
-0.0000000000000074
 31
0.0
  0
LINE
  5
F0
330
1E
100
AcDbEntity
  8
0
100
AcDbLine
 10
42.9
 20
-0.0000000000000074
 30
0.0
 11
45.2
 21
-0.000000000000007
 31
0.0
  0
LINE
  5
F1
330
1E
100
AcDbEntity
  8
0
100
AcDbLine
 10
39.2
 20
-0.0000000000000057
 30
0.0
 11
42.9
 21
-0.000000000000006
 31
0.0
  0
LINE
  5
F2
330
1E
100
AcDbEntity
  8
0
100
AcDbLine
 10
46.0
 20
-0.0000000000000067
 30
0.0
 11
46.0
 21
3.99999999999999
 31
0.0
  0
LINE
  5
F3
330
1E
100
AcDbEntity
  8
0
100
AcDbLine
 10
42.9
 20
-0.000000000000006
 30
0.0
 11
45.2
 21
-0.0000000000000063
 31
0.0
  0
LINE
  5
F4
330
1E
100
AcDbEntity
  8
0
100
AcDbLine
 10
45.2
 20
-0.0000000000000063
 30
0.0
 11
46.0
 21
-0.0000000000000067
 31
0.0
  0
LINE
  5
F5
330
1E
100
AcDbEntity
  8
0
100
AcDbLine
 10
37.5
 20
4.99999999999999
 30
0.0
 11
38.0
 21
4.99999999999999
 31
0.0
  0
LINE
  5
F6
330
1E
100
AcDbEntity
  8
0
100
AcDbLine
 10
39.2
 20
3.99999999999999
 30
0.0
 11
42.9
 21
3.99999999999999
 31
0.0
  0
LINE
  5
F7
330
1E
100
AcDbEntity
  8
0
100
AcDbLine
 10
42.9
 20
3.99999999999999
 30
0.0
 11
45.2
 21
3.99999999999999
 31
0.0
  0
LINE
  5
F8
330
1E
100
AcDbEntity
  8
0
100
AcDbLine
 10
45.2
 20
3.99999999999999
 30
0.0
 11
46.0
 21
3.99999999999999
 31
0.0
  0
LINE
  5
F9
330
1E
100
AcDbEntity
  8
0
100
AcDbLine
 10
38.0
 20
4.99999999999999
 30
0.0
 11
40.0
 21
3.99999999999999
 31
0.0
  0
LINE
  5
FA
330
1E
100
AcDbEntity
  8
0
100
AcDbLine
 10
46.0
 20
3.99999999999999
 30
0.0
 11
46.0
 21
-0.0000000000000065
 31
0.0
  0
LINE
  5
FB
330
1E
100
AcDbEntity
  8
0
100
AcDbLine
 10
45.2
 20
-0.000000000000007
 30
0.0
 11
46.0
 21
-0.0000000000000067
 31
0.0
  0
LINE
  5
FC
330
1E
100
AcDbEntity
  8
0
100
AcDbLine
 10
37.0
 20
6.99999999999999
 30
0.0
 11
37.0
 21
113.4229999999999
 31
0.0
  0
LINE
  5
FD
330
1E
100
AcDbEntity
  8
0
100
AcDbLine
 10
37.0
 20
6.99999999999999
 30
0.0
 11
38.0
 21
4.99999999999999
 31
0.0
  0
LINE
  5
FE
330
1E
100
AcDbEntity
  8
0
100
AcDbLine
 10
36.496
 20
114.8739999999999
 30
0.0
 11
37.0
 21
114.8739999999999
 31
0.0
  0
LINE
  5
FF
330
1E
100
AcDbEntity
  8
0
100
AcDbLine
 10
36.496
 20
114.126
 30
0.0
 11
37.0
 21
114.126
 31
0.0
  0
LINE
  5
100
330
1E
100
AcDbEntity
  8
0
100
AcDbLine
 10
37.0
 20
114.126
 30
0.0
 11
37.0
 21
114.8739999999999
 31
0.0
  0
LINE
  5
101
330
1E
100
AcDbEntity
  8
0
100
AcDbLine
 10
37.0
 20
114.8739999999999
 30
0.0
 11
37.0
 21
114.126
 31
0.0
  0
LINE
  5
102
330
1E
100
AcDbEntity
  8
0
100
AcDbLine
 10
36.664
 20
114.0
 30
0.0
 11
37.0
 21
113.4229999999999
 31
0.0
  0
LINE
  5
103
330
1E
100
AcDbEntity
  8
0
100
AcDbLine
 10
36.664
 20
114.0
 30
0.0
 11
37.0
 21
114.126
 31
0.0
  0
LINE
  5
104
330
1E
100
AcDbEntity
  8
0
100
AcDbLine
 10
37.0
 20
113.4229999999999
 30
0.0
 11
37.0
 21
7.0
 31
0.0
  0
LINE
  5
105
330
1E
100
AcDbEntity
  8
0
100
AcDbLine
 10
36.15999999999999
 20
115.0
 30
0.0
 11
36.664
 21
115.0
 31
0.0
  0
LINE
  5
106
330
1E
100
AcDbEntity
  8
0
100
AcDbLine
 10
36.664
 20
115.0
 30
0.0
 11
37.0
 21
115.577
 31
0.0
  0
LINE
  5
107
330
1E
100
AcDbEntity
  8
0
100
AcDbLine
 10
36.664
 20
115.0
 30
0.0
 11
37.0
 21
114.8739999999999
 31
0.0
  0
LINE
  5
108
330
1E
100
AcDbEntity
  8
0
100
AcDbLine
 10
19.472
 20
115.0
 30
0.0
 11
23.0
 21
115.0
 31
0.0
  0
LINE
  5
109
330
1E
100
AcDbEntity
  8
0
100
AcDbLine
 10
16.224
 20
115.0
 30
0.0
 11
19.472
 21
115.0
 31
0.0
  0
LINE
  5
10A
330
1E
100
AcDbEntity
  8
0
100
AcDbLine
 10
13.368
 20
115.0
 30
0.0
 11
16.224
 21
115.0
 31
0.0
  0
LINE
  5
10B
330
1E
100
AcDbEntity
  8
0
100
AcDbLine
 10
11.184
 20
115.0
 30
0.0
 11
13.368
 21
115.0
 31
0.0
  0
LINE
  5
10C
330
1E
100
AcDbEntity
  8
0
100
AcDbLine
 10
9.839999999999999
 20
115.0
 30
0.0
 11
11.184
 21
115.0
 31
0.0
  0
LINE
  5
10D
330
1E
100
AcDbEntity
  8
0
100
AcDbLine
 10
23.0
 20
155.0
 30
0.0
 11
26.528
 21
155.0
 31
0.0
  0
LINE
  5
10E
330
1E
100
AcDbEntity
  8
0
100
AcDbLine
 10
26.528
 20
155.0
 30
0.0
 11
29.776
 21
155.0
 31
0.0
  0
LINE
  5
10F
330
1E
100
AcDbEntity
  8
0
100
AcDbLine
 10
29.776
 20
155.0
 30
0.0
 11
32.63199999999999
 21
155.0
 31
0.0
  0
LINE
  5
110
330
1E
100
AcDbEntity
  8
0
100
AcDbLine
 10
32.63199999999999
 20
155.0
 30
0.0
 11
34.816
 21
155.0
 31
0.0
  0
LINE
  5
111
330
1E
100
AcDbEntity
  8
0
100
AcDbLine
 10
34.816
 20
155.0
 30
0.0
 11
36.15999999999999
 21
155.0
 31
0.0
  0
LINE
  5
112
330
1E
100
AcDbEntity
  8
0
100
AcDbLine
 10
36.15999999999999
 20
155.0
 30
0.0
 11
36.664
 21
155.0
 31
0.0
  0
LINE
  5
113
330
1E
100
AcDbEntity
  8
0
100
AcDbLine
 10
37.0
 20
154.4229999999999
 30
0.0
 11
37.0
 21
115.577
 31
0.0
  0
LINE
  5
114
330
1E
100
AcDbEntity
  8
0
100
AcDbLine
 10
36.664
 20
155.0
 30
0.0
 11
37.0
 21
154.4229999999999
 31
0.0
  0
LINE
  5
115
330
1E
100
AcDbEntity
  8
0
100
AcDbLine
 10
37.0
 20
115.577
 30
0.0
 11
37.0
 21
154.4229999999999
 31
0.0
  0
LINE
  5
116
330
1E
100
AcDbEntity
  8
0
100
AcDbLine
 10
19.472
 20
155.0
 30
0.0
 11
23.0
 21
155.0
 31
0.0
  0
LINE
  5
117
330
1E
100
AcDbEntity
  8
0
100
AcDbLine
 10
16.224
 20
155.0
 30
0.0
 11
19.472
 21
155.0
 31
0.0
  0
LINE
  5
118
330
1E
100
AcDbEntity
  8
0
100
AcDbLine
 10
13.368
 20
155.0
 30
0.0
 11
16.224
 21
155.0
 31
0.0
  0
LINE
  5
119
330
1E
100
AcDbEntity
  8
0
100
AcDbLine
 10
11.184
 20
155.0
 30
0.0
 11
13.368
 21
155.0
 31
0.0
  0
LINE
  5
11A
330
1E
100
AcDbEntity
  8
0
100
AcDbLine
 10
9.839999999999999
 20
155.0
 30
0.0
 11
11.184
 21
155.0
 31
0.0
  0
LINE
  5
11B
330
1E
100
AcDbEntity
  8
0
100
AcDbLine
 10
9.336
 20
155.0
 30
0.0
 11
9.839999999999999
 21
155.0
 31
0.0
  0
LINE
  5
11C
330
1E
100
AcDbEntity
  8
0
100
AcDbLine
 10
9.336
 20
115.0
 30
0.0
 11
9.839999999999999
 21
115.0
 31
0.0
  0
LINE
  5
11D
330
1E
100
AcDbEntity
  8
0
100
AcDbLine
 10
9.0
 20
115.577
 30
0.0
 11
9.336
 21
115.0
 31
0.0
  0
LINE
  5
11E
330
1E
100
AcDbEntity
  8
0
100
AcDbLine
 10
9.0
 20
115.577
 30
0.0
 11
9.0
 21
154.4229999999999
 31
0.0
  0
ENDSEC
  0
SECTION
  2
OBJECTS
  0
DICTIONARY
  5
C
330
0
100
AcDbDictionary
  3
ACAD_GROUP
350
D
  3
ACAD_LAYOUT
350
19
  3
ACAD_MLINESTYLE
350
16
  3
ACAD_PLOTSETTINGS
350
18
  3
ACAD_PLOTSTYLENAME
350
E
  3
ACDBHEADERROUNDTRIPXREC
350
126
  3
ACDBVARIABLEDICTIONARY
350
123
  0
DICTIONARY
  5
148
330
1E
100
AcDbDictionary
280
     1
  3
ACAD_LAYOUTSELFREF
360
149
  0
DICTIONARY
  5
146
330
1A
100
AcDbDictionary
280
     1
  3
ACAD_LAYOUTSELFREF
360
147
  0
DICTIONARY
  5
D
102
{ACAD_REACTORS
330
C
102
}
330
C
100
AcDbDictionary
  0
DICTIONARY
  5
19
102
{ACAD_REACTORS
330
C
102
}
330
C
100
AcDbDictionary
  0
DICTIONARY
  5
16
102
{ACAD_REACTORS
330
C
102
}
330
C
100
AcDbDictionary
  3
STANDARD
350
17
  0
DICTIONARY
  5
18
102
{ACAD_REACTORS
330
C
102
}
330
C
100
AcDbDictionary
  0
ACDBDICTIONARYWDFLT
  5
E
102
{ACAD_REACTORS
330
C
102
}
330
C
100
AcDbDictionary
281
     1
  3
Normal
350
F
100
AcDbDictionaryWithDefault
340
F
  0
DICTIONARY
  5
126
102
{ACAD_REACTORS
330
C
102
}
330
C
100
AcDbDictionary
  3
CEPSNTYPE
350
130
  3
FINGERPRINTGUID
350
131
  3
HYPERLINKBASE
350
129
  3
INSUNITS
350
12F
  3
LAYOUTDICT
350
12B
  3
LWETCUNION
350
12E
  3
PLOTSETDICT
350
12C
  3
PLOTSTYLNAMDICT
350
12D
  3
PSVPSCALE
350
133
  3
PUCSBASE
350
136
  3
PUCSORGBACK
350
13C
  3
PUCSORGBOTTOM
350
138
  3
PUCSORGFRONT
350
13B
  3
PUCSORGLEFT
350
139
  3
PUCSORGRIGHT
350
13A
  3
PUCSORGTOP
350
137
  3
PUCSORTHOREF
350
134
  3
PUCSORTHOVIEW
350
135
  3
STYLESHEET
350
12A
  3
TSTACKALIGN
350
127
  3
TSTACKSIZE
350
128
  3
UCSBASE
350
13F
  3
UCSORGBACK
350
145
  3
UCSORGBOTTOM
350
141
  3
UCSORGFRONT
350
144
  3
UCSORGLEFT
350
142
  3
UCSORGRIGHT
350
143
  3
UCSORGTOP
350
140
  3
UCSORTHOREF
350
13D
  3
UCSORTHOVIEW
350
13E
  3
VERSIONGUID
350
132
  0
DICTIONARY
  5
123
102
{ACAD_REACTORS
330
C
102
}
330
C
100
AcDbDictionary
  3
DIMASSOC
350
124
  0
XRECORD
  5
149
102
{ACAD_REACTORS
330
148
102
}
330
148
100
AcDbXrecord
340
1E
  0
XRECORD
  5
147
102
{ACAD_REACTORS
330
146
102
}
330
146
100
AcDbXrecord
340
1A
  0
MLINESTYLE
  5
17
102
{ACAD_REACTORS
330
16
102
}
330
16
100
AcDbMlineStyle
  2
STANDARD
 70
     0
  3

 62
   256
 51
90.0
 52
90.0
 71
     2
 49
0.5
 62
   256
  6
BYLAYER
 49
-0.5
 62
   256
  6
BYLAYER
  0
ACDBPLACEHOLDER
  5
F
102
{ACAD_REACTORS
330
E
102
}
330
E
100
AcDbPlaceHolder
280
     0
  0
XRECORD
  5
130
102
{ACAD_REACTORS
330
126
102
}
330
126
100
AcDbXrecord
 90
        0
  0
XRECORD
  5
131
102
{ACAD_REACTORS
330
126
102
}
330
126
100
AcDbXrecord
  1
{2D525EF3-12AB-4CB1-A4C2-90455ADA015D}
  0
XRECORD
  5
129
102
{ACAD_REACTORS
330
126
102
}
330
126
100
AcDbXrecord
  1

  0
XRECORD
  5
12F
102
{ACAD_REACTORS
330
126
102
}
330
126
100
AcDbXrecord
 90
        0
  0
XRECORD
  5
12B
102
{ACAD_REACTORS
330
126
102
}
330
126
100
AcDbXrecord
340
19
  0
XRECORD
  5
12E
102
{ACAD_REACTORS
330
126
102
}
330
126
100
AcDbXrecord
 90
    10781
  0
XRECORD
  5
12C
102
{ACAD_REACTORS
330
126
102
}
330
126
100
AcDbXrecord
340
18
  0
XRECORD
  5
12D
102
{ACAD_REACTORS
330
126
102
}
330
126
100
AcDbXrecord
340
E
  0
XRECORD
  5
133
102
{ACAD_REACTORS
330
126
102
}
330
126
100
AcDbXrecord
 40
0.0
  0
XRECORD
  5
136
102
{ACAD_REACTORS
330
126
102
}
330
126
100
AcDbXrecord
340
0
  0
XRECORD
  5
13C
102
{ACAD_REACTORS
330
126
102
}
330
126
100
AcDbXrecord
 10
0.0
 20
0.0
 30
0.0
  0
XRECORD
  5
138
102
{ACAD_REACTORS
330
126
102
}
330
126
100
AcDbXrecord
 10
0.0
 20
0.0
 30
0.0
  0
XRECORD
  5
13B
102
{ACAD_REACTORS
330
126
102
}
330
126
100
AcDbXrecord
 10
0.0
 20
0.0
 30
0.0
  0
XRECORD
  5
139
102
{ACAD_REACTORS
330
126
102
}
330
126
100
AcDbXrecord
 10
0.0
 20
0.0
 30
0.0
  0
XRECORD
  5
13A
102
{ACAD_REACTORS
330
126
102
}
330
126
100
AcDbXrecord
 10
0.0
 20
0.0
 30
0.0
  0
XRECORD
  5
137
102
{ACAD_REACTORS
330
126
102
}
330
126
100
AcDbXrecord
 10
0.0
 20
0.0
 30
0.0
  0
XRECORD
  5
134
102
{ACAD_REACTORS
330
126
102
}
330
126
100
AcDbXrecord
340
0
  0
XRECORD
  5
135
102
{ACAD_REACTORS
330
126
102
}
330
126
100
AcDbXrecord
 70
     0
  0
XRECORD
  5
12A
102
{ACAD_REACTORS
330
126
102
}
330
126
100
AcDbXrecord
  1

  0
XRECORD
  5
127
102
{ACAD_REACTORS
330
126
102
}
330
126
100
AcDbXrecord
 90
        1
  0
XRECORD
  5
128
102
{ACAD_REACTORS
330
126
102
}
330
126
100
AcDbXrecord
 90
       70
  0
XRECORD
  5
13F
102
{ACAD_REACTORS
330
126
102
}
330
126
100
AcDbXrecord
340
0
  0
XRECORD
  5
145
102
{ACAD_REACTORS
330
126
102
}
330
126
100
AcDbXrecord
 10
0.0
 20
0.0
 30
0.0
  0
XRECORD
  5
141
102
{ACAD_REACTORS
330
126
102
}
330
126
100
AcDbXrecord
 10
0.0
 20
0.0
 30
0.0
  0
XRECORD
  5
144
102
{ACAD_REACTORS
330
126
102
}
330
126
100
AcDbXrecord
 10
0.0
 20
0.0
 30
0.0
  0
XRECORD
  5
142
102
{ACAD_REACTORS
330
126
102
}
330
126
100
AcDbXrecord
 10
0.0
 20
0.0
 30
0.0
  0
XRECORD
  5
143
102
{ACAD_REACTORS
330
126
102
}
330
126
100
AcDbXrecord
 10
0.0
 20
0.0
 30
0.0
  0
XRECORD
  5
140
102
{ACAD_REACTORS
330
126
102
}
330
126
100
AcDbXrecord
 10
0.0
 20
0.0
 30
0.0
  0
XRECORD
  5
13D
102
{ACAD_REACTORS
330
126
102
}
330
126
100
AcDbXrecord
340
0
  0
XRECORD
  5
13E
102
{ACAD_REACTORS
330
126
102
}
330
126
100
AcDbXrecord
 70
     1
  0
XRECORD
  5
132
102
{ACAD_REACTORS
330
126
102
}
330
126
100
AcDbXrecord
  1
{9FE34A5C-FEBA-418D-B926-595DB6546876}
  0
DICTIONARYVAR
  5
124
102
{ACAD_REACTORS
330
123
102
}
330
123
100
DictionaryVariables
280
     0
  1
1
  0
ENDSEC
  0
EOF
