  0
SECTION
  2
HEADER
  9
$ACADVER
  1
AC1014
  9
$ACADMAINTVER
 70
     9
  9
$DWGCODEPAGE
  3
ANSI_1252
  9
$INSBASE
 10
0.0
 20
0.0
 30
0.0
  9
$EXTMIN
 10
-0.0249999999999844
 20
-0.0000000000000333
 30
0.0
  9
$EXTMAX
 10
280.975
 20
300.0
 30
0.0
  9
$LIMMIN
 10
0.0
 20
0.0
  9
$LIMMAX
 10
12.0
 20
9.0
  9
$ORTHOMODE
 70
     0
  9
$REGENMODE
 70
     1
  9
$FILLMODE
 70
     1
  9
$QTEXTMODE
 70
     0
  9
$MIRRTEXT
 70
     1
  9
$DRAGMODE
 70
     2
  9
$LTSCALE
 40
1.0
  9
$OSMODE
 70
    37
  9
$ATTMODE
 70
     1
  9
$TEXTSIZE
 40
0.2
  9
$TRACEWID
 40
0.05
  9
$TEXTSTYLE
  7
STANDARD
  9
$CLAYER
  8
0
  9
$CELTYPE
  6
CONTINUOUS
  9
$CECOLOR
 62
   256
  9
$CELTSCALE
 40
1.0
  9
$DELOBJ
 70
     1
  9
$DISPSILH
 70
     0
  9
$DIMSCALE
 40
1.0
  9
$DIMASZ
 40
0.18
  9
$DIMEXO
 40
0.0625
  9
$DIMDLI
 40
0.38
  9
$DIMRND
 40
0.0
  9
$DIMDLE
 40
0.0
  9
$DIMEXE
 40
0.18
  9
$DIMTP
 40
0.0
  9
$DIMTM
 40
0.0
  9
$DIMTXT
 40
0.18
  9
$DIMCEN
 40
0.09
  9
$DIMTSZ
 40
0.0
  9
$DIMTOL
 70
     0
  9
$DIMLIM
 70
     0
  9
$DIMTIH
 70
     1
  9
$DIMTOH
 70
     1
  9
$DIMSE1
 70
     0
  9
$DIMSE2
 70
     0
  9
$DIMTAD
 70
     0
  9
$DIMZIN
 70
     0
  9
$DIMBLK
  1

  9
$DIMASO
 70
     1
  9
$DIMSHO
 70
     1
  9
$DIMPOST
  1

  9
$DIMAPOST
  1

  9
$DIMALT
 70
     0
  9
$DIMALTD
 70
     2
  9
$DIMALTF
 40
25.4
  9
$DIMLFAC
 40
1.0
  9
$DIMTOFL
 70
     0
  9
$DIMTVP
 40
0.0
  9
$DIMTIX
 70
     0
  9
$DIMSOXD
 70
     0
  9
$DIMSAH
 70
     0
  9
$DIMBLK1
  1

  9
$DIMBLK2
  1

  9
$DIMSTYLE
  2
STANDARD
  9
$DIMCLRD
 70
     0
  9
$DIMCLRE
 70
     0
  9
$DIMCLRT
 70
     0
  9
$DIMTFAC
 40
1.0
  9
$DIMGAP
 40
0.09
  9
$DIMJUST
 70
     0
  9
$DIMSD1
 70
     0
  9
$DIMSD2
 70
     0
  9
$DIMTOLJ
 70
     1
  9
$DIMTZIN
 70
     0
  9
$DIMALTZ
 70
     0
  9
$DIMALTTZ
 70
     0
  9
$DIMFIT
 70
     3
  9
$DIMUPT
 70
     0
  9
$DIMUNIT
 70
     2
  9
$DIMDEC
 70
     4
  9
$DIMTDEC
 70
     4
  9
$DIMALTU
 70
     2
  9
$DIMALTTD
 70
     2
  9
$DIMTXSTY
  7
STANDARD
  9
$DIMAUNIT
 70
     0
  9
$LUNITS
 70
     2
  9
$LUPREC
 70
     4
  9
$SKETCHINC
 40
0.1
  9
$FILLETRAD
 40
0.0
  9
$AUNITS
 70
     0
  9
$AUPREC
 70
     0
  9
$MENU
  1
.
  9
$ELEVATION
 40
0.0
  9
$PELEVATION
 40
0.0
  9
$THICKNESS
 40
0.0
  9
$LIMCHECK
 70
     0
  9
$BLIPMODE
 70
     0
  9
$CHAMFERA
 40
0.0
  9
$CHAMFERB
 40
0.0
  9
$CHAMFERC
 40
0.0
  9
$CHAMFERD
 40
0.0
  9
$SKPOLY
 70
     0
  9
$TDCREATE
 40
2454692.676267176
  9
$TDUPDATE
 40
2454692.677173032
  9
$TDINDWG
 40
0.0009060301
  9
$TDUSRTIMER
 40
0.0009060301
  9
$USRTIMER
 70
     1
  9
$ANGBASE
 50
0.0
  9
$ANGDIR
 70
     0
  9
$PDMODE
 70
     0
  9
$PDSIZE
 40
0.0
  9
$PLINEWID
 40
0.0
  9
$COORDS
 70
     1
  9
$SPLFRAME
 70
     0
  9
$SPLINETYPE
 70
     6
  9
$SPLINESEGS
 70
     8
  9
$ATTDIA
 70
     0
  9
$ATTREQ
 70
     1
  9
$HANDLING
 70
 22529
  9
$HANDSEED
  5
1C5
  9
$SURFTAB1
 70
     6
  9
$SURFTAB2
 70
     6
  9
$SURFTYPE
 70
     6
  9
$SURFU
 70
     6
  9
$SURFV
 70
     6
  9
$UCSNAME
  2

  9
$UCSORG
 10
0.0
 20
0.0
 30
0.0
  9
$UCSXDIR
 10
1.0
 20
0.0
 30
0.0
  9
$UCSYDIR
 10
0.0
 20
1.0
 30
0.0
  9
$PUCSNAME
  2

  9
$PUCSORG
 10
0.0
 20
0.0
 30
0.0
  9
$PUCSXDIR
 10
1.0
 20
0.0
 30
0.0
  9
$PUCSYDIR
 10
0.0
 20
1.0
 30
0.0
  9
$USERI1
 70
     0
  9
$USERI2
 70
     0
  9
$USERI3
 70
     0
  9
$USERI4
 70
     0
  9
$USERI5
 70
     0
  9
$USERR1
 40
0.0
  9
$USERR2
 40
0.0
  9
$USERR3
 40
0.0
  9
$USERR4
 40
0.0
  9
$USERR5
 40
0.0
  9
$WORLDVIEW
 70
     1
  9
$SHADEDGE
 70
     3
  9
$SHADEDIF
 70
    70
  9
$TILEMODE
 70
     1
  9
$MAXACTVP
 70
    64
  9
$PINSBASE
 10
0.0
 20
0.0
 30
0.0
  9
$PLIMCHECK
 70
     0
  9
$PEXTMIN
 10
1.000000000000000E+20
 20
1.000000000000000E+20
 30
1.000000000000000E+20
  9
$PEXTMAX
 10
-1.000000000000000E+20
 20
-1.000000000000000E+20
 30
-1.000000000000000E+20
  9
$PLIMMIN
 10
0.0
 20
0.0
  9
$PLIMMAX
 10
12.0
 20
9.0
  9
$UNITMODE
 70
     0
  9
$VISRETAIN
 70
     1
  9
$PLINEGEN
 70
     0
  9
$PSLTSCALE
 70
     1
  9
$TREEDEPTH
 70
  3020
  9
$PICKSTYLE
 70
     1
  9
$CMLSTYLE
  2
STANDARD
  9
$CMLJUST
 70
     0
  9
$CMLSCALE
 40
1.0
  9
$PROXYGRAPHICS
 70
     1
  9
$MEASUREMENT
 70
     0
  0
ENDSEC
  0
SECTION
  2
CLASSES
  0
CLASS
  1
ACDBDICTIONARYWDFLT
  2
AcDbDictionaryWithDefault
  3
AutoCAD 2000
 90
        0
280
     0
281
     0
  0
CLASS
  1
ACDBPLACEHOLDER
  2
AcDbPlaceHolder
  3
AutoCAD 2000
 90
        0
280
     0
281
     0
  0
CLASS
  1
LAYOUT
  2
AcDbLayout
  3
AutoCAD 2000
 90
        0
280
     0
281
     0
  0
CLASS
  1
DICTIONARYVAR
  2
AcDbDictionaryVar
  3
AutoCAD 2000
 90
        0
280
     0
281
     0
  0
CLASS
  1
LONG_TRANSACTION
  2
AcDbLongTransaction
  3
AutoCAD 2000
 90
        0
280
     0
281
     0
  0
CLASS
  1
LWPOLYLINE
  2
AcDbPolyline
  3
AutoCAD 2000
 90
        0
280
     0
281
     1
  0
CLASS
  1
HATCH
  2
AcDbHatch
  3
AutoCAD 2000
 90
        0
280
     0
281
     1
  0
CLASS
  1
XRECORD
  2
AcDbXrecord
  3
AutoCAD 2000
 90
        0
280
     0
281
     0
  0
ENDSEC
  0
SECTION
  2
TABLES
  0
TABLE
  2
VPORT
  5
8
330
0
100
AcDbSymbolTable
 70
     4
  0
VPORT
  5
1A0
330
8
100
AcDbSymbolTableRecord
100
AcDbViewportTableRecord
  2
*ACTIVE
 70
     0
 10
0.0
 20
0.0
 11
1.0
 21
1.0
 12
140.475
 22
150.0
 13
0.0
 23
0.0
 14
1.0
 24
1.0
 15
0.0
 25
0.0
 16
0.0
 26
0.0
 36
1.0
 17
0.0
 27
0.0
 37
0.0
 40
302.3017902813299
 41
2.078104993597951
 42
50.0
 43
0.0
 44
0.0
 50
0.0
 51
0.0
 71
     0
 72
   100
 73
     1
 74
     3
 75
     0
 76
     0
 77
     0
 78
     0
  0
ENDTAB
  0
TABLE
  2
LTYPE
  5
5
330
0
100
AcDbSymbolTable
 70
     1
  0
LTYPE
  5
13
330
5
100
AcDbSymbolTableRecord
100
AcDbLinetypeTableRecord
  2
BYBLOCK
 70
     0
  3

 72
    65
 73
     0
 40
0.0
  0
LTYPE
  5
14
330
5
100
AcDbSymbolTableRecord
100
AcDbLinetypeTableRecord
  2
BYLAYER
 70
     0
  3

 72
    65
 73
     0
 40
0.0
  0
LTYPE
  5
15
330
5
100
AcDbSymbolTableRecord
100
AcDbLinetypeTableRecord
  2
CONTINUOUS
 70
     0
  3
Solid line
 72
    65
 73
     0
 40
0.0
  0
ENDTAB
  0
TABLE
  2
LAYER
  5
2
330
0
100
AcDbSymbolTable
 70
     1
  0
LAYER
  5
10
330
2
100
AcDbSymbolTableRecord
100
AcDbLayerTableRecord
  2
0
 70
     0
 62
     7
  6
CONTINUOUS
  0
ENDTAB
  0
TABLE
  2
STYLE
  5
3
330
0
100
AcDbSymbolTable
 70
     1
  0
STYLE
  5
11
330
3
100
AcDbSymbolTableRecord
100
AcDbTextStyleTableRecord
  2
STANDARD
 70
     0
 40
0.0
 41
1.0
 50
0.0
 71
     0
 42
0.2
  3
txt
  4

  0
ENDTAB
  0
TABLE
  2
VIEW
  5
6
330
0
100
AcDbSymbolTable
 70
     0
  0
ENDTAB
  0
TABLE
  2
UCS
  5
7
330
0
100
AcDbSymbolTable
 70
     0
  0
ENDTAB
  0
TABLE
  2
APPID
  5
9
330
0
100
AcDbSymbolTable
 70
     1
  0
APPID
  5
12
330
9
100
AcDbSymbolTableRecord
100
AcDbRegAppTableRecord
  2
ACAD
 70
     0
  0
ENDTAB
  0
TABLE
  2
DIMSTYLE
  5
A
330
0
100
AcDbSymbolTable
 70
     1
  0
DIMSTYLE
105
150
330
A
100
AcDbSymbolTableRecord
100
AcDbDimStyleTableRecord
  2
STANDARD
 70
     0
  3

  4

  5

  6

  7

 40
1.0
 41
0.18
 42
0.0625
 43
0.38
 44
0.18
 45
0.0
 46
0.0
 47
0.0
 48
0.0
140
0.18
141
0.09
142
0.0
143
25.4
144
1.0
145
0.0
146
1.0
147
0.09
 71
     0
 72
     0
 73
     1
 74
     1
 75
     0
 76
     0
 77
     0
 78
     0
170
     0
171
     2
172
     0
173
     0
174
     0
175
     0
176
     0
177
     0
178
     0
270
     2
271
     4
272
     4
273
     2
274
     2
340
11
275
     0
280
     0
281
     0
282
     0
283
     1
284
     0
285
     0
286
     0
287
     3
288
     0
  0
ENDTAB
  0
TABLE
  2
BLOCK_RECORD
  5
1
330
0
100
AcDbSymbolTable
 70
     0
  0
BLOCK_RECORD
  5
1E
102
{ACAD_XDICTIONARY
360
1C3
102
}
330
1
100
AcDbSymbolTableRecord
100
AcDbBlockTableRecord
  2
*MODEL_SPACE
  0
BLOCK_RECORD
  5
1A
102
{ACAD_XDICTIONARY
360
1C1
102
}
330
1
100
AcDbSymbolTableRecord
100
AcDbBlockTableRecord
  2
*PAPER_SPACE
  0
ENDTAB
  0
ENDSEC
  0
SECTION
  2
BLOCKS
  0
BLOCK
  5
1F
330
1E
100
AcDbEntity
  8
0
100
AcDbBlockBegin
  2
*MODEL_SPACE
 70
     0
 10
0.0
 20
0.0
 30
0.0
  3
*MODEL_SPACE
  1

  0
ENDBLK
  5
20
330
1E
100
AcDbEntity
  8
0
100
AcDbBlockEnd
  0
BLOCK
  5
1B
330
1A
100
AcDbEntity
 67
     1
  8
0
100
AcDbBlockBegin
  2
*PAPER_SPACE
 70
     0
 10
0.0
 20
0.0
 30
0.0
  3
*PAPER_SPACE
  1

  0
ENDBLK
  5
1C
330
1A
100
AcDbEntity
 67
     1
  8
0
100
AcDbBlockEnd
  0
ENDSEC
  0
SECTION
  2
ENTITIES
  0
LINE
  5
22
330
1E
100
AcDbEntity
  8
0
100
AcDbLine
 10
214.0099999999999
 20
29.0
 30
0.0
 11
214.4099999999999
 21
29.92
 31
0.0
  0
LINE
  5
23
330
1E
100
AcDbEntity
  8
0
100
AcDbLine
 10
190.5158999999999
 20
29.557143
 30
0.0
 11
191.8334999999999
 21
29.0
 31
0.0
  0
LINE
  5
24
330
1E
100
AcDbEntity
  8
0
100
AcDbLine
 10
190.5158999999999
 20
29.557143
 30
0.0
 11
190.5158999999999
 21
30.48570999999999
 31
0.0
  0
LINE
  5
25
330
1E
100
AcDbEntity
  8
0
100
AcDbLine
 10
191.8334999999999
 20
29.0
 30
0.0
 11
214.0099999999999
 21
29.0
 31
0.0
  0
LINE
  5
26
330
1E
100
AcDbEntity
  8
0
100
AcDbLine
 10
214.4099999999999
 20
29.92
 30
0.0
 11
215.045193154093
 21
31.8255794622787
 31
0.0
  0
LINE
  5
27
330
1E
100
AcDbEntity
  8
0
100
AcDbLine
 10
214.4099999999999
 20
29.92
 30
0.0
 11
215.31
 21
32.62
 31
0.0
  0
LINE
  5
28
330
1E
100
AcDbEntity
  8
0
100
AcDbLine
 10
190.5158999999999
 20
30.48570999999999
 30
0.0
 11
190.5158999999999
 21
29.557143
 31
0.0
  0
LINE
  5
29
330
1E
100
AcDbEntity
  8
0
100
AcDbLine
 10
190.5158999999999
 20
30.48570999999999
 30
0.0
 11
190.5158999999999
 21
33.08571
 31
0.0
  0
LINE
  5
2A
330
1E
100
AcDbEntity
  8
0
100
AcDbLine
 10
189.9511699999999
 20
30.85714
 30
0.0
 11
190.5158999999999
 21
29.557143
 31
0.0
  0
LINE
  5
2B
330
1E
100
AcDbEntity
  8
0
100
AcDbLine
 10
218.679
 20
30.463
 30
0.0
 11
222.3819999999999
 21
30.0
 31
0.0
  0
LINE
  5
2C
330
1E
100
AcDbEntity
  8
0
100
AcDbLine
 10
222.3819999999999
 20
30.0
 30
0.0
 11
222.975
 21
30.0
 31
0.0
  0
LINE
  5
2D
330
1E
100
AcDbEntity
  8
0
100
AcDbLine
 10
190.5158999999999
 20
33.08571
 30
0.0
 11
190.5158999999999
 21
30.48570999999999
 31
0.0
  0
LINE
  5
2E
330
1E
100
AcDbEntity
  8
0
100
AcDbLine
 10
190.5158999999999
 20
33.08571
 30
0.0
 11
190.5158999999999
 21
37.35714
 31
0.0
  0
LINE
  5
2F
330
1E
100
AcDbEntity
  8
0
100
AcDbLine
 10
215.31
 20
32.62
 30
0.0
 11
216.7499999999999
 21
36.89
 31
0.0
  0
LINE
  5
30
330
1E
100
AcDbEntity
  8
0
100
AcDbLine
 10
222.975
 20
30.92589999999999
 30
0.0
 11
222.975
 21
33.3333
 31
0.0
  0
LINE
  5
31
330
1E
100
AcDbEntity
  8
0
100
AcDbLine
 10
216.7499999999999
 20
36.89
 30
0.0
 11
218.68
 21
42.557
 31
0.0
  0
LINE
  5
32
330
1E
100
AcDbEntity
  8
0
100
AcDbLine
 10
222.975
 20
33.3333
 30
0.0
 11
222.975
 21
37.31479999999999
 31
0.0
  0
LINE
  5
33
330
1E
100
AcDbEntity
  8
0
100
AcDbLine
 10
215.045193154093
 20
31.8255794622787
 30
0.0
 11
218.679
 21
30.463
 31
0.0
  0
LINE
  5
34
330
1E
100
AcDbEntity
  8
0
100
AcDbLine
 10
222.975
 20
30.89999999999999
 30
0.0
 11
222.975
 21
30.0
 31
0.0
  0
LINE
  5
35
330
1E
100
AcDbEntity
  8
0
100
AcDbLine
 10
222.975
 20
30.89999999999999
 30
0.0
 11
222.975
 21
33.3
 31
0.0
  0
LINE
  5
36
330
1E
100
AcDbEntity
  8
0
100
AcDbLine
 10
222.975
 20
33.3
 30
0.0
 11
222.975
 21
30.89999999999999
 31
0.0
  0
LINE
  5
37
330
1E
100
AcDbEntity
  8
0
100
AcDbLine
 10
222.975
 20
33.3
 30
0.0
 11
222.975
 21
37.31479999999999
 31
0.0
  0
LINE
  5
38
330
1E
100
AcDbEntity
  8
0
100
AcDbLine
 10
190.5158999999999
 20
37.35714
 30
0.0
 11
190.5158999999999
 21
33.08571
 31
0.0
  0
LINE
  5
39
330
1E
100
AcDbEntity
  8
0
100
AcDbLine
 10
190.5158999999999
 20
37.35714
 30
0.0
 11
190.5158999999999
 21
42.8357
 31
0.0
  0
LINE
  5
3A
330
1E
100
AcDbEntity
  8
0
100
AcDbLine
 10
218.68
 20
42.557
 30
0.0
 11
221.01
 21
48.9643
 31
0.0
  0
LINE
  5
3B
330
1E
100
AcDbEntity
  8
0
100
AcDbLine
 10
189.48058
 20
41.0714
 30
0.0
 11
189.9511699999999
 21
30.85714
 31
0.0
  0
LINE
  5
3C
330
1E
100
AcDbEntity
  8
0
100
AcDbLine
 10
190.5158999999999
 20
42.8357
 30
0.0
 11
190.5158999999999
 21
37.35714
 31
0.0
  0
LINE
  5
3D
330
1E
100
AcDbEntity
  8
0
100
AcDbLine
 10
190.5158999999999
 20
42.8357
 30
0.0
 11
190.5158999999999
 21
49.15
 31
0.0
  0
LINE
  5
3E
330
1E
100
AcDbEntity
  8
0
100
AcDbLine
 10
222.975
 20
42.5926
 30
0.0
 11
222.975
 21
48.5185
 31
0.0
  0
LINE
  5
3F
330
1E
100
AcDbEntity
  8
0
100
AcDbLine
 10
222.975
 20
37.4
 30
0.0
 11
222.975
 21
42.5
 31
0.0
  0
LINE
  5
40
330
1E
100
AcDbEntity
  8
0
100
AcDbLine
 10
222.975
 20
37.31479999999999
 30
0.0
 11
222.975
 21
33.3
 31
0.0
  0
LINE
  5
41
330
1E
100
AcDbEntity
  8
0
100
AcDbLine
 10
222.975
 20
37.31479999999999
 30
0.0
 11
222.975
 21
42.5926
 31
0.0
  0
LINE
  5
42
330
1E
100
AcDbEntity
  8
0
100
AcDbLine
 10
222.975
 20
42.5
 30
0.0
 11
222.975
 21
37.4
 31
0.0
  0
LINE
  5
43
330
1E
100
AcDbEntity
  8
0
100
AcDbLine
 10
222.975
 20
42.5
 30
0.0
 11
222.975
 21
48.5
 31
0.0
  0
LINE
  5
44
330
1E
100
AcDbEntity
  8
0
100
AcDbLine
 10
190.5158999999999
 20
49.15
 30
0.0
 11
190.5158999999999
 21
42.8357
 31
0.0
  0
LINE
  5
45
330
1E
100
AcDbEntity
  8
0
100
AcDbLine
 10
190.5158999999999
 20
49.15
 30
0.0
 11
190.5158999999999
 21
55.0
 31
0.0
  0
LINE
  5
46
330
1E
100
AcDbEntity
  8
0
100
AcDbLine
 10
221.01
 20
48.9643
 30
0.0
 11
221.01
 21
55.0
 31
0.0
  0
LINE
  5
47
330
1E
100
AcDbEntity
  8
0
100
AcDbLine
 10
190.5158999999999
 20
55.0
 30
0.0
 11
190.5158999999999
 21
60.85
 31
0.0
  0
LINE
  5
48
330
1E
100
AcDbEntity
  8
0
100
AcDbLine
 10
190.5158999999999
 20
55.0
 30
0.0
 11
190.5158999999999
 21
49.15
 31
0.0
  0
LINE
  5
49
330
1E
100
AcDbEntity
  8
0
100
AcDbLine
 10
221.01
 20
55.0
 30
0.0
 11
221.01
 21
61.0357
 31
0.0
  0
LINE
  5
4A
330
1E
100
AcDbEntity
  8
0
100
AcDbLine
 10
190.5158999999999
 20
67.16429999999999
 30
0.0
 11
190.5158999999999
 21
60.85
 31
0.0
  0
LINE
  5
4B
330
1E
100
AcDbEntity
  8
0
100
AcDbLine
 10
190.5158999999999
 20
67.16429999999999
 30
0.0
 11
190.5158999999999
 21
72.64289999999999
 31
0.0
  0
LINE
  5
4C
330
1E
100
AcDbEntity
  8
0
100
AcDbLine
 10
190.5158999999999
 20
60.85
 30
0.0
 11
190.5158999999999
 21
55.0
 31
0.0
  0
LINE
  5
4D
330
1E
100
AcDbEntity
  8
0
100
AcDbLine
 10
190.5158999999999
 20
60.85
 30
0.0
 11
190.5158999999999
 21
67.16429999999999
 31
0.0
  0
LINE
  5
4E
330
1E
100
AcDbEntity
  8
0
100
AcDbLine
 10
221.01
 20
61.0357
 30
0.0
 11
221.01
 21
67.44289999999999
 31
0.0
  0
LINE
  5
4F
330
1E
100
AcDbEntity
  8
0
100
AcDbLine
 10
189.0099999999999
 20
55.0
 30
0.0
 11
189.48058
 21
68.9286
 31
0.0
  0
LINE
  5
50
330
1E
100
AcDbEntity
  8
0
100
AcDbLine
 10
189.0099999999999
 20
55.0
 30
0.0
 11
189.48058
 21
41.0714
 31
0.0
  0
LINE
  5
51
330
1E
100
AcDbEntity
  8
0
100
AcDbLine
 10
222.975
 20
48.5185
 30
0.0
 11
222.975
 21
55.0
 31
0.0
  0
LINE
  5
52
330
1E
100
AcDbEntity
  8
0
100
AcDbLine
 10
221.01
 20
67.44289999999999
 30
0.0
 11
221.01
 21
73.1071
 31
0.0
  0
LINE
  5
53
330
1E
100
AcDbEntity
  8
0
100
AcDbLine
 10
222.975
 20
67.40739999999999
 30
0.0
 11
222.975
 21
72.68519999999999
 31
0.0
  0
LINE
  5
54
330
1E
100
AcDbEntity
  8
0
100
AcDbLine
 10
222.975
 20
61.4815
 30
0.0
 11
222.975
 21
67.40739999999999
 31
0.0
  0
LINE
  5
55
330
1E
100
AcDbEntity
  8
0
100
AcDbLine
 10
189.48058
 20
68.9286
 30
0.0
 11
189.8754788306589
 21
77.5
 31
0.0
  0
LINE
  5
5F
330
1E
100
AcDbEntity
  8
0
100
AcDbLine
 10
190.5158999999999
 20
72.64289999999999
 30
0.0
 11
190.5158999999999
 21
67.16429999999999
 31
0.0
  0
LINE
  5
60
330
1E
100
AcDbEntity
  8
0
100
AcDbLine
 10
190.5158999999999
 20
72.64289999999999
 30
0.0
 11
190.5158999999999
 21
76.9143
 31
0.0
  0
LINE
  5
62
330
1E
100
AcDbEntity
  8
0
100
AcDbLine
 10
221.01
 20
73.1071
 30
0.0
 11
221.01
 21
77.37860000000001
 31
0.0
  0
LINE
  5
66
330
1E
100
AcDbEntity
  8
0
100
AcDbLine
 10
222.975
 20
76.6667
 30
0.0
 11
222.975
 21
79.0741
 31
0.0
  0
LINE
  5
67
330
1E
100
AcDbEntity
  8
0
100
AcDbLine
 10
222.975
 20
72.68519999999999
 30
0.0
 11
222.975
 21
76.7
 31
0.0
  0
LINE
  5
68
330
1E
100
AcDbEntity
  8
0
100
AcDbLine
 10
222.975
 20
72.68519999999999
 30
0.0
 11
222.975
 21
76.6667
 31
0.0
  0
LINE
  5
6E
330
1E
100
AcDbEntity
  8
0
100
AcDbLine
 10
190.5158999999999
 20
76.9143
 30
0.0
 11
190.5158999999999
 21
72.64289999999999
 31
0.0
  0
LINE
  5
6F
330
1E
100
AcDbEntity
  8
0
100
AcDbLine
 10
190.5158999999999
 20
76.9143
 30
0.0
 11
190.5158999999999
 21
79.51430000000001
 31
0.0
  0
LINE
  5
70
330
1E
100
AcDbEntity
  8
0
100
AcDbLine
 10
221.01
 20
77.37860000000001
 30
0.0
 11
221.01
 21
80.07139999999999
 31
0.0
  0
LINE
  5
71
330
1E
100
AcDbEntity
  8
0
100
AcDbLine
 10
189.8754788306589
 20
77.5
 30
0.0
 11
189.9511699999999
 21
79.1429
 31
0.0
  0
LINE
  5
72
330
1E
100
AcDbEntity
  8
0
100
AcDbLine
 10
190.5158999999999
 20
79.51430000000001
 30
0.0
 11
190.5158999999999
 21
76.9143
 31
0.0
  0
LINE
  5
73
330
1E
100
AcDbEntity
  8
0
100
AcDbLine
 10
190.5158999999999
 20
79.51430000000001
 30
0.0
 11
190.5158999999999
 21
80.4429
 31
0.0
  0
LINE
  5
74
330
1E
100
AcDbEntity
  8
0
100
AcDbLine
 10
189.9511699999999
 20
79.1429
 30
0.0
 11
190.5158999999999
 21
80.4429
 31
0.0
  0
LINE
  5
75
330
1E
100
AcDbEntity
  8
0
100
AcDbLine
 10
222.975
 20
79.0741
 30
0.0
 11
222.975
 21
80.0
 31
0.0
  0
LINE
  5
76
330
1E
100
AcDbEntity
  8
0
100
AcDbLine
 10
221.01
 20
79.8284536862004
 30
0.0
 11
222.3819999999999
 21
80.0
 31
0.0
  0
LINE
  5
77
330
1E
100
AcDbEntity
  8
0
100
AcDbLine
 10
222.3819999999999
 20
80.0
 30
0.0
 11
222.975
 21
80.0
 31
0.0
  0
LINE
  5
78
330
1E
100
AcDbEntity
  8
0
100
AcDbLine
 10
222.975
 20
79.1
 30
0.0
 11
222.975
 21
76.7
 31
0.0
  0
LINE
  5
79
330
1E
100
AcDbEntity
  8
0
100
AcDbLine
 10
222.975
 20
79.1
 30
0.0
 11
222.975
 21
80.0
 31
0.0
  0
LINE
  5
7A
330
1E
100
AcDbEntity
  8
0
100
AcDbLine
 10
222.975
 20
76.7
 30
0.0
 11
222.975
 21
72.68519999999999
 31
0.0
  0
LINE
  5
7B
330
1E
100
AcDbEntity
  8
0
100
AcDbLine
 10
222.975
 20
76.7
 30
0.0
 11
222.975
 21
79.1
 31
0.0
  0
LINE
  5
7C
330
1E
100
AcDbEntity
  8
0
100
AcDbLine
 10
222.975
 20
72.59999999999999
 30
0.0
 11
222.975
 21
67.5
 31
0.0
  0
LINE
  5
7D
330
1E
100
AcDbEntity
  8
0
100
AcDbLine
 10
222.975
 20
67.5
 30
0.0
 11
222.975
 21
61.5
 31
0.0
  0
LINE
  5
7E
330
1E
100
AcDbEntity
  8
0
100
AcDbLine
 10
222.975
 20
67.5
 30
0.0
 11
222.975
 21
72.59999999999999
 31
0.0
  0
LINE
  5
7F
330
1E
100
AcDbEntity
  8
0
100
AcDbLine
 10
222.975
 20
61.5
 30
0.0
 11
222.975
 21
55.0
 31
0.0
  0
LINE
  5
80
330
1E
100
AcDbEntity
  8
0
100
AcDbLine
 10
222.975
 20
61.5
 30
0.0
 11
222.975
 21
67.5
 31
0.0
  0
LINE
  5
81
330
1E
100
AcDbEntity
  8
0
100
AcDbLine
 10
222.975
 20
48.5
 30
0.0
 11
222.975
 21
42.5
 31
0.0
  0
LINE
  5
82
330
1E
100
AcDbEntity
  8
0
100
AcDbLine
 10
222.975
 20
48.5
 30
0.0
 11
222.975
 21
55.0
 31
0.0
  0
LINE
  5
83
330
1E
100
AcDbEntity
  8
0
100
AcDbLine
 10
222.975
 20
55.0
 30
0.0
 11
222.975
 21
48.5
 31
0.0
  0
LINE
  5
84
330
1E
100
AcDbEntity
  8
0
100
AcDbLine
 10
222.975
 20
55.0
 30
0.0
 11
222.975
 21
61.5
 31
0.0
  0
LINE
  5
85
330
1E
100
AcDbEntity
  8
0
100
AcDbLine
 10
222.975
 20
55.0
 30
0.0
 11
222.975
 21
61.4815
 31
0.0
  0
LINE
  5
86
330
1E
100
AcDbEntity
  8
0
100
AcDbLine
 10
190.5158999999999
 20
80.4429
 30
0.0
 11
190.901806642784
 21
80.60606681139571
 31
0.0
  0
LINE
  5
87
330
1E
100
AcDbEntity
  8
0
100
AcDbLine
 10
190.5158999999999
 20
80.4429
 30
0.0
 11
190.5158999999999
 21
79.51430000000001
 31
0.0
  0
LINE
  5
88
330
1E
100
AcDbEntity
  8
0
100
AcDbLine
 10
221.01
 20
80.07139999999999
 30
0.0
 11
221.01
 21
81.0
 31
0.0
  0
LINE
  5
89
330
1E
100
AcDbEntity
  8
0
100
AcDbLine
 10
198.955784921831
 20
81.0
 30
0.0
 11
221.01
 21
81.0
 31
0.0
  0
LINE
  5
8A
330
1E
100
AcDbEntity
  8
0
100
AcDbLine
 10
222.975
 20
80.0
 30
0.0
 11
223.9749999999999
 21
81.0
 31
0.0
  0
LINE
  5
8B
330
1E
100
AcDbEntity
  8
0
100
AcDbLine
 10
222.975
 20
80.0
 30
0.0
 11
222.975
 21
79.1
 31
0.0
  0
LINE
  5
8C
330
1E
100
AcDbEntity
  8
0
100
AcDbLine
 10
223.9749999999999
 20
61.7
 30
0.0
 11
223.9749999999999
 21
55.0
 31
0.0
  0
LINE
  5
8D
330
1E
100
AcDbEntity
  8
0
100
AcDbLine
 10
223.9749999999999
 20
61.7
 30
0.0
 11
223.9749999999999
 21
67.9
 31
0.0
  0
LINE
  5
8E
330
1E
100
AcDbEntity
  8
0
100
AcDbLine
 10
223.9749999999999
 20
67.9
 30
0.0
 11
223.9749999999999
 21
61.7
 31
0.0
  0
LINE
  5
8F
330
1E
100
AcDbEntity
  8
0
100
AcDbLine
 10
223.9749999999999
 20
67.9
 30
0.0
 11
223.9749999999999
 21
73.4
 31
0.0
  0
LINE
  5
90
330
1E
100
AcDbEntity
  8
0
100
AcDbLine
 10
223.9749999999999
 20
73.4
 30
0.0
 11
223.9749999999999
 21
67.9
 31
0.0
  0
LINE
  5
91
330
1E
100
AcDbEntity
  8
0
100
AcDbLine
 10
223.9749999999999
 20
73.4
 30
0.0
 11
223.9749999999999
 21
77.5
 31
0.0
  0
LINE
  5
92
330
1E
100
AcDbEntity
  8
0
100
AcDbLine
 10
223.9749999999999
 20
77.5
 30
0.0
 11
223.9749999999999
 21
73.4
 31
0.0
  0
LINE
  5
93
330
1E
100
AcDbEntity
  8
0
100
AcDbLine
 10
223.9749999999999
 20
77.5
 30
0.0
 11
223.9749999999999
 21
80.09999999999999
 31
0.0
  0
LINE
  5
94
330
1E
100
AcDbEntity
  8
0
100
AcDbLine
 10
223.9749999999999
 20
80.09999999999999
 30
0.0
 11
223.9749999999999
 21
77.5
 31
0.0
  0
LINE
  5
95
330
1E
100
AcDbEntity
  8
0
100
AcDbLine
 10
223.9749999999999
 20
80.09999999999999
 30
0.0
 11
223.9749999999999
 21
81.0
 31
0.0
  0
LINE
  5
96
330
1E
100
AcDbEntity
  8
0
100
AcDbLine
 10
223.9749999999999
 20
55.0
 30
0.0
 11
223.9749999999999
 21
48.3
 31
0.0
  0
LINE
  5
97
330
1E
100
AcDbEntity
  8
0
100
AcDbLine
 10
223.9749999999999
 20
55.0
 30
0.0
 11
223.9749999999999
 21
61.7
 31
0.0
  0
LINE
  5
98
330
1E
100
AcDbEntity
  8
0
100
AcDbLine
 10
223.9749999999999
 20
48.3
 30
0.0
 11
223.9749999999999
 21
42.09999999999999
 31
0.0
  0
LINE
  5
99
330
1E
100
AcDbEntity
  8
0
100
AcDbLine
 10
223.9749999999999
 20
48.3
 30
0.0
 11
223.9749999999999
 21
55.0
 31
0.0
  0
LINE
  5
9A
330
1E
100
AcDbEntity
  8
0
100
AcDbLine
 10
223.9749999999999
 20
42.09999999999999
 30
0.0
 11
223.9749999999999
 21
36.6
 31
0.0
  0
LINE
  5
9B
330
1E
100
AcDbEntity
  8
0
100
AcDbLine
 10
223.9749999999999
 20
42.09999999999999
 30
0.0
 11
223.9749999999999
 21
48.3
 31
0.0
  0
LINE
  5
9C
330
1E
100
AcDbEntity
  8
0
100
AcDbLine
 10
223.9749999999999
 20
36.6
 30
0.0
 11
223.9749999999999
 21
32.5
 31
0.0
  0
LINE
  5
9D
330
1E
100
AcDbEntity
  8
0
100
AcDbLine
 10
223.9749999999999
 20
36.6
 30
0.0
 11
223.9749999999999
 21
42.09999999999999
 31
0.0
  0
LINE
  5
9E
330
1E
100
AcDbEntity
  8
0
100
AcDbLine
 10
223.9749999999999
 20
32.5
 30
0.0
 11
223.9749999999999
 21
29.9
 31
0.0
  0
LINE
  5
9F
330
1E
100
AcDbEntity
  8
0
100
AcDbLine
 10
223.9749999999999
 20
32.5
 30
0.0
 11
223.9749999999999
 21
36.6
 31
0.0
  0
LINE
  5
A0
330
1E
100
AcDbEntity
  8
0
100
AcDbLine
 10
223.9749999999999
 20
29.9
 30
0.0
 11
223.9749999999999
 21
29.0
 31
0.0
  0
LINE
  5
A1
330
1E
100
AcDbEntity
  8
0
100
AcDbLine
 10
223.9749999999999
 20
29.9
 30
0.0
 11
223.9749999999999
 21
32.5
 31
0.0
  0
LINE
  5
A2
330
1E
100
AcDbEntity
  8
0
100
AcDbLine
 10
222.975
 20
30.0
 30
0.0
 11
223.9749999999999
 21
29.0
 31
0.0
  0
LINE
  5
A3
330
1E
100
AcDbEntity
  8
0
100
AcDbLine
 10
222.975
 20
30.0
 30
0.0
 11
222.975
 21
30.89999999999999
 31
0.0
  0
LINE
  5
A4
330
1E
100
AcDbEntity
  8
0
100
AcDbLine
 10
222.975
 20
30.0
 30
0.0
 11
222.975
 21
30.92589999999999
 31
0.0
  0
LINE
  5
A5
330
1E
100
AcDbEntity
  8
0
100
AcDbLine
 10
-0.0249999999999844
 20
231.0
 30
0.0
 11
0.475000000000016
 21
231.0
 31
0.0
  0
LINE
  5
A6
330
1E
100
AcDbEntity
  8
0
100
AcDbLine
 10
-0.0249999999999844
 20
231.0
 30
0.0
 11
-0.0249999999999835
 21
245.0
 31
0.0
  0
LINE
  5
A7
330
1E
100
AcDbEntity
  8
0
100
AcDbLine
 10
-0.0249999999999844
 20
231.0
 30
0.0
 11
0.9750000000000159
 21
230.0
 31
0.0
  0
LINE
  5
A8
330
1E
100
AcDbEntity
  8
0
100
AcDbLine
 10
-0.0249999999999844
 20
231.0
 30
0.0
 11
0.475000000000016
 21
231.0
 31
0.0
  0
LINE
  5
A9
330
1E
100
AcDbEntity
  8
0
100
AcDbLine
 10
-0.0249999999999843
 20
231.0
 30
0.0
 11
0.9750000000000159
 21
230.0
 31
0.0
  0
LINE
  5
AA
330
1E
100
AcDbEntity
  8
0
100
AcDbLine
 10
1.97500000000002
 20
225.0
 30
0.0
 11
2.375000000000019
 21
225.0
 31
0.0
  0
LINE
  5
AB
330
1E
100
AcDbEntity
  8
0
100
AcDbLine
 10
1.97500000000002
 20
225.0
 30
0.0
 11
1.97500000000002
 21
230.0
 31
0.0
  0
LINE
  5
AC
330
1E
100
AcDbEntity
  8
0
100
AcDbLine
 10
2.375000000000019
 20
225.0
 30
0.0
 11
3.57500000000002
 21
225.0
 31
0.0
  0
LINE
  5
AD
330
1E
100
AcDbEntity
  8
0
100
AcDbLine
 10
3.57500000000002
 20
225.0
 30
0.0
 11
5.475000000000009
 21
225.0
 31
0.0
  0
LINE
  5
AE
330
1E
100
AcDbEntity
  8
0
100
AcDbLine
 10
5.475000000000009
 20
225.0
 30
0.0
 11
7.975000000000009
 21
225.0
 31
0.0
  0
LINE
  5
AF
330
1E
100
AcDbEntity
  8
0
100
AcDbLine
 10
0.475000000000016
 20
231.0
 30
0.0
 11
1.875000000000019
 21
231.0
 31
0.0
  0
LINE
  5
B0
330
1E
100
AcDbEntity
  8
0
100
AcDbLine
 10
0.475000000000016
 20
231.0
 30
0.0
 11
1.875000000000019
 21
231.0
 31
0.0
  0
LINE
  5
B1
330
1E
100
AcDbEntity
  8
0
100
AcDbLine
 10
-0.0249999999999834
 20
245.0
 30
0.0
 11
1.875000000000019
 21
259.2
 31
0.0
  0
LINE
  5
B2
330
1E
100
AcDbEntity
  8
0
100
AcDbLine
 10
0.9750000000000159
 20
230.0
 30
0.0
 11
1.47500000000002
 21
230.0
 31
0.0
  0
LINE
  5
B3
330
1E
100
AcDbEntity
  8
0
100
AcDbLine
 10
2.675000000000019
 20
230.0
 30
0.0
 11
4.775000000000019
 21
230.0
 31
0.0
  0
LINE
  5
B4
330
1E
100
AcDbEntity
  8
0
100
AcDbLine
 10
1.97500000000002
 20
230.0
 30
0.0
 11
2.375000000000019
 21
230.0
 31
0.0
  0
LINE
  5
B5
330
1E
100
AcDbEntity
  8
0
100
AcDbLine
 10
2.375000000000019
 20
230.0
 30
0.0
 11
3.57500000000002
 21
230.0
 31
0.0
  0
LINE
  5
B6
330
1E
100
AcDbEntity
  8
0
100
AcDbLine
 10
4.775000000000019
 20
230.0
 30
0.0
 11
7.475000000000019
 21
230.0
 31
0.0
  0
LINE
  5
B7
330
1E
100
AcDbEntity
  8
0
100
AcDbLine
 10
7.475000000000019
 20
230.0
 30
0.0
 11
10.57499999999999
 21
230.0
 31
0.0
  0
LINE
  5
B8
330
1E
100
AcDbEntity
  8
0
100
AcDbLine
 10
3.57500000000002
 20
230.0
 30
0.0
 11
5.475000000000009
 21
230.0
 31
0.0
  0
LINE
  5
B9
330
1E
100
AcDbEntity
  8
0
100
AcDbLine
 10
5.475000000000009
 20
230.0
 30
0.0
 11
7.975000000000019
 21
230.0
 31
0.0
  0
LINE
  5
BA
330
1E
100
AcDbEntity
  8
0
100
AcDbLine
 10
10.57499999999999
 20
230.0
 30
0.0
 11
13.97499999999999
 21
230.0
 31
0.0
  0
LINE
  5
BB
330
1E
100
AcDbEntity
  8
0
100
AcDbLine
 10
7.975000000000019
 20
230.0
 30
0.0
 11
10.875
 21
230.0
 31
0.0
  0
LINE
  5
BC
330
1E
100
AcDbEntity
  8
0
100
AcDbLine
 10
1.875000000000019
 20
231.0
 30
0.0
 11
4.07500000000002
 21
231.0
 31
0.0
  0
LINE
  5
BD
330
1E
100
AcDbEntity
  8
0
100
AcDbLine
 10
1.875000000000019
 20
231.0
 30
0.0
 11
4.07500000000002
 21
231.0
 31
0.0
  0
LINE
  5
BE
330
1E
100
AcDbEntity
  8
0
100
AcDbLine
 10
4.07500000000002
 20
231.0
 30
0.0
 11
6.975000000000009
 21
231.0
 31
0.0
  0
LINE
  5
BF
330
1E
100
AcDbEntity
  8
0
100
AcDbLine
 10
6.975000000000009
 20
231.0
 30
0.0
 11
10.375
 21
231.0
 31
0.0
  0
LINE
  5
C0
330
1E
100
AcDbEntity
  8
0
100
AcDbLine
 10
10.375
 20
231.0
 30
0.0
 11
13.97499999999999
 21
231.0
 31
0.0
  0
LINE
  5
C1
330
1E
100
AcDbEntity
  8
0
100
AcDbLine
 10
10.875
 20
230.0
 30
0.0
 11
13.97499999999999
 21
230.0
 31
0.0
  0
LINE
  5
C2
330
1E
100
AcDbEntity
  8
0
100
AcDbLine
 10
1.47500000000002
 20
230.0
 30
0.0
 11
1.97500000000002
 21
230.0
 31
0.0
  0
LINE
  5
C3
330
1E
100
AcDbEntity
  8
0
100
AcDbLine
 10
1.47500000000002
 20
230.0
 30
0.0
 11
2.675000000000019
 21
230.0
 31
0.0
  0
LINE
  5
C4
330
1E
100
AcDbEntity
  8
0
100
AcDbLine
 10
7.975000000000009
 20
225.0
 30
0.0
 11
10.875
 21
225.0
 31
0.0
  0
LINE
  5
C5
330
1E
100
AcDbEntity
  8
0
100
AcDbLine
 10
25.575
 20
225.0
 30
0.0
 11
25.975
 21
225.0
 31
0.0
  0
LINE
  5
C6
330
1E
100
AcDbEntity
  8
0
100
AcDbLine
 10
180.2208
 20
141.181
 30
0.0
 11
180.2557699999999
 21
142.71
 31
0.0
  0
LINE
  5
C7
330
1E
100
AcDbEntity
  8
0
100
AcDbLine
 10
180.2208
 20
141.181
 30
0.0
 11
180.307624
 21
140.6889999999999
 31
0.0
  0
LINE
  5
C8
330
1E
100
AcDbEntity
  8
0
100
AcDbLine
 10
180.585461
 20
139.1129999999999
 30
0.0
 11
181.036946
 21
136.5529999999999
 31
0.0
  0
LINE
  5
C9
330
1E
100
AcDbEntity
  8
0
100
AcDbLine
 10
180.307624
 20
140.6889999999999
 30
0.0
 11
180.585461
 21
139.1129999999999
 31
0.0
  0
LINE
  5
CA
330
1E
100
AcDbEntity
  8
0
100
AcDbLine
 10
180.2557699999999
 20
142.71
 30
0.0
 11
180.916354
 21
144.147
 31
0.0
  0
LINE
  5
CB
330
1E
100
AcDbEntity
  8
0
100
AcDbLine
 10
180.916354
 20
144.147
 30
0.0
 11
182.04032
 21
145.2589999999999
 31
0.0
  0
LINE
  5
CC
330
1E
100
AcDbEntity
  8
0
100
AcDbLine
 10
182.04032
 20
145.2589999999999
 30
0.0
 11
183.4654399999999
 21
145.815
 31
0.0
  0
LINE
  5
CD
330
1E
100
AcDbEntity
  8
0
100
AcDbLine
 10
181.036946
 20
136.5529999999999
 30
0.0
 11
181.60998
 21
133.3029999999999
 31
0.0
  0
LINE
  5
CE
330
1E
100
AcDbEntity
  8
0
100
AcDbLine
 10
181.60998
 20
133.3029999999999
 30
0.0
 11
182.28721
 21
129.462
 31
0.0
  0
LINE
  5
CF
330
1E
100
AcDbEntity
  8
0
100
AcDbLine
 10
190.16567
 20
130.851
 30
0.0
 11
190.8775999999999
 21
126.8134
 31
0.0
  0
LINE
  5
D0
330
1E
100
AcDbEntity
  8
0
100
AcDbLine
 10
190.8775999999999
 20
126.8134
 30
0.0
 11
198.955784921831
 21
81.0
 31
0.0
  0
LINE
  5
D1
330
1E
100
AcDbEntity
  8
0
100
AcDbLine
 10
188.91541
 20
137.942
 30
0.0
 11
189.48845
 21
134.692
 31
0.0
  0
LINE
  5
D2
330
1E
100
AcDbEntity
  8
0
100
AcDbLine
 10
188.46392
 20
140.502
 30
0.0
 11
188.91541
 21
137.942
 31
0.0
  0
LINE
  5
D3
330
1E
100
AcDbEntity
  8
0
100
AcDbLine
 10
188.1860899999999
 20
142.078
 30
0.0
 11
188.46392
 21
140.502
 31
0.0
  0
LINE
  5
D4
330
1E
100
AcDbEntity
  8
0
100
AcDbLine
 10
188.09926
 20
142.5699999999999
 30
0.0
 11
188.1860899999999
 21
142.078
 31
0.0
  0
LINE
  5
D5
330
1E
100
AcDbEntity
  8
0
100
AcDbLine
 10
189.48845
 20
134.692
 30
0.0
 11
190.16567
 21
130.851
 31
0.0
  0
LINE
  5
D6
330
1E
100
AcDbEntity
  8
0
100
AcDbLine
 10
187.5433499999999
 20
143.995
 30
0.0
 11
188.09926
 21
142.5699999999999
 31
0.0
  0
LINE
  5
D7
330
1E
100
AcDbEntity
  8
0
100
AcDbLine
 10
186.43128
 20
145.1189999999999
 30
0.0
 11
187.5433499999999
 21
143.995
 31
0.0
  0
LINE
  5
D8
330
1E
100
AcDbEntity
  8
0
100
AcDbLine
 10
184.9947399999999
 20
145.7799999999999
 30
0.0
 11
186.43128
 21
145.1189999999999
 31
0.0
  0
LINE
  5
D9
330
1E
100
AcDbEntity
  8
0
100
AcDbLine
 10
183.4654399999999
 20
145.815
 30
0.0
 11
184.9947399999999
 21
145.7799999999999
 31
0.0
  0
LINE
  5
DA
330
1E
100
AcDbEntity
  8
0
100
AcDbLine
 10
182.28721
 20
129.462
 30
0.0
 11
182.9991699999999
 21
125.4242999999999
 31
0.0
  0
LINE
  5
DB
330
1E
100
AcDbEntity
  8
0
100
AcDbLine
 10
182.9991699999999
 20
125.4242999999999
 30
0.0
 11
190.901806642784
 21
80.60606681139571
 31
0.0
  0
LINE
  5
DC
330
1E
100
AcDbEntity
  8
0
100
AcDbLine
 10
182.9991699999999
 20
125.4242999999999
 30
0.0
 11
190.901806642784
 21
80.60606681139573
 31
0.0
  0
LINE
  5
DD
330
1E
100
AcDbEntity
  8
0
100
AcDbLine
 10
25.975
 20
225.0
 30
0.0
 11
25.975
 21
230.0
 31
0.0
  0
LINE
  5
DE
330
1E
100
AcDbEntity
  8
0
100
AcDbLine
 10
24.375
 20
225.0
 30
0.0
 11
25.575
 21
225.0
 31
0.0
  0
LINE
  5
DF
330
1E
100
AcDbEntity
  8
0
100
AcDbLine
 10
22.475
 20
225.0
 30
0.0
 11
24.375
 21
225.0
 31
0.0
  0
LINE
  5
E0
330
1E
100
AcDbEntity
  8
0
100
AcDbLine
 10
19.975
 20
225.0
 30
0.0
 11
22.475
 21
225.0
 31
0.0
  0
LINE
  5
E1
330
1E
100
AcDbEntity
  8
0
100
AcDbLine
 10
17.075
 20
225.0
 30
0.0
 11
19.975
 21
225.0
 31
0.0
  0
LINE
  5
E2
330
1E
100
AcDbEntity
  8
0
100
AcDbLine
 10
17.075
 20
230.0
 30
0.0
 11
19.975
 21
230.0
 31
0.0
  0
LINE
  5
E3
330
1E
100
AcDbEntity
  8
0
100
AcDbLine
 10
22.475
 20
230.0
 30
0.0
 11
24.375
 21
230.0
 31
0.0
  0
LINE
  5
E4
330
1E
100
AcDbEntity
  8
0
100
AcDbLine
 10
19.975
 20
230.0
 30
0.0
 11
22.475
 21
230.0
 31
0.0
  0
LINE
  5
E5
330
1E
100
AcDbEntity
  8
0
100
AcDbLine
 10
25.575
 20
230.0
 30
0.0
 11
25.975
 21
230.0
 31
0.0
  0
LINE
  5
E6
330
1E
100
AcDbEntity
  8
0
100
AcDbLine
 10
24.375
 20
230.0
 30
0.0
 11
25.575
 21
230.0
 31
0.0
  0
LINE
  5
E7
330
1E
100
AcDbEntity
  8
0
100
AcDbLine
 10
25.27499999999999
 20
230.0
 30
0.0
 11
26.475
 21
230.0
 31
0.0
  0
LINE
  5
E8
330
1E
100
AcDbEntity
  8
0
100
AcDbLine
 10
23.175
 20
230.0
 30
0.0
 11
25.27499999999999
 21
230.0
 31
0.0
  0
LINE
  5
E9
330
1E
100
AcDbEntity
  8
0
100
AcDbLine
 10
20.475
 20
230.0
 30
0.0
 11
23.175
 21
230.0
 31
0.0
  0
LINE
  5
EA
330
1E
100
AcDbEntity
  8
0
100
AcDbLine
 10
17.375
 20
230.0
 30
0.0
 11
20.475
 21
230.0
 31
0.0
  0
LINE
  5
EB
330
1E
100
AcDbEntity
  8
0
100
AcDbLine
 10
23.875
 20
231.0
 30
0.0
 11
26.07499999999999
 21
231.0
 31
0.0
  0
LINE
  5
EC
330
1E
100
AcDbEntity
  8
0
100
AcDbLine
 10
20.975
 20
231.0
 30
0.0
 11
23.875
 21
231.0
 31
0.0
  0
LINE
  5
ED
330
1E
100
AcDbEntity
  8
0
100
AcDbLine
 10
17.575
 20
231.0
 30
0.0
 11
20.975
 21
231.0
 31
0.0
  0
LINE
  5
EE
330
1E
100
AcDbEntity
  8
0
100
AcDbLine
 10
13.97499999999999
 20
231.0
 30
0.0
 11
17.575
 21
231.0
 31
0.0
  0
LINE
  5
EF
330
1E
100
AcDbEntity
  8
0
100
AcDbLine
 10
13.97499999999999
 20
230.0
 30
0.0
 11
17.375
 21
230.0
 31
0.0
  0
LINE
  5
F0
330
1E
100
AcDbEntity
  8
0
100
AcDbLine
 10
13.97499999999999
 20
230.0
 30
0.0
 11
17.075
 21
230.0
 31
0.0
  0
LINE
  5
F1
330
1E
100
AcDbEntity
  8
0
100
AcDbLine
 10
26.975
 20
230.0
 30
0.0
 11
27.975
 21
231.0
 31
0.0
  0
LINE
  5
F2
330
1E
100
AcDbEntity
  8
0
100
AcDbLine
 10
27.975
 20
231.0
 30
0.0
 11
27.975
 21
245.0
 31
0.0
  0
LINE
  5
F3
330
1E
100
AcDbEntity
  8
0
100
AcDbLine
 10
27.475
 20
231.0
 30
0.0
 11
27.975
 21
231.0
 31
0.0
  0
LINE
  5
F4
330
1E
100
AcDbEntity
  8
0
100
AcDbLine
 10
26.07499999999999
 20
231.0
 30
0.0
 11
27.475
 21
231.0
 31
0.0
  0
LINE
  5
F5
330
1E
100
AcDbEntity
  8
0
100
AcDbLine
 10
26.475
 20
230.0
 30
0.0
 11
26.975
 21
230.0
 31
0.0
  0
LINE
  5
F6
330
1E
100
AcDbEntity
  8
0
100
AcDbLine
 10
25.975
 20
230.0
 30
0.0
 11
26.475
 21
230.0
 31
0.0
  0
LINE
  5
F7
330
1E
100
AcDbEntity
  8
0
100
AcDbLine
 10
13.97499999999999
 20
225.0
 30
0.0
 11
17.075
 21
225.0
 31
0.0
  0
LINE
  5
F8
330
1E
100
AcDbEntity
  8
0
100
AcDbLine
 10
10.875
 20
225.0
 30
0.0
 11
13.97499999999999
 21
225.0
 31
0.0
  0
LINE
  5
F9
330
1E
100
AcDbEntity
  8
0
100
AcDbLine
 10
35.875
 20
264.1
 30
0.0
 11
41.47499999999999
 21
268.3999999999999
 31
0.0
  0
LINE
  5
FA
330
1E
100
AcDbEntity
  8
0
100
AcDbLine
 10
41.47499999999999
 20
268.3999999999999
 30
0.0
 11
47.975
 21
271.1
 31
0.0
  0
LINE
  5
FB
330
1E
100
AcDbEntity
  8
0
100
AcDbLine
 10
47.975
 20
271.1
 30
0.0
 11
54.975
 21
272.0
 31
0.0
  0
LINE
  5
FC
330
1E
100
AcDbEntity
  8
0
100
AcDbLine
 10
31.575
 20
258.4999999999999
 30
0.0
 11
35.875
 21
264.1
 31
0.0
  0
LINE
  5
FD
330
1E
100
AcDbEntity
  8
0
100
AcDbLine
 10
28.875
 20
252.0
 30
0.0
 11
31.575
 21
258.4999999999999
 31
0.0
  0
LINE
  5
FE
330
1E
100
AcDbEntity
  8
0
100
AcDbLine
 10
1.875000000000019
 20
259.2
 30
0.0
 11
7.375000000000018
 21
272.5
 31
0.0
  0
LINE
  5
FF
330
1E
100
AcDbEntity
  8
0
100
AcDbLine
 10
27.975
 20
245.0
 30
0.0
 11
28.875
 21
252.0
 31
0.0
  0
LINE
  5
100
330
1E
100
AcDbEntity
  8
0
100
AcDbLine
 10
27.975
 20
245.0
 30
0.0
 11
27.975
 21
231.0
 31
0.0
  0
LINE
  5
101
330
1E
100
AcDbEntity
  8
0
100
AcDbLine
 10
-0.0249999999999835
 20
245.0
 30
0.0
 11
1.875000000000019
 21
259.2
 31
0.0
  0
LINE
  5
102
330
1E
100
AcDbEntity
  8
0
100
AcDbLine
 10
16.07499999999999
 20
283.9
 30
0.0
 11
27.475
 21
292.6
 31
0.0
  0
LINE
  5
103
330
1E
100
AcDbEntity
  8
0
100
AcDbLine
 10
54.975
 20
272.0
 30
0.0
 11
213.9749999999999
 21
272.0
 31
0.0
  0
LINE
  5
104
330
1E
100
AcDbEntity
  8
0
100
AcDbLine
 10
27.475
 20
292.6
 30
0.0
 11
40.77499999999999
 21
298.1
 31
0.0
  0
LINE
  5
105
330
1E
100
AcDbEntity
  8
0
100
AcDbLine
 10
54.975
 20
300.0
 30
0.0
 11
213.9749999999999
 21
300.0
 31
0.0
  0
LINE
  5
106
330
1E
100
AcDbEntity
  8
0
100
AcDbLine
 10
54.975
 20
300.0
 30
0.0
 11
213.9749999999999
 21
300.0
 31
0.0
  0
LINE
  5
107
330
1E
100
AcDbEntity
  8
0
100
AcDbLine
 10
40.77499999999999
 20
298.1
 30
0.0
 11
54.975
 21
300.0
 31
0.0
  0
LINE
  5
108
330
1E
100
AcDbEntity
  8
0
100
AcDbLine
 10
7.375000000000018
 20
272.5
 30
0.0
 11
16.07499999999999
 21
283.9
 31
0.0
  0
LINE
  5
109
330
1E
100
AcDbEntity
  8
0
100
AcDbLine
 10
213.9749999999999
 20
272.0
 30
0.0
 11
220.975
 21
271.1
 31
0.0
  0
LINE
  5
10A
330
1E
100
AcDbEntity
  8
0
100
AcDbLine
 10
220.975
 20
271.1
 30
0.0
 11
227.475
 21
268.3999999999999
 31
0.0
  0
LINE
  5
10B
330
1E
100
AcDbEntity
  8
0
100
AcDbLine
 10
213.9749999999999
 20
300.0
 30
0.0
 11
228.175
 21
298.1
 31
0.0
  0
LINE
  5
10C
330
1E
100
AcDbEntity
  8
0
100
AcDbLine
 10
223.9749999999999
 20
81.0
 30
0.0
 11
228.975
 21
81.0
 31
0.0
  0
LINE
  5
10D
330
1E
100
AcDbEntity
  8
0
100
AcDbLine
 10
223.9749999999999
 20
81.0
 30
0.0
 11
223.9749999999999
 21
80.09999999999999
 31
0.0
  0
LINE
  5
10E
330
1E
100
AcDbEntity
  8
0
100
AcDbLine
 10
228.975
 20
29.0
 30
0.0
 11
228.975
 21
-0.000000000000025
 31
0.0
  0
LINE
  5
10F
330
1E
100
AcDbEntity
  8
0
100
AcDbLine
 10
228.975
 20
29.0
 30
0.0
 11
229.875
 21
29.9
 31
0.0
  0
LINE
  5
110
330
1E
100
AcDbEntity
  8
0
100
AcDbLine
 10
227.475
 20
268.3999999999999
 30
0.0
 11
233.075
 21
264.1
 31
0.0
  0
LINE
  5
111
330
1E
100
AcDbEntity
  8
0
100
AcDbLine
 10
228.175
 20
298.1
 30
0.0
 11
241.475
 21
292.6
 31
0.0
  0
LINE
  5
112
330
1E
100
AcDbEntity
  8
0
100
AcDbLine
 10
228.975
 20
98.0
 30
0.0
 11
230.975
 21
100.0
 31
0.0
  0
LINE
  5
113
330
1E
100
AcDbEntity
  8
0
100
AcDbLine
 10
228.975
 20
98.0
 30
0.0
 11
229.875
 21
98.0
 31
0.0
  0
LINE
  5
114
330
1E
100
AcDbEntity
  8
0
100
AcDbLine
 10
228.975
 20
98.0
 30
0.0
 11
228.975
 21
81.0
 31
0.0
  0
LINE
  5
115
330
1E
100
AcDbEntity
  8
0
100
AcDbLine
 10
223.9749999999999
 20
29.0
 30
0.0
 11
228.975
 21
29.0
 31
0.0
  0
LINE
  5
116
330
1E
100
AcDbEntity
  8
0
100
AcDbLine
 10
223.9749999999999
 20
29.0
 30
0.0
 11
223.9749999999999
 21
29.9
 31
0.0
  0
LINE
  5
117
330
1E
100
AcDbEntity
  8
0
100
AcDbLine
 10
228.975
 20
-0.0000000000000236
 30
0.0
 11
229.875
 21
-0.0000000000000237
 31
0.0
  0
LINE
  5
118
330
1E
100
AcDbEntity
  8
0
100
AcDbLine
 10
228.975
 20
-0.0000000000000236
 30
0.0
 11
228.975
 21
29.0
 31
0.0
  0
LINE
  5
119
330
1E
100
AcDbEntity
  8
0
100
AcDbLine
 10
236.5749999999999
 20
-0.0000000000000241
 30
0.0
 11
242.0749999999999
 21
-0.0000000000000245
 31
0.0
  0
LINE
  5
11A
330
1E
100
AcDbEntity
  8
0
100
AcDbLine
 10
232.4749999999999
 20
-0.0000000000000239
 30
0.0
 11
236.5749999999999
 21
-0.0000000000000241
 31
0.0
  0
LINE
  5
11B
330
1E
100
AcDbEntity
  8
0
100
AcDbLine
 10
280.0749999999999
 20
-0.0000000000000268
 30
0.0
 11
280.975
 21
-0.0000000000000268
 31
0.0
  0
LINE
  5
11C
330
1E
100
AcDbEntity
  8
0
100
AcDbLine
 10
280.975
 20
-0.0000000000000268
 30
0.0
 11
280.975
 21
98.0
 31
0.0
  0
LINE
  5
11D
330
1E
100
AcDbEntity
  8
0
100
AcDbLine
 10
248.275
 20
-0.0000000000000248
 30
0.0
 11
254.9749999999999
 21
-0.0000000000000252
 31
0.0
  0
LINE
  5
11E
330
1E
100
AcDbEntity
  8
0
100
AcDbLine
 10
254.9749999999999
 20
-0.0000000000000252
 30
0.0
 11
261.675
 21
-0.0000000000000257
 31
0.0
  0
LINE
  5
11F
330
1E
100
AcDbEntity
  8
0
100
AcDbLine
 10
267.8749999999999
 20
-0.000000000000026
 30
0.0
 11
273.375
 21
-0.0000000000000264
 31
0.0
  0
LINE
  5
120
330
1E
100
AcDbEntity
  8
0
100
AcDbLine
 10
273.375
 20
-0.0000000000000264
 30
0.0
 11
277.475
 21
-0.0000000000000266
 31
0.0
  0
LINE
  5
121
330
1E
100
AcDbEntity
  8
0
100
AcDbLine
 10
261.675
 20
-0.0000000000000257
 30
0.0
 11
267.8749999999999
 21
-0.000000000000026
 31
0.0
  0
LINE
  5
122
330
1E
100
AcDbEntity
  8
0
100
AcDbLine
 10
277.475
 20
-0.0000000000000266
 30
0.0
 11
280.0749999999999
 21
-0.0000000000000268
 31
0.0
  0
LINE
  5
123
330
1E
100
AcDbEntity
  8
0
100
AcDbLine
 10
242.0749999999999
 20
-0.0000000000000245
 30
0.0
 11
248.275
 21
-0.0000000000000248
 31
0.0
  0
LINE
  5
124
330
1E
100
AcDbEntity
  8
0
100
AcDbLine
 10
229.875
 20
80.09999999999999
 30
0.0
 11
232.4749999999999
 21
77.5
 31
0.0
  0
LINE
  5
125
330
1E
100
AcDbEntity
  8
0
100
AcDbLine
 10
232.4749999999999
 20
77.5
 30
0.0
 11
236.5749999999999
 21
73.4
 31
0.0
  0
LINE
  5
126
330
1E
100
AcDbEntity
  8
0
100
AcDbLine
 10
232.4749999999999
 20
32.5
 30
0.0
 11
236.5749999999999
 21
36.6
 31
0.0
  0
LINE
  5
127
330
1E
100
AcDbEntity
  8
0
100
AcDbLine
 10
229.875
 20
29.9
 30
0.0
 11
232.4749999999999
 21
32.5
 31
0.0
  0
LINE
  5
128
330
1E
100
AcDbEntity
  8
0
100
AcDbLine
 10
229.875
 20
98.0
 30
0.0
 11
232.4749999999999
 21
98.0
 31
0.0
  0
LINE
  5
129
330
1E
100
AcDbEntity
  8
0
100
AcDbLine
 10
236.5749999999999
 20
73.4
 30
0.0
 11
242.0749999999999
 21
67.9
 31
0.0
  0
LINE
  5
12A
330
1E
100
AcDbEntity
  8
0
100
AcDbLine
 10
236.5749999999999
 20
36.6
 30
0.0
 11
242.0749999999999
 21
42.09999999999999
 31
0.0
  0
LINE
  5
12B
330
1E
100
AcDbEntity
  8
0
100
AcDbLine
 10
232.4749999999999
 20
98.0
 30
0.0
 11
236.5749999999999
 21
98.0
 31
0.0
  0
LINE
  5
12C
330
1E
100
AcDbEntity
  8
0
100
AcDbLine
 10
230.975
 20
100.0
 30
0.0
 11
231.875
 21
100.0
 31
0.0
  0
LINE
  5
12D
330
1E
100
AcDbEntity
  8
0
100
AcDbLine
 10
231.875
 20
100.0
 30
0.0
 11
234.175
 21
100.0
 31
0.0
  0
LINE
  5
12E
330
1E
100
AcDbEntity
  8
0
100
AcDbLine
 10
234.175
 20
100.0
 30
0.0
 11
238.0749999999999
 21
100.0
 31
0.0
  0
LINE
  5
12F
330
1E
100
AcDbEntity
  8
0
100
AcDbLine
 10
238.0749999999999
 20
100.0
 30
0.0
 11
242.9749999999999
 21
100.0
 31
0.0
  0
LINE
  5
130
330
1E
100
AcDbEntity
  8
0
100
AcDbLine
 10
236.5749999999999
 20
98.0
 30
0.0
 11
242.0749999999999
 21
98.0
 31
0.0
  0
LINE
  5
131
330
1E
100
AcDbEntity
  8
0
100
AcDbLine
 10
242.9749999999999
 20
100.0
 30
0.0
 11
248.775
 21
100.0
 31
0.0
  0
LINE
  5
132
330
1E
100
AcDbEntity
  8
0
100
AcDbLine
 10
242.0749999999999
 20
98.0
 30
0.0
 11
248.275
 21
98.0
 31
0.0
  0
LINE
  5
133
330
1E
100
AcDbEntity
  8
0
100
AcDbLine
 10
254.9749999999999
 20
98.0
 30
0.0
 11
261.675
 21
98.0
 31
0.0
  0
LINE
  5
134
330
1E
100
AcDbEntity
  8
0
100
AcDbLine
 10
261.675
 20
98.0
 30
0.0
 11
267.8749999999999
 21
98.0
 31
0.0
  0
LINE
  5
135
330
1E
100
AcDbEntity
  8
0
100
AcDbLine
 10
267.8749999999999
 20
98.0
 30
0.0
 11
273.375
 21
98.0
 31
0.0
  0
LINE
  5
136
330
1E
100
AcDbEntity
  8
0
100
AcDbLine
 10
273.375
 20
98.0
 30
0.0
 11
277.475
 21
98.0
 31
0.0
  0
LINE
  5
137
330
1E
100
AcDbEntity
  8
0
100
AcDbLine
 10
254.9749999999999
 20
100.0
 30
0.0
 11
261.175
 21
100.0
 31
0.0
  0
LINE
  5
138
330
1E
100
AcDbEntity
  8
0
100
AcDbLine
 10
261.175
 20
100.0
 30
0.0
 11
266.975
 21
100.0
 31
0.0
  0
LINE
  5
139
330
1E
100
AcDbEntity
  8
0
100
AcDbLine
 10
266.975
 20
100.0
 30
0.0
 11
271.875
 21
100.0
 31
0.0
  0
LINE
  5
13A
330
1E
100
AcDbEntity
  8
0
100
AcDbLine
 10
271.875
 20
100.0
 30
0.0
 11
275.7749999999999
 21
100.0
 31
0.0
  0
LINE
  5
13B
330
1E
100
AcDbEntity
  8
0
100
AcDbLine
 10
275.7749999999999
 20
100.0
 30
0.0
 11
278.0749999999999
 21
100.0
 31
0.0
  0
LINE
  5
13C
330
1E
100
AcDbEntity
  8
0
100
AcDbLine
 10
278.0749999999999
 20
100.0
 30
0.0
 11
278.975
 21
100.0
 31
0.0
  0
LINE
  5
13D
330
1E
100
AcDbEntity
  8
0
100
AcDbLine
 10
277.475
 20
98.0
 30
0.0
 11
280.0749999999999
 21
98.0
 31
0.0
  0
LINE
  5
13E
330
1E
100
AcDbEntity
  8
0
100
AcDbLine
 10
280.0749999999999
 20
98.0
 30
0.0
 11
280.975
 21
98.0
 31
0.0
  0
LINE
  5
13F
330
1E
100
AcDbEntity
  8
0
100
AcDbLine
 10
248.775
 20
100.0
 30
0.0
 11
254.9749999999999
 21
100.0
 31
0.0
  0
LINE
  5
140
330
1E
100
AcDbEntity
  8
0
100
AcDbLine
 10
248.275
 20
98.0
 30
0.0
 11
254.9749999999999
 21
98.0
 31
0.0
  0
LINE
  5
141
330
1E
100
AcDbEntity
  8
0
100
AcDbLine
 10
268.975
 20
100.0
 30
0.0
 11
268.975
 21
245.0
 31
0.0
  0
LINE
  5
142
330
1E
100
AcDbEntity
  8
0
100
AcDbLine
 10
240.9749999999999
 20
100.0
 30
0.0
 11
240.9749999999999
 21
245.0
 31
0.0
  0
LINE
  5
143
330
1E
100
AcDbEntity
  8
0
100
AcDbLine
 10
240.9749999999999
 20
245.0
 30
0.0
 11
240.9749999999999
 21
100.0
 31
0.0
  0
LINE
  5
144
330
1E
100
AcDbEntity
  8
0
100
AcDbLine
 10
241.475
 20
292.6
 30
0.0
 11
252.875
 21
283.9
 31
0.0
  0
LINE
  5
145
330
1E
100
AcDbEntity
  8
0
100
AcDbLine
 10
233.075
 20
264.1
 30
0.0
 11
237.375
 21
258.4999999999999
 31
0.0
  0
LINE
  5
146
330
1E
100
AcDbEntity
  8
0
100
AcDbLine
 10
252.875
 20
283.9
 30
0.0
 11
261.5749999999999
 21
272.5
 31
0.0
  0
LINE
  5
147
330
1E
100
AcDbEntity
  8
0
100
AcDbLine
 10
237.375
 20
258.4999999999999
 30
0.0
 11
240.0749999999999
 21
252.0
 31
0.0
  0
LINE
  5
148
330
1E
100
AcDbEntity
  8
0
100
AcDbLine
 10
261.5749999999999
 20
272.5
 30
0.0
 11
267.0749999999999
 21
259.2
 31
0.0
  0
LINE
  5
149
330
1E
100
AcDbEntity
  8
0
100
AcDbLine
 10
240.0749999999999
 20
252.0
 30
0.0
 11
240.9749999999999
 21
245.0
 31
0.0
  0
LINE
  5
14A
330
1E
100
AcDbEntity
  8
0
100
AcDbLine
 10
267.0749999999999
 20
259.2
 30
0.0
 11
268.975
 21
245.0
 31
0.0
  0
LINE
  5
14B
330
1E
100
AcDbEntity
  8
0
100
AcDbLine
 10
278.975
 20
100.0
 30
0.0
 11
280.975
 21
98.0
 31
0.0
  0
LINE
  5
14C
330
1E
100
AcDbEntity
  8
0
100
AcDbLine
 10
280.975
 20
98.0
 30
0.0
 11
280.975
 21
-0.0000000000000333
 31
0.0
  0
LINE
  5
14D
330
1E
100
AcDbEntity
  8
0
100
AcDbLine
 10
229.875
 20
-0.0000000000000237
 30
0.0
 11
232.4749999999999
 21
-0.0000000000000239
 31
0.0
  0
LINE
  5
14E
330
1E
100
AcDbEntity
  8
0
100
AcDbLine
 10
228.975
 20
81.0
 30
0.0
 11
228.975
 21
98.0
 31
0.0
  0
LINE
  5
14F
330
1E
100
AcDbEntity
  8
0
100
AcDbLine
 10
228.975
 20
81.0
 30
0.0
 11
229.875
 21
80.09999999999999
 31
0.0
  0
ENDSEC
  0
SECTION
  2
OBJECTS
  0
DICTIONARY
  5
C
330
0
100
AcDbDictionary
  3
ACAD_GROUP
350
D
  3
ACAD_LAYOUT
350
19
  3
ACAD_MLINESTYLE
350
16
  3
ACAD_PLOTSETTINGS
350
18
  3
ACAD_PLOTSTYLENAME
350
E
  3
ACDBHEADERROUNDTRIPXREC
350
1A1
  3
ACDBVARIABLEDICTIONARY
350
154
  0
DICTIONARY
  5
1C3
330
1E
100
AcDbDictionary
280
     1
  3
ACAD_LAYOUTSELFREF
360
1C4
  0
DICTIONARY
  5
1C1
330
1A
100
AcDbDictionary
280
     1
  3
ACAD_LAYOUTSELFREF
360
1C2
  0
DICTIONARY
  5
D
102
{ACAD_REACTORS
330
C
102
}
330
C
100
AcDbDictionary
  0
DICTIONARY
  5
19
102
{ACAD_REACTORS
330
C
102
}
330
C
100
AcDbDictionary
  0
DICTIONARY
  5
16
102
{ACAD_REACTORS
330
C
102
}
330
C
100
AcDbDictionary
  3
STANDARD
350
17
  0
DICTIONARY
  5
18
102
{ACAD_REACTORS
330
C
102
}
330
C
100
AcDbDictionary
  0
ACDBDICTIONARYWDFLT
  5
E
102
{ACAD_REACTORS
330
C
102
}
330
C
100
AcDbDictionary
281
     1
  3
Normal
350
F
100
AcDbDictionaryWithDefault
340
F
  0
DICTIONARY
  5
1A1
102
{ACAD_REACTORS
330
C
102
}
330
C
100
AcDbDictionary
  3
CEPSNTYPE
350
1AB
  3
FINGERPRINTGUID
350
1AC
  3
HYPERLINKBASE
350
1A4
  3
INSUNITS
350
1AA
  3
LAYOUTDICT
350
1A6
  3
LWETCUNION
350
1A9
  3
PLOTSETDICT
350
1A7
  3
PLOTSTYLNAMDICT
350
1A8
  3
PSVPSCALE
350
1AE
  3
PUCSBASE
350
1B1
  3
PUCSORGBACK
350
1B7
  3
PUCSORGBOTTOM
350
1B3
  3
PUCSORGFRONT
350
1B6
  3
PUCSORGLEFT
350
1B4
  3
PUCSORGRIGHT
350
1B5
  3
PUCSORGTOP
350
1B2
  3
PUCSORTHOREF
350
1AF
  3
PUCSORTHOVIEW
350
1B0
  3
STYLESHEET
350
1A5
  3
TSTACKALIGN
350
1A2
  3
TSTACKSIZE
350
1A3
  3
UCSBASE
350
1BA
  3
UCSORGBACK
350
1C0
  3
UCSORGBOTTOM
350
1BC
  3
UCSORGFRONT
350
1BF
  3
UCSORGLEFT
350
1BD
  3
UCSORGRIGHT
350
1BE
  3
UCSORGTOP
350
1BB
  3
UCSORTHOREF
350
1B8
  3
UCSORTHOVIEW
350
1B9
  3
VERSIONGUID
350
1AD
  0
DICTIONARY
  5
154
102
{ACAD_REACTORS
330
C
102
}
330
C
100
AcDbDictionary
  3
DIMASSOC
350
155
  0
XRECORD
  5
1C4
102
{ACAD_REACTORS
330
1C3
102
}
330
1C3
100
AcDbXrecord
340
1E
  0
XRECORD
  5
1C2
102
{ACAD_REACTORS
330
1C1
102
}
330
1C1
100
AcDbXrecord
340
1A
  0
MLINESTYLE
  5
17
102
{ACAD_REACTORS
330
16
102
}
330
16
100
AcDbMlineStyle
  2
STANDARD
 70
     0
  3

 62
   256
 51
90.0
 52
90.0
 71
     2
 49
0.5
 62
   256
  6
BYLAYER
 49
-0.5
 62
   256
  6
BYLAYER
  0
ACDBPLACEHOLDER
  5
F
102
{ACAD_REACTORS
330
E
102
}
330
E
100
AcDbPlaceHolder
280
     0
  0
XRECORD
  5
1AB
102
{ACAD_REACTORS
330
1A1
102
}
330
1A1
100
AcDbXrecord
 90
        0
  0
XRECORD
  5
1AC
102
{ACAD_REACTORS
330
1A1
102
}
330
1A1
100
AcDbXrecord
  1
{CA8BE3F2-F4AF-402A-8CE7-311D24491233}
  0
XRECORD
  5
1A4
102
{ACAD_REACTORS
330
1A1
102
}
330
1A1
100
AcDbXrecord
  1

  0
XRECORD
  5
1AA
102
{ACAD_REACTORS
330
1A1
102
}
330
1A1
100
AcDbXrecord
 90
        0
  0
XRECORD
  5
1A6
102
{ACAD_REACTORS
330
1A1
102
}
330
1A1
100
AcDbXrecord
340
19
  0
XRECORD
  5
1A9
102
{ACAD_REACTORS
330
1A1
102
}
330
1A1
100
AcDbXrecord
 90
    10781
  0
XRECORD
  5
1A7
102
{ACAD_REACTORS
330
1A1
102
}
330
1A1
100
AcDbXrecord
340
18
  0
XRECORD
  5
1A8
102
{ACAD_REACTORS
330
1A1
102
}
330
1A1
100
AcDbXrecord
340
E
  0
XRECORD
  5
1AE
102
{ACAD_REACTORS
330
1A1
102
}
330
1A1
100
AcDbXrecord
 40
0.0
  0
XRECORD
  5
1B1
102
{ACAD_REACTORS
330
1A1
102
}
330
1A1
100
AcDbXrecord
340
0
  0
XRECORD
  5
1B7
102
{ACAD_REACTORS
330
1A1
102
}
330
1A1
100
AcDbXrecord
 10
0.0
 20
0.0
 30
0.0
  0
XRECORD
  5
1B3
102
{ACAD_REACTORS
330
1A1
102
}
330
1A1
100
AcDbXrecord
 10
0.0
 20
0.0
 30
0.0
  0
XRECORD
  5
1B6
102
{ACAD_REACTORS
330
1A1
102
}
330
1A1
100
AcDbXrecord
 10
0.0
 20
0.0
 30
0.0
  0
XRECORD
  5
1B4
102
{ACAD_REACTORS
330
1A1
102
}
330
1A1
100
AcDbXrecord
 10
0.0
 20
0.0
 30
0.0
  0
XRECORD
  5
1B5
102
{ACAD_REACTORS
330
1A1
102
}
330
1A1
100
AcDbXrecord
 10
0.0
 20
0.0
 30
0.0
  0
XRECORD
  5
1B2
102
{ACAD_REACTORS
330
1A1
102
}
330
1A1
100
AcDbXrecord
 10
0.0
 20
0.0
 30
0.0
  0
XRECORD
  5
1AF
102
{ACAD_REACTORS
330
1A1
102
}
330
1A1
100
AcDbXrecord
340
0
  0
XRECORD
  5
1B0
102
{ACAD_REACTORS
330
1A1
102
}
330
1A1
100
AcDbXrecord
 70
     0
  0
XRECORD
  5
1A5
102
{ACAD_REACTORS
330
1A1
102
}
330
1A1
100
AcDbXrecord
  1

  0
XRECORD
  5
1A2
102
{ACAD_REACTORS
330
1A1
102
}
330
1A1
100
AcDbXrecord
 90
        1
  0
XRECORD
  5
1A3
102
{ACAD_REACTORS
330
1A1
102
}
330
1A1
100
AcDbXrecord
 90
       70
  0
XRECORD
  5
1BA
102
{ACAD_REACTORS
330
1A1
102
}
330
1A1
100
AcDbXrecord
340
0
  0
XRECORD
  5
1C0
102
{ACAD_REACTORS
330
1A1
102
}
330
1A1
100
AcDbXrecord
 10
0.0
 20
0.0
 30
0.0
  0
XRECORD
  5
1BC
102
{ACAD_REACTORS
330
1A1
102
}
330
1A1
100
AcDbXrecord
 10
0.0
 20
0.0
 30
0.0
  0
XRECORD
  5
1BF
102
{ACAD_REACTORS
330
1A1
102
}
330
1A1
100
AcDbXrecord
 10
0.0
 20
0.0
 30
0.0
  0
XRECORD
  5
1BD
102
{ACAD_REACTORS
330
1A1
102
}
330
1A1
100
AcDbXrecord
 10
0.0
 20
0.0
 30
0.0
  0
XRECORD
  5
1BE
102
{ACAD_REACTORS
330
1A1
102
}
330
1A1
100
AcDbXrecord
 10
0.0
 20
0.0
 30
0.0
  0
XRECORD
  5
1BB
102
{ACAD_REACTORS
330
1A1
102
}
330
1A1
100
AcDbXrecord
 10
0.0
 20
0.0
 30
0.0
  0
XRECORD
  5
1B8
102
{ACAD_REACTORS
330
1A1
102
}
330
1A1
100
AcDbXrecord
340
0
  0
XRECORD
  5
1B9
102
{ACAD_REACTORS
330
1A1
102
}
330
1A1
100
AcDbXrecord
 70
     1
  0
XRECORD
  5
1AD
102
{ACAD_REACTORS
330
1A1
102
}
330
1A1
100
AcDbXrecord
  1
{FFCDB968-3D5D-47D7-82FE-B688A52065DB}
  0
DICTIONARYVAR
  5
155
102
{ACAD_REACTORS
330
154
102
}
330
154
100
DictionaryVariables
280
     0
  1
1
  0
ENDSEC
  0
EOF
