  0
SECTION
  2
HEADER
  9
$ACADVER
  1
AC1014
  9
$ACADMAINTVER
 70
     9
  9
$DWGCODEPAGE
  3
ANSI_1252
  9
$INSBASE
 10
0.0
 20
0.0
 30
0.0
  9
$EXTMIN
 10
0.0000000000000012
 20
32.9066155
 30
0.0
  9
$EXTMAX
 10
170.0
 20
220.0933845
 30
0.0
  9
$LIMMIN
 10
0.0
 20
0.0
  9
$LIMMAX
 10
12.0
 20
9.0
  9
$ORTHOMODE
 70
     0
  9
$REGENMODE
 70
     1
  9
$FILLMODE
 70
     1
  9
$QTEXTMODE
 70
     0
  9
$MIRRTEXT
 70
     1
  9
$DRAGMODE
 70
     2
  9
$LTSCALE
 40
1.0
  9
$OSMODE
 70
    37
  9
$ATTMODE
 70
     1
  9
$TEXTSIZE
 40
0.2
  9
$TRACEWID
 40
0.05
  9
$TEXTSTYLE
  7
STANDARD
  9
$CLAYER
  8
0
  9
$CELTYPE
  6
CONTINUOUS
  9
$CECOLOR
 62
   256
  9
$CELTSCALE
 40
1.0
  9
$DELOBJ
 70
     1
  9
$DISPSILH
 70
     0
  9
$DIMSCALE
 40
1.0
  9
$DIMASZ
 40
0.18
  9
$DIMEXO
 40
0.0625
  9
$DIMDLI
 40
0.38
  9
$DIMRND
 40
0.0
  9
$DIMDLE
 40
0.0
  9
$DIMEXE
 40
0.18
  9
$DIMTP
 40
0.0
  9
$DIMTM
 40
0.0
  9
$DIMTXT
 40
0.18
  9
$DIMCEN
 40
0.09
  9
$DIMTSZ
 40
0.0
  9
$DIMTOL
 70
     0
  9
$DIMLIM
 70
     0
  9
$DIMTIH
 70
     1
  9
$DIMTOH
 70
     1
  9
$DIMSE1
 70
     0
  9
$DIMSE2
 70
     0
  9
$DIMTAD
 70
     0
  9
$DIMZIN
 70
     0
  9
$DIMBLK
  1

  9
$DIMASO
 70
     1
  9
$DIMSHO
 70
     1
  9
$DIMPOST
  1

  9
$DIMAPOST
  1

  9
$DIMALT
 70
     0
  9
$DIMALTD
 70
     2
  9
$DIMALTF
 40
25.4
  9
$DIMLFAC
 40
1.0
  9
$DIMTOFL
 70
     0
  9
$DIMTVP
 40
0.0
  9
$DIMTIX
 70
     0
  9
$DIMSOXD
 70
     0
  9
$DIMSAH
 70
     0
  9
$DIMBLK1
  1

  9
$DIMBLK2
  1

  9
$DIMSTYLE
  2
STANDARD
  9
$DIMCLRD
 70
     0
  9
$DIMCLRE
 70
     0
  9
$DIMCLRT
 70
     0
  9
$DIMTFAC
 40
1.0
  9
$DIMGAP
 40
0.09
  9
$DIMJUST
 70
     0
  9
$DIMSD1
 70
     0
  9
$DIMSD2
 70
     0
  9
$DIMTOLJ
 70
     1
  9
$DIMTZIN
 70
     0
  9
$DIMALTZ
 70
     0
  9
$DIMALTTZ
 70
     0
  9
$DIMFIT
 70
     3
  9
$DIMUPT
 70
     0
  9
$DIMUNIT
 70
     2
  9
$DIMDEC
 70
     4
  9
$DIMTDEC
 70
     4
  9
$DIMALTU
 70
     2
  9
$DIMALTTD
 70
     2
  9
$DIMTXSTY
  7
STANDARD
  9
$DIMAUNIT
 70
     0
  9
$LUNITS
 70
     2
  9
$LUPREC
 70
     4
  9
$SKETCHINC
 40
0.1
  9
$FILLETRAD
 40
0.0
  9
$AUNITS
 70
     0
  9
$AUPREC
 70
     0
  9
$MENU
  1
.
  9
$ELEVATION
 40
0.0
  9
$PELEVATION
 40
0.0
  9
$THICKNESS
 40
0.0
  9
$LIMCHECK
 70
     0
  9
$BLIPMODE
 70
     0
  9
$CHAMFERA
 40
0.0
  9
$CHAMFERB
 40
0.0
  9
$CHAMFERC
 40
0.0
  9
$CHAMFERD
 40
0.0
  9
$SKPOLY
 70
     0
  9
$TDCREATE
 40
2454690.749094502
  9
$TDUPDATE
 40
2454690.753178530
  9
$TDINDWG
 40
0.0040840278
  9
$TDUSRTIMER
 40
0.0040840278
  9
$USRTIMER
 70
     1
  9
$ANGBASE
 50
0.0
  9
$ANGDIR
 70
     0
  9
$PDMODE
 70
     0
  9
$PDSIZE
 40
0.0
  9
$PLINEWID
 40
0.0
  9
$COORDS
 70
     1
  9
$SPLFRAME
 70
     0
  9
$SPLINETYPE
 70
     6
  9
$SPLINESEGS
 70
     8
  9
$ATTDIA
 70
     0
  9
$ATTREQ
 70
     1
  9
$HANDLING
 70
 22529
  9
$HANDSEED
  5
1BC
  9
$SURFTAB1
 70
     6
  9
$SURFTAB2
 70
     6
  9
$SURFTYPE
 70
     6
  9
$SURFU
 70
     6
  9
$SURFV
 70
     6
  9
$UCSNAME
  2

  9
$UCSORG
 10
0.0
 20
0.0
 30
0.0
  9
$UCSXDIR
 10
1.0
 20
0.0
 30
0.0
  9
$UCSYDIR
 10
0.0
 20
1.0
 30
0.0
  9
$PUCSNAME
  2

  9
$PUCSORG
 10
0.0
 20
0.0
 30
0.0
  9
$PUCSXDIR
 10
1.0
 20
0.0
 30
0.0
  9
$PUCSYDIR
 10
0.0
 20
1.0
 30
0.0
  9
$USERI1
 70
     0
  9
$USERI2
 70
     0
  9
$USERI3
 70
     0
  9
$USERI4
 70
     0
  9
$USERI5
 70
     0
  9
$USERR1
 40
0.0
  9
$USERR2
 40
0.0
  9
$USERR3
 40
0.0
  9
$USERR4
 40
0.0
  9
$USERR5
 40
0.0
  9
$WORLDVIEW
 70
     1
  9
$SHADEDGE
 70
     3
  9
$SHADEDIF
 70
    70
  9
$TILEMODE
 70
     1
  9
$MAXACTVP
 70
    64
  9
$PINSBASE
 10
0.0
 20
0.0
 30
0.0
  9
$PLIMCHECK
 70
     0
  9
$PEXTMIN
 10
1.000000000000000E+20
 20
1.000000000000000E+20
 30
1.000000000000000E+20
  9
$PEXTMAX
 10
-1.000000000000000E+20
 20
-1.000000000000000E+20
 30
-1.000000000000000E+20
  9
$PLIMMIN
 10
0.0
 20
0.0
  9
$PLIMMAX
 10
12.0
 20
9.0
  9
$UNITMODE
 70
     0
  9
$VISRETAIN
 70
     1
  9
$PLINEGEN
 70
     0
  9
$PSLTSCALE
 70
     1
  9
$TREEDEPTH
 70
  3020
  9
$PICKSTYLE
 70
     1
  9
$CMLSTYLE
  2
STANDARD
  9
$CMLJUST
 70
     0
  9
$CMLSCALE
 40
1.0
  9
$PROXYGRAPHICS
 70
     1
  9
$MEASUREMENT
 70
     0
  0
ENDSEC
  0
SECTION
  2
CLASSES
  0
CLASS
  1
ACDBDICTIONARYWDFLT
  2
AcDbDictionaryWithDefault
  3
AutoCAD 2000
 90
        0
280
     0
281
     0
  0
CLASS
  1
ACDBPLACEHOLDER
  2
AcDbPlaceHolder
  3
AutoCAD 2000
 90
        0
280
     0
281
     0
  0
CLASS
  1
LAYOUT
  2
AcDbLayout
  3
AutoCAD 2000
 90
        0
280
     0
281
     0
  0
CLASS
  1
DICTIONARYVAR
  2
AcDbDictionaryVar
  3
AutoCAD 2000
 90
        0
280
     0
281
     0
  0
CLASS
  1
LONG_TRANSACTION
  2
AcDbLongTransaction
  3
AutoCAD 2000
 90
        0
280
     0
281
     0
  0
CLASS
  1
LWPOLYLINE
  2
AcDbPolyline
  3
AutoCAD 2000
 90
        0
280
     0
281
     1
  0
CLASS
  1
HATCH
  2
AcDbHatch
  3
AutoCAD 2000
 90
        0
280
     0
281
     1
  0
CLASS
  1
XRECORD
  2
AcDbXrecord
  3
AutoCAD 2000
 90
        0
280
     0
281
     0
  0
ENDSEC
  0
SECTION
  2
TABLES
  0
TABLE
  2
VPORT
  5
8
330
0
100
AcDbSymbolTable
 70
     3
  0
VPORT
  5
197
330
8
100
AcDbSymbolTableRecord
100
AcDbViewportTableRecord
  2
*ACTIVE
 70
     0
 10
0.0
 20
0.0
 11
1.0
 21
1.0
 12
85.0
 22
126.5
 13
0.0
 23
0.0
 14
1.0
 24
1.0
 15
0.0
 25
0.0
 16
0.0
 26
0.0
 36
1.0
 17
0.0
 27
0.0
 37
0.0
 40
188.6229846189258
 41
2.043533930857874
 42
50.0
 43
0.0
 44
0.0
 50
0.0
 51
0.0
 71
     0
 72
   100
 73
     1
 74
     3
 75
     0
 76
     0
 77
     0
 78
     0
  0
ENDTAB
  0
TABLE
  2
LTYPE
  5
5
330
0
100
AcDbSymbolTable
 70
     1
  0
LTYPE
  5
13
330
5
100
AcDbSymbolTableRecord
100
AcDbLinetypeTableRecord
  2
BYBLOCK
 70
     0
  3

 72
    65
 73
     0
 40
0.0
  0
LTYPE
  5
14
330
5
100
AcDbSymbolTableRecord
100
AcDbLinetypeTableRecord
  2
BYLAYER
 70
     0
  3

 72
    65
 73
     0
 40
0.0
  0
LTYPE
  5
15
330
5
100
AcDbSymbolTableRecord
100
AcDbLinetypeTableRecord
  2
CONTINUOUS
 70
     0
  3
Solid line
 72
    65
 73
     0
 40
0.0
  0
ENDTAB
  0
TABLE
  2
LAYER
  5
2
330
0
100
AcDbSymbolTable
 70
     1
  0
LAYER
  5
10
330
2
100
AcDbSymbolTableRecord
100
AcDbLayerTableRecord
  2
0
 70
     0
 62
     7
  6
CONTINUOUS
  0
ENDTAB
  0
TABLE
  2
STYLE
  5
3
330
0
100
AcDbSymbolTable
 70
     1
  0
STYLE
  5
11
330
3
100
AcDbSymbolTableRecord
100
AcDbTextStyleTableRecord
  2
STANDARD
 70
     0
 40
0.0
 41
1.0
 50
0.0
 71
     0
 42
0.2
  3
txt
  4

  0
ENDTAB
  0
TABLE
  2
VIEW
  5
6
330
0
100
AcDbSymbolTable
 70
     0
  0
ENDTAB
  0
TABLE
  2
UCS
  5
7
330
0
100
AcDbSymbolTable
 70
     0
  0
ENDTAB
  0
TABLE
  2
APPID
  5
9
330
0
100
AcDbSymbolTable
 70
     1
  0
APPID
  5
12
330
9
100
AcDbSymbolTableRecord
100
AcDbRegAppTableRecord
  2
ACAD
 70
     0
  0
ENDTAB
  0
TABLE
  2
DIMSTYLE
  5
A
330
0
100
AcDbSymbolTable
 70
     1
  0
DIMSTYLE
105
161
330
A
100
AcDbSymbolTableRecord
100
AcDbDimStyleTableRecord
  2
STANDARD
 70
     0
  3

  4

  5

  6

  7

 40
1.0
 41
0.18
 42
0.0625
 43
0.38
 44
0.18
 45
0.0
 46
0.0
 47
0.0
 48
0.0
140
0.18
141
0.09
142
0.0
143
25.4
144
1.0
145
0.0
146
1.0
147
0.09
 71
     0
 72
     0
 73
     1
 74
     1
 75
     0
 76
     0
 77
     0
 78
     0
170
     0
171
     2
172
     0
173
     0
174
     0
175
     0
176
     0
177
     0
178
     0
270
     2
271
     4
272
     4
273
     2
274
     2
340
11
275
     0
280
     0
281
     0
282
     0
283
     1
284
     0
285
     0
286
     0
287
     3
288
     0
  0
ENDTAB
  0
TABLE
  2
BLOCK_RECORD
  5
1
330
0
100
AcDbSymbolTable
 70
     0
  0
BLOCK_RECORD
  5
1E
102
{ACAD_XDICTIONARY
360
1BA
102
}
330
1
100
AcDbSymbolTableRecord
100
AcDbBlockTableRecord
  2
*MODEL_SPACE
  0
BLOCK_RECORD
  5
1A
102
{ACAD_XDICTIONARY
360
1B8
102
}
330
1
100
AcDbSymbolTableRecord
100
AcDbBlockTableRecord
  2
*PAPER_SPACE
  0
ENDTAB
  0
ENDSEC
  0
SECTION
  2
BLOCKS
  0
BLOCK
  5
1F
330
1E
100
AcDbEntity
  8
0
100
AcDbBlockBegin
  2
*MODEL_SPACE
 70
     0
 10
0.0
 20
0.0
 30
0.0
  3
*MODEL_SPACE
  1

  0
ENDBLK
  5
20
330
1E
100
AcDbEntity
  8
0
100
AcDbBlockEnd
  0
BLOCK
  5
1B
330
1A
100
AcDbEntity
 67
     1
  8
0
100
AcDbBlockBegin
  2
*PAPER_SPACE
 70
     0
 10
0.0
 20
0.0
 30
0.0
  3
*PAPER_SPACE
  1

  0
ENDBLK
  5
1C
330
1A
100
AcDbEntity
 67
     1
  8
0
100
AcDbBlockEnd
  0
ENDSEC
  0
SECTION
  2
ENTITIES
  0
LINE
  5
22
330
1E
100
AcDbEntity
  8
0
100
AcDbLine
 10
0.900000000000001
 20
123.9933844999999
 30
0.0
 11
3.1
 21
113.1933845
 31
0.0
  0
LINE
  5
23
330
1E
100
AcDbEntity
  8
0
100
AcDbLine
 10
11.4
 20
92.7933845
 30
0.0
 11
17.7
 21
83.39338449999999
 31
0.0
  0
LINE
  5
24
330
1E
100
AcDbEntity
  8
0
100
AcDbLine
 10
33.3
 20
67.7933845
 30
0.0
 11
42.7
 21
61.4933845
 31
0.0
  0
LINE
  5
25
330
1E
100
AcDbEntity
  8
0
100
AcDbLine
 10
25.0
 20
75.0933845
 30
0.0
 11
33.3
 21
67.7933845
 31
0.0
  0
LINE
  5
26
330
1E
100
AcDbEntity
  8
0
100
AcDbLine
 10
42.7
 20
61.4933845
 30
0.0
 11
52.5
 21
56.6933845
 31
0.0
  0
LINE
  5
27
330
1E
100
AcDbEntity
  8
0
100
AcDbLine
 10
52.5
 20
56.6933845
 30
0.0
 11
63.1
 21
53.1933845
 31
0.0
  0
LINE
  5
28
330
1E
100
AcDbEntity
  8
0
100
AcDbLine
 10
63.1
 20
53.1933845
 30
0.0
 11
73.9
 21
50.9933845
 31
0.0
  0
LINE
  5
29
330
1E
100
AcDbEntity
  8
0
100
AcDbLine
 10
65.2
 20
114.2933844999999
 30
0.0
 11
68.0
 21
111.8933844999999
 31
0.0
  0
LINE
  5
2B
330
1E
100
AcDbEntity
  8
0
100
AcDbLine
 10
62.8
 20
117.0933844999999
 30
0.0
 11
65.2
 21
114.2933844999999
 31
0.0
  0
LINE
  5
2C
330
1E
100
AcDbEntity
  8
0
100
AcDbLine
 10
60.8
 20
120.1933844999999
 30
0.0
 11
62.8
 21
117.0933844999999
 31
0.0
  0
LINE
  5
2D
330
1E
100
AcDbEntity
  8
0
100
AcDbLine
 10
59.2
 20
123.3933844999999
 30
0.0
 11
60.8
 21
120.1933844999999
 31
0.0
  0
LINE
  5
2F
330
1E
100
AcDbEntity
  8
0
100
AcDbLine
 10
58.0
 20
126.8933845
 30
0.0
 11
59.2
 21
123.3933844999999
 31
0.0
  0
LINE
  5
31
330
1E
100
AcDbEntity
  8
0
100
AcDbLine
 10
57.3
 20
130.4933844999999
 30
0.0
 11
58.0
 21
126.8933845
 31
0.0
  0
LINE
  5
32
330
1E
100
AcDbEntity
  8
0
100
AcDbLine
 10
57.0
 20
134.0933845
 30
0.0
 11
57.3
 21
130.4933844999999
 31
0.0
  0
LINE
  5
33
330
1E
100
AcDbEntity
  8
0
100
AcDbLine
 10
57.0
 20
134.0933845
 30
0.0
 11
57.3
 21
137.6933844999999
 31
0.0
  0
LINE
  5
36
330
1E
100
AcDbEntity
  8
0
100
AcDbLine
 10
17.7
 20
83.39338449999999
 30
0.0
 11
25.0
 21
75.0933845
 31
0.0
  0
LINE
  5
37
330
1E
100
AcDbEntity
  8
0
100
AcDbLine
 10
62.8
 20
151.0933845
 30
0.0
 11
65.2
 21
153.8933845
 31
0.0
  0
LINE
  5
38
330
1E
100
AcDbEntity
  8
0
100
AcDbLine
 10
60.8
 20
147.9933844999999
 30
0.0
 11
62.8
 21
151.0933845
 31
0.0
  0
LINE
  5
3A
330
1E
100
AcDbEntity
  8
0
100
AcDbLine
 10
59.2
 20
144.7933845
 30
0.0
 11
60.8
 21
147.9933844999999
 31
0.0
  0
LINE
  5
3B
330
1E
100
AcDbEntity
  8
0
100
AcDbLine
 10
58.0
 20
141.2933844999999
 30
0.0
 11
59.2
 21
144.7933845
 31
0.0
  0
LINE
  5
3D
330
1E
100
AcDbEntity
  8
0
100
AcDbLine
 10
57.3
 20
137.6933844999999
 30
0.0
 11
58.0
 21
141.2933844999999
 31
0.0
  0
LINE
  5
3E
330
1E
100
AcDbEntity
  8
0
100
AcDbLine
 10
65.2
 20
153.8933845
 30
0.0
 11
68.0
 21
156.2933845
 31
0.0
  0
LINE
  5
40
330
1E
100
AcDbEntity
  8
0
100
AcDbLine
 10
3.1
 20
113.1933845
 30
0.0
 11
6.599999999999999
 21
102.5933844999999
 31
0.0
  0
LINE
  5
41
330
1E
100
AcDbEntity
  8
0
100
AcDbLine
 10
6.599999999999999
 20
102.5933844999999
 30
0.0
 11
11.4
 21
92.7933845
 31
0.0
  0
LINE
  5
42
330
1E
100
AcDbEntity
  8
0
100
AcDbLine
 10
0.900000000000001
 20
123.9933844999999
 30
0.0
 11
3.1
 21
113.1933845
 31
0.0
  0
LINE
  5
43
330
1E
100
AcDbEntity
  8
0
100
AcDbLine
 10
0.900000000000001
 20
146.1933845
 30
0.0
 11
3.1
 21
156.9933844999999
 31
0.0
  0
LINE
  5
44
330
1E
100
AcDbEntity
  8
0
100
AcDbLine
 10
3.1
 20
156.9933844999999
 30
0.0
 11
6.599999999999999
 21
167.5933844999999
 31
0.0
  0
LINE
  5
45
330
1E
100
AcDbEntity
  8
0
100
AcDbLine
 10
0.900000000000001
 20
146.1933845
 30
0.0
 11
3.1
 21
156.9933844999999
 31
0.0
  0
LINE
  5
46
330
1E
100
AcDbEntity
  8
0
100
AcDbLine
 10
6.599999999999999
 20
167.5933844999999
 30
0.0
 11
11.4
 21
177.3933844999999
 31
0.0
  0
LINE
  5
47
330
1E
100
AcDbEntity
  8
0
100
AcDbLine
 10
0.0000000000000012
 20
135.0933844999999
 30
0.0
 11
0.900000000000001
 21
123.9933844999999
 31
0.0
  0
LINE
  5
48
330
1E
100
AcDbEntity
  8
0
100
AcDbLine
 10
0.0000000000000012
 20
135.0933844999999
 30
0.0
 11
0.900000000000001
 21
146.1933845
 31
0.0
  0
LINE
  5
49
330
1E
100
AcDbEntity
  8
0
100
AcDbLine
 10
68.0
 20
156.2933845
 30
0.0
 11
71.09999999999999
 21
158.2933845
 31
0.0
  0
LINE
  5
4A
330
1E
100
AcDbEntity
  8
0
100
AcDbLine
 10
68.0
 20
111.8933844999999
 30
0.0
 11
71.09999999999999
 21
109.8933844999999
 31
0.0
  0
LINE
  5
4C
330
1E
100
AcDbEntity
  8
0
100
AcDbLine
 10
25.0
 20
195.0933844999999
 30
0.0
 11
33.3
 21
202.3933845
 31
0.0
  0
LINE
  5
4D
330
1E
100
AcDbEntity
  8
0
100
AcDbLine
 10
33.3
 20
202.3933845
 30
0.0
 11
42.7
 21
208.6933844999999
 31
0.0
  0
LINE
  5
4E
330
1E
100
AcDbEntity
  8
0
100
AcDbLine
 10
52.5
 20
213.4933845
 30
0.0
 11
63.1
 21
216.9933845
 31
0.0
  0
LINE
  5
4F
330
1E
100
AcDbEntity
  8
0
100
AcDbLine
 10
63.1
 20
216.9933845
 30
0.0
 11
73.9
 21
219.1933845
 31
0.0
  0
LINE
  5
53
330
1E
100
AcDbEntity
  8
0
100
AcDbLine
 10
71.09999999999999
 20
158.2933845
 30
0.0
 11
74.29999999999999
 21
159.8933844999999
 31
0.0
  0
LINE
  5
55
330
1E
100
AcDbEntity
  8
0
100
AcDbLine
 10
71.09999999999999
 20
109.8933844999999
 30
0.0
 11
74.29999999999999
 21
108.2933845
 31
0.0
  0
LINE
  5
59
330
1E
100
AcDbEntity
  8
0
100
AcDbLine
 10
73.9
 20
50.9933845
 30
0.0
 11
81.47752924515534
 21
50.4582344805881
 31
0.0
  0
LINE
  5
5A
330
1E
100
AcDbEntity
  8
0
100
AcDbLine
 10
74.29999999999999
 20
159.8933844999999
 30
0.0
 11
77.8
 21
161.0933844999999
 31
0.0
  0
LINE
  5
5B
330
1E
100
AcDbEntity
  8
0
100
AcDbLine
 10
77.8
 20
161.0933844999999
 30
0.0
 11
81.4
 21
161.7933845
 31
0.0
  0
LINE
  5
5C
330
1E
100
AcDbEntity
  8
0
100
AcDbLine
 10
74.29999999999999
 20
108.2933845
 30
0.0
 11
77.8
 21
107.0933845
 31
0.0
  0
LINE
  5
5D
330
1E
100
AcDbEntity
  8
0
100
AcDbLine
 10
77.8
 20
107.0933845
 30
0.0
 11
81.0761913779123
 21
106.4563472876282
 31
0.0
  0
LINE
  5
60
330
1E
100
AcDbEntity
  8
0
100
AcDbLine
 10
80.56
 20
73.4193845
 30
0.0
 11
80.68000000000001
 21
67.9380845
 31
0.0
  0
LINE
  5
61
330
1E
100
AcDbEntity
  8
0
100
AcDbLine
 10
80.501
 20
78.93408449999999
 30
0.0
 11
80.56
 21
73.4193845
 31
0.0
  0
LINE
  5
62
330
1E
100
AcDbEntity
  8
0
100
AcDbLine
 10
80.5
 20
84.47548449999999
 30
0.0
 11
80.55899999999999
 21
90.03708449999999
 31
0.0
  0
LINE
  5
63
330
1E
100
AcDbEntity
  8
0
100
AcDbLine
 10
80.5
 20
84.47548449999999
 30
0.0
 11
80.501
 21
78.93408449999999
 31
0.0
  0
LINE
  5
64
330
1E
100
AcDbEntity
  8
0
100
AcDbLine
 10
80.55899999999999
 20
90.03708449999999
 30
0.0
 11
80.677
 21
95.61328449999999
 31
0.0
  0
LINE
  5
67
330
1E
100
AcDbEntity
  8
0
100
AcDbLine
 10
80.68000000000001
 20
67.9380845
 30
0.0
 11
80.858
 21
62.49528449999999
 31
0.0
  0
LINE
  5
68
330
1E
100
AcDbEntity
  8
0
100
AcDbLine
 10
80.677
 20
95.61328449999999
 30
0.0
 11
80.85399999999999
 21
101.1972845
 31
0.0
  0
LINE
  5
69
330
1E
100
AcDbEntity
  8
0
100
AcDbLine
 10
82.15700000000001
 20
41.2347245
 30
0.0
 11
82.62799999999998
 21
36.07013449999999
 31
0.0
  0
LINE
  5
6D
330
1E
100
AcDbEntity
  8
0
100
AcDbLine
 10
82.64700000000001
 20
35.90653449999999
 30
0.0
 11
82.78299999999999
 21
35.21205449999999
 31
0.0
  0
LINE
  5
6F
330
1E
100
AcDbEntity
  8
0
100
AcDbLine
 10
82.62799999999998
 20
36.07013449999999
 30
0.0
 11
82.64700000000001
 21
35.90653449999999
 31
0.0
  0
LINE
  5
72
330
1E
100
AcDbEntity
  8
0
100
AcDbLine
 10
81.745
 20
46.4612845
 30
0.0
 11
82.15700000000001
 21
41.2347245
 31
0.0
  0
LINE
  5
74
330
1E
100
AcDbEntity
  8
0
100
AcDbLine
 10
82.78299999999999
 20
35.21205449999999
 30
0.0
 11
83.00499999999999
 21
34.57245449999999
 31
0.0
  0
LINE
  5
77
330
1E
100
AcDbEntity
  8
0
100
AcDbLine
 10
81.391
 20
51.75128449999999
 30
0.0
 11
81.745
 21
46.4612845
 31
0.0
  0
LINE
  5
78
330
1E
100
AcDbEntity
  8
0
100
AcDbLine
 10
81.095
 20
57.09708449999999
 30
0.0
 11
81.391
 21
51.75128449999999
 31
0.0
  0
LINE
  5
79
330
1E
100
AcDbEntity
  8
0
100
AcDbLine
 10
80.858
 20
62.49528449999999
 30
0.0
 11
81.095
 21
57.09708449999999
 31
0.0
  0
LINE
  5
85
330
1E
100
AcDbEntity
  8
0
100
AcDbLine
 10
83.04299999999999
 20
34.4957545
 30
0.0
 11
83.30299999999999
 21
34.0116345
 31
0.0
  0
LINE
  5
87
330
1E
100
AcDbEntity
  8
0
100
AcDbLine
 10
83.00499999999999
 20
34.57245449999999
 30
0.0
 11
83.04299999999999
 21
34.4957545
 31
0.0
  0
LINE
  5
96
330
1E
100
AcDbEntity
  8
0
100
AcDbLine
 10
84.152
 20
33.14021450000001
 30
0.0
 11
84.669
 21
32.9336875
 31
0.0
  0
LINE
  5
97
330
1E
100
AcDbEntity
  8
0
100
AcDbLine
 10
84.152
 20
33.14021450000001
 30
0.0
 11
84.669
 21
32.9336875
 31
0.0
  0
LINE
  5
98
330
1E
100
AcDbEntity
  8
0
100
AcDbLine
 10
83.76799999999999
 20
33.45087449999999
 30
0.0
 11
84.152
 21
33.14021450000001
 31
0.0
  0
LINE
  5
99
330
1E
100
AcDbEntity
  8
0
100
AcDbLine
 10
83.76799999999999
 20
33.45087449999999
 30
0.0
 11
84.152
 21
33.14021450000001
 31
0.0
  0
LINE
  5
9B
330
1E
100
AcDbEntity
  8
0
100
AcDbLine
 10
83.66699999999999
 20
33.5512845
 30
0.0
 11
83.76799999999999
 21
33.45087449999999
 31
0.0
  0
LINE
  5
9C
330
1E
100
AcDbEntity
  8
0
100
AcDbLine
 10
83.30299999999999
 20
34.0116345
 30
0.0
 11
83.66699999999999
 21
33.5512845
 31
0.0
  0
LINE
  5
A3
330
1E
100
AcDbEntity
  8
0
100
AcDbLine
 10
85.0
 20
32.9066155
 30
0.0
 11
85.33100000000001
 21
32.9336875
 31
0.0
  0
LINE
  5
A4
330
1E
100
AcDbEntity
  8
0
100
AcDbLine
 10
84.669
 20
32.9336875
 30
0.0
 11
85.0
 21
32.9066155
 31
0.0
  0
LINE
  5
B0
330
1E
100
AcDbEntity
  8
0
100
AcDbLine
 10
80.85399999999999
 20
101.1972845
 30
0.0
 11
81.08999999999999
 21
106.7831844999999
 31
0.0
  0
LINE
  5
B3
330
1E
100
AcDbEntity
  8
0
100
AcDbLine
 10
81.4
 20
161.7933845
 30
0.0
 11
84.99999999999969
 21
162.0933844999999
 31
0.0
  0
LINE
  5
B8
330
1E
100
AcDbEntity
  8
0
100
AcDbLine
 10
81.08999999999999
 20
106.7831844999999
 30
0.0
 11
81.385
 21
112.3643844999999
 31
0.0
  0
LINE
  5
B9
330
1E
100
AcDbEntity
  8
0
100
AcDbLine
 10
85.33100000000001
 20
32.9336875
 30
0.0
 11
85.84799999999999
 21
33.14021450000001
 31
0.0
  0
LINE
  5
BA
330
1E
100
AcDbEntity
  8
0
100
AcDbLine
 10
85.84799999999999
 20
33.14021450000001
 30
0.0
 11
86.23200000000002
 21
33.45087449999999
 31
0.0
  0
LINE
  5
BB
330
1E
100
AcDbEntity
  8
0
100
AcDbLine
 10
85.84799999999999
 20
33.14021450000001
 30
0.0
 11
86.23200000000002
 21
33.45087449999999
 31
0.0
  0
LINE
  5
BC
330
1E
100
AcDbEntity
  8
0
100
AcDbLine
 10
85.33100000000001
 20
32.9336875
 30
0.0
 11
85.84799999999999
 21
33.14021450000001
 31
0.0
  0
LINE
  5
C1
330
1E
100
AcDbEntity
  8
0
100
AcDbLine
 10
86.697
 20
34.0116345
 30
0.0
 11
86.957
 21
34.4957545
 31
0.0
  0
LINE
  5
C2
330
1E
100
AcDbEntity
  8
0
100
AcDbLine
 10
86.995
 20
34.57245449999999
 30
0.0
 11
87.21700000000002
 21
35.21205449999999
 31
0.0
  0
LINE
  5
C3
330
1E
100
AcDbEntity
  8
0
100
AcDbLine
 10
86.957
 20
34.4957545
 30
0.0
 11
86.995
 21
34.57245449999999
 31
0.0
  0
LINE
  5
C4
330
1E
100
AcDbEntity
  8
0
100
AcDbLine
 10
86.333
 20
33.5512845
 30
0.0
 11
86.697
 21
34.0116345
 31
0.0
  0
LINE
  5
C5
330
1E
100
AcDbEntity
  8
0
100
AcDbLine
 10
86.23200000000002
 20
33.45087449999999
 30
0.0
 11
86.333
 21
33.5512845
 31
0.0
  0
LINE
  5
CC
330
1E
100
AcDbEntity
  8
0
100
AcDbLine
 10
87.21700000000002
 20
35.21205449999999
 30
0.0
 11
87.353
 21
35.90653449999999
 31
0.0
  0
LINE
  5
D2
330
1E
100
AcDbEntity
  8
0
100
AcDbLine
 10
87.353
 20
35.90653449999999
 30
0.0
 11
87.37200000000001
 21
36.07013449999999
 31
0.0
  0
LINE
  5
D7
330
1E
100
AcDbEntity
  8
0
100
AcDbLine
 10
88.60899999999999
 20
51.75128449999999
 30
0.0
 11
88.90500000000001
 21
57.09708449999999
 31
0.0
  0
LINE
  5
D8
330
1E
100
AcDbEntity
  8
0
100
AcDbLine
 10
88.25499999999999
 20
46.4612845
 30
0.0
 11
88.60899999999999
 21
51.75128449999999
 31
0.0
  0
LINE
  5
D9
330
1E
100
AcDbEntity
  8
0
100
AcDbLine
 10
87.84299999999999
 20
41.2347245
 30
0.0
 11
88.25499999999999
 21
46.4612845
 31
0.0
  0
LINE
  5
DA
330
1E
100
AcDbEntity
  8
0
100
AcDbLine
 10
87.37200000000001
 20
36.07013449999999
 30
0.0
 11
87.84299999999999
 21
41.2347245
 31
0.0
  0
LINE
  5
DD
330
1E
100
AcDbEntity
  8
0
100
AcDbLine
 10
85.0000000000004
 20
162.0933844999999
 30
0.0
 11
88.59999999999999
 21
161.7933845
 31
0.0
  0
LINE
  5
E9
330
1E
100
AcDbEntity
  8
0
100
AcDbLine
 10
89.14200000000001
 20
62.49528449999999
 30
0.0
 11
89.32
 21
67.9380845
 31
0.0
  0
LINE
  5
EA
330
1E
100
AcDbEntity
  8
0
100
AcDbLine
 10
88.90500000000001
 20
57.09708449999999
 30
0.0
 11
89.14200000000001
 21
62.49528449999999
 31
0.0
  0
LINE
  5
F3
330
1E
100
AcDbEntity
  8
0
100
AcDbLine
 10
89.32
 20
67.9380845
 30
0.0
 11
89.44
 21
73.4193845
 31
0.0
  0
LINE
  5
F6
330
1E
100
AcDbEntity
  8
0
100
AcDbLine
 10
88.92380862208771
 20
106.4563472876282
 30
0.0
 11
92.2
 21
107.0933845
 31
0.0
  0
LINE
  5
F7
330
1E
100
AcDbEntity
  8
0
100
AcDbLine
 10
88.59999999999999
 20
161.7933845
 30
0.0
 11
92.2
 21
161.0933844999999
 31
0.0
  0
LINE
  5
F8
330
1E
100
AcDbEntity
  8
0
100
AcDbLine
 10
88.61499999999999
 20
112.3643844999999
 30
0.0
 11
88.91
 21
106.7831844999999
 31
0.0
  0
LINE
  5
F9
330
1E
100
AcDbEntity
  8
0
100
AcDbLine
 10
88.91
 20
106.7831844999999
 30
0.0
 11
89.146
 21
101.1972845
 31
0.0
  0
LINE
  5
FA
330
1E
100
AcDbEntity
  8
0
100
AcDbLine
 10
89.146
 20
101.1972845
 30
0.0
 11
89.32299999999999
 21
95.61328449999999
 31
0.0
  0
LINE
  5
FB
330
1E
100
AcDbEntity
  8
0
100
AcDbLine
 10
89.32299999999999
 20
95.61328449999999
 30
0.0
 11
89.441
 21
90.03708449999999
 31
0.0
  0
LINE
  5
10C
330
1E
100
AcDbEntity
  8
0
100
AcDbLine
 10
89.441
 20
90.03708449999999
 30
0.0
 11
89.50000000000001
 21
84.47548449999999
 31
0.0
  0
LINE
  5
10D
330
1E
100
AcDbEntity
  8
0
100
AcDbLine
 10
88.52247075484465
 20
50.4582344805881
 30
0.0
 11
96.09999999999999
 21
50.9933845
 31
0.0
  0
LINE
  5
10E
330
1E
100
AcDbEntity
  8
0
100
AcDbLine
 10
89.49899999999999
 20
78.93408449999999
 30
0.0
 11
89.50000000000001
 21
84.47548449999999
 31
0.0
  0
LINE
  5
10F
330
1E
100
AcDbEntity
  8
0
100
AcDbLine
 10
89.44
 20
73.4193845
 30
0.0
 11
89.49899999999999
 21
78.93408449999999
 31
0.0
  0
LINE
  5
110
330
1E
100
AcDbEntity
  8
0
100
AcDbLine
 10
96.09999999999999
 20
50.9933845
 30
0.0
 11
106.9
 21
53.1933845
 31
0.0
  0
LINE
  5
111
330
1E
100
AcDbEntity
  8
0
100
AcDbLine
 10
102.0
 20
111.8933844999999
 30
0.0
 11
104.8
 21
114.2933844999999
 31
0.0
  0
LINE
  5
112
330
1E
100
AcDbEntity
  8
0
100
AcDbLine
 10
98.9
 20
109.8933844999999
 30
0.0
 11
102.0
 21
111.8933844999999
 31
0.0
  0
LINE
  5
113
330
1E
100
AcDbEntity
  8
0
100
AcDbLine
 10
95.7
 20
108.2933845
 30
0.0
 11
98.9
 21
109.8933844999999
 31
0.0
  0
LINE
  5
114
330
1E
100
AcDbEntity
  8
0
100
AcDbLine
 10
92.2
 20
107.0933845
 30
0.0
 11
95.7
 21
108.2933845
 31
0.0
  0
LINE
  5
116
330
1E
100
AcDbEntity
  8
0
100
AcDbLine
 10
104.8
 20
114.2933844999999
 30
0.0
 11
107.2
 21
117.0933844999999
 31
0.0
  0
LINE
  5
117
330
1E
100
AcDbEntity
  8
0
100
AcDbLine
 10
107.2
 20
117.0933844999999
 30
0.0
 11
109.2
 21
120.1933844999999
 31
0.0
  0
LINE
  5
118
330
1E
100
AcDbEntity
  8
0
100
AcDbLine
 10
109.2
 20
120.1933844999999
 30
0.0
 11
110.8
 21
123.3933844999999
 31
0.0
  0
LINE
  5
11B
330
1E
100
AcDbEntity
  8
0
100
AcDbLine
 10
110.8
 20
123.3933844999999
 30
0.0
 11
112.0
 21
126.8933845
 31
0.0
  0
LINE
  5
11C
330
1E
100
AcDbEntity
  8
0
100
AcDbLine
 10
112.0
 20
126.8933845
 30
0.0
 11
112.7
 21
130.4933844999999
 31
0.0
  0
LINE
  5
11D
330
1E
100
AcDbEntity
  8
0
100
AcDbLine
 10
145.0
 20
75.0933845
 30
0.0
 11
152.3
 21
83.39338449999999
 31
0.0
  0
LINE
  5
11E
330
1E
100
AcDbEntity
  8
0
100
AcDbLine
 10
163.4
 20
102.5933844999999
 30
0.0
 11
166.9
 21
113.1933845
 31
0.0
  0
LINE
  5
11F
330
1E
100
AcDbEntity
  8
0
100
AcDbLine
 10
158.6
 20
92.7933845
 30
0.0
 11
163.4
 21
102.5933844999999
 31
0.0
  0
LINE
  5
120
330
1E
100
AcDbEntity
  8
0
100
AcDbLine
 10
127.2999999999999
 20
61.4933845
 30
0.0
 11
136.6999999999999
 21
67.7933845
 31
0.0
  0
LINE
  5
121
330
1E
100
AcDbEntity
  8
0
100
AcDbLine
 10
112.7
 20
130.4933844999999
 30
0.0
 11
113.0
 21
134.0933845
 31
0.0
  0
LINE
  5
122
330
1E
100
AcDbEntity
  8
0
100
AcDbLine
 10
92.2
 20
161.0933844999999
 30
0.0
 11
95.7
 21
159.8933844999999
 31
0.0
  0
LINE
  5
124
330
1E
100
AcDbEntity
  8
0
100
AcDbLine
 10
95.7
 20
159.8933844999999
 30
0.0
 11
98.9
 21
158.2933845
 31
0.0
  0
LINE
  5
125
330
1E
100
AcDbEntity
  8
0
100
AcDbLine
 10
98.9
 20
158.2933845
 30
0.0
 11
102.0
 21
156.2933845
 31
0.0
  0
LINE
  5
127
330
1E
100
AcDbEntity
  8
0
100
AcDbLine
 10
102.0
 20
156.2933845
 30
0.0
 11
104.8
 21
153.8933845
 31
0.0
  0
LINE
  5
128
330
1E
100
AcDbEntity
  8
0
100
AcDbLine
 10
104.8
 20
153.8933845
 30
0.0
 11
107.2
 21
151.0933845
 31
0.0
  0
LINE
  5
12A
330
1E
100
AcDbEntity
  8
0
100
AcDbLine
 10
107.2
 20
151.0933845
 30
0.0
 11
109.2
 21
147.9933844999999
 31
0.0
  0
LINE
  5
12B
330
1E
100
AcDbEntity
  8
0
100
AcDbLine
 10
109.2
 20
147.9933844999999
 30
0.0
 11
110.8
 21
144.7933845
 31
0.0
  0
LINE
  5
12D
330
1E
100
AcDbEntity
  8
0
100
AcDbLine
 10
110.8
 20
144.7933845
 30
0.0
 11
112.0
 21
141.2933844999999
 31
0.0
  0
LINE
  5
12E
330
1E
100
AcDbEntity
  8
0
100
AcDbLine
 10
166.9
 20
113.1933845
 30
0.0
 11
169.1
 21
123.9933844999999
 31
0.0
  0
LINE
  5
12F
330
1E
100
AcDbEntity
  8
0
100
AcDbLine
 10
169.1
 20
123.9933844999999
 30
0.0
 11
170.0
 21
135.0933844999999
 31
0.0
  0
LINE
  5
130
330
1E
100
AcDbEntity
  8
0
100
AcDbLine
 10
166.9
 20
156.9933844999999
 30
0.0
 11
169.1
 21
146.1933845
 31
0.0
  0
LINE
  5
131
330
1E
100
AcDbEntity
  8
0
100
AcDbLine
 10
169.1
 20
146.1933845
 30
0.0
 11
170.0
 21
135.0933844999999
 31
0.0
  0
LINE
  5
132
330
1E
100
AcDbEntity
  8
0
100
AcDbLine
 10
112.0
 20
141.2933844999999
 30
0.0
 11
112.7
 21
137.6933844999999
 31
0.0
  0
LINE
  5
133
330
1E
100
AcDbEntity
  8
0
100
AcDbLine
 10
112.7
 20
137.6933844999999
 30
0.0
 11
113.0
 21
134.0933845
 31
0.0
  0
LINE
  5
140
330
1E
100
AcDbEntity
  8
0
100
AcDbLine
 10
158.6
 20
177.3933844999999
 30
0.0
 11
163.4
 21
167.5933844999999
 31
0.0
  0
LINE
  5
14A
330
1E
100
AcDbEntity
  8
0
100
AcDbLine
 10
73.9
 20
219.1933845
 30
0.0
 11
85.0
 21
220.0933845
 31
0.0
  0
LINE
  5
151
330
1E
100
AcDbEntity
  8
0
100
AcDbLine
 10
85.0
 20
220.0933845
 30
0.0
 11
96.09999999999999
 21
219.1933845
 31
0.0
  0
LINE
  5
153
330
1E
100
AcDbEntity
  8
0
100
AcDbLine
 10
136.6999999999999
 20
202.3933845
 30
0.0
 11
145.0
 21
195.0933844999999
 31
0.0
  0
LINE
  5
154
330
1E
100
AcDbEntity
  8
0
100
AcDbLine
 10
106.9
 20
216.9933845
 30
0.0
 11
117.5
 21
213.4933845
 31
0.0
  0
LINE
  5
155
330
1E
100
AcDbEntity
  8
0
100
AcDbLine
 10
96.09999999999999
 20
219.1933845
 30
0.0
 11
106.9
 21
216.9933845
 31
0.0
  0
LINE
  5
156
330
1E
100
AcDbEntity
  8
0
100
AcDbLine
 10
145.0
 20
195.0933844999999
 30
0.0
 11
152.3
 21
186.7933844999999
 31
0.0
  0
LINE
  5
165
330
1E
100
AcDbEntity
  8
0
100
AcDbLine
 10
42.7
 20
208.6933844999999
 30
0.0
 11
52.5
 21
213.4933845
 31
0.0
  0
LINE
  5
166
330
1E
100
AcDbEntity
  8
0
100
AcDbLine
 10
152.3
 20
186.7933844999999
 30
0.0
 11
158.6
 21
177.3933844999999
 31
0.0
  0
LINE
  5
167
330
1E
100
AcDbEntity
  8
0
100
AcDbLine
 10
163.4
 20
167.5933844999999
 30
0.0
 11
166.9
 21
156.9933844999999
 31
0.0
  0
LINE
  5
168
330
1E
100
AcDbEntity
  8
0
100
AcDbLine
 10
152.3
 20
83.39338449999999
 30
0.0
 11
158.6
 21
92.7933845
 31
0.0
  0
LINE
  5
169
330
1E
100
AcDbEntity
  8
0
100
AcDbLine
 10
136.6999999999999
 20
67.7933845
 30
0.0
 11
145.0
 21
75.0933845
 31
0.0
  0
LINE
  5
16A
330
1E
100
AcDbEntity
  8
0
100
AcDbLine
 10
11.4
 20
177.3933844999999
 30
0.0
 11
18.84791407263423
 21
187.5999177112157
 31
0.0
  0
LINE
  5
16B
330
1E
100
AcDbEntity
  8
0
100
AcDbLine
 10
18.84791407263423
 20
187.5999177112157
 30
0.0
 11
25.0
 21
195.0933844999999
 31
0.0
  0
LINE
  5
16C
330
1E
100
AcDbEntity
  8
0
100
AcDbLine
 10
117.5
 20
213.4933845
 30
0.0
 11
129.2906673466211
 21
207.4609570953318
 31
0.0
  0
LINE
  5
16D
330
1E
100
AcDbEntity
  8
0
100
AcDbLine
 10
129.2906673466211
 20
207.4609570953318
 30
0.0
 11
136.6999999999999
 21
202.3933845
 31
0.0
  0
LINE
  5
16E
330
1E
100
AcDbEntity
  8
0
100
AcDbLine
 10
106.9
 20
53.1933845
 30
0.0
 11
120.2054023310847
 21
57.65197491743993
 31
0.0
  0
LINE
  5
16F
330
1E
100
AcDbEntity
  8
0
100
AcDbLine
 10
120.2054023310847
 20
57.65197491743993
 30
0.0
 11
127.2999999999999
 21
61.4933845
 31
0.0
  0
ENDSEC
  0
SECTION
  2
OBJECTS
  0
DICTIONARY
  5
C
330
0
100
AcDbDictionary
  3
ACAD_GROUP
350
D
  3
ACAD_LAYOUT
350
19
  3
ACAD_MLINESTYLE
350
16
  3
ACAD_PLOTSETTINGS
350
18
  3
ACAD_PLOTSTYLENAME
350
E
  3
ACDBHEADERROUNDTRIPXREC
350
198
  3
ACDBVARIABLEDICTIONARY
350
170
  0
DICTIONARY
  5
1BA
330
1E
100
AcDbDictionary
280
     1
  3
ACAD_LAYOUTSELFREF
360
1BB
  0
DICTIONARY
  5
1B8
330
1A
100
AcDbDictionary
280
     1
  3
ACAD_LAYOUTSELFREF
360
1B9
  0
DICTIONARY
  5
D
102
{ACAD_REACTORS
330
C
102
}
330
C
100
AcDbDictionary
  0
DICTIONARY
  5
19
102
{ACAD_REACTORS
330
C
102
}
330
C
100
AcDbDictionary
  0
DICTIONARY
  5
16
102
{ACAD_REACTORS
330
C
102
}
330
C
100
AcDbDictionary
  3
STANDARD
350
17
  0
DICTIONARY
  5
18
102
{ACAD_REACTORS
330
C
102
}
330
C
100
AcDbDictionary
  0
ACDBDICTIONARYWDFLT
  5
E
102
{ACAD_REACTORS
330
C
102
}
330
C
100
AcDbDictionary
281
     1
  3
Normal
350
F
100
AcDbDictionaryWithDefault
340
F
  0
DICTIONARY
  5
198
102
{ACAD_REACTORS
330
C
102
}
330
C
100
AcDbDictionary
  3
CEPSNTYPE
350
1A2
  3
FINGERPRINTGUID
350
1A3
  3
HYPERLINKBASE
350
19B
  3
INSUNITS
350
1A1
  3
LAYOUTDICT
350
19D
  3
LWETCUNION
350
1A0
  3
PLOTSETDICT
350
19E
  3
PLOTSTYLNAMDICT
350
19F
  3
PSVPSCALE
350
1A5
  3
PUCSBASE
350
1A8
  3
PUCSORGBACK
350
1AE
  3
PUCSORGBOTTOM
350
1AA
  3
PUCSORGFRONT
350
1AD
  3
PUCSORGLEFT
350
1AB
  3
PUCSORGRIGHT
350
1AC
  3
PUCSORGTOP
350
1A9
  3
PUCSORTHOREF
350
1A6
  3
PUCSORTHOVIEW
350
1A7
  3
STYLESHEET
350
19C
  3
TSTACKALIGN
350
199
  3
TSTACKSIZE
350
19A
  3
UCSBASE
350
1B1
  3
UCSORGBACK
350
1B7
  3
UCSORGBOTTOM
350
1B3
  3
UCSORGFRONT
350
1B6
  3
UCSORGLEFT
350
1B4
  3
UCSORGRIGHT
350
1B5
  3
UCSORGTOP
350
1B2
  3
UCSORTHOREF
350
1AF
  3
UCSORTHOVIEW
350
1B0
  3
VERSIONGUID
350
1A4
  0
DICTIONARY
  5
170
102
{ACAD_REACTORS
330
C
102
}
330
C
100
AcDbDictionary
  3
DIMASSOC
350
171
  0
XRECORD
  5
1BB
102
{ACAD_REACTORS
330
1BA
102
}
330
1BA
100
AcDbXrecord
340
1E
  0
XRECORD
  5
1B9
102
{ACAD_REACTORS
330
1B8
102
}
330
1B8
100
AcDbXrecord
340
1A
  0
MLINESTYLE
  5
17
102
{ACAD_REACTORS
330
16
102
}
330
16
100
AcDbMlineStyle
  2
STANDARD
 70
     0
  3

 62
   256
 51
90.0
 52
90.0
 71
     2
 49
0.5
 62
   256
  6
BYLAYER
 49
-0.5
 62
   256
  6
BYLAYER
  0
ACDBPLACEHOLDER
  5
F
102
{ACAD_REACTORS
330
E
102
}
330
E
100
AcDbPlaceHolder
280
     0
  0
XRECORD
  5
1A2
102
{ACAD_REACTORS
330
198
102
}
330
198
100
AcDbXrecord
 90
        0
  0
XRECORD
  5
1A3
102
{ACAD_REACTORS
330
198
102
}
330
198
100
AcDbXrecord
  1
{76511E60-3539-4A49-8489-36D3A53103D2}
  0
XRECORD
  5
19B
102
{ACAD_REACTORS
330
198
102
}
330
198
100
AcDbXrecord
  1

  0
XRECORD
  5
1A1
102
{ACAD_REACTORS
330
198
102
}
330
198
100
AcDbXrecord
 90
        0
  0
XRECORD
  5
19D
102
{ACAD_REACTORS
330
198
102
}
330
198
100
AcDbXrecord
340
19
  0
XRECORD
  5
1A0
102
{ACAD_REACTORS
330
198
102
}
330
198
100
AcDbXrecord
 90
    10781
  0
XRECORD
  5
19E
102
{ACAD_REACTORS
330
198
102
}
330
198
100
AcDbXrecord
340
18
  0
XRECORD
  5
19F
102
{ACAD_REACTORS
330
198
102
}
330
198
100
AcDbXrecord
340
E
  0
XRECORD
  5
1A5
102
{ACAD_REACTORS
330
198
102
}
330
198
100
AcDbXrecord
 40
0.0
  0
XRECORD
  5
1A8
102
{ACAD_REACTORS
330
198
102
}
330
198
100
AcDbXrecord
340
0
  0
XRECORD
  5
1AE
102
{ACAD_REACTORS
330
198
102
}
330
198
100
AcDbXrecord
 10
0.0
 20
0.0
 30
0.0
  0
XRECORD
  5
1AA
102
{ACAD_REACTORS
330
198
102
}
330
198
100
AcDbXrecord
 10
0.0
 20
0.0
 30
0.0
  0
XRECORD
  5
1AD
102
{ACAD_REACTORS
330
198
102
}
330
198
100
AcDbXrecord
 10
0.0
 20
0.0
 30
0.0
  0
XRECORD
  5
1AB
102
{ACAD_REACTORS
330
198
102
}
330
198
100
AcDbXrecord
 10
0.0
 20
0.0
 30
0.0
  0
XRECORD
  5
1AC
102
{ACAD_REACTORS
330
198
102
}
330
198
100
AcDbXrecord
 10
0.0
 20
0.0
 30
0.0
  0
XRECORD
  5
1A9
102
{ACAD_REACTORS
330
198
102
}
330
198
100
AcDbXrecord
 10
0.0
 20
0.0
 30
0.0
  0
XRECORD
  5
1A6
102
{ACAD_REACTORS
330
198
102
}
330
198
100
AcDbXrecord
340
0
  0
XRECORD
  5
1A7
102
{ACAD_REACTORS
330
198
102
}
330
198
100
AcDbXrecord
 70
     0
  0
XRECORD
  5
19C
102
{ACAD_REACTORS
330
198
102
}
330
198
100
AcDbXrecord
  1

  0
XRECORD
  5
199
102
{ACAD_REACTORS
330
198
102
}
330
198
100
AcDbXrecord
 90
        1
  0
XRECORD
  5
19A
102
{ACAD_REACTORS
330
198
102
}
330
198
100
AcDbXrecord
 90
       70
  0
XRECORD
  5
1B1
102
{ACAD_REACTORS
330
198
102
}
330
198
100
AcDbXrecord
340
0
  0
XRECORD
  5
1B7
102
{ACAD_REACTORS
330
198
102
}
330
198
100
AcDbXrecord
 10
0.0
 20
0.0
 30
0.0
  0
XRECORD
  5
1B3
102
{ACAD_REACTORS
330
198
102
}
330
198
100
AcDbXrecord
 10
0.0
 20
0.0
 30
0.0
  0
XRECORD
  5
1B6
102
{ACAD_REACTORS
330
198
102
}
330
198
100
AcDbXrecord
 10
0.0
 20
0.0
 30
0.0
  0
XRECORD
  5
1B4
102
{ACAD_REACTORS
330
198
102
}
330
198
100
AcDbXrecord
 10
0.0
 20
0.0
 30
0.0
  0
XRECORD
  5
1B5
102
{ACAD_REACTORS
330
198
102
}
330
198
100
AcDbXrecord
 10
0.0
 20
0.0
 30
0.0
  0
XRECORD
  5
1B2
102
{ACAD_REACTORS
330
198
102
}
330
198
100
AcDbXrecord
 10
0.0
 20
0.0
 30
0.0
  0
XRECORD
  5
1AF
102
{ACAD_REACTORS
330
198
102
}
330
198
100
AcDbXrecord
340
0
  0
XRECORD
  5
1B0
102
{ACAD_REACTORS
330
198
102
}
330
198
100
AcDbXrecord
 70
     1
  0
XRECORD
  5
1A4
102
{ACAD_REACTORS
330
198
102
}
330
198
100
AcDbXrecord
  1
{7B468BB9-B6E3-4A60-AE33-8ACE682FB3FC}
  0
DICTIONARYVAR
  5
171
102
{ACAD_REACTORS
330
170
102
}
330
170
100
DictionaryVariables
280
     0
  1
1
  0
ENDSEC
  0
EOF
