  0
SECTION
  2
HEADER
  9
$ACADVER
  1
AC1014
  9
$ACADMAINTVER
 70
     9
  9
$DWGCODEPAGE
  3
ANSI_1252
  9
$INSBASE
 10
0.0
 20
0.0
 30
0.0
  9
$EXTMIN
 10
-0.0000000000000173
 20
0.0000000000000029
 30
0.0
  9
$EXTMAX
 10
420.0
 20
128.0
 30
0.0
  9
$LIMMIN
 10
0.0
 20
0.0
  9
$LIMMAX
 10
12.0
 20
9.0
  9
$ORTHOMODE
 70
     0
  9
$REGENMODE
 70
     1
  9
$FILLMODE
 70
     1
  9
$QTEXTMODE
 70
     0
  9
$MIRRTEXT
 70
     1
  9
$DRAGMODE
 70
     2
  9
$LTSCALE
 40
1.0
  9
$OSMODE
 70
    37
  9
$ATTMODE
 70
     1
  9
$TEXTSIZE
 40
0.2
  9
$TRACEWID
 40
0.05
  9
$TEXTSTYLE
  7
STANDARD
  9
$CLAYER
  8
0
  9
$CELTYPE
  6
CONTINUOUS
  9
$CECOLOR
 62
   256
  9
$CELTSCALE
 40
1.0
  9
$DELOBJ
 70
     1
  9
$DISPSILH
 70
     0
  9
$DIMSCALE
 40
1.0
  9
$DIMASZ
 40
0.18
  9
$DIMEXO
 40
0.0625
  9
$DIMDLI
 40
0.38
  9
$DIMRND
 40
0.0
  9
$DIMDLE
 40
0.0
  9
$DIMEXE
 40
0.18
  9
$DIMTP
 40
0.0
  9
$DIMTM
 40
0.0
  9
$DIMTXT
 40
0.18
  9
$DIMCEN
 40
0.09
  9
$DIMTSZ
 40
0.0
  9
$DIMTOL
 70
     0
  9
$DIMLIM
 70
     0
  9
$DIMTIH
 70
     1
  9
$DIMTOH
 70
     1
  9
$DIMSE1
 70
     0
  9
$DIMSE2
 70
     0
  9
$DIMTAD
 70
     0
  9
$DIMZIN
 70
     0
  9
$DIMBLK
  1

  9
$DIMASO
 70
     1
  9
$DIMSHO
 70
     1
  9
$DIMPOST
  1

  9
$DIMAPOST
  1

  9
$DIMALT
 70
     0
  9
$DIMALTD
 70
     2
  9
$DIMALTF
 40
25.4
  9
$DIMLFAC
 40
1.0
  9
$DIMTOFL
 70
     0
  9
$DIMTVP
 40
0.0
  9
$DIMTIX
 70
     0
  9
$DIMSOXD
 70
     0
  9
$DIMSAH
 70
     0
  9
$DIMBLK1
  1

  9
$DIMBLK2
  1

  9
$DIMSTYLE
  2
STANDARD
  9
$DIMCLRD
 70
     0
  9
$DIMCLRE
 70
     0
  9
$DIMCLRT
 70
     0
  9
$DIMTFAC
 40
1.0
  9
$DIMGAP
 40
0.09
  9
$DIMJUST
 70
     0
  9
$DIMSD1
 70
     0
  9
$DIMSD2
 70
     0
  9
$DIMTOLJ
 70
     1
  9
$DIMTZIN
 70
     0
  9
$DIMALTZ
 70
     0
  9
$DIMALTTZ
 70
     0
  9
$DIMFIT
 70
     3
  9
$DIMUPT
 70
     0
  9
$DIMUNIT
 70
     2
  9
$DIMDEC
 70
     4
  9
$DIMTDEC
 70
     4
  9
$DIMALTU
 70
     2
  9
$DIMALTTD
 70
     2
  9
$DIMTXSTY
  7
STANDARD
  9
$DIMAUNIT
 70
     0
  9
$LUNITS
 70
     2
  9
$LUPREC
 70
     4
  9
$SKETCHINC
 40
0.1
  9
$FILLETRAD
 40
0.0
  9
$AUNITS
 70
     0
  9
$AUPREC
 70
     0
  9
$MENU
  1
.
  9
$ELEVATION
 40
0.0
  9
$PELEVATION
 40
0.0
  9
$THICKNESS
 40
0.0
  9
$LIMCHECK
 70
     0
  9
$BLIPMODE
 70
     0
  9
$CHAMFERA
 40
0.0
  9
$CHAMFERB
 40
0.0
  9
$CHAMFERC
 40
0.0
  9
$CHAMFERD
 40
0.0
  9
$SKPOLY
 70
     0
  9
$TDCREATE
 40
2454691.726677870
  9
$TDUPDATE
 40
2454691.727176643
  9
$TDINDWG
 40
0.0004989583
  9
$TDUSRTIMER
 40
0.0004989583
  9
$USRTIMER
 70
     1
  9
$ANGBASE
 50
0.0
  9
$ANGDIR
 70
     0
  9
$PDMODE
 70
     0
  9
$PDSIZE
 40
0.0
  9
$PLINEWID
 40
0.0
  9
$COORDS
 70
     1
  9
$SPLFRAME
 70
     0
  9
$SPLINETYPE
 70
     6
  9
$SPLINESEGS
 70
     8
  9
$ATTDIA
 70
     0
  9
$ATTREQ
 70
     1
  9
$HANDLING
 70
 22529
  9
$HANDSEED
  5
195
  9
$SURFTAB1
 70
     6
  9
$SURFTAB2
 70
     6
  9
$SURFTYPE
 70
     6
  9
$SURFU
 70
     6
  9
$SURFV
 70
     6
  9
$UCSNAME
  2

  9
$UCSORG
 10
0.0
 20
0.0
 30
0.0
  9
$UCSXDIR
 10
1.0
 20
0.0
 30
0.0
  9
$UCSYDIR
 10
0.0
 20
1.0
 30
0.0
  9
$PUCSNAME
  2

  9
$PUCSORG
 10
0.0
 20
0.0
 30
0.0
  9
$PUCSXDIR
 10
1.0
 20
0.0
 30
0.0
  9
$PUCSYDIR
 10
0.0
 20
1.0
 30
0.0
  9
$USERI1
 70
     0
  9
$USERI2
 70
     0
  9
$USERI3
 70
     0
  9
$USERI4
 70
     0
  9
$USERI5
 70
     0
  9
$USERR1
 40
0.0
  9
$USERR2
 40
0.0
  9
$USERR3
 40
0.0
  9
$USERR4
 40
0.0
  9
$USERR5
 40
0.0
  9
$WORLDVIEW
 70
     1
  9
$SHADEDGE
 70
     3
  9
$SHADEDIF
 70
    70
  9
$TILEMODE
 70
     1
  9
$MAXACTVP
 70
    64
  9
$PINSBASE
 10
0.0
 20
0.0
 30
0.0
  9
$PLIMCHECK
 70
     0
  9
$PEXTMIN
 10
1.000000000000000E+20
 20
1.000000000000000E+20
 30
1.000000000000000E+20
  9
$PEXTMAX
 10
-1.000000000000000E+20
 20
-1.000000000000000E+20
 30
-1.000000000000000E+20
  9
$PLIMMIN
 10
0.0
 20
0.0
  9
$PLIMMAX
 10
12.0
 20
9.0
  9
$UNITMODE
 70
     0
  9
$VISRETAIN
 70
     1
  9
$PLINEGEN
 70
     0
  9
$PSLTSCALE
 70
     1
  9
$TREEDEPTH
 70
  3020
  9
$PICKSTYLE
 70
     1
  9
$CMLSTYLE
  2
STANDARD
  9
$CMLJUST
 70
     0
  9
$CMLSCALE
 40
1.0
  9
$PROXYGRAPHICS
 70
     1
  9
$MEASUREMENT
 70
     0
  0
ENDSEC
  0
SECTION
  2
CLASSES
  0
CLASS
  1
ACDBDICTIONARYWDFLT
  2
AcDbDictionaryWithDefault
  3
AutoCAD 2000
 90
        0
280
     0
281
     0
  0
CLASS
  1
ACDBPLACEHOLDER
  2
AcDbPlaceHolder
  3
AutoCAD 2000
 90
        0
280
     0
281
     0
  0
CLASS
  1
LAYOUT
  2
AcDbLayout
  3
AutoCAD 2000
 90
        0
280
     0
281
     0
  0
CLASS
  1
DICTIONARYVAR
  2
AcDbDictionaryVar
  3
AutoCAD 2000
 90
        0
280
     0
281
     0
  0
CLASS
  1
LONG_TRANSACTION
  2
AcDbLongTransaction
  3
AutoCAD 2000
 90
        0
280
     0
281
     0
  0
CLASS
  1
LWPOLYLINE
  2
AcDbPolyline
  3
AutoCAD 2000
 90
        0
280
     0
281
     1
  0
CLASS
  1
HATCH
  2
AcDbHatch
  3
AutoCAD 2000
 90
        0
280
     0
281
     1
  0
CLASS
  1
XRECORD
  2
AcDbXrecord
  3
AutoCAD 2000
 90
        0
280
     0
281
     0
  0
ENDSEC
  0
SECTION
  2
TABLES
  0
TABLE
  2
VPORT
  5
8
330
0
100
AcDbSymbolTable
 70
     2
  0
VPORT
  5
170
330
8
100
AcDbSymbolTableRecord
100
AcDbViewportTableRecord
  2
*ACTIVE
 70
     0
 10
0.0
 20
0.0
 11
1.0
 21
1.0
 12
209.9999999999999
 22
64.0
 13
0.0
 23
0.0
 14
1.0
 24
1.0
 15
0.0
 25
0.0
 16
0.0
 26
0.0
 36
1.0
 17
0.0
 27
0.0
 37
0.0
 40
206.2984872952575
 41
2.043533930857874
 42
50.0
 43
0.0
 44
0.0
 50
0.0
 51
0.0
 71
     0
 72
   100
 73
     1
 74
     3
 75
     0
 76
     0
 77
     0
 78
     0
  0
ENDTAB
  0
TABLE
  2
LTYPE
  5
5
330
0
100
AcDbSymbolTable
 70
     1
  0
LTYPE
  5
13
330
5
100
AcDbSymbolTableRecord
100
AcDbLinetypeTableRecord
  2
BYBLOCK
 70
     0
  3

 72
    65
 73
     0
 40
0.0
  0
LTYPE
  5
14
330
5
100
AcDbSymbolTableRecord
100
AcDbLinetypeTableRecord
  2
BYLAYER
 70
     0
  3

 72
    65
 73
     0
 40
0.0
  0
LTYPE
  5
15
330
5
100
AcDbSymbolTableRecord
100
AcDbLinetypeTableRecord
  2
CONTINUOUS
 70
     0
  3
Solid line
 72
    65
 73
     0
 40
0.0
  0
ENDTAB
  0
TABLE
  2
LAYER
  5
2
330
0
100
AcDbSymbolTable
 70
     1
  0
LAYER
  5
10
330
2
100
AcDbSymbolTableRecord
100
AcDbLayerTableRecord
  2
0
 70
     0
 62
     7
  6
CONTINUOUS
  0
ENDTAB
  0
TABLE
  2
STYLE
  5
3
330
0
100
AcDbSymbolTable
 70
     1
  0
STYLE
  5
11
330
3
100
AcDbSymbolTableRecord
100
AcDbTextStyleTableRecord
  2
STANDARD
 70
     0
 40
0.0
 41
1.0
 50
0.0
 71
     0
 42
0.2
  3
txt
  4

  0
ENDTAB
  0
TABLE
  2
VIEW
  5
6
330
0
100
AcDbSymbolTable
 70
     0
  0
ENDTAB
  0
TABLE
  2
UCS
  5
7
330
0
100
AcDbSymbolTable
 70
     0
  0
ENDTAB
  0
TABLE
  2
APPID
  5
9
330
0
100
AcDbSymbolTable
 70
     1
  0
APPID
  5
12
330
9
100
AcDbSymbolTableRecord
100
AcDbRegAppTableRecord
  2
ACAD
 70
     0
  0
ENDTAB
  0
TABLE
  2
DIMSTYLE
  5
A
330
0
100
AcDbSymbolTable
 70
     1
  0
DIMSTYLE
105
16A
330
A
100
AcDbSymbolTableRecord
100
AcDbDimStyleTableRecord
  2
STANDARD
 70
     0
  3

  4

  5

  6

  7

 40
1.0
 41
0.18
 42
0.0625
 43
0.38
 44
0.18
 45
0.0
 46
0.0
 47
0.0
 48
0.0
140
0.18
141
0.09
142
0.0
143
25.4
144
1.0
145
0.0
146
1.0
147
0.09
 71
     0
 72
     0
 73
     1
 74
     1
 75
     0
 76
     0
 77
     0
 78
     0
170
     0
171
     2
172
     0
173
     0
174
     0
175
     0
176
     0
177
     0
178
     0
270
     2
271
     4
272
     4
273
     2
274
     2
340
11
275
     0
280
     0
281
     0
282
     0
283
     1
284
     0
285
     0
286
     0
287
     3
288
     0
  0
ENDTAB
  0
TABLE
  2
BLOCK_RECORD
  5
1
330
0
100
AcDbSymbolTable
 70
     0
  0
BLOCK_RECORD
  5
1E
102
{ACAD_XDICTIONARY
360
193
102
}
330
1
100
AcDbSymbolTableRecord
100
AcDbBlockTableRecord
  2
*MODEL_SPACE
  0
BLOCK_RECORD
  5
1A
102
{ACAD_XDICTIONARY
360
191
102
}
330
1
100
AcDbSymbolTableRecord
100
AcDbBlockTableRecord
  2
*PAPER_SPACE
  0
ENDTAB
  0
ENDSEC
  0
SECTION
  2
BLOCKS
  0
BLOCK
  5
1F
330
1E
100
AcDbEntity
  8
0
100
AcDbBlockBegin
  2
*MODEL_SPACE
 70
     0
 10
0.0
 20
0.0
 30
0.0
  3
*MODEL_SPACE
  1

  0
ENDBLK
  5
20
330
1E
100
AcDbEntity
  8
0
100
AcDbBlockEnd
  0
BLOCK
  5
1B
330
1A
100
AcDbEntity
 67
     1
  8
0
100
AcDbBlockBegin
  2
*PAPER_SPACE
 70
     0
 10
0.0
 20
0.0
 30
0.0
  3
*PAPER_SPACE
  1

  0
ENDBLK
  5
1C
330
1A
100
AcDbEntity
 67
     1
  8
0
100
AcDbBlockEnd
  0
ENDSEC
  0
SECTION
  2
ENTITIES
  0
LINE
  5
22
330
1E
100
AcDbEntity
  8
0
100
AcDbLine
 10
392.3
 20
0.0000000000000044
 30
0.0
 11
392.75
 21
0.0000000000000044
 31
0.0
  0
LINE
  5
23
330
1E
100
AcDbEntity
  8
0
100
AcDbLine
 10
392.75
 20
0.0000000000000044
 30
0.0
 11
393.9499999999999
 21
0.0000000000000043
 31
0.0
  0
LINE
  5
24
330
1E
100
AcDbEntity
  8
0
100
AcDbLine
 10
393.9499999999999
 20
0.0000000000000043
 30
0.0
 11
395.8999999999999
 21
0.0000000000000042
 31
0.0
  0
LINE
  5
25
330
1E
100
AcDbEntity
  8
0
100
AcDbLine
 10
395.8999999999999
 20
0.0000000000000042
 30
0.0
 11
398.45
 21
0.000000000000004
 31
0.0
  0
LINE
  5
26
330
1E
100
AcDbEntity
  8
0
100
AcDbLine
 10
398.45
 20
0.000000000000004
 30
0.0
 11
401.35
 21
0.0000000000000038
 31
0.0
  0
LINE
  5
27
330
1E
100
AcDbEntity
  8
0
100
AcDbLine
 10
407.65
 20
0.0000000000000035
 30
0.0
 11
410.55
 21
0.0000000000000033
 31
0.0
  0
LINE
  5
28
330
1E
100
AcDbEntity
  8
0
100
AcDbLine
 10
404.4999999999999
 20
0.0000000000000037
 30
0.0
 11
407.65
 21
0.0000000000000035
 31
0.0
  0
LINE
  5
29
330
1E
100
AcDbEntity
  8
0
100
AcDbLine
 10
413.1
 20
0.0000000000000031
 30
0.0
 11
415.05
 21
0.000000000000003
 31
0.0
  0
LINE
  5
2A
330
1E
100
AcDbEntity
  8
0
100
AcDbLine
 10
410.55
 20
0.0000000000000033
 30
0.0
 11
413.1
 21
0.0000000000000031
 31
0.0
  0
LINE
  5
2B
330
1E
100
AcDbEntity
  8
0
100
AcDbLine
 10
416.6999999999999
 20
0.0000000000000029
 30
0.0
 11
417.0
 21
0.230769000000003
 31
0.0
  0
LINE
  5
2C
330
1E
100
AcDbEntity
  8
0
100
AcDbLine
 10
416.2499999999999
 20
0.0000000000000029
 30
0.0
 11
416.6999999999999
 21
0.0000000000000029
 31
0.0
  0
LINE
  5
2D
330
1E
100
AcDbEntity
  8
0
100
AcDbLine
 10
416.6999999999999
 20
0.0000000000000029
 30
0.0
 11
417.0
 21
0.230769000000003
 31
0.0
  0
LINE
  5
2E
330
1E
100
AcDbEntity
  8
0
100
AcDbLine
 10
415.05
 20
0.000000000000003
 30
0.0
 11
416.2499999999999
 21
0.0000000000000029
 31
0.0
  0
LINE
  5
2F
330
1E
100
AcDbEntity
  8
0
100
AcDbLine
 10
416.5499999999999
 20
0.230769000000003
 30
0.0
 11
417.0
 21
0.230769000000003
 31
0.0
  0
LINE
  5
30
330
1E
100
AcDbEntity
  8
0
100
AcDbLine
 10
417.0
 20
0.230769000000003
 30
0.0
 11
417.0
 21
4.0
 31
0.0
  0
LINE
  5
31
330
1E
100
AcDbEntity
  8
0
100
AcDbLine
 10
415.35
 20
0.230769000000003
 30
0.0
 11
416.5499999999999
 21
0.230769000000003
 31
0.0
  0
LINE
  5
32
330
1E
100
AcDbEntity
  8
0
100
AcDbLine
 10
413.35
 20
0.230769000000003
 30
0.0
 11
415.35
 21
0.230769000000003
 31
0.0
  0
LINE
  5
33
330
1E
100
AcDbEntity
  8
0
100
AcDbLine
 10
410.7
 20
0.230769000000003
 30
0.0
 11
413.35
 21
0.230769000000003
 31
0.0
  0
LINE
  5
34
330
1E
100
AcDbEntity
  8
0
100
AcDbLine
 10
407.6999999999999
 20
0.230769000000004
 30
0.0
 11
410.7
 21
0.230769000000003
 31
0.0
  0
LINE
  5
35
330
1E
100
AcDbEntity
  8
0
100
AcDbLine
 10
404.4999999999999
 20
0.230769000000004
 30
0.0
 11
407.6999999999999
 21
0.230769000000004
 31
0.0
  0
LINE
  5
36
330
1E
100
AcDbEntity
  8
0
100
AcDbLine
 10
401.35
 20
0.0000000000000038
 30
0.0
 11
404.4999999999999
 21
0.0000000000000037
 31
0.0
  0
LINE
  5
37
330
1E
100
AcDbEntity
  8
0
100
AcDbLine
 10
392.0
 20
0.230769000000004
 30
0.0
 11
392.45
 21
0.230769000000004
 31
0.0
  0
LINE
  5
38
330
1E
100
AcDbEntity
  8
0
100
AcDbLine
 10
392.0
 20
0.230769000000004
 30
0.0
 11
392.3
 21
0.0000000000000044
 31
0.0
  0
LINE
  5
39
330
1E
100
AcDbEntity
  8
0
100
AcDbLine
 10
392.0
 20
0.230769000000004
 30
0.0
 11
392.0
 21
22.7692
 31
0.0
  0
LINE
  5
3A
330
1E
100
AcDbEntity
  8
0
100
AcDbLine
 10
392.0
 20
0.230769000000004
 30
0.0
 11
392.3
 21
0.0000000000000044
 31
0.0
  0
LINE
  5
3B
330
1E
100
AcDbEntity
  8
0
100
AcDbLine
 10
392.45
 20
0.230769000000004
 30
0.0
 11
393.6499999999999
 21
0.230769000000004
 31
0.0
  0
LINE
  5
3C
330
1E
100
AcDbEntity
  8
0
100
AcDbLine
 10
393.6499999999999
 20
0.230769000000004
 30
0.0
 11
395.6499999999999
 21
0.230769000000004
 31
0.0
  0
LINE
  5
3D
330
1E
100
AcDbEntity
  8
0
100
AcDbLine
 10
395.6499999999999
 20
0.230769000000004
 30
0.0
 11
398.3
 21
0.230769000000004
 31
0.0
  0
LINE
  5
3E
330
1E
100
AcDbEntity
  8
0
100
AcDbLine
 10
398.3
 20
0.230769000000004
 30
0.0
 11
401.2999999999999
 21
0.230769000000004
 31
0.0
  0
LINE
  5
3F
330
1E
100
AcDbEntity
  8
0
100
AcDbLine
 10
401.2999999999999
 20
0.230769000000004
 30
0.0
 11
404.4999999999999
 21
0.230769000000004
 31
0.0
  0
LINE
  5
40
330
1E
100
AcDbEntity
  8
0
100
AcDbLine
 10
420.0
 20
4.0
 30
0.0
 11
420.0
 21
4.323999999999999
 31
0.0
  0
LINE
  5
41
330
1E
100
AcDbEntity
  8
0
100
AcDbLine
 10
417.0
 20
4.0
 30
0.0
 11
417.0
 21
0.230769000000002
 31
0.0
  0
LINE
  5
42
330
1E
100
AcDbEntity
  8
0
100
AcDbLine
 10
420.0
 20
4.323999999999999
 30
0.0
 11
420.0
 21
4.0
 31
0.0
  0
LINE
  5
43
330
1E
100
AcDbEntity
  8
0
100
AcDbLine
 10
420.0
 20
4.323999999999999
 30
0.0
 11
420.0
 21
5.187999999999999
 31
0.0
  0
LINE
  5
44
330
1E
100
AcDbEntity
  8
0
100
AcDbLine
 10
420.0
 20
5.187999999999999
 30
0.0
 11
420.0
 21
4.323999999999999
 31
0.0
  0
LINE
  5
45
330
1E
100
AcDbEntity
  8
0
100
AcDbLine
 10
420.0
 20
5.187999999999999
 30
0.0
 11
420.0
 21
6.627999999999999
 31
0.0
  0
LINE
  5
46
330
1E
100
AcDbEntity
  8
0
100
AcDbLine
 10
420.0
 20
6.627999999999999
 30
0.0
 11
420.0
 21
5.187999999999999
 31
0.0
  0
LINE
  5
47
330
1E
100
AcDbEntity
  8
0
100
AcDbLine
 10
420.0
 20
6.627999999999999
 30
0.0
 11
420.0
 21
8.535999999999999
 31
0.0
  0
LINE
  5
48
330
1E
100
AcDbEntity
  8
0
100
AcDbLine
 10
420.0
 20
8.535999999999999
 30
0.0
 11
420.0
 21
6.627999999999999
 31
0.0
  0
LINE
  5
49
330
1E
100
AcDbEntity
  8
0
100
AcDbLine
 10
420.0
 20
8.535999999999999
 30
0.0
 11
420.0
 21
10.696
 31
0.0
  0
LINE
  5
4A
330
1E
100
AcDbEntity
  8
0
100
AcDbLine
 10
420.0
 20
10.696
 30
0.0
 11
420.0
 21
8.535999999999999
 31
0.0
  0
LINE
  5
4B
330
1E
100
AcDbEntity
  8
0
100
AcDbLine
 10
420.0
 20
10.696
 30
0.0
 11
420.0
 21
13.0
 31
0.0
  0
LINE
  5
4C
330
1E
100
AcDbEntity
  8
0
100
AcDbLine
 10
417.0
 20
4.0
 30
0.0
 11
420.0
 21
4.0
 31
0.0
  0
LINE
  5
4D
330
1E
100
AcDbEntity
  8
0
100
AcDbLine
 10
420.0
 20
13.0
 30
0.0
 11
420.0
 21
15.304
 31
0.0
  0
LINE
  5
4E
330
1E
100
AcDbEntity
  8
0
100
AcDbLine
 10
420.0
 20
13.0
 30
0.0
 11
420.0
 21
10.696
 31
0.0
  0
LINE
  5
4F
330
1E
100
AcDbEntity
  8
0
100
AcDbLine
 10
417.0
 20
22.0
 30
0.0
 11
417.0
 21
22.7692
 31
0.0
  0
LINE
  5
50
330
1E
100
AcDbEntity
  8
0
100
AcDbLine
 10
416.984642231751
 20
22.0
 30
0.0
 11
420.0
 21
22.0
 31
0.0
  0
LINE
  5
51
330
1E
100
AcDbEntity
  8
0
100
AcDbLine
 10
392.0
 20
22.7692
 30
0.0
 11
392.45
 21
22.7692
 31
0.0
  0
LINE
  5
52
330
1E
100
AcDbEntity
  8
0
100
AcDbLine
 10
392.0
 20
22.7692
 30
0.0
 11
392.3
 21
23.0
 31
0.0
  0
LINE
  5
53
330
1E
100
AcDbEntity
  8
0
100
AcDbLine
 10
392.0
 20
22.7692
 30
0.0
 11
392.0
 21
0.230769000000006
 31
0.0
  0
LINE
  5
54
330
1E
100
AcDbEntity
  8
0
100
AcDbLine
 10
392.45
 20
22.7692
 30
0.0
 11
393.6499999999999
 21
22.7692
 31
0.0
  0
LINE
  5
55
330
1E
100
AcDbEntity
  8
0
100
AcDbLine
 10
392.3
 20
23.0
 30
0.0
 11
392.75
 21
23.0
 31
0.0
  0
LINE
  5
56
330
1E
100
AcDbEntity
  8
0
100
AcDbLine
 10
-0.0000000000000173
 20
26.24
 30
0.0
 11
0.216345999999983
 21
26.0
 31
0.0
  0
LINE
  5
57
330
1E
100
AcDbEntity
  8
0
100
AcDbLine
 10
-0.0000000000000173
 20
26.24
 30
0.0
 11
0.216345999999983
 21
26.0
 31
0.0
  0
LINE
  5
58
330
1E
100
AcDbEntity
  8
0
100
AcDbLine
 10
-0.0000000000000173
 20
26.24
 30
0.0
 11
-0.0000000000000173
 21
26.6
 31
0.0
  0
LINE
  5
59
330
1E
100
AcDbEntity
  8
0
100
AcDbLine
 10
-0.0000000000000173
 20
26.6
 30
0.0
 11
-0.0000000000000173
 21
27.56
 31
0.0
  0
LINE
  5
5A
330
1E
100
AcDbEntity
  8
0
100
AcDbLine
 10
0.216345999999983
 20
26.0
 30
0.0
 11
0.216345999999983
 21
26.36
 31
0.0
  0
LINE
  5
5B
330
1E
100
AcDbEntity
  8
0
100
AcDbLine
 10
0.216345999999983
 20
26.0
 30
0.0
 11
392.030739743059
 21
26.0
 31
0.0
  0
LINE
  5
5C
330
1E
100
AcDbEntity
  8
0
100
AcDbLine
 10
0.216345999999983
 20
26.36
 30
0.0
 11
0.216345999999983
 21
27.32
 31
0.0
  0
LINE
  5
5D
330
1E
100
AcDbEntity
  8
0
100
AcDbLine
 10
-0.0000000000000173
 20
27.56
 30
0.0
 11
-0.0000000000000172
 21
29.12
 31
0.0
  0
LINE
  5
5E
330
1E
100
AcDbEntity
  8
0
100
AcDbLine
 10
-0.0000000000000172
 20
29.12
 30
0.0
 11
-0.000000000000017
 21
31.16
 31
0.0
  0
LINE
  5
5F
330
1E
100
AcDbEntity
  8
0
100
AcDbLine
 10
0.216345999999983
 20
27.32
 30
0.0
 11
0.216345999999983
 21
28.92
 31
0.0
  0
LINE
  5
60
330
1E
100
AcDbEntity
  8
0
100
AcDbLine
 10
0.216345999999983
 20
28.92
 30
0.0
 11
0.216345999999983
 21
31.04
 31
0.0
  0
LINE
  5
61
330
1E
100
AcDbEntity
  8
0
100
AcDbLine
 10
-0.000000000000017
 20
31.16
 30
0.0
 11
-0.0000000000000169
 21
33.47999999999999
 31
0.0
  0
LINE
  5
62
330
1E
100
AcDbEntity
  8
0
100
AcDbLine
 10
-0.0000000000000169
 20
33.47999999999999
 30
0.0
 11
-0.0000000000000167
 21
36.0
 31
0.0
  0
LINE
  5
63
330
1E
100
AcDbEntity
  8
0
100
AcDbLine
 10
0.216345999999983
 20
31.04
 30
0.0
 11
0.216345999999983
 21
33.43999999999999
 31
0.0
  0
LINE
  5
64
330
1E
100
AcDbEntity
  8
0
100
AcDbLine
 10
0.216345999999983
 20
33.43999999999999
 30
0.0
 11
0.216345999999983
 21
36.0
 31
0.0
  0
LINE
  5
65
330
1E
100
AcDbEntity
  8
0
100
AcDbLine
 10
-0.0000000000000161
 20
45.75999999999999
 30
0.0
 11
0.216345999999984
 21
46.0
 31
0.0
  0
LINE
  5
66
330
1E
100
AcDbEntity
  8
0
100
AcDbLine
 10
-0.0000000000000161
 20
45.75999999999999
 30
0.0
 11
0.216345999999984
 21
46.0
 31
0.0
  0
LINE
  5
67
330
1E
100
AcDbEntity
  8
0
100
AcDbLine
 10
-0.0000000000000162
 20
45.4
 30
0.0
 11
-0.0000000000000161
 21
45.75999999999999
 31
0.0
  0
LINE
  5
68
330
1E
100
AcDbEntity
  8
0
100
AcDbLine
 10
-0.0000000000000162
 20
44.43999999999999
 30
0.0
 11
-0.0000000000000162
 21
45.4
 31
0.0
  0
LINE
  5
69
330
1E
100
AcDbEntity
  8
0
100
AcDbLine
 10
-0.0000000000000163
 20
42.88
 30
0.0
 11
-0.0000000000000162
 21
44.43999999999999
 31
0.0
  0
LINE
  5
6A
330
1E
100
AcDbEntity
  8
0
100
AcDbLine
 10
-0.0000000000000164
 20
40.84
 30
0.0
 11
-0.0000000000000163
 21
42.88
 31
0.0
  0
LINE
  5
6B
330
1E
100
AcDbEntity
  8
0
100
AcDbLine
 10
-0.0000000000000166
 20
38.52
 30
0.0
 11
-0.0000000000000164
 21
40.84
 31
0.0
  0
LINE
  5
6C
330
1E
100
AcDbEntity
  8
0
100
AcDbLine
 10
-0.0000000000000167
 20
36.0
 30
0.0
 11
-0.0000000000000166
 21
38.52
 31
0.0
  0
LINE
  5
6D
330
1E
100
AcDbEntity
  8
0
100
AcDbLine
 10
0.216345999999994
 20
26.0
 30
0.0
 11
392.030739743059
 21
26.0
 31
0.0
  0
LINE
  5
6E
330
1E
100
AcDbEntity
  8
0
100
AcDbLine
 10
0.216345999999984
 20
45.64
 30
0.0
 11
0.216345999999984
 21
46.0
 31
0.0
  0
LINE
  5
6F
330
1E
100
AcDbEntity
  8
0
100
AcDbLine
 10
0.216345999999984
 20
44.67999999999999
 30
0.0
 11
0.216345999999984
 21
45.64
 31
0.0
  0
LINE
  5
70
330
1E
100
AcDbEntity
  8
0
100
AcDbLine
 10
0.216345999999984
 20
43.07999999999999
 30
0.0
 11
0.216345999999984
 21
44.67999999999999
 31
0.0
  0
LINE
  5
71
330
1E
100
AcDbEntity
  8
0
100
AcDbLine
 10
0.216345999999984
 20
40.96
 30
0.0
 11
0.216345999999984
 21
43.07999999999999
 31
0.0
  0
LINE
  5
72
330
1E
100
AcDbEntity
  8
0
100
AcDbLine
 10
0.216345999999984
 20
38.56
 30
0.0
 11
0.216345999999984
 21
40.96
 31
0.0
  0
LINE
  5
73
330
1E
100
AcDbEntity
  8
0
100
AcDbLine
 10
0.216345999999983
 20
36.0
 30
0.0
 11
0.216345999999984
 21
38.56
 31
0.0
  0
LINE
  5
74
330
1E
100
AcDbEntity
  8
0
100
AcDbLine
 10
0.216345999999994
 20
46.0
 30
0.0
 11
392.0
 21
46.0
 31
0.0
  0
LINE
  5
75
330
1E
100
AcDbEntity
  8
0
100
AcDbLine
 10
0.216345999999984
 20
46.0
 30
0.0
 11
0.216345999999984
 21
45.64
 31
0.0
  0
LINE
  5
76
330
1E
100
AcDbEntity
  8
0
100
AcDbLine
 10
0.216345999999984
 20
46.0
 30
0.0
 11
392.0
 21
46.0
 31
0.0
  0
LINE
  5
77
330
1E
100
AcDbEntity
  8
0
100
AcDbLine
 10
392.0
 20
45.9884382683101
 30
0.0
 11
392.0
 21
63.7692
 31
0.0
  0
LINE
  5
78
330
1E
100
AcDbEntity
  8
0
100
AcDbLine
 10
392.0
 20
26.0
 30
0.0
 11
392.0
 21
23.2308
 31
0.0
  0
LINE
  5
79
330
1E
100
AcDbEntity
  8
0
100
AcDbLine
 10
392.0
 20
23.2308
 30
0.0
 11
392.45
 21
23.2308
 31
0.0
  0
LINE
  5
7A
330
1E
100
AcDbEntity
  8
0
100
AcDbLine
 10
392.0
 20
23.2308
 30
0.0
 11
392.3
 21
23.0
 31
0.0
  0
LINE
  5
7B
330
1E
100
AcDbEntity
  8
0
100
AcDbLine
 10
392.0
 20
23.2308
 30
0.0
 11
392.0
 21
26.0
 31
0.0
  0
LINE
  5
7C
330
1E
100
AcDbEntity
  8
0
100
AcDbLine
 10
392.45
 20
23.2308
 30
0.0
 11
393.6499999999999
 21
23.2308
 31
0.0
  0
LINE
  5
7D
330
1E
100
AcDbEntity
  8
0
100
AcDbLine
 10
392.0
 20
63.7692
 30
0.0
 11
392.45
 21
63.7692
 31
0.0
  0
LINE
  5
7E
330
1E
100
AcDbEntity
  8
0
100
AcDbLine
 10
392.0
 20
63.7692
 30
0.0
 11
392.3
 21
64.0
 31
0.0
  0
LINE
  5
7F
330
1E
100
AcDbEntity
  8
0
100
AcDbLine
 10
392.0
 20
63.7692
 30
0.0
 11
392.0
 21
45.9884382683101
 31
0.0
  0
LINE
  5
80
330
1E
100
AcDbEntity
  8
0
100
AcDbLine
 10
393.6499999999999
 20
22.7692
 30
0.0
 11
395.6499999999999
 21
22.7692
 31
0.0
  0
LINE
  5
81
330
1E
100
AcDbEntity
  8
0
100
AcDbLine
 10
392.75
 20
23.0
 30
0.0
 11
393.9499999999999
 21
23.0
 31
0.0
  0
LINE
  5
82
330
1E
100
AcDbEntity
  8
0
100
AcDbLine
 10
395.6499999999999
 20
22.7692
 30
0.0
 11
398.3
 21
22.7692
 31
0.0
  0
LINE
  5
83
330
1E
100
AcDbEntity
  8
0
100
AcDbLine
 10
393.9499999999999
 20
23.0
 30
0.0
 11
395.8999999999999
 21
23.0
 31
0.0
  0
LINE
  5
84
330
1E
100
AcDbEntity
  8
0
100
AcDbLine
 10
393.6499999999999
 20
23.2308
 30
0.0
 11
395.6499999999999
 21
23.2308
 31
0.0
  0
LINE
  5
85
330
1E
100
AcDbEntity
  8
0
100
AcDbLine
 10
393.6499999999999
 20
23.2308
 30
0.0
 11
393.9499999999999
 21
23.0
 31
0.0
  0
LINE
  5
86
330
1E
100
AcDbEntity
  8
0
100
AcDbLine
 10
395.6499999999999
 20
23.2308
 30
0.0
 11
398.3
 21
23.2308
 31
0.0
  0
LINE
  5
87
330
1E
100
AcDbEntity
  8
0
100
AcDbLine
 10
395.6499999999999
 20
23.2308
 30
0.0
 11
395.8999999999999
 21
23.0
 31
0.0
  0
LINE
  5
88
330
1E
100
AcDbEntity
  8
0
100
AcDbLine
 10
392.45
 20
63.7692
 30
0.0
 11
393.6499999999999
 21
63.7692
 31
0.0
  0
LINE
  5
89
330
1E
100
AcDbEntity
  8
0
100
AcDbLine
 10
393.6499999999999
 20
63.7692
 30
0.0
 11
395.6499999999999
 21
63.7692
 31
0.0
  0
LINE
  5
8A
330
1E
100
AcDbEntity
  8
0
100
AcDbLine
 10
393.6499999999999
 20
63.7692
 30
0.0
 11
393.9499999999999
 21
64.0
 31
0.0
  0
LINE
  5
8B
330
1E
100
AcDbEntity
  8
0
100
AcDbLine
 10
398.3
 20
22.7692
 30
0.0
 11
401.2999999999999
 21
22.7692
 31
0.0
  0
LINE
  5
8C
330
1E
100
AcDbEntity
  8
0
100
AcDbLine
 10
395.8999999999999
 20
23.0
 30
0.0
 11
398.45
 21
23.0
 31
0.0
  0
LINE
  5
8D
330
1E
100
AcDbEntity
  8
0
100
AcDbLine
 10
401.2999999999999
 20
22.7692
 30
0.0
 11
404.4999999999999
 21
22.7692
 31
0.0
  0
LINE
  5
8E
330
1E
100
AcDbEntity
  8
0
100
AcDbLine
 10
398.45
 20
23.0
 30
0.0
 11
401.35
 21
23.0
 31
0.0
  0
LINE
  5
8F
330
1E
100
AcDbEntity
  8
0
100
AcDbLine
 10
398.3
 20
23.2308
 30
0.0
 11
401.2999999999999
 21
23.2308
 31
0.0
  0
LINE
  5
90
330
1E
100
AcDbEntity
  8
0
100
AcDbLine
 10
401.2999999999999
 20
23.2308
 30
0.0
 11
404.4999999999999
 21
23.2308
 31
0.0
  0
LINE
  5
91
330
1E
100
AcDbEntity
  8
0
100
AcDbLine
 10
395.6499999999999
 20
63.7692
 30
0.0
 11
398.3
 21
63.7692
 31
0.0
  0
LINE
  5
92
330
1E
100
AcDbEntity
  8
0
100
AcDbLine
 10
395.6499999999999
 20
63.7692
 30
0.0
 11
395.8999999999999
 21
64.0
 31
0.0
  0
LINE
  5
93
330
1E
100
AcDbEntity
  8
0
100
AcDbLine
 10
392.3
 20
64.0
 30
0.0
 11
392.75
 21
64.0
 31
0.0
  0
LINE
  5
94
330
1E
100
AcDbEntity
  8
0
100
AcDbLine
 10
392.75
 20
64.0
 30
0.0
 11
393.9499999999999
 21
64.0
 31
0.0
  0
LINE
  5
95
330
1E
100
AcDbEntity
  8
0
100
AcDbLine
 10
393.9499999999999
 20
64.0
 30
0.0
 11
395.8999999999999
 21
64.0
 31
0.0
  0
LINE
  5
96
330
1E
100
AcDbEntity
  8
0
100
AcDbLine
 10
-0.0000000000000139
 20
82.24
 30
0.0
 11
-0.0000000000000139
 21
82.59999999999999
 31
0.0
  0
LINE
  5
97
330
1E
100
AcDbEntity
  8
0
100
AcDbLine
 10
-0.0000000000000139
 20
82.24
 30
0.0
 11
0.216345999999986
 21
82.0
 31
0.0
  0
LINE
  5
98
330
1E
100
AcDbEntity
  8
0
100
AcDbLine
 10
-0.0000000000000139
 20
82.24
 30
0.0
 11
0.216345999999986
 21
82.0
 31
0.0
  0
LINE
  5
99
330
1E
100
AcDbEntity
  8
0
100
AcDbLine
 10
-0.0000000000000139
 20
82.59999999999999
 30
0.0
 11
-0.0000000000000138
 21
83.55999999999999
 31
0.0
  0
LINE
  5
9A
330
1E
100
AcDbEntity
  8
0
100
AcDbLine
 10
0.216345999999986
 20
82.0
 30
0.0
 11
0.216345999999986
 21
82.36
 31
0.0
  0
LINE
  5
9B
330
1E
100
AcDbEntity
  8
0
100
AcDbLine
 10
0.216345999999986
 20
82.0
 30
0.0
 11
392.0
 21
82.0
 31
0.0
  0
LINE
  5
9C
330
1E
100
AcDbEntity
  8
0
100
AcDbLine
 10
0.216345999999986
 20
82.36
 30
0.0
 11
0.216345999999986
 21
83.31999999999998
 31
0.0
  0
LINE
  5
9D
330
1E
100
AcDbEntity
  8
0
100
AcDbLine
 10
0.216345999999986
 20
82.36
 30
0.0
 11
0.216345999999986
 21
82.0
 31
0.0
  0
LINE
  5
9E
330
1E
100
AcDbEntity
  8
0
100
AcDbLine
 10
-0.0000000000000138
 20
83.55999999999999
 30
0.0
 11
-0.0000000000000137
 21
85.12
 31
0.0
  0
LINE
  5
9F
330
1E
100
AcDbEntity
  8
0
100
AcDbLine
 10
-0.0000000000000137
 20
85.12
 30
0.0
 11
-0.0000000000000136
 21
87.15999999999999
 31
0.0
  0
LINE
  5
A0
330
1E
100
AcDbEntity
  8
0
100
AcDbLine
 10
0.216345999999986
 20
83.31999999999998
 30
0.0
 11
0.216345999999986
 21
84.92
 31
0.0
  0
LINE
  5
A1
330
1E
100
AcDbEntity
  8
0
100
AcDbLine
 10
0.216345999999986
 20
84.92
 30
0.0
 11
0.216345999999986
 21
87.04
 31
0.0
  0
LINE
  5
A2
330
1E
100
AcDbEntity
  8
0
100
AcDbLine
 10
-0.0000000000000136
 20
87.15999999999999
 30
0.0
 11
-0.0000000000000135
 21
89.48
 31
0.0
  0
LINE
  5
A3
330
1E
100
AcDbEntity
  8
0
100
AcDbLine
 10
-0.0000000000000127
 20
101.76
 30
0.0
 11
0.216345999999987
 21
102.0
 31
0.0
  0
LINE
  5
A4
330
1E
100
AcDbEntity
  8
0
100
AcDbLine
 10
-0.0000000000000127
 20
101.76
 30
0.0
 11
0.216345999999987
 21
102.0
 31
0.0
  0
LINE
  5
A5
330
1E
100
AcDbEntity
  8
0
100
AcDbLine
 10
-0.0000000000000127
 20
101.4
 30
0.0
 11
-0.0000000000000127
 21
101.76
 31
0.0
  0
LINE
  5
A6
330
1E
100
AcDbEntity
  8
0
100
AcDbLine
 10
-0.0000000000000128
 20
100.4399999999999
 30
0.0
 11
-0.0000000000000127
 21
101.4
 31
0.0
  0
LINE
  5
A7
330
1E
100
AcDbEntity
  8
0
100
AcDbLine
 10
-0.0000000000000129
 20
98.87999999999999
 30
0.0
 11
-0.0000000000000128
 21
100.4399999999999
 31
0.0
  0
LINE
  5
A8
330
1E
100
AcDbEntity
  8
0
100
AcDbLine
 10
-0.000000000000013
 20
96.84000000000001
 30
0.0
 11
-0.0000000000000129
 21
98.87999999999999
 31
0.0
  0
LINE
  5
A9
330
1E
100
AcDbEntity
  8
0
100
AcDbLine
 10
-0.0000000000000132
 20
94.51999999999999
 30
0.0
 11
-0.000000000000013
 21
96.84000000000001
 31
0.0
  0
LINE
  5
AA
330
1E
100
AcDbEntity
  8
0
100
AcDbLine
 10
-0.0000000000000133
 20
92.0
 30
0.0
 11
-0.0000000000000132
 21
94.51999999999999
 31
0.0
  0
LINE
  5
AB
330
1E
100
AcDbEntity
  8
0
100
AcDbLine
 10
-0.0000000000000135
 20
89.48
 30
0.0
 11
-0.0000000000000133
 21
92.0
 31
0.0
  0
LINE
  5
AC
330
1E
100
AcDbEntity
  8
0
100
AcDbLine
 10
0.216345999999986
 20
87.04
 30
0.0
 11
0.216345999999987
 21
89.44
 31
0.0
  0
LINE
  5
AD
330
1E
100
AcDbEntity
  8
0
100
AcDbLine
 10
392.0
 20
64.2308
 30
0.0
 11
392.3
 21
64.0
 31
0.0
  0
LINE
  5
AE
330
1E
100
AcDbEntity
  8
0
100
AcDbLine
 10
392.0
 20
64.2308
 30
0.0
 11
392.45
 21
64.2308
 31
0.0
  0
LINE
  5
AF
330
1E
100
AcDbEntity
  8
0
100
AcDbLine
 10
392.0
 20
64.2308
 30
0.0
 11
392.0
 21
82.01156173168991
 31
0.0
  0
LINE
  5
B0
330
1E
100
AcDbEntity
  8
0
100
AcDbLine
 10
392.45
 20
64.2308
 30
0.0
 11
393.6499999999999
 21
64.2308
 31
0.0
  0
LINE
  5
B1
330
1E
100
AcDbEntity
  8
0
100
AcDbLine
 10
393.6499999999999
 20
64.2308
 30
0.0
 11
395.6499999999999
 21
64.2308
 31
0.0
  0
LINE
  5
B2
330
1E
100
AcDbEntity
  8
0
100
AcDbLine
 10
395.6499999999999
 20
64.2308
 30
0.0
 11
398.3
 21
64.2308
 31
0.0
  0
LINE
  5
B3
330
1E
100
AcDbEntity
  8
0
100
AcDbLine
 10
398.3
 20
64.2308
 30
0.0
 11
401.2999999999999
 21
64.2308
 31
0.0
  0
LINE
  5
B4
330
1E
100
AcDbEntity
  8
0
100
AcDbLine
 10
392.0
 20
82.01156173168991
 30
0.0
 11
392.0
 21
64.2308
 31
0.0
  0
LINE
  5
B5
330
1E
100
AcDbEntity
  8
0
100
AcDbLine
 10
392.0
 20
102.0
 30
0.0
 11
392.0
 21
104.769
 31
0.0
  0
LINE
  5
B6
330
1E
100
AcDbEntity
  8
0
100
AcDbLine
 10
392.0
 20
104.769
 30
0.0
 11
392.0
 21
102.0
 31
0.0
  0
LINE
  5
B7
330
1E
100
AcDbEntity
  8
0
100
AcDbLine
 10
392.0
 20
104.769
 30
0.0
 11
392.45
 21
104.769
 31
0.0
  0
LINE
  5
B8
330
1E
100
AcDbEntity
  8
0
100
AcDbLine
 10
392.0
 20
104.769
 30
0.0
 11
392.3
 21
105.0
 31
0.0
  0
LINE
  5
B9
330
1E
100
AcDbEntity
  8
0
100
AcDbLine
 10
392.45
 20
104.769
 30
0.0
 11
393.6499999999999
 21
104.769
 31
0.0
  0
LINE
  5
BA
330
1E
100
AcDbEntity
  8
0
100
AcDbLine
 10
393.6499999999999
 20
104.769
 30
0.0
 11
395.6499999999999
 21
104.769
 31
0.0
  0
LINE
  5
BB
330
1E
100
AcDbEntity
  8
0
100
AcDbLine
 10
393.6499999999999
 20
104.769
 30
0.0
 11
393.9499999999999
 21
105.0
 31
0.0
  0
LINE
  5
BC
330
1E
100
AcDbEntity
  8
0
100
AcDbLine
 10
392.3
 20
105.0
 30
0.0
 11
392.75
 21
105.0
 31
0.0
  0
LINE
  5
BD
330
1E
100
AcDbEntity
  8
0
100
AcDbLine
 10
392.75
 20
105.0
 30
0.0
 11
393.9499999999999
 21
105.0
 31
0.0
  0
LINE
  5
BE
330
1E
100
AcDbEntity
  8
0
100
AcDbLine
 10
392.0
 20
105.231
 30
0.0
 11
392.3
 21
105.0
 31
0.0
  0
LINE
  5
BF
330
1E
100
AcDbEntity
  8
0
100
AcDbLine
 10
392.0
 20
105.231
 30
0.0
 11
392.45
 21
105.231
 31
0.0
  0
LINE
  5
C0
330
1E
100
AcDbEntity
  8
0
100
AcDbLine
 10
392.0
 20
105.231
 30
0.0
 11
392.0
 21
127.7689999999999
 31
0.0
  0
LINE
  5
C1
330
1E
100
AcDbEntity
  8
0
100
AcDbLine
 10
392.45
 20
105.231
 30
0.0
 11
393.6499999999999
 21
105.231
 31
0.0
  0
LINE
  5
C2
330
1E
100
AcDbEntity
  8
0
100
AcDbLine
 10
392.0
 20
127.7689999999999
 30
0.0
 11
392.0
 21
105.231
 31
0.0
  0
LINE
  5
C3
330
1E
100
AcDbEntity
  8
0
100
AcDbLine
 10
392.0
 20
127.7689999999999
 30
0.0
 11
392.45
 21
127.7689999999999
 31
0.0
  0
LINE
  5
C4
330
1E
100
AcDbEntity
  8
0
100
AcDbLine
 10
392.0
 20
127.7689999999999
 30
0.0
 11
392.3
 21
128.0
 31
0.0
  0
LINE
  5
C5
330
1E
100
AcDbEntity
  8
0
100
AcDbLine
 10
392.45
 20
127.7689999999999
 30
0.0
 11
393.6499999999999
 21
127.7689999999999
 31
0.0
  0
LINE
  5
C6
330
1E
100
AcDbEntity
  8
0
100
AcDbLine
 10
392.3
 20
128.0
 30
0.0
 11
392.75
 21
128.0
 31
0.0
  0
LINE
  5
C7
330
1E
100
AcDbEntity
  8
0
100
AcDbLine
 10
392.75
 20
128.0
 30
0.0
 11
393.9499999999999
 21
128.0
 31
0.0
  0
LINE
  5
C8
330
1E
100
AcDbEntity
  8
0
100
AcDbLine
 10
393.9499999999999
 20
128.0
 30
0.0
 11
395.8999999999999
 21
128.0
 31
0.0
  0
LINE
  5
C9
330
1E
100
AcDbEntity
  8
0
100
AcDbLine
 10
393.6499999999999
 20
127.7689999999999
 30
0.0
 11
395.6499999999999
 21
127.7689999999999
 31
0.0
  0
LINE
  5
CA
330
1E
100
AcDbEntity
  8
0
100
AcDbLine
 10
395.6499999999999
 20
127.7689999999999
 30
0.0
 11
398.3
 21
127.7689999999999
 31
0.0
  0
LINE
  5
CB
330
1E
100
AcDbEntity
  8
0
100
AcDbLine
 10
393.6499999999999
 20
105.231
 30
0.0
 11
395.6499999999999
 21
105.231
 31
0.0
  0
LINE
  5
CC
330
1E
100
AcDbEntity
  8
0
100
AcDbLine
 10
395.8999999999999
 20
128.0
 30
0.0
 11
398.45
 21
128.0
 31
0.0
  0
LINE
  5
CD
330
1E
100
AcDbEntity
  8
0
100
AcDbLine
 10
395.6499999999999
 20
105.231
 30
0.0
 11
398.3
 21
105.231
 31
0.0
  0
LINE
  5
CE
330
1E
100
AcDbEntity
  8
0
100
AcDbLine
 10
393.9499999999999
 20
105.0
 30
0.0
 11
395.8999999999999
 21
105.0
 31
0.0
  0
LINE
  5
CF
330
1E
100
AcDbEntity
  8
0
100
AcDbLine
 10
398.3
 20
127.7689999999999
 30
0.0
 11
401.2999999999999
 21
127.7689999999999
 31
0.0
  0
LINE
  5
D0
330
1E
100
AcDbEntity
  8
0
100
AcDbLine
 10
398.3
 20
105.231
 30
0.0
 11
401.2999999999999
 21
105.231
 31
0.0
  0
LINE
  5
D1
330
1E
100
AcDbEntity
  8
0
100
AcDbLine
 10
395.8999999999999
 20
105.0
 30
0.0
 11
398.45
 21
105.0
 31
0.0
  0
LINE
  5
D2
330
1E
100
AcDbEntity
  8
0
100
AcDbLine
 10
395.6499999999999
 20
104.769
 30
0.0
 11
398.3
 21
104.769
 31
0.0
  0
LINE
  5
D3
330
1E
100
AcDbEntity
  8
0
100
AcDbLine
 10
395.6499999999999
 20
104.769
 30
0.0
 11
395.8999999999999
 21
105.0
 31
0.0
  0
LINE
  5
D4
330
1E
100
AcDbEntity
  8
0
100
AcDbLine
 10
398.45
 20
128.0
 30
0.0
 11
401.35
 21
128.0
 31
0.0
  0
LINE
  5
D5
330
1E
100
AcDbEntity
  8
0
100
AcDbLine
 10
398.45
 20
105.0
 30
0.0
 11
401.35
 21
105.0
 31
0.0
  0
LINE
  5
D6
330
1E
100
AcDbEntity
  8
0
100
AcDbLine
 10
398.3
 20
104.769
 30
0.0
 11
401.2999999999999
 21
104.769
 31
0.0
  0
LINE
  5
D7
330
1E
100
AcDbEntity
  8
0
100
AcDbLine
 10
0.216345999999994
 20
102.0
 30
0.0
 11
392.0
 21
102.0
 31
0.0
  0
LINE
  5
D8
330
1E
100
AcDbEntity
  8
0
100
AcDbLine
 10
0.216345999999987
 20
102.0
 30
0.0
 11
392.0
 21
102.0
 31
0.0
  0
LINE
  5
D9
330
1E
100
AcDbEntity
  8
0
100
AcDbLine
 10
0.216345999999987
 20
101.6399999999999
 30
0.0
 11
0.216345999999987
 21
102.0
 31
0.0
  0
LINE
  5
DA
330
1E
100
AcDbEntity
  8
0
100
AcDbLine
 10
0.216345999999987
 20
100.68
 30
0.0
 11
0.216345999999987
 21
101.6399999999999
 31
0.0
  0
LINE
  5
DB
330
1E
100
AcDbEntity
  8
0
100
AcDbLine
 10
0.216345999999987
 20
99.08000000000001
 30
0.0
 11
0.216345999999987
 21
100.68
 31
0.0
  0
LINE
  5
DC
330
1E
100
AcDbEntity
  8
0
100
AcDbLine
 10
0.216345999999987
 20
96.95999999999999
 30
0.0
 11
0.216345999999987
 21
99.08000000000001
 31
0.0
  0
LINE
  5
DD
330
1E
100
AcDbEntity
  8
0
100
AcDbLine
 10
0.216345999999987
 20
94.56000000000001
 30
0.0
 11
0.216345999999987
 21
96.95999999999999
 31
0.0
  0
LINE
  5
DE
330
1E
100
AcDbEntity
  8
0
100
AcDbLine
 10
0.216345999999987
 20
92.0
 30
0.0
 11
0.216345999999987
 21
94.56000000000001
 31
0.0
  0
LINE
  5
DF
330
1E
100
AcDbEntity
  8
0
100
AcDbLine
 10
0.216345999999994
 20
82.0
 30
0.0
 11
392.0
 21
82.0
 31
0.0
  0
LINE
  5
E0
330
1E
100
AcDbEntity
  8
0
100
AcDbLine
 10
0.216345999999987
 20
89.44
 30
0.0
 11
0.216345999999987
 21
92.0
 31
0.0
  0
LINE
  5
E1
330
1E
100
AcDbEntity
  8
0
100
AcDbLine
 10
395.8999999999999
 20
64.0
 30
0.0
 11
398.45
 21
64.0
 31
0.0
  0
LINE
  5
E2
330
1E
100
AcDbEntity
  8
0
100
AcDbLine
 10
401.2999999999999
 20
127.7689999999999
 30
0.0
 11
404.4999999999999
 21
127.7689999999999
 31
0.0
  0
LINE
  5
E3
330
1E
100
AcDbEntity
  8
0
100
AcDbLine
 10
401.2999999999999
 20
105.231
 30
0.0
 11
404.4999999999999
 21
105.231
 31
0.0
  0
LINE
  5
E4
330
1E
100
AcDbEntity
  8
0
100
AcDbLine
 10
401.2999999999999
 20
104.769
 30
0.0
 11
404.4999999999999
 21
104.769
 31
0.0
  0
LINE
  5
E5
330
1E
100
AcDbEntity
  8
0
100
AcDbLine
 10
401.2999999999999
 20
64.2308
 30
0.0
 11
404.4999999999999
 21
64.2308
 31
0.0
  0
LINE
  5
E6
330
1E
100
AcDbEntity
  8
0
100
AcDbLine
 10
398.45
 20
64.0
 30
0.0
 11
401.35
 21
64.0
 31
0.0
  0
LINE
  5
E7
330
1E
100
AcDbEntity
  8
0
100
AcDbLine
 10
398.3
 20
63.7692
 30
0.0
 11
401.2999999999999
 21
63.7692
 31
0.0
  0
LINE
  5
E8
330
1E
100
AcDbEntity
  8
0
100
AcDbLine
 10
404.4999999999999
 20
22.7692
 30
0.0
 11
407.6999999999999
 21
22.7692
 31
0.0
  0
LINE
  5
E9
330
1E
100
AcDbEntity
  8
0
100
AcDbLine
 10
404.4999999999999
 20
23.0
 30
0.0
 11
407.65
 21
23.0
 31
0.0
  0
LINE
  5
EA
330
1E
100
AcDbEntity
  8
0
100
AcDbLine
 10
404.4999999999999
 20
23.2308
 30
0.0
 11
407.6999999999999
 21
23.2308
 31
0.0
  0
LINE
  5
EB
330
1E
100
AcDbEntity
  8
0
100
AcDbLine
 10
401.35
 20
23.0
 30
0.0
 11
404.4999999999999
 21
23.0
 31
0.0
  0
LINE
  5
EC
330
1E
100
AcDbEntity
  8
0
100
AcDbLine
 10
404.4999999999999
 20
64.0
 30
0.0
 11
407.65
 21
64.0
 31
0.0
  0
LINE
  5
ED
330
1E
100
AcDbEntity
  8
0
100
AcDbLine
 10
407.6999999999999
 20
22.7692
 30
0.0
 11
410.7
 21
22.7692
 31
0.0
  0
LINE
  5
EE
330
1E
100
AcDbEntity
  8
0
100
AcDbLine
 10
410.7
 20
22.7692
 30
0.0
 11
413.35
 21
22.7692
 31
0.0
  0
LINE
  5
EF
330
1E
100
AcDbEntity
  8
0
100
AcDbLine
 10
410.55
 20
23.0
 30
0.0
 11
413.1
 21
23.0
 31
0.0
  0
LINE
  5
F0
330
1E
100
AcDbEntity
  8
0
100
AcDbLine
 10
407.65
 20
23.0
 30
0.0
 11
410.55
 21
23.0
 31
0.0
  0
LINE
  5
F1
330
1E
100
AcDbEntity
  8
0
100
AcDbLine
 10
410.7
 20
23.2308
 30
0.0
 11
413.35
 21
23.2308
 31
0.0
  0
LINE
  5
F2
330
1E
100
AcDbEntity
  8
0
100
AcDbLine
 10
407.6999999999999
 20
23.2308
 30
0.0
 11
410.7
 21
23.2308
 31
0.0
  0
LINE
  5
F3
330
1E
100
AcDbEntity
  8
0
100
AcDbLine
 10
413.35
 20
22.7692
 30
0.0
 11
415.35
 21
22.7692
 31
0.0
  0
LINE
  5
F4
330
1E
100
AcDbEntity
  8
0
100
AcDbLine
 10
415.35
 20
22.7692
 30
0.0
 11
416.5499999999999
 21
22.7692
 31
0.0
  0
LINE
  5
F5
330
1E
100
AcDbEntity
  8
0
100
AcDbLine
 10
415.05
 20
23.0
 30
0.0
 11
415.35
 21
23.2308
 31
0.0
  0
LINE
  5
F6
330
1E
100
AcDbEntity
  8
0
100
AcDbLine
 10
415.05
 20
23.0
 30
0.0
 11
416.2499999999999
 21
23.0
 31
0.0
  0
LINE
  5
F7
330
1E
100
AcDbEntity
  8
0
100
AcDbLine
 10
413.1
 20
23.0
 30
0.0
 11
413.35
 21
23.2308
 31
0.0
  0
LINE
  5
F8
330
1E
100
AcDbEntity
  8
0
100
AcDbLine
 10
413.1
 20
23.0
 30
0.0
 11
415.05
 21
23.0
 31
0.0
  0
LINE
  5
F9
330
1E
100
AcDbEntity
  8
0
100
AcDbLine
 10
415.35
 20
23.2308
 30
0.0
 11
416.5499999999999
 21
23.2308
 31
0.0
  0
LINE
  5
FA
330
1E
100
AcDbEntity
  8
0
100
AcDbLine
 10
413.35
 20
23.2308
 30
0.0
 11
415.35
 21
23.2308
 31
0.0
  0
LINE
  5
FB
330
1E
100
AcDbEntity
  8
0
100
AcDbLine
 10
416.5499999999999
 20
22.7692
 30
0.0
 11
417.0
 21
22.7692
 31
0.0
  0
LINE
  5
FC
330
1E
100
AcDbEntity
  8
0
100
AcDbLine
 10
416.2499999999999
 20
23.0
 30
0.0
 11
416.6999999999999
 21
23.0
 31
0.0
  0
LINE
  5
FD
330
1E
100
AcDbEntity
  8
0
100
AcDbLine
 10
417.0
 20
22.7692
 30
0.0
 11
417.0
 21
22.0
 31
0.0
  0
LINE
  5
FE
330
1E
100
AcDbEntity
  8
0
100
AcDbLine
 10
416.6999999999999
 20
23.0
 30
0.0
 11
417.0
 21
23.2308
 31
0.0
  0
LINE
  5
FF
330
1E
100
AcDbEntity
  8
0
100
AcDbLine
 10
416.6999999999999
 20
23.0
 30
0.0
 11
417.0
 21
22.7692
 31
0.0
  0
LINE
  5
100
330
1E
100
AcDbEntity
  8
0
100
AcDbLine
 10
417.0
 20
63.7692
 30
0.0
 11
417.0
 21
23.2308
 31
0.0
  0
LINE
  5
101
330
1E
100
AcDbEntity
  8
0
100
AcDbLine
 10
416.5499999999999
 20
23.2308
 30
0.0
 11
417.0
 21
23.2308
 31
0.0
  0
LINE
  5
102
330
1E
100
AcDbEntity
  8
0
100
AcDbLine
 10
417.0
 20
23.2308
 30
0.0
 11
417.0
 21
63.7692
 31
0.0
  0
LINE
  5
103
330
1E
100
AcDbEntity
  8
0
100
AcDbLine
 10
416.5499999999999
 20
63.7692
 30
0.0
 11
417.0
 21
63.7692
 31
0.0
  0
LINE
  5
104
330
1E
100
AcDbEntity
  8
0
100
AcDbLine
 10
415.35
 20
63.7692
 30
0.0
 11
416.5499999999999
 21
63.7692
 31
0.0
  0
LINE
  5
105
330
1E
100
AcDbEntity
  8
0
100
AcDbLine
 10
413.35
 20
63.7692
 30
0.0
 11
415.35
 21
63.7692
 31
0.0
  0
LINE
  5
106
330
1E
100
AcDbEntity
  8
0
100
AcDbLine
 10
410.7
 20
63.7692
 30
0.0
 11
413.35
 21
63.7692
 31
0.0
  0
LINE
  5
107
330
1E
100
AcDbEntity
  8
0
100
AcDbLine
 10
416.2499999999999
 20
64.0
 30
0.0
 11
416.6999999999999
 21
64.0
 31
0.0
  0
LINE
  5
108
330
1E
100
AcDbEntity
  8
0
100
AcDbLine
 10
416.6999999999999
 20
64.0
 30
0.0
 11
417.0
 21
63.7692
 31
0.0
  0
LINE
  5
109
330
1E
100
AcDbEntity
  8
0
100
AcDbLine
 10
416.6999999999999
 20
64.0
 30
0.0
 11
417.0
 21
64.2308
 31
0.0
  0
LINE
  5
10A
330
1E
100
AcDbEntity
  8
0
100
AcDbLine
 10
415.05
 20
64.0
 30
0.0
 11
415.35
 21
63.7692
 31
0.0
  0
LINE
  5
10B
330
1E
100
AcDbEntity
  8
0
100
AcDbLine
 10
415.05
 20
64.0
 30
0.0
 11
416.2499999999999
 21
64.0
 31
0.0
  0
LINE
  5
10C
330
1E
100
AcDbEntity
  8
0
100
AcDbLine
 10
410.55
 20
64.0
 30
0.0
 11
413.1
 21
64.0
 31
0.0
  0
LINE
  5
10D
330
1E
100
AcDbEntity
  8
0
100
AcDbLine
 10
413.1
 20
64.0
 30
0.0
 11
413.35
 21
63.7692
 31
0.0
  0
LINE
  5
10E
330
1E
100
AcDbEntity
  8
0
100
AcDbLine
 10
413.1
 20
64.0
 30
0.0
 11
415.05
 21
64.0
 31
0.0
  0
LINE
  5
10F
330
1E
100
AcDbEntity
  8
0
100
AcDbLine
 10
407.65
 20
64.0
 30
0.0
 11
410.55
 21
64.0
 31
0.0
  0
LINE
  5
110
330
1E
100
AcDbEntity
  8
0
100
AcDbLine
 10
407.6999999999999
 20
63.7692
 30
0.0
 11
410.7
 21
63.7692
 31
0.0
  0
LINE
  5
111
330
1E
100
AcDbEntity
  8
0
100
AcDbLine
 10
404.4999999999999
 20
63.7692
 30
0.0
 11
407.6999999999999
 21
63.7692
 31
0.0
  0
LINE
  5
112
330
1E
100
AcDbEntity
  8
0
100
AcDbLine
 10
404.4999999999999
 20
105.0
 30
0.0
 11
407.65
 21
105.0
 31
0.0
  0
LINE
  5
113
330
1E
100
AcDbEntity
  8
0
100
AcDbLine
 10
404.4999999999999
 20
104.769
 30
0.0
 11
407.6999999999999
 21
104.769
 31
0.0
  0
LINE
  5
114
330
1E
100
AcDbEntity
  8
0
100
AcDbLine
 10
404.4999999999999
 20
128.0
 30
0.0
 11
407.65
 21
128.0
 31
0.0
  0
LINE
  5
115
330
1E
100
AcDbEntity
  8
0
100
AcDbLine
 10
404.4999999999999
 20
127.7689999999999
 30
0.0
 11
407.6999999999999
 21
127.7689999999999
 31
0.0
  0
LINE
  5
116
330
1E
100
AcDbEntity
  8
0
100
AcDbLine
 10
401.35
 20
128.0
 30
0.0
 11
404.4999999999999
 21
128.0
 31
0.0
  0
LINE
  5
117
330
1E
100
AcDbEntity
  8
0
100
AcDbLine
 10
404.4999999999999
 20
105.231
 30
0.0
 11
407.6999999999999
 21
105.231
 31
0.0
  0
LINE
  5
118
330
1E
100
AcDbEntity
  8
0
100
AcDbLine
 10
401.35
 20
105.0
 30
0.0
 11
404.4999999999999
 21
105.0
 31
0.0
  0
LINE
  5
119
330
1E
100
AcDbEntity
  8
0
100
AcDbLine
 10
417.0
 20
64.2308
 30
0.0
 11
417.0
 21
104.769
 31
0.0
  0
LINE
  5
11A
330
1E
100
AcDbEntity
  8
0
100
AcDbLine
 10
416.5499999999999
 20
64.2308
 30
0.0
 11
417.0
 21
64.2308
 31
0.0
  0
LINE
  5
11B
330
1E
100
AcDbEntity
  8
0
100
AcDbLine
 10
415.35
 20
64.2308
 30
0.0
 11
416.5499999999999
 21
64.2308
 31
0.0
  0
LINE
  5
11C
330
1E
100
AcDbEntity
  8
0
100
AcDbLine
 10
413.35
 20
64.2308
 30
0.0
 11
415.35
 21
64.2308
 31
0.0
  0
LINE
  5
11D
330
1E
100
AcDbEntity
  8
0
100
AcDbLine
 10
410.7
 20
64.2308
 30
0.0
 11
413.35
 21
64.2308
 31
0.0
  0
LINE
  5
11E
330
1E
100
AcDbEntity
  8
0
100
AcDbLine
 10
407.65
 20
128.0
 30
0.0
 11
410.55
 21
128.0
 31
0.0
  0
LINE
  5
11F
330
1E
100
AcDbEntity
  8
0
100
AcDbLine
 10
407.6999999999999
 20
127.7689999999999
 30
0.0
 11
410.7
 21
127.7689999999999
 31
0.0
  0
LINE
  5
120
330
1E
100
AcDbEntity
  8
0
100
AcDbLine
 10
407.6999999999999
 20
105.231
 30
0.0
 11
410.7
 21
105.231
 31
0.0
  0
LINE
  5
121
330
1E
100
AcDbEntity
  8
0
100
AcDbLine
 10
407.65
 20
105.0
 30
0.0
 11
410.55
 21
105.0
 31
0.0
  0
LINE
  5
122
330
1E
100
AcDbEntity
  8
0
100
AcDbLine
 10
417.0
 20
104.769
 30
0.0
 11
417.0
 21
64.2308
 31
0.0
  0
LINE
  5
123
330
1E
100
AcDbEntity
  8
0
100
AcDbLine
 10
416.5499999999999
 20
104.769
 30
0.0
 11
417.0
 21
104.769
 31
0.0
  0
LINE
  5
124
330
1E
100
AcDbEntity
  8
0
100
AcDbLine
 10
415.35
 20
104.769
 30
0.0
 11
416.5499999999999
 21
104.769
 31
0.0
  0
LINE
  5
125
330
1E
100
AcDbEntity
  8
0
100
AcDbLine
 10
413.35
 20
104.769
 30
0.0
 11
415.35
 21
104.769
 31
0.0
  0
LINE
  5
126
330
1E
100
AcDbEntity
  8
0
100
AcDbLine
 10
410.55
 20
128.0
 30
0.0
 11
413.1
 21
128.0
 31
0.0
  0
LINE
  5
127
330
1E
100
AcDbEntity
  8
0
100
AcDbLine
 10
410.7
 20
127.7689999999999
 30
0.0
 11
413.35
 21
127.7689999999999
 31
0.0
  0
LINE
  5
128
330
1E
100
AcDbEntity
  8
0
100
AcDbLine
 10
413.1
 20
128.0
 30
0.0
 11
415.05
 21
128.0
 31
0.0
  0
LINE
  5
129
330
1E
100
AcDbEntity
  8
0
100
AcDbLine
 10
410.7
 20
105.231
 30
0.0
 11
413.35
 21
105.231
 31
0.0
  0
LINE
  5
12A
330
1E
100
AcDbEntity
  8
0
100
AcDbLine
 10
410.55
 20
105.0
 30
0.0
 11
413.1
 21
105.0
 31
0.0
  0
LINE
  5
12B
330
1E
100
AcDbEntity
  8
0
100
AcDbLine
 10
416.2499999999999
 20
105.0
 30
0.0
 11
416.6999999999999
 21
105.0
 31
0.0
  0
LINE
  5
12C
330
1E
100
AcDbEntity
  8
0
100
AcDbLine
 10
416.6999999999999
 20
105.0
 30
0.0
 11
417.0
 21
104.769
 31
0.0
  0
LINE
  5
12D
330
1E
100
AcDbEntity
  8
0
100
AcDbLine
 10
416.6999999999999
 20
105.0
 30
0.0
 11
417.0
 21
105.231
 31
0.0
  0
LINE
  5
12E
330
1E
100
AcDbEntity
  8
0
100
AcDbLine
 10
413.35
 20
127.7689999999999
 30
0.0
 11
415.35
 21
127.7689999999999
 31
0.0
  0
LINE
  5
12F
330
1E
100
AcDbEntity
  8
0
100
AcDbLine
 10
417.0
 20
105.231
 30
0.0
 11
417.0
 21
106.0
 31
0.0
  0
LINE
  5
130
330
1E
100
AcDbEntity
  8
0
100
AcDbLine
 10
416.5499999999999
 20
105.231
 30
0.0
 11
417.0
 21
105.231
 31
0.0
  0
LINE
  5
131
330
1E
100
AcDbEntity
  8
0
100
AcDbLine
 10
415.05
 20
128.0
 30
0.0
 11
416.2499999999999
 21
128.0
 31
0.0
  0
LINE
  5
132
330
1E
100
AcDbEntity
  8
0
100
AcDbLine
 10
416.9247470937969
 20
124.0
 30
0.0
 11
420.0
 21
124.0
 31
0.0
  0
LINE
  5
133
330
1E
100
AcDbEntity
  8
0
100
AcDbLine
 10
420.0
 20
106.0
 30
0.0
 11
420.0
 21
106.3239999999999
 31
0.0
  0
LINE
  5
134
330
1E
100
AcDbEntity
  8
0
100
AcDbLine
 10
420.0
 20
106.3239999999999
 30
0.0
 11
420.0
 21
107.1879999999999
 31
0.0
  0
LINE
  5
135
330
1E
100
AcDbEntity
  8
0
100
AcDbLine
 10
420.0
 20
106.3239999999999
 30
0.0
 11
420.0
 21
106.0
 31
0.0
  0
LINE
  5
136
330
1E
100
AcDbEntity
  8
0
100
AcDbLine
 10
420.0
 20
107.1879999999999
 30
0.0
 11
420.0
 21
108.6279999999999
 31
0.0
  0
LINE
  5
137
330
1E
100
AcDbEntity
  8
0
100
AcDbLine
 10
420.0
 20
107.1879999999999
 30
0.0
 11
420.0
 21
106.3239999999999
 31
0.0
  0
LINE
  5
138
330
1E
100
AcDbEntity
  8
0
100
AcDbLine
 10
420.0
 20
108.6279999999999
 30
0.0
 11
420.0
 21
110.536
 31
0.0
  0
LINE
  5
139
330
1E
100
AcDbEntity
  8
0
100
AcDbLine
 10
420.0
 20
108.6279999999999
 30
0.0
 11
420.0
 21
107.1879999999999
 31
0.0
  0
LINE
  5
13A
330
1E
100
AcDbEntity
  8
0
100
AcDbLine
 10
420.0
 20
110.536
 30
0.0
 11
420.0
 21
112.6959999999999
 31
0.0
  0
LINE
  5
13B
330
1E
100
AcDbEntity
  8
0
100
AcDbLine
 10
420.0
 20
110.536
 30
0.0
 11
420.0
 21
108.6279999999999
 31
0.0
  0
LINE
  5
13C
330
1E
100
AcDbEntity
  8
0
100
AcDbLine
 10
420.0
 20
124.0
 30
0.0
 11
420.0
 21
123.676
 31
0.0
  0
LINE
  5
13D
330
1E
100
AcDbEntity
  8
0
100
AcDbLine
 10
420.0
 20
123.676
 30
0.0
 11
420.0
 21
124.0
 31
0.0
  0
LINE
  5
13E
330
1E
100
AcDbEntity
  8
0
100
AcDbLine
 10
420.0
 20
123.676
 30
0.0
 11
420.0
 21
122.812
 31
0.0
  0
LINE
  5
13F
330
1E
100
AcDbEntity
  8
0
100
AcDbLine
 10
420.0
 20
122.812
 30
0.0
 11
420.0
 21
123.676
 31
0.0
  0
LINE
  5
140
330
1E
100
AcDbEntity
  8
0
100
AcDbLine
 10
420.0
 20
122.812
 30
0.0
 11
420.0
 21
121.372
 31
0.0
  0
LINE
  5
141
330
1E
100
AcDbEntity
  8
0
100
AcDbLine
 10
420.0
 20
121.372
 30
0.0
 11
420.0
 21
122.812
 31
0.0
  0
LINE
  5
142
330
1E
100
AcDbEntity
  8
0
100
AcDbLine
 10
420.0
 20
121.372
 30
0.0
 11
420.0
 21
119.4639999999999
 31
0.0
  0
LINE
  5
143
330
1E
100
AcDbEntity
  8
0
100
AcDbLine
 10
420.0
 20
119.4639999999999
 30
0.0
 11
420.0
 21
121.372
 31
0.0
  0
LINE
  5
144
330
1E
100
AcDbEntity
  8
0
100
AcDbLine
 10
420.0
 20
119.4639999999999
 30
0.0
 11
420.0
 21
117.304
 31
0.0
  0
LINE
  5
145
330
1E
100
AcDbEntity
  8
0
100
AcDbLine
 10
420.0
 20
117.304
 30
0.0
 11
420.0
 21
119.4639999999999
 31
0.0
  0
LINE
  5
146
330
1E
100
AcDbEntity
  8
0
100
AcDbLine
 10
420.0
 20
117.304
 30
0.0
 11
420.0
 21
115.0
 31
0.0
  0
LINE
  5
147
330
1E
100
AcDbEntity
  8
0
100
AcDbLine
 10
420.0
 20
115.0
 30
0.0
 11
420.0
 21
112.6959999999999
 31
0.0
  0
LINE
  5
148
330
1E
100
AcDbEntity
  8
0
100
AcDbLine
 10
420.0
 20
115.0
 30
0.0
 11
420.0
 21
117.304
 31
0.0
  0
LINE
  5
149
330
1E
100
AcDbEntity
  8
0
100
AcDbLine
 10
420.0
 20
112.6959999999999
 30
0.0
 11
420.0
 21
115.0
 31
0.0
  0
LINE
  5
14A
330
1E
100
AcDbEntity
  8
0
100
AcDbLine
 10
420.0
 20
112.6959999999999
 30
0.0
 11
420.0
 21
110.536
 31
0.0
  0
LINE
  5
14B
330
1E
100
AcDbEntity
  8
0
100
AcDbLine
 10
417.0
 20
106.0
 30
0.0
 11
417.0
 21
105.231
 31
0.0
  0
LINE
  5
14C
330
1E
100
AcDbEntity
  8
0
100
AcDbLine
 10
417.0
 20
106.0
 30
0.0
 11
420.0
 21
106.0
 31
0.0
  0
LINE
  5
14D
330
1E
100
AcDbEntity
  8
0
100
AcDbLine
 10
416.2499999999999
 20
128.0
 30
0.0
 11
416.6999999999999
 21
128.0
 31
0.0
  0
LINE
  5
14E
330
1E
100
AcDbEntity
  8
0
100
AcDbLine
 10
417.0
 20
127.7689999999999
 30
0.0
 11
417.0
 21
124.0
 31
0.0
  0
LINE
  5
14F
330
1E
100
AcDbEntity
  8
0
100
AcDbLine
 10
416.6999999999999
 20
128.0
 30
0.0
 11
417.0
 21
127.7689999999999
 31
0.0
  0
LINE
  5
150
330
1E
100
AcDbEntity
  8
0
100
AcDbLine
 10
416.5499999999999
 20
127.7689999999999
 30
0.0
 11
417.0
 21
127.7689999999999
 31
0.0
  0
LINE
  5
151
330
1E
100
AcDbEntity
  8
0
100
AcDbLine
 10
417.0
 20
124.0
 30
0.0
 11
417.0
 21
127.7689999999999
 31
0.0
  0
LINE
  5
152
330
1E
100
AcDbEntity
  8
0
100
AcDbLine
 10
415.35
 20
127.7689999999999
 30
0.0
 11
416.5499999999999
 21
127.7689999999999
 31
0.0
  0
LINE
  5
153
330
1E
100
AcDbEntity
  8
0
100
AcDbLine
 10
415.35
 20
105.231
 30
0.0
 11
416.5499999999999
 21
105.231
 31
0.0
  0
LINE
  5
154
330
1E
100
AcDbEntity
  8
0
100
AcDbLine
 10
413.35
 20
105.231
 30
0.0
 11
415.35
 21
105.231
 31
0.0
  0
LINE
  5
155
330
1E
100
AcDbEntity
  8
0
100
AcDbLine
 10
415.05
 20
105.0
 30
0.0
 11
415.35
 21
104.769
 31
0.0
  0
LINE
  5
156
330
1E
100
AcDbEntity
  8
0
100
AcDbLine
 10
415.05
 20
105.0
 30
0.0
 11
416.2499999999999
 21
105.0
 31
0.0
  0
LINE
  5
157
330
1E
100
AcDbEntity
  8
0
100
AcDbLine
 10
413.1
 20
105.0
 30
0.0
 11
413.35
 21
104.769
 31
0.0
  0
LINE
  5
158
330
1E
100
AcDbEntity
  8
0
100
AcDbLine
 10
413.1
 20
105.0
 30
0.0
 11
415.05
 21
105.0
 31
0.0
  0
LINE
  5
159
330
1E
100
AcDbEntity
  8
0
100
AcDbLine
 10
410.7
 20
104.769
 30
0.0
 11
413.35
 21
104.769
 31
0.0
  0
LINE
  5
15A
330
1E
100
AcDbEntity
  8
0
100
AcDbLine
 10
407.6999999999999
 20
104.769
 30
0.0
 11
410.7
 21
104.769
 31
0.0
  0
LINE
  5
15B
330
1E
100
AcDbEntity
  8
0
100
AcDbLine
 10
407.6999999999999
 20
64.2308
 30
0.0
 11
410.7
 21
64.2308
 31
0.0
  0
LINE
  5
15C
330
1E
100
AcDbEntity
  8
0
100
AcDbLine
 10
404.4999999999999
 20
64.2308
 30
0.0
 11
407.6999999999999
 21
64.2308
 31
0.0
  0
LINE
  5
15D
330
1E
100
AcDbEntity
  8
0
100
AcDbLine
 10
401.35
 20
64.0
 30
0.0
 11
404.4999999999999
 21
64.0
 31
0.0
  0
LINE
  5
15E
330
1E
100
AcDbEntity
  8
0
100
AcDbLine
 10
401.2999999999999
 20
63.7692
 30
0.0
 11
404.4999999999999
 21
63.7692
 31
0.0
  0
LINE
  5
15F
330
1E
100
AcDbEntity
  8
0
100
AcDbLine
 10
420.0
 20
22.0
 30
0.0
 11
420.0
 21
21.67599999999999
 31
0.0
  0
LINE
  5
160
330
1E
100
AcDbEntity
  8
0
100
AcDbLine
 10
420.0
 20
21.67599999999999
 30
0.0
 11
420.0
 21
20.81199999999999
 31
0.0
  0
LINE
  5
161
330
1E
100
AcDbEntity
  8
0
100
AcDbLine
 10
420.0
 20
21.67599999999999
 30
0.0
 11
420.0
 21
22.0
 31
0.0
  0
LINE
  5
162
330
1E
100
AcDbEntity
  8
0
100
AcDbLine
 10
420.0
 20
20.81199999999999
 30
0.0
 11
420.0
 21
19.37199999999999
 31
0.0
  0
LINE
  5
163
330
1E
100
AcDbEntity
  8
0
100
AcDbLine
 10
420.0
 20
20.81199999999999
 30
0.0
 11
420.0
 21
21.67599999999999
 31
0.0
  0
LINE
  5
164
330
1E
100
AcDbEntity
  8
0
100
AcDbLine
 10
420.0
 20
19.37199999999999
 30
0.0
 11
420.0
 21
17.464
 31
0.0
  0
LINE
  5
165
330
1E
100
AcDbEntity
  8
0
100
AcDbLine
 10
420.0
 20
19.37199999999999
 30
0.0
 11
420.0
 21
20.81199999999999
 31
0.0
  0
LINE
  5
166
330
1E
100
AcDbEntity
  8
0
100
AcDbLine
 10
420.0
 20
17.464
 30
0.0
 11
420.0
 21
15.304
 31
0.0
  0
LINE
  5
167
330
1E
100
AcDbEntity
  8
0
100
AcDbLine
 10
420.0
 20
17.464
 30
0.0
 11
420.0
 21
19.37199999999999
 31
0.0
  0
LINE
  5
168
330
1E
100
AcDbEntity
  8
0
100
AcDbLine
 10
420.0
 20
15.304
 30
0.0
 11
420.0
 21
13.0
 31
0.0
  0
LINE
  5
169
330
1E
100
AcDbEntity
  8
0
100
AcDbLine
 10
420.0
 20
15.304
 30
0.0
 11
420.0
 21
17.464
 31
0.0
  0
ENDSEC
  0
SECTION
  2
OBJECTS
  0
DICTIONARY
  5
C
330
0
100
AcDbDictionary
  3
ACAD_GROUP
350
D
  3
ACAD_LAYOUT
350
19
  3
ACAD_MLINESTYLE
350
16
  3
ACAD_PLOTSETTINGS
350
18
  3
ACAD_PLOTSTYLENAME
350
E
  3
ACDBHEADERROUNDTRIPXREC
350
171
  3
ACDBVARIABLEDICTIONARY
350
16E
  0
DICTIONARY
  5
193
330
1E
100
AcDbDictionary
280
     1
  3
ACAD_LAYOUTSELFREF
360
194
  0
DICTIONARY
  5
191
330
1A
100
AcDbDictionary
280
     1
  3
ACAD_LAYOUTSELFREF
360
192
  0
DICTIONARY
  5
D
102
{ACAD_REACTORS
330
C
102
}
330
C
100
AcDbDictionary
  0
DICTIONARY
  5
19
102
{ACAD_REACTORS
330
C
102
}
330
C
100
AcDbDictionary
  0
DICTIONARY
  5
16
102
{ACAD_REACTORS
330
C
102
}
330
C
100
AcDbDictionary
  3
STANDARD
350
17
  0
DICTIONARY
  5
18
102
{ACAD_REACTORS
330
C
102
}
330
C
100
AcDbDictionary
  0
ACDBDICTIONARYWDFLT
  5
E
102
{ACAD_REACTORS
330
C
102
}
330
C
100
AcDbDictionary
281
     1
  3
Normal
350
F
100
AcDbDictionaryWithDefault
340
F
  0
DICTIONARY
  5
171
102
{ACAD_REACTORS
330
C
102
}
330
C
100
AcDbDictionary
  3
CEPSNTYPE
350
17B
  3
FINGERPRINTGUID
350
17C
  3
HYPERLINKBASE
350
174
  3
INSUNITS
350
17A
  3
LAYOUTDICT
350
176
  3
LWETCUNION
350
179
  3
PLOTSETDICT
350
177
  3
PLOTSTYLNAMDICT
350
178
  3
PSVPSCALE
350
17E
  3
PUCSBASE
350
181
  3
PUCSORGBACK
350
187
  3
PUCSORGBOTTOM
350
183
  3
PUCSORGFRONT
350
186
  3
PUCSORGLEFT
350
184
  3
PUCSORGRIGHT
350
185
  3
PUCSORGTOP
350
182
  3
PUCSORTHOREF
350
17F
  3
PUCSORTHOVIEW
350
180
  3
STYLESHEET
350
175
  3
TSTACKALIGN
350
172
  3
TSTACKSIZE
350
173
  3
UCSBASE
350
18A
  3
UCSORGBACK
350
190
  3
UCSORGBOTTOM
350
18C
  3
UCSORGFRONT
350
18F
  3
UCSORGLEFT
350
18D
  3
UCSORGRIGHT
350
18E
  3
UCSORGTOP
350
18B
  3
UCSORTHOREF
350
188
  3
UCSORTHOVIEW
350
189
  3
VERSIONGUID
350
17D
  0
DICTIONARY
  5
16E
102
{ACAD_REACTORS
330
C
102
}
330
C
100
AcDbDictionary
  3
DIMASSOC
350
16F
  0
XRECORD
  5
194
102
{ACAD_REACTORS
330
193
102
}
330
193
100
AcDbXrecord
340
1E
  0
XRECORD
  5
192
102
{ACAD_REACTORS
330
191
102
}
330
191
100
AcDbXrecord
340
1A
  0
MLINESTYLE
  5
17
102
{ACAD_REACTORS
330
16
102
}
330
16
100
AcDbMlineStyle
  2
STANDARD
 70
     0
  3

 62
   256
 51
90.0
 52
90.0
 71
     2
 49
0.5
 62
   256
  6
BYLAYER
 49
-0.5
 62
   256
  6
BYLAYER
  0
ACDBPLACEHOLDER
  5
F
102
{ACAD_REACTORS
330
E
102
}
330
E
100
AcDbPlaceHolder
280
     0
  0
XRECORD
  5
17B
102
{ACAD_REACTORS
330
171
102
}
330
171
100
AcDbXrecord
 90
        0
  0
XRECORD
  5
17C
102
{ACAD_REACTORS
330
171
102
}
330
171
100
AcDbXrecord
  1
{4E4531F8-8CDF-4658-9984-8C2CE6D225B7}
  0
XRECORD
  5
174
102
{ACAD_REACTORS
330
171
102
}
330
171
100
AcDbXrecord
  1

  0
XRECORD
  5
17A
102
{ACAD_REACTORS
330
171
102
}
330
171
100
AcDbXrecord
 90
        0
  0
XRECORD
  5
176
102
{ACAD_REACTORS
330
171
102
}
330
171
100
AcDbXrecord
340
19
  0
XRECORD
  5
179
102
{ACAD_REACTORS
330
171
102
}
330
171
100
AcDbXrecord
 90
    10781
  0
XRECORD
  5
177
102
{ACAD_REACTORS
330
171
102
}
330
171
100
AcDbXrecord
340
18
  0
XRECORD
  5
178
102
{ACAD_REACTORS
330
171
102
}
330
171
100
AcDbXrecord
340
E
  0
XRECORD
  5
17E
102
{ACAD_REACTORS
330
171
102
}
330
171
100
AcDbXrecord
 40
0.0
  0
XRECORD
  5
181
102
{ACAD_REACTORS
330
171
102
}
330
171
100
AcDbXrecord
340
0
  0
XRECORD
  5
187
102
{ACAD_REACTORS
330
171
102
}
330
171
100
AcDbXrecord
 10
0.0
 20
0.0
 30
0.0
  0
XRECORD
  5
183
102
{ACAD_REACTORS
330
171
102
}
330
171
100
AcDbXrecord
 10
0.0
 20
0.0
 30
0.0
  0
XRECORD
  5
186
102
{ACAD_REACTORS
330
171
102
}
330
171
100
AcDbXrecord
 10
0.0
 20
0.0
 30
0.0
  0
XRECORD
  5
184
102
{ACAD_REACTORS
330
171
102
}
330
171
100
AcDbXrecord
 10
0.0
 20
0.0
 30
0.0
  0
XRECORD
  5
185
102
{ACAD_REACTORS
330
171
102
}
330
171
100
AcDbXrecord
 10
0.0
 20
0.0
 30
0.0
  0
XRECORD
  5
182
102
{ACAD_REACTORS
330
171
102
}
330
171
100
AcDbXrecord
 10
0.0
 20
0.0
 30
0.0
  0
XRECORD
  5
17F
102
{ACAD_REACTORS
330
171
102
}
330
171
100
AcDbXrecord
340
0
  0
XRECORD
  5
180
102
{ACAD_REACTORS
330
171
102
}
330
171
100
AcDbXrecord
 70
     0
  0
XRECORD
  5
175
102
{ACAD_REACTORS
330
171
102
}
330
171
100
AcDbXrecord
  1

  0
XRECORD
  5
172
102
{ACAD_REACTORS
330
171
102
}
330
171
100
AcDbXrecord
 90
        1
  0
XRECORD
  5
173
102
{ACAD_REACTORS
330
171
102
}
330
171
100
AcDbXrecord
 90
       70
  0
XRECORD
  5
18A
102
{ACAD_REACTORS
330
171
102
}
330
171
100
AcDbXrecord
340
0
  0
XRECORD
  5
190
102
{ACAD_REACTORS
330
171
102
}
330
171
100
AcDbXrecord
 10
0.0
 20
0.0
 30
0.0
  0
XRECORD
  5
18C
102
{ACAD_REACTORS
330
171
102
}
330
171
100
AcDbXrecord
 10
0.0
 20
0.0
 30
0.0
  0
XRECORD
  5
18F
102
{ACAD_REACTORS
330
171
102
}
330
171
100
AcDbXrecord
 10
0.0
 20
0.0
 30
0.0
  0
XRECORD
  5
18D
102
{ACAD_REACTORS
330
171
102
}
330
171
100
AcDbXrecord
 10
0.0
 20
0.0
 30
0.0
  0
XRECORD
  5
18E
102
{ACAD_REACTORS
330
171
102
}
330
171
100
AcDbXrecord
 10
0.0
 20
0.0
 30
0.0
  0
XRECORD
  5
18B
102
{ACAD_REACTORS
330
171
102
}
330
171
100
AcDbXrecord
 10
0.0
 20
0.0
 30
0.0
  0
XRECORD
  5
188
102
{ACAD_REACTORS
330
171
102
}
330
171
100
AcDbXrecord
340
0
  0
XRECORD
  5
189
102
{ACAD_REACTORS
330
171
102
}
330
171
100
AcDbXrecord
 70
     1
  0
XRECORD
  5
17D
102
{ACAD_REACTORS
330
171
102
}
330
171
100
AcDbXrecord
  1
{A76F63D3-F92E-4EC7-8704-D2992F8B2E61}
  0
DICTIONARYVAR
  5
16F
102
{ACAD_REACTORS
330
16E
102
}
330
16E
100
DictionaryVariables
280
     0
  1
1
  0
ENDSEC
  0
EOF
