  0
SECTION
  2
HEADER
  9
$ACADVER
  1
AC1014
  9
$ACADMAINTVER
 70
     9
  9
$DWGCODEPAGE
  3
ANSI_1252
  9
$INSBASE
 10
0.0
 20
0.0
 30
0.0
  9
$EXTMIN
 10
-0.1794
 20
-0.0000000000000032
 30
0.0
  9
$EXTMAX
 10
62.1794
 20
85.0
 30
0.0
  9
$LIMMIN
 10
0.0
 20
0.0
  9
$LIMMAX
 10
12.0
 20
9.0
  9
$ORTHOMODE
 70
     0
  9
$REGENMODE
 70
     1
  9
$FILLMODE
 70
     1
  9
$QTEXTMODE
 70
     0
  9
$MIRRTEXT
 70
     1
  9
$DRAGMODE
 70
     2
  9
$LTSCALE
 40
1.0
  9
$OSMODE
 70
    37
  9
$ATTMODE
 70
     1
  9
$TEXTSIZE
 40
0.2
  9
$TRACEWID
 40
0.05
  9
$TEXTSTYLE
  7
STANDARD
  9
$CLAYER
  8
0
  9
$CELTYPE
  6
CONTINUOUS
  9
$CECOLOR
 62
   256
  9
$CELTSCALE
 40
1.0
  9
$DELOBJ
 70
     1
  9
$DISPSILH
 70
     0
  9
$DIMSCALE
 40
1.0
  9
$DIMASZ
 40
0.18
  9
$DIMEXO
 40
0.0625
  9
$DIMDLI
 40
0.38
  9
$DIMRND
 40
0.0
  9
$DIMDLE
 40
0.0
  9
$DIMEXE
 40
0.18
  9
$DIMTP
 40
0.0
  9
$DIMTM
 40
0.0
  9
$DIMTXT
 40
0.18
  9
$DIMCEN
 40
0.09
  9
$DIMTSZ
 40
0.0
  9
$DIMTOL
 70
     0
  9
$DIMLIM
 70
     0
  9
$DIMTIH
 70
     1
  9
$DIMTOH
 70
     1
  9
$DIMSE1
 70
     0
  9
$DIMSE2
 70
     0
  9
$DIMTAD
 70
     0
  9
$DIMZIN
 70
     0
  9
$DIMBLK
  1

  9
$DIMASO
 70
     1
  9
$DIMSHO
 70
     1
  9
$DIMPOST
  1

  9
$DIMAPOST
  1

  9
$DIMALT
 70
     0
  9
$DIMALTD
 70
     2
  9
$DIMALTF
 40
25.4
  9
$DIMLFAC
 40
1.0
  9
$DIMTOFL
 70
     0
  9
$DIMTVP
 40
0.0
  9
$DIMTIX
 70
     0
  9
$DIMSOXD
 70
     0
  9
$DIMSAH
 70
     0
  9
$DIMBLK1
  1

  9
$DIMBLK2
  1

  9
$DIMSTYLE
  2
STANDARD
  9
$DIMCLRD
 70
     0
  9
$DIMCLRE
 70
     0
  9
$DIMCLRT
 70
     0
  9
$DIMTFAC
 40
1.0
  9
$DIMGAP
 40
0.09
  9
$DIMJUST
 70
     0
  9
$DIMSD1
 70
     0
  9
$DIMSD2
 70
     0
  9
$DIMTOLJ
 70
     1
  9
$DIMTZIN
 70
     0
  9
$DIMALTZ
 70
     0
  9
$DIMALTTZ
 70
     0
  9
$DIMFIT
 70
     3
  9
$DIMUPT
 70
     0
  9
$DIMUNIT
 70
     2
  9
$DIMDEC
 70
     4
  9
$DIMTDEC
 70
     4
  9
$DIMALTU
 70
     2
  9
$DIMALTTD
 70
     2
  9
$DIMTXSTY
  7
STANDARD
  9
$DIMAUNIT
 70
     0
  9
$LUNITS
 70
     2
  9
$LUPREC
 70
     4
  9
$SKETCHINC
 40
0.1
  9
$FILLETRAD
 40
0.0
  9
$AUNITS
 70
     0
  9
$AUPREC
 70
     0
  9
$MENU
  1
.
  9
$ELEVATION
 40
0.0
  9
$PELEVATION
 40
0.0
  9
$THICKNESS
 40
0.0
  9
$LIMCHECK
 70
     0
  9
$BLIPMODE
 70
     0
  9
$CHAMFERA
 40
0.0
  9
$CHAMFERB
 40
0.0
  9
$CHAMFERC
 40
0.0
  9
$CHAMFERD
 40
0.0
  9
$SKPOLY
 70
     0
  9
$TDCREATE
 40
2454690.850748148
  9
$TDUPDATE
 40
2454690.851361400
  9
$TDINDWG
 40
0.0006132523
  9
$TDUSRTIMER
 40
0.0006132523
  9
$USRTIMER
 70
     1
  9
$ANGBASE
 50
0.0
  9
$ANGDIR
 70
     0
  9
$PDMODE
 70
     0
  9
$PDSIZE
 40
0.0
  9
$PLINEWID
 40
0.0
  9
$COORDS
 70
     1
  9
$SPLFRAME
 70
     0
  9
$SPLINETYPE
 70
     6
  9
$SPLINESEGS
 70
     8
  9
$ATTDIA
 70
     0
  9
$ATTREQ
 70
     1
  9
$HANDLING
 70
 22529
  9
$HANDSEED
  5
F8
  9
$SURFTAB1
 70
     6
  9
$SURFTAB2
 70
     6
  9
$SURFTYPE
 70
     6
  9
$SURFU
 70
     6
  9
$SURFV
 70
     6
  9
$UCSNAME
  2

  9
$UCSORG
 10
0.0
 20
0.0
 30
0.0
  9
$UCSXDIR
 10
1.0
 20
0.0
 30
0.0
  9
$UCSYDIR
 10
0.0
 20
1.0
 30
0.0
  9
$PUCSNAME
  2

  9
$PUCSORG
 10
0.0
 20
0.0
 30
0.0
  9
$PUCSXDIR
 10
1.0
 20
0.0
 30
0.0
  9
$PUCSYDIR
 10
0.0
 20
1.0
 30
0.0
  9
$USERI1
 70
     0
  9
$USERI2
 70
     0
  9
$USERI3
 70
     0
  9
$USERI4
 70
     0
  9
$USERI5
 70
     0
  9
$USERR1
 40
0.0
  9
$USERR2
 40
0.0
  9
$USERR3
 40
0.0
  9
$USERR4
 40
0.0
  9
$USERR5
 40
0.0
  9
$WORLDVIEW
 70
     1
  9
$SHADEDGE
 70
     3
  9
$SHADEDIF
 70
    70
  9
$TILEMODE
 70
     1
  9
$MAXACTVP
 70
    64
  9
$PINSBASE
 10
0.0
 20
0.0
 30
0.0
  9
$PLIMCHECK
 70
     0
  9
$PEXTMIN
 10
1.000000000000000E+20
 20
1.000000000000000E+20
 30
1.000000000000000E+20
  9
$PEXTMAX
 10
-1.000000000000000E+20
 20
-1.000000000000000E+20
 30
-1.000000000000000E+20
  9
$PLIMMIN
 10
0.0
 20
0.0
  9
$PLIMMAX
 10
12.0
 20
9.0
  9
$UNITMODE
 70
     0
  9
$VISRETAIN
 70
     1
  9
$PLINEGEN
 70
     0
  9
$PSLTSCALE
 70
     1
  9
$TREEDEPTH
 70
  3020
  9
$PICKSTYLE
 70
     1
  9
$CMLSTYLE
  2
STANDARD
  9
$CMLJUST
 70
     0
  9
$CMLSCALE
 40
1.0
  9
$PROXYGRAPHICS
 70
     1
  9
$MEASUREMENT
 70
     0
  0
ENDSEC
  0
SECTION
  2
CLASSES
  0
CLASS
  1
ACDBDICTIONARYWDFLT
  2
AcDbDictionaryWithDefault
  3
AutoCAD 2000
 90
        0
280
     0
281
     0
  0
CLASS
  1
ACDBPLACEHOLDER
  2
AcDbPlaceHolder
  3
AutoCAD 2000
 90
        0
280
     0
281
     0
  0
CLASS
  1
LAYOUT
  2
AcDbLayout
  3
AutoCAD 2000
 90
        0
280
     0
281
     0
  0
CLASS
  1
DICTIONARYVAR
  2
AcDbDictionaryVar
  3
AutoCAD 2000
 90
        0
280
     0
281
     0
  0
CLASS
  1
LONG_TRANSACTION
  2
AcDbLongTransaction
  3
AutoCAD 2000
 90
        0
280
     0
281
     0
  0
CLASS
  1
LWPOLYLINE
  2
AcDbPolyline
  3
AutoCAD 2000
 90
        0
280
     0
281
     1
  0
CLASS
  1
HATCH
  2
AcDbHatch
  3
AutoCAD 2000
 90
        0
280
     0
281
     1
  0
CLASS
  1
XRECORD
  2
AcDbXrecord
  3
AutoCAD 2000
 90
        0
280
     0
281
     0
  0
ENDSEC
  0
SECTION
  2
TABLES
  0
TABLE
  2
VPORT
  5
8
330
0
100
AcDbSymbolTable
 70
     2
  0
VPORT
  5
D3
330
8
100
AcDbSymbolTableRecord
100
AcDbViewportTableRecord
  2
*ACTIVE
 70
     0
 10
0.0
 20
0.0
 11
1.0
 21
1.0
 12
31.0
 22
42.5
 13
0.0
 23
0.0
 14
1.0
 24
1.0
 15
0.0
 25
0.0
 16
0.0
 26
0.0
 36
1.0
 17
0.0
 27
0.0
 37
0.0
 40
85.65217391304349
 41
2.043533930857874
 42
50.0
 43
0.0
 44
0.0
 50
0.0
 51
0.0
 71
     0
 72
   100
 73
     1
 74
     3
 75
     0
 76
     0
 77
     0
 78
     0
  0
ENDTAB
  0
TABLE
  2
LTYPE
  5
5
330
0
100
AcDbSymbolTable
 70
     1
  0
LTYPE
  5
13
330
5
100
AcDbSymbolTableRecord
100
AcDbLinetypeTableRecord
  2
BYBLOCK
 70
     0
  3

 72
    65
 73
     0
 40
0.0
  0
LTYPE
  5
14
330
5
100
AcDbSymbolTableRecord
100
AcDbLinetypeTableRecord
  2
BYLAYER
 70
     0
  3

 72
    65
 73
     0
 40
0.0
  0
LTYPE
  5
15
330
5
100
AcDbSymbolTableRecord
100
AcDbLinetypeTableRecord
  2
CONTINUOUS
 70
     0
  3
Solid line
 72
    65
 73
     0
 40
0.0
  0
ENDTAB
  0
TABLE
  2
LAYER
  5
2
330
0
100
AcDbSymbolTable
 70
     1
  0
LAYER
  5
10
330
2
100
AcDbSymbolTableRecord
100
AcDbLayerTableRecord
  2
0
 70
     0
 62
     7
  6
CONTINUOUS
  0
ENDTAB
  0
TABLE
  2
STYLE
  5
3
330
0
100
AcDbSymbolTable
 70
     1
  0
STYLE
  5
11
330
3
100
AcDbSymbolTableRecord
100
AcDbTextStyleTableRecord
  2
STANDARD
 70
     0
 40
0.0
 41
1.0
 50
0.0
 71
     0
 42
0.2
  3
txt
  4

  0
ENDTAB
  0
TABLE
  2
VIEW
  5
6
330
0
100
AcDbSymbolTable
 70
     0
  0
ENDTAB
  0
TABLE
  2
UCS
  5
7
330
0
100
AcDbSymbolTable
 70
     0
  0
ENDTAB
  0
TABLE
  2
APPID
  5
9
330
0
100
AcDbSymbolTable
 70
     1
  0
APPID
  5
12
330
9
100
AcDbSymbolTableRecord
100
AcDbRegAppTableRecord
  2
ACAD
 70
     0
  0
ENDTAB
  0
TABLE
  2
DIMSTYLE
  5
A
330
0
100
AcDbSymbolTable
 70
     1
  0
DIMSTYLE
105
CD
330
A
100
AcDbSymbolTableRecord
100
AcDbDimStyleTableRecord
  2
STANDARD
 70
     0
  3

  4

  5

  6

  7

 40
1.0
 41
0.18
 42
0.0625
 43
0.38
 44
0.18
 45
0.0
 46
0.0
 47
0.0
 48
0.0
140
0.18
141
0.09
142
0.0
143
25.4
144
1.0
145
0.0
146
1.0
147
0.09
 71
     0
 72
     0
 73
     1
 74
     1
 75
     0
 76
     0
 77
     0
 78
     0
170
     0
171
     2
172
     0
173
     0
174
     0
175
     0
176
     0
177
     0
178
     0
270
     2
271
     4
272
     4
273
     2
274
     2
340
11
275
     0
280
     0
281
     0
282
     0
283
     1
284
     0
285
     0
286
     0
287
     3
288
     0
  0
ENDTAB
  0
TABLE
  2
BLOCK_RECORD
  5
1
330
0
100
AcDbSymbolTable
 70
     0
  0
BLOCK_RECORD
  5
1E
102
{ACAD_XDICTIONARY
360
F6
102
}
330
1
100
AcDbSymbolTableRecord
100
AcDbBlockTableRecord
  2
*MODEL_SPACE
  0
BLOCK_RECORD
  5
1A
102
{ACAD_XDICTIONARY
360
F4
102
}
330
1
100
AcDbSymbolTableRecord
100
AcDbBlockTableRecord
  2
*PAPER_SPACE
  0
ENDTAB
  0
ENDSEC
  0
SECTION
  2
BLOCKS
  0
BLOCK
  5
1F
330
1E
100
AcDbEntity
  8
0
100
AcDbBlockBegin
  2
*MODEL_SPACE
 70
     0
 10
0.0
 20
0.0
 30
0.0
  3
*MODEL_SPACE
  1

  0
ENDBLK
  5
20
330
1E
100
AcDbEntity
  8
0
100
AcDbBlockEnd
  0
BLOCK
  5
1B
330
1A
100
AcDbEntity
 67
     1
  8
0
100
AcDbBlockBegin
  2
*PAPER_SPACE
 70
     0
 10
0.0
 20
0.0
 30
0.0
  3
*PAPER_SPACE
  1

  0
ENDBLK
  5
1C
330
1A
100
AcDbEntity
 67
     1
  8
0
100
AcDbBlockEnd
  0
ENDSEC
  0
SECTION
  2
ENTITIES
  0
LINE
  5
22
330
1E
100
AcDbEntity
  8
0
100
AcDbLine
 10
-0.179399999999996
 20
62.0467
 30
0.0
 11
52.1794
 21
25.3996834567095
 31
0.0
  0
LINE
  5
23
330
1E
100
AcDbEntity
  8
0
100
AcDbLine
 10
-0.179399999999996
 20
62.0467
 30
0.0
 11
0.0317000000000036
 21
62.38399999999999
 31
0.0
  0
LINE
  5
24
330
1E
100
AcDbEntity
  8
0
100
AcDbLine
 10
-0.179399999999996
 20
62.0467
 30
0.0
 11
0.0317000000000036
 21
62.38399999999999
 31
0.0
  0
LINE
  5
25
330
1E
100
AcDbEntity
  8
0
100
AcDbLine
 10
-0.1794
 20
62.0467
 30
0.0
 11
52.1794
 21
25.3996834567095
 31
0.0
  0
LINE
  5
26
330
1E
100
AcDbEntity
  8
0
100
AcDbLine
 10
0.0317000000000036
 20
62.38399999999999
 30
0.0
 11
2.268899999999999
 21
65.2936
 31
0.0
  0
LINE
  5
27
330
1E
100
AcDbEntity
  8
0
100
AcDbLine
 10
0.0317000000000036
 20
62.38399999999999
 30
0.0
 11
0.5804000000000041
 21
63.0587
 31
0.0
  0
LINE
  5
28
330
1E
100
AcDbEntity
  8
0
100
AcDbLine
 10
1.298
 20
64.0286
 30
0.0
 11
2.268899999999999
 21
65.2936
 31
0.0
  0
LINE
  5
29
330
1E
100
AcDbEntity
  8
0
100
AcDbLine
 10
0.5804000000000041
 20
63.0587
 30
0.0
 11
1.298
 21
64.0286
 31
0.0
  0
LINE
  5
2A
330
1E
100
AcDbEntity
  8
0
100
AcDbLine
 10
2.179399999999999
 20
75.0
 30
0.0
 11
2.5794
 21
72.40000000000001
 31
0.0
  0
LINE
  5
2B
330
1E
100
AcDbEntity
  8
0
100
AcDbLine
 10
2.179399999999999
 20
75.0
 30
0.0
 11
2.5794
 21
77.59999999999999
 31
0.0
  0
LINE
  5
2C
330
1E
100
AcDbEntity
  8
0
100
AcDbLine
 10
0.0317000000000036
 20
62.38399999999999
 30
0.0
 11
2.268899999999999
 21
65.2936
 31
0.0
  0
LINE
  5
2D
330
1E
100
AcDbEntity
  8
0
100
AcDbLine
 10
0.0317000000000036
 20
62.38399999999999
 30
0.0
 11
0.5804000000000041
 21
63.0587
 31
0.0
  0
LINE
  5
2E
330
1E
100
AcDbEntity
  8
0
100
AcDbLine
 10
7.1794
 20
66.29999999999999
 30
0.0
 11
9.579399999999999
 21
65.4
 31
0.0
  0
LINE
  5
2F
330
1E
100
AcDbEntity
  8
0
100
AcDbLine
 10
62.1794
 20
-0.0000000000000032
 30
0.0
 11
62.1794
 21
0.8999999999999969
 31
0.0
  0
LINE
  5
30
330
1E
100
AcDbEntity
  8
0
100
AcDbLine
 10
52.1794
 20
3.5
 30
0.0
 11
52.1794
 21
4.299999999999999
 31
0.0
  0
LINE
  5
31
330
1E
100
AcDbEntity
  8
0
100
AcDbLine
 10
52.1794
 20
4.299999999999999
 30
0.0
 11
52.1794
 21
6.599999999999999
 31
0.0
  0
LINE
  5
32
330
1E
100
AcDbEntity
  8
0
100
AcDbLine
 10
52.1794
 20
4.299999999999999
 30
0.0
 11
52.1794
 21
3.5
 31
0.0
  0
LINE
  5
33
330
1E
100
AcDbEntity
  8
0
100
AcDbLine
 10
52.1794
 20
1.5
 30
0.0
 11
52.1794
 21
2.399999999999999
 31
0.0
  0
LINE
  5
34
330
1E
100
AcDbEntity
  8
0
100
AcDbLine
 10
52.1794
 20
1.5
 30
0.0
 11
53.6794
 21
-0.0000000000000027
 31
0.0
  0
LINE
  5
35
330
1E
100
AcDbEntity
  8
0
100
AcDbLine
 10
52.1794
 20
1.5
 30
0.0
 11
53.6794
 21
-0.0000000000000027
 31
0.0
  0
LINE
  5
36
330
1E
100
AcDbEntity
  8
0
100
AcDbLine
 10
52.1794
 20
2.399999999999999
 30
0.0
 11
52.1794
 21
4.9
 31
0.0
  0
LINE
  5
37
330
1E
100
AcDbEntity
  8
0
100
AcDbLine
 10
52.1794
 20
2.399999999999999
 30
0.0
 11
52.1794
 21
1.5
 31
0.0
  0
LINE
  5
38
330
1E
100
AcDbEntity
  8
0
100
AcDbLine
 10
52.1794
 20
6.599999999999999
 30
0.0
 11
52.1794
 21
10.5
 31
0.0
  0
LINE
  5
39
330
1E
100
AcDbEntity
  8
0
100
AcDbLine
 10
52.1794
 20
6.599999999999999
 30
0.0
 11
52.1794
 21
4.299999999999999
 31
0.0
  0
LINE
  5
3A
330
1E
100
AcDbEntity
  8
0
100
AcDbLine
 10
52.1794
 20
10.5
 30
0.0
 11
52.1794
 21
15.5
 31
0.0
  0
LINE
  5
3B
330
1E
100
AcDbEntity
  8
0
100
AcDbLine
 10
52.1794
 20
10.5
 30
0.0
 11
52.1794
 21
6.599999999999999
 31
0.0
  0
LINE
  5
3C
330
1E
100
AcDbEntity
  8
0
100
AcDbLine
 10
52.1794
 20
4.9
 30
0.0
 11
52.1794
 21
9.099999999999999
 31
0.0
  0
LINE
  5
3D
330
1E
100
AcDbEntity
  8
0
100
AcDbLine
 10
52.1794
 20
4.9
 30
0.0
 11
52.1794
 21
2.399999999999999
 31
0.0
  0
LINE
  5
3E
330
1E
100
AcDbEntity
  8
0
100
AcDbLine
 10
52.1794
 20
9.099999999999999
 30
0.0
 11
52.1794
 21
14.59999999999999
 31
0.0
  0
LINE
  5
3F
330
1E
100
AcDbEntity
  8
0
100
AcDbLine
 10
52.1794
 20
9.099999999999999
 30
0.0
 11
52.1794
 21
4.9
 31
0.0
  0
LINE
  5
40
330
1E
100
AcDbEntity
  8
0
100
AcDbLine
 10
52.1794
 20
33.7
 30
0.0
 11
52.1794
 21
39.5
 31
0.0
  0
LINE
  5
41
330
1E
100
AcDbEntity
  8
0
100
AcDbLine
 10
52.1794
 20
33.7
 30
0.0
 11
52.1794
 21
27.5
 31
0.0
  0
LINE
  5
42
330
1E
100
AcDbEntity
  8
0
100
AcDbLine
 10
52.1794
 20
34.2
 30
0.0
 11
52.1794
 21
40.4
 31
0.0
  0
LINE
  5
43
330
1E
100
AcDbEntity
  8
0
100
AcDbLine
 10
52.1794
 20
34.2
 30
0.0
 11
52.1794
 21
27.5
 31
0.0
  0
LINE
  5
44
330
1E
100
AcDbEntity
  8
0
100
AcDbLine
 10
52.1794
 20
27.5
 30
0.0
 11
52.1794
 21
34.2
 31
0.0
  0
LINE
  5
45
330
1E
100
AcDbEntity
  8
0
100
AcDbLine
 10
52.1794
 20
27.5
 30
0.0
 11
52.1794
 21
33.7
 31
0.0
  0
LINE
  5
46
330
1E
100
AcDbEntity
  8
0
100
AcDbLine
 10
52.1794
 20
27.5
 30
0.0
 11
52.1794
 21
20.8
 31
0.0
  0
LINE
  5
47
330
1E
100
AcDbEntity
  8
0
100
AcDbLine
 10
52.1794
 20
44.5
 30
0.0
 11
52.1794
 21
39.5
 31
0.0
  0
LINE
  5
48
330
1E
100
AcDbEntity
  8
0
100
AcDbLine
 10
52.1794
 20
44.5
 30
0.0
 11
52.1794
 21
48.39999999999999
 31
0.0
  0
LINE
  5
49
330
1E
100
AcDbEntity
  8
0
100
AcDbLine
 10
52.1794
 20
35.20545077438989
 30
0.0
 11
52.1794
 21
40.4
 31
0.0
  0
LINE
  5
4A
330
1E
100
AcDbEntity
  8
0
100
AcDbLine
 10
52.1794
 20
35.20545077438989
 30
0.0
 11
52.1794
 21
39.5
 31
0.0
  0
LINE
  5
4B
330
1E
100
AcDbEntity
  8
0
100
AcDbLine
 10
52.1794
 20
39.5
 30
0.0
 11
52.1794
 21
35.20545077438989
 31
0.0
  0
LINE
  5
4C
330
1E
100
AcDbEntity
  8
0
100
AcDbLine
 10
52.1794
 20
39.5
 30
0.0
 11
52.1794
 21
44.5
 31
0.0
  0
LINE
  5
4D
330
1E
100
AcDbEntity
  8
0
100
AcDbLine
 10
52.1794
 20
39.5
 30
0.0
 11
52.1794
 21
33.7
 31
0.0
  0
LINE
  5
4E
330
1E
100
AcDbEntity
  8
0
100
AcDbLine
 10
52.1794
 20
51.5
 30
0.0
 11
52.1794
 21
50.7
 31
0.0
  0
LINE
  5
4F
330
1E
100
AcDbEntity
  8
0
100
AcDbLine
 10
52.1794
 20
50.7
 30
0.0
 11
52.1794
 21
51.5
 31
0.0
  0
LINE
  5
50
330
1E
100
AcDbEntity
  8
0
100
AcDbLine
 10
52.1794
 20
50.7
 30
0.0
 11
52.1794
 21
48.39999999999999
 31
0.0
  0
LINE
  5
51
330
1E
100
AcDbEntity
  8
0
100
AcDbLine
 10
52.1794
 20
48.39999999999999
 30
0.0
 11
52.1794
 21
50.7
 31
0.0
  0
LINE
  5
52
330
1E
100
AcDbEntity
  8
0
100
AcDbLine
 10
52.1794
 20
48.39999999999999
 30
0.0
 11
52.1794
 21
44.5
 31
0.0
  0
LINE
  5
53
330
1E
100
AcDbEntity
  8
0
100
AcDbLine
 10
12.1794
 20
65.0
 30
0.0
 11
14.7794
 21
65.4
 31
0.0
  0
LINE
  5
54
330
1E
100
AcDbEntity
  8
0
100
AcDbLine
 10
14.7794
 20
65.4
 30
0.0
 11
17.1794
 21
66.29999999999999
 31
0.0
  0
LINE
  5
55
330
1E
100
AcDbEntity
  8
0
100
AcDbLine
 10
9.579399999999999
 20
65.4
 30
0.0
 11
12.1794
 21
65.0
 31
0.0
  0
LINE
  5
56
330
1E
100
AcDbEntity
  8
0
100
AcDbLine
 10
17.1794
 20
66.29999999999999
 30
0.0
 11
19.27939999999999
 21
67.9
 31
0.0
  0
LINE
  5
57
330
1E
100
AcDbEntity
  8
0
100
AcDbLine
 10
8.60962470225059
 20
65.76366573665599
 30
0.0
 11
9.579399999999999
 21
65.4
 31
0.0
  0
LINE
  5
58
330
1E
100
AcDbEntity
  8
0
100
AcDbLine
 10
52.1794
 20
53.5
 30
0.0
 11
52.1794
 21
52.6
 31
0.0
  0
LINE
  5
59
330
1E
100
AcDbEntity
  8
0
100
AcDbLine
 10
52.1794
 20
53.5
 30
0.0
 11
53.6794
 21
55.0
 31
0.0
  0
LINE
  5
5A
330
1E
100
AcDbEntity
  8
0
100
AcDbLine
 10
52.1794
 20
52.6
 30
0.0
 11
52.1794
 21
50.1
 31
0.0
  0
LINE
  5
5B
330
1E
100
AcDbEntity
  8
0
100
AcDbLine
 10
52.1794
 20
52.6
 30
0.0
 11
52.1794
 21
53.5
 31
0.0
  0
LINE
  5
5C
330
1E
100
AcDbEntity
  8
0
100
AcDbLine
 10
52.1794
 20
50.1
 30
0.0
 11
52.1794
 21
45.89999999999999
 31
0.0
  0
LINE
  5
5D
330
1E
100
AcDbEntity
  8
0
100
AcDbLine
 10
52.1794
 20
50.1
 30
0.0
 11
52.1794
 21
52.6
 31
0.0
  0
LINE
  5
5E
330
1E
100
AcDbEntity
  8
0
100
AcDbLine
 10
52.1794
 20
45.89999999999999
 30
0.0
 11
52.1794
 21
40.4
 31
0.0
  0
LINE
  5
5F
330
1E
100
AcDbEntity
  8
0
100
AcDbLine
 10
52.1794
 20
45.89999999999999
 30
0.0
 11
52.1794
 21
50.1
 31
0.0
  0
LINE
  5
60
330
1E
100
AcDbEntity
  8
0
100
AcDbLine
 10
52.1794
 20
40.4
 30
0.0
 11
52.1794
 21
35.20545077438989
 31
0.0
  0
LINE
  5
61
330
1E
100
AcDbEntity
  8
0
100
AcDbLine
 10
52.1794
 20
40.4
 30
0.0
 11
52.1794
 21
45.89999999999999
 31
0.0
  0
LINE
  5
62
330
1E
100
AcDbEntity
  8
0
100
AcDbLine
 10
52.1794
 20
40.4
 30
0.0
 11
52.1794
 21
34.2
 31
0.0
  0
LINE
  5
63
330
1E
100
AcDbEntity
  8
0
100
AcDbLine
 10
52.1794
 20
15.5
 30
0.0
 11
52.1794
 21
10.5
 31
0.0
  0
LINE
  5
64
330
1E
100
AcDbEntity
  8
0
100
AcDbLine
 10
52.1794
 20
25.3996834567095
 30
0.0
 11
52.1794
 21
20.8
 31
0.0
  0
LINE
  5
65
330
1E
100
AcDbEntity
  8
0
100
AcDbLine
 10
52.1794
 20
14.59999999999999
 30
0.0
 11
52.1794
 21
20.8
 31
0.0
  0
LINE
  5
66
330
1E
100
AcDbEntity
  8
0
100
AcDbLine
 10
52.1794
 20
14.59999999999999
 30
0.0
 11
52.1794
 21
9.099999999999999
 31
0.0
  0
LINE
  5
67
330
1E
100
AcDbEntity
  8
0
100
AcDbLine
 10
53.6794
 20
0.8999999999999969
 30
0.0
 11
53.6794
 21
3.6
 31
0.0
  0
LINE
  5
68
330
1E
100
AcDbEntity
  8
0
100
AcDbLine
 10
53.6794
 20
0.8999999999999969
 30
0.0
 11
53.6794
 21
-0.0000000000000027
 31
0.0
  0
LINE
  5
69
330
1E
100
AcDbEntity
  8
0
100
AcDbLine
 10
53.6794
 20
3.6
 30
0.0
 11
53.6794
 21
8.0
 31
0.0
  0
LINE
  5
6A
330
1E
100
AcDbEntity
  8
0
100
AcDbLine
 10
53.6794
 20
3.6
 30
0.0
 11
53.6794
 21
0.8999999999999969
 31
0.0
  0
LINE
  5
6B
330
1E
100
AcDbEntity
  8
0
100
AcDbLine
 10
53.6794
 20
8.0
 30
0.0
 11
53.6794
 21
13.9
 31
0.0
  0
LINE
  5
6C
330
1E
100
AcDbEntity
  8
0
100
AcDbLine
 10
53.6794
 20
8.0
 30
0.0
 11
53.6794
 21
3.6
 31
0.0
  0
LINE
  5
6D
330
1E
100
AcDbEntity
  8
0
100
AcDbLine
 10
53.6794
 20
13.9
 30
0.0
 11
53.6794
 21
20.5
 31
0.0
  0
LINE
  5
6E
330
1E
100
AcDbEntity
  8
0
100
AcDbLine
 10
53.6794
 20
13.9
 30
0.0
 11
53.6794
 21
8.0
 31
0.0
  0
LINE
  5
6F
330
1E
100
AcDbEntity
  8
0
100
AcDbLine
 10
53.6794
 20
20.5
 30
0.0
 11
53.6794
 21
27.5
 31
0.0
  0
LINE
  5
70
330
1E
100
AcDbEntity
  8
0
100
AcDbLine
 10
53.6794
 20
20.5
 30
0.0
 11
53.6794
 21
13.9
 31
0.0
  0
LINE
  5
71
330
1E
100
AcDbEntity
  8
0
100
AcDbLine
 10
53.6794
 20
34.5
 30
0.0
 11
53.6794
 21
41.1
 31
0.0
  0
LINE
  5
72
330
1E
100
AcDbEntity
  8
0
100
AcDbLine
 10
53.6794
 20
34.5
 30
0.0
 11
53.6794
 21
27.5
 31
0.0
  0
LINE
  5
73
330
1E
100
AcDbEntity
  8
0
100
AcDbLine
 10
62.1794
 20
0.8999999999999969
 30
0.0
 11
62.1794
 21
3.6
 31
0.0
  0
LINE
  5
74
330
1E
100
AcDbEntity
  8
0
100
AcDbLine
 10
62.1794
 20
0.8999999999999969
 30
0.0
 11
62.1794
 21
-0.0000000000000032
 31
0.0
  0
LINE
  5
75
330
1E
100
AcDbEntity
  8
0
100
AcDbLine
 10
62.1794
 20
3.6
 30
0.0
 11
62.1794
 21
8.0
 31
0.0
  0
LINE
  5
76
330
1E
100
AcDbEntity
  8
0
100
AcDbLine
 10
62.1794
 20
3.6
 30
0.0
 11
62.1794
 21
0.8999999999999969
 31
0.0
  0
LINE
  5
77
330
1E
100
AcDbEntity
  8
0
100
AcDbLine
 10
62.1794
 20
8.0
 30
0.0
 11
62.1794
 21
13.9
 31
0.0
  0
LINE
  5
78
330
1E
100
AcDbEntity
  8
0
100
AcDbLine
 10
62.1794
 20
8.0
 30
0.0
 11
62.1794
 21
3.6
 31
0.0
  0
LINE
  5
79
330
1E
100
AcDbEntity
  8
0
100
AcDbLine
 10
62.1794
 20
13.9
 30
0.0
 11
62.1794
 21
20.5
 31
0.0
  0
LINE
  5
7A
330
1E
100
AcDbEntity
  8
0
100
AcDbLine
 10
62.1794
 20
13.9
 30
0.0
 11
62.1794
 21
8.0
 31
0.0
  0
LINE
  5
7B
330
1E
100
AcDbEntity
  8
0
100
AcDbLine
 10
62.1794
 20
20.5
 30
0.0
 11
62.1794
 21
27.5
 31
0.0
  0
LINE
  5
7C
330
1E
100
AcDbEntity
  8
0
100
AcDbLine
 10
62.1794
 20
20.5
 30
0.0
 11
62.1794
 21
13.9
 31
0.0
  0
LINE
  5
7D
330
1E
100
AcDbEntity
  8
0
100
AcDbLine
 10
53.6794
 20
27.5
 30
0.0
 11
53.6794
 21
34.5
 31
0.0
  0
LINE
  5
7E
330
1E
100
AcDbEntity
  8
0
100
AcDbLine
 10
53.6794
 20
27.5
 30
0.0
 11
53.6794
 21
20.5
 31
0.0
  0
LINE
  5
7F
330
1E
100
AcDbEntity
  8
0
100
AcDbLine
 10
53.6794
 20
47.0
 30
0.0
 11
53.6794
 21
51.4
 31
0.0
  0
LINE
  5
80
330
1E
100
AcDbEntity
  8
0
100
AcDbLine
 10
53.6794
 20
47.0
 30
0.0
 11
53.6794
 21
41.1
 31
0.0
  0
LINE
  5
81
330
1E
100
AcDbEntity
  8
0
100
AcDbLine
 10
53.6794
 20
41.1
 30
0.0
 11
53.6794
 21
47.0
 31
0.0
  0
LINE
  5
82
330
1E
100
AcDbEntity
  8
0
100
AcDbLine
 10
53.6794
 20
41.1
 30
0.0
 11
53.6794
 21
34.5
 31
0.0
  0
LINE
  5
83
330
1E
100
AcDbEntity
  8
0
100
AcDbLine
 10
53.6794
 20
54.1
 30
0.0
 11
53.6794
 21
55.0
 31
0.0
  0
LINE
  5
84
330
1E
100
AcDbEntity
  8
0
100
AcDbLine
 10
53.6794
 20
54.1
 30
0.0
 11
53.6794
 21
51.4
 31
0.0
  0
LINE
  5
85
330
1E
100
AcDbEntity
  8
0
100
AcDbLine
 10
53.6794
 20
51.4
 30
0.0
 11
53.6794
 21
54.1
 31
0.0
  0
LINE
  5
86
330
1E
100
AcDbEntity
  8
0
100
AcDbLine
 10
53.6794
 20
51.4
 30
0.0
 11
53.6794
 21
47.0
 31
0.0
  0
LINE
  5
87
330
1E
100
AcDbEntity
  8
0
100
AcDbLine
 10
62.1794
 20
55.0
 30
0.0
 11
62.1794
 21
54.1
 31
0.0
  0
LINE
  5
88
330
1E
100
AcDbEntity
  8
0
100
AcDbLine
 10
62.1794
 20
54.1
 30
0.0
 11
62.1794
 21
55.0
 31
0.0
  0
LINE
  5
89
330
1E
100
AcDbEntity
  8
0
100
AcDbLine
 10
62.1794
 20
54.1
 30
0.0
 11
62.1794
 21
51.4
 31
0.0
  0
LINE
  5
8A
330
1E
100
AcDbEntity
  8
0
100
AcDbLine
 10
62.1794
 20
51.4
 30
0.0
 11
62.1794
 21
54.1
 31
0.0
  0
LINE
  5
8B
330
1E
100
AcDbEntity
  8
0
100
AcDbLine
 10
62.1794
 20
51.4
 30
0.0
 11
62.1794
 21
47.0
 31
0.0
  0
LINE
  5
8C
330
1E
100
AcDbEntity
  8
0
100
AcDbLine
 10
62.1794
 20
47.0
 30
0.0
 11
62.1794
 21
51.4
 31
0.0
  0
LINE
  5
8D
330
1E
100
AcDbEntity
  8
0
100
AcDbLine
 10
62.1794
 20
47.0
 30
0.0
 11
62.1794
 21
41.1
 31
0.0
  0
LINE
  5
8E
330
1E
100
AcDbEntity
  8
0
100
AcDbLine
 10
62.1794
 20
41.1
 30
0.0
 11
62.1794
 21
47.0
 31
0.0
  0
LINE
  5
8F
330
1E
100
AcDbEntity
  8
0
100
AcDbLine
 10
62.1794
 20
41.1
 30
0.0
 11
62.1794
 21
34.5
 31
0.0
  0
LINE
  5
90
330
1E
100
AcDbEntity
  8
0
100
AcDbLine
 10
62.1794
 20
34.5
 30
0.0
 11
62.1794
 21
41.1
 31
0.0
  0
LINE
  5
91
330
1E
100
AcDbEntity
  8
0
100
AcDbLine
 10
62.1794
 20
34.5
 30
0.0
 11
62.1794
 21
27.5
 31
0.0
  0
LINE
  5
92
330
1E
100
AcDbEntity
  8
0
100
AcDbLine
 10
62.1794
 20
27.5
 30
0.0
 11
62.1794
 21
34.5
 31
0.0
  0
LINE
  5
93
330
1E
100
AcDbEntity
  8
0
100
AcDbLine
 10
62.1794
 20
27.5
 30
0.0
 11
62.1794
 21
20.5
 31
0.0
  0
LINE
  5
94
330
1E
100
AcDbEntity
  8
0
100
AcDbLine
 10
53.6794
 20
55.0
 30
0.0
 11
62.1794
 21
55.0
 31
0.0
  0
LINE
  5
95
330
1E
100
AcDbEntity
  8
0
100
AcDbLine
 10
53.6794
 20
55.0
 30
0.0
 11
53.6794
 21
54.1
 31
0.0
  0
LINE
  5
96
330
1E
100
AcDbEntity
  8
0
100
AcDbLine
 10
52.1794
 20
20.8
 30
0.0
 11
52.1794
 21
25.3996834567095
 31
0.0
  0
LINE
  5
97
330
1E
100
AcDbEntity
  8
0
100
AcDbLine
 10
52.1794
 20
20.8
 30
0.0
 11
52.1794
 21
14.59999999999999
 31
0.0
  0
LINE
  5
98
330
1E
100
AcDbEntity
  8
0
100
AcDbLine
 10
52.1794
 20
20.8
 30
0.0
 11
52.1794
 21
27.5
 31
0.0
  0
LINE
  5
99
330
1E
100
AcDbEntity
  8
0
100
AcDbLine
 10
53.6794
 20
-0.0000000000000027
 30
0.0
 11
62.1794
 21
-0.0000000000000032
 31
0.0
  0
LINE
  5
9A
330
1E
100
AcDbEntity
  8
0
100
AcDbLine
 10
53.6794
 20
-0.0000000000000027
 30
0.0
 11
53.6794
 21
0.8999999999999969
 31
0.0
  0
LINE
  5
9B
330
1E
100
AcDbEntity
  8
0
100
AcDbLine
 10
8.609624702250579
 20
65.76366573665599
 30
0.0
 11
52.1794
 21
35.20545077438989
 31
0.0
  0
LINE
  5
9C
330
1E
100
AcDbEntity
  8
0
100
AcDbLine
 10
8.609624702250579
 20
65.76366573665599
 30
0.0
 11
52.1794
 21
35.20545077438989
 31
0.0
  0
LINE
  5
9D
330
1E
100
AcDbEntity
  8
0
100
AcDbLine
 10
2.5794
 20
77.59999999999999
 30
0.0
 11
3.4794
 21
80.0
 31
0.0
  0
LINE
  5
9E
330
1E
100
AcDbEntity
  8
0
100
AcDbLine
 10
2.5794
 20
72.40000000000001
 30
0.0
 11
3.4794
 21
70.0
 31
0.0
  0
LINE
  5
9F
330
1E
100
AcDbEntity
  8
0
100
AcDbLine
 10
4.3794
 20
68.2453
 30
0.0
 11
4.576388868312339
 21
68.5602021103401
 31
0.0
  0
LINE
  5
A0
330
1E
100
AcDbEntity
  8
0
100
AcDbLine
 10
3.872899999999999
 20
67.5284
 30
0.0
 11
4.3794
 21
68.2453
 31
0.0
  0
LINE
  5
A1
330
1E
100
AcDbEntity
  8
0
100
AcDbLine
 10
12.1794
 20
66.5
 30
0.0
 11
14.3794
 21
66.79999999999999
 31
0.0
  0
LINE
  5
A2
330
1E
100
AcDbEntity
  8
0
100
AcDbLine
 10
14.3794
 20
66.79999999999999
 30
0.0
 11
16.3794
 21
67.59999999999999
 31
0.0
  0
LINE
  5
A3
330
1E
100
AcDbEntity
  8
0
100
AcDbLine
 10
16.3794
 20
67.59999999999999
 30
0.0
 11
18.1794
 21
69.0
 31
0.0
  0
LINE
  5
A4
330
1E
100
AcDbEntity
  8
0
100
AcDbLine
 10
18.1794
 20
69.0
 30
0.0
 11
19.57939999999999
 21
70.8
 31
0.0
  0
LINE
  5
A5
330
1E
100
AcDbEntity
  8
0
100
AcDbLine
 10
19.27939999999999
 20
67.9
 30
0.0
 11
20.8794
 21
70.0
 31
0.0
  0
LINE
  5
A6
330
1E
100
AcDbEntity
  8
0
100
AcDbLine
 10
9.9794
 20
66.79999999999999
 30
0.0
 11
12.1794
 21
66.5
 31
0.0
  0
LINE
  5
A7
330
1E
100
AcDbEntity
  8
0
100
AcDbLine
 10
7.9794
 20
67.59999999999999
 30
0.0
 11
9.9794
 21
66.79999999999999
 31
0.0
  0
LINE
  5
A8
330
1E
100
AcDbEntity
  8
0
100
AcDbLine
 10
20.8794
 20
70.0
 30
0.0
 11
21.77939999999999
 21
72.40000000000001
 31
0.0
  0
LINE
  5
A9
330
1E
100
AcDbEntity
  8
0
100
AcDbLine
 10
6.1794
 20
69.0
 30
0.0
 11
7.9794
 21
67.59999999999999
 31
0.0
  0
LINE
  5
AA
330
1E
100
AcDbEntity
  8
0
100
AcDbLine
 10
5.079399999999999
 20
67.9
 30
0.0
 11
7.1794
 21
66.29999999999999
 31
0.0
  0
LINE
  5
AB
330
1E
100
AcDbEntity
  8
0
100
AcDbLine
 10
3.4794
 20
80.0
 30
0.0
 11
5.079399999999999
 21
82.09999999999999
 31
0.0
  0
LINE
  5
AC
330
1E
100
AcDbEntity
  8
0
100
AcDbLine
 10
19.57939999999999
 20
70.8
 30
0.0
 11
20.3794
 21
72.8
 31
0.0
  0
LINE
  5
AD
330
1E
100
AcDbEntity
  8
0
100
AcDbLine
 10
20.3794
 20
72.8
 30
0.0
 11
20.6794
 21
75.0
 31
0.0
  0
LINE
  5
AE
330
1E
100
AcDbEntity
  8
0
100
AcDbLine
 10
21.77939999999999
 20
72.40000000000001
 30
0.0
 11
22.1794
 21
75.0
 31
0.0
  0
LINE
  5
AF
330
1E
100
AcDbEntity
  8
0
100
AcDbLine
 10
4.779399999999999
 20
70.8
 30
0.0
 11
6.1794
 21
69.0
 31
0.0
  0
LINE
  5
B0
330
1E
100
AcDbEntity
  8
0
100
AcDbLine
 10
4.779399999999999
 20
79.2
 30
0.0
 11
6.1794
 21
81.0
 31
0.0
  0
LINE
  5
B1
330
1E
100
AcDbEntity
  8
0
100
AcDbLine
 10
3.9794
 20
77.2
 30
0.0
 11
4.779399999999999
 21
79.2
 31
0.0
  0
LINE
  5
B2
330
1E
100
AcDbEntity
  8
0
100
AcDbLine
 10
9.9794
 20
83.2
 30
0.0
 11
12.1794
 21
83.49999999999999
 31
0.0
  0
LINE
  5
B3
330
1E
100
AcDbEntity
  8
0
100
AcDbLine
 10
7.9794
 20
82.4
 30
0.0
 11
9.9794
 21
83.2
 31
0.0
  0
LINE
  5
B4
330
1E
100
AcDbEntity
  8
0
100
AcDbLine
 10
6.1794
 20
81.0
 30
0.0
 11
7.9794
 21
82.4
 31
0.0
  0
LINE
  5
B5
330
1E
100
AcDbEntity
  8
0
100
AcDbLine
 10
5.079399999999999
 20
82.09999999999999
 30
0.0
 11
7.1794
 21
83.7
 31
0.0
  0
LINE
  5
B6
330
1E
100
AcDbEntity
  8
0
100
AcDbLine
 10
9.579399999999999
 20
84.59999999999999
 30
0.0
 11
12.1794
 21
85.0
 31
0.0
  0
LINE
  5
B7
330
1E
100
AcDbEntity
  8
0
100
AcDbLine
 10
7.1794
 20
83.7
 30
0.0
 11
9.579399999999999
 21
84.59999999999999
 31
0.0
  0
LINE
  5
B8
330
1E
100
AcDbEntity
  8
0
100
AcDbLine
 10
12.1794
 20
83.49999999999999
 30
0.0
 11
14.3794
 21
83.2
 31
0.0
  0
LINE
  5
B9
330
1E
100
AcDbEntity
  8
0
100
AcDbLine
 10
14.3794
 20
83.2
 30
0.0
 11
16.3794
 21
82.4
 31
0.0
  0
LINE
  5
BA
330
1E
100
AcDbEntity
  8
0
100
AcDbLine
 10
16.3794
 20
82.4
 30
0.0
 11
18.1794
 21
81.0
 31
0.0
  0
LINE
  5
BB
330
1E
100
AcDbEntity
  8
0
100
AcDbLine
 10
12.1794
 20
85.0
 30
0.0
 11
14.7794
 21
84.59999999999999
 31
0.0
  0
LINE
  5
BC
330
1E
100
AcDbEntity
  8
0
100
AcDbLine
 10
14.7794
 20
84.59999999999999
 30
0.0
 11
17.1794
 21
83.7
 31
0.0
  0
LINE
  5
BD
330
1E
100
AcDbEntity
  8
0
100
AcDbLine
 10
20.3794
 20
77.2
 30
0.0
 11
20.6794
 21
75.0
 31
0.0
  0
LINE
  5
BE
330
1E
100
AcDbEntity
  8
0
100
AcDbLine
 10
18.1794
 20
81.0
 30
0.0
 11
19.57939999999999
 21
79.2
 31
0.0
  0
LINE
  5
BF
330
1E
100
AcDbEntity
  8
0
100
AcDbLine
 10
19.57939999999999
 20
79.2
 30
0.0
 11
20.3794
 21
77.2
 31
0.0
  0
LINE
  5
C0
330
1E
100
AcDbEntity
  8
0
100
AcDbLine
 10
19.27939999999999
 20
82.09999999999999
 30
0.0
 11
20.8794
 21
80.0
 31
0.0
  0
LINE
  5
C1
330
1E
100
AcDbEntity
  8
0
100
AcDbLine
 10
20.8794
 20
80.0
 30
0.0
 11
21.77939999999999
 21
77.59999999999999
 31
0.0
  0
LINE
  5
C2
330
1E
100
AcDbEntity
  8
0
100
AcDbLine
 10
21.77939999999999
 20
77.59999999999999
 30
0.0
 11
22.1794
 21
75.0
 31
0.0
  0
LINE
  5
C3
330
1E
100
AcDbEntity
  8
0
100
AcDbLine
 10
17.1794
 20
83.7
 30
0.0
 11
19.27939999999999
 21
82.09999999999999
 31
0.0
  0
LINE
  5
C4
330
1E
100
AcDbEntity
  8
0
100
AcDbLine
 10
3.9794
 20
72.8
 30
0.0
 11
4.779399999999999
 21
70.8
 31
0.0
  0
LINE
  5
C5
330
1E
100
AcDbEntity
  8
0
100
AcDbLine
 10
3.679399999999999
 20
75.0
 30
0.0
 11
3.9794
 21
72.8
 31
0.0
  0
LINE
  5
C6
330
1E
100
AcDbEntity
  8
0
100
AcDbLine
 10
3.679399999999999
 20
75.0
 30
0.0
 11
3.9794
 21
77.2
 31
0.0
  0
LINE
  5
C7
330
1E
100
AcDbEntity
  8
0
100
AcDbLine
 10
3.4794
 20
70.0
 30
0.0
 11
4.575455453240679
 21
68.5614272176216
 31
0.0
  0
LINE
  5
C8
330
1E
100
AcDbEntity
  8
0
100
AcDbLine
 10
3.4794
 20
70.0
 30
0.0
 11
5.079399999999999
 21
67.9
 31
0.0
  0
LINE
  5
C9
330
1E
100
AcDbEntity
  8
0
100
AcDbLine
 10
3.116309952053129
 20
66.4941734793464
 30
0.0
 11
4.575455453240679
 21
68.5614272176216
 31
0.0
  0
LINE
  5
CA
330
1E
100
AcDbEntity
  8
0
100
AcDbLine
 10
3.070899999999999
 20
66.4321
 30
0.0
 11
3.116309952053129
 21
66.4941734793464
 31
0.0
  0
LINE
  5
CB
330
1E
100
AcDbEntity
  8
0
100
AcDbLine
 10
3.070899999999999
 20
66.4321
 30
0.0
 11
3.872899999999999
 21
67.5284
 31
0.0
  0
LINE
  5
CC
330
1E
100
AcDbEntity
  8
0
100
AcDbLine
 10
2.268899999999999
 20
65.2936
 30
0.0
 11
3.070899999999999
 21
66.4321
 31
0.0
  0
ENDSEC
  0
SECTION
  2
OBJECTS
  0
DICTIONARY
  5
C
330
0
100
AcDbDictionary
  3
ACAD_GROUP
350
D
  3
ACAD_LAYOUT
350
19
  3
ACAD_MLINESTYLE
350
16
  3
ACAD_PLOTSETTINGS
350
18
  3
ACAD_PLOTSTYLENAME
350
E
  3
ACDBHEADERROUNDTRIPXREC
350
D4
  3
ACDBVARIABLEDICTIONARY
350
D1
  0
DICTIONARY
  5
F6
330
1E
100
AcDbDictionary
280
     1
  3
ACAD_LAYOUTSELFREF
360
F7
  0
DICTIONARY
  5
F4
330
1A
100
AcDbDictionary
280
     1
  3
ACAD_LAYOUTSELFREF
360
F5
  0
DICTIONARY
  5
D
102
{ACAD_REACTORS
330
C
102
}
330
C
100
AcDbDictionary
  0
DICTIONARY
  5
19
102
{ACAD_REACTORS
330
C
102
}
330
C
100
AcDbDictionary
  0
DICTIONARY
  5
16
102
{ACAD_REACTORS
330
C
102
}
330
C
100
AcDbDictionary
  3
STANDARD
350
17
  0
DICTIONARY
  5
18
102
{ACAD_REACTORS
330
C
102
}
330
C
100
AcDbDictionary
  0
ACDBDICTIONARYWDFLT
  5
E
102
{ACAD_REACTORS
330
C
102
}
330
C
100
AcDbDictionary
281
     1
  3
Normal
350
F
100
AcDbDictionaryWithDefault
340
F
  0
DICTIONARY
  5
D4
102
{ACAD_REACTORS
330
C
102
}
330
C
100
AcDbDictionary
  3
CEPSNTYPE
350
DE
  3
FINGERPRINTGUID
350
DF
  3
HYPERLINKBASE
350
D7
  3
INSUNITS
350
DD
  3
LAYOUTDICT
350
D9
  3
LWETCUNION
350
DC
  3
PLOTSETDICT
350
DA
  3
PLOTSTYLNAMDICT
350
DB
  3
PSVPSCALE
350
E1
  3
PUCSBASE
350
E4
  3
PUCSORGBACK
350
EA
  3
PUCSORGBOTTOM
350
E6
  3
PUCSORGFRONT
350
E9
  3
PUCSORGLEFT
350
E7
  3
PUCSORGRIGHT
350
E8
  3
PUCSORGTOP
350
E5
  3
PUCSORTHOREF
350
E2
  3
PUCSORTHOVIEW
350
E3
  3
STYLESHEET
350
D8
  3
TSTACKALIGN
350
D5
  3
TSTACKSIZE
350
D6
  3
UCSBASE
350
ED
  3
UCSORGBACK
350
F3
  3
UCSORGBOTTOM
350
EF
  3
UCSORGFRONT
350
F2
  3
UCSORGLEFT
350
F0
  3
UCSORGRIGHT
350
F1
  3
UCSORGTOP
350
EE
  3
UCSORTHOREF
350
EB
  3
UCSORTHOVIEW
350
EC
  3
VERSIONGUID
350
E0
  0
DICTIONARY
  5
D1
102
{ACAD_REACTORS
330
C
102
}
330
C
100
AcDbDictionary
  3
DIMASSOC
350
D2
  0
XRECORD
  5
F7
102
{ACAD_REACTORS
330
F6
102
}
330
F6
100
AcDbXrecord
340
1E
  0
XRECORD
  5
F5
102
{ACAD_REACTORS
330
F4
102
}
330
F4
100
AcDbXrecord
340
1A
  0
MLINESTYLE
  5
17
102
{ACAD_REACTORS
330
16
102
}
330
16
100
AcDbMlineStyle
  2
STANDARD
 70
     0
  3

 62
   256
 51
90.0
 52
90.0
 71
     2
 49
0.5
 62
   256
  6
BYLAYER
 49
-0.5
 62
   256
  6
BYLAYER
  0
ACDBPLACEHOLDER
  5
F
102
{ACAD_REACTORS
330
E
102
}
330
E
100
AcDbPlaceHolder
280
     0
  0
XRECORD
  5
DE
102
{ACAD_REACTORS
330
D4
102
}
330
D4
100
AcDbXrecord
 90
        0
  0
XRECORD
  5
DF
102
{ACAD_REACTORS
330
D4
102
}
330
D4
100
AcDbXrecord
  1
{243078D1-3760-419E-B279-FDAE92E6D554}
  0
XRECORD
  5
D7
102
{ACAD_REACTORS
330
D4
102
}
330
D4
100
AcDbXrecord
  1

  0
XRECORD
  5
DD
102
{ACAD_REACTORS
330
D4
102
}
330
D4
100
AcDbXrecord
 90
        0
  0
XRECORD
  5
D9
102
{ACAD_REACTORS
330
D4
102
}
330
D4
100
AcDbXrecord
340
19
  0
XRECORD
  5
DC
102
{ACAD_REACTORS
330
D4
102
}
330
D4
100
AcDbXrecord
 90
    10781
  0
XRECORD
  5
DA
102
{ACAD_REACTORS
330
D4
102
}
330
D4
100
AcDbXrecord
340
18
  0
XRECORD
  5
DB
102
{ACAD_REACTORS
330
D4
102
}
330
D4
100
AcDbXrecord
340
E
  0
XRECORD
  5
E1
102
{ACAD_REACTORS
330
D4
102
}
330
D4
100
AcDbXrecord
 40
0.0
  0
XRECORD
  5
E4
102
{ACAD_REACTORS
330
D4
102
}
330
D4
100
AcDbXrecord
340
0
  0
XRECORD
  5
EA
102
{ACAD_REACTORS
330
D4
102
}
330
D4
100
AcDbXrecord
 10
0.0
 20
0.0
 30
0.0
  0
XRECORD
  5
E6
102
{ACAD_REACTORS
330
D4
102
}
330
D4
100
AcDbXrecord
 10
0.0
 20
0.0
 30
0.0
  0
XRECORD
  5
E9
102
{ACAD_REACTORS
330
D4
102
}
330
D4
100
AcDbXrecord
 10
0.0
 20
0.0
 30
0.0
  0
XRECORD
  5
E7
102
{ACAD_REACTORS
330
D4
102
}
330
D4
100
AcDbXrecord
 10
0.0
 20
0.0
 30
0.0
  0
XRECORD
  5
E8
102
{ACAD_REACTORS
330
D4
102
}
330
D4
100
AcDbXrecord
 10
0.0
 20
0.0
 30
0.0
  0
XRECORD
  5
E5
102
{ACAD_REACTORS
330
D4
102
}
330
D4
100
AcDbXrecord
 10
0.0
 20
0.0
 30
0.0
  0
XRECORD
  5
E2
102
{ACAD_REACTORS
330
D4
102
}
330
D4
100
AcDbXrecord
340
0
  0
XRECORD
  5
E3
102
{ACAD_REACTORS
330
D4
102
}
330
D4
100
AcDbXrecord
 70
     0
  0
XRECORD
  5
D8
102
{ACAD_REACTORS
330
D4
102
}
330
D4
100
AcDbXrecord
  1

  0
XRECORD
  5
D5
102
{ACAD_REACTORS
330
D4
102
}
330
D4
100
AcDbXrecord
 90
        1
  0
XRECORD
  5
D6
102
{ACAD_REACTORS
330
D4
102
}
330
D4
100
AcDbXrecord
 90
       70
  0
XRECORD
  5
ED
102
{ACAD_REACTORS
330
D4
102
}
330
D4
100
AcDbXrecord
340
0
  0
XRECORD
  5
F3
102
{ACAD_REACTORS
330
D4
102
}
330
D4
100
AcDbXrecord
 10
0.0
 20
0.0
 30
0.0
  0
XRECORD
  5
EF
102
{ACAD_REACTORS
330
D4
102
}
330
D4
100
AcDbXrecord
 10
0.0
 20
0.0
 30
0.0
  0
XRECORD
  5
F2
102
{ACAD_REACTORS
330
D4
102
}
330
D4
100
AcDbXrecord
 10
0.0
 20
0.0
 30
0.0
  0
XRECORD
  5
F0
102
{ACAD_REACTORS
330
D4
102
}
330
D4
100
AcDbXrecord
 10
0.0
 20
0.0
 30
0.0
  0
XRECORD
  5
F1
102
{ACAD_REACTORS
330
D4
102
}
330
D4
100
AcDbXrecord
 10
0.0
 20
0.0
 30
0.0
  0
XRECORD
  5
EE
102
{ACAD_REACTORS
330
D4
102
}
330
D4
100
AcDbXrecord
 10
0.0
 20
0.0
 30
0.0
  0
XRECORD
  5
EB
102
{ACAD_REACTORS
330
D4
102
}
330
D4
100
AcDbXrecord
340
0
  0
XRECORD
  5
EC
102
{ACAD_REACTORS
330
D4
102
}
330
D4
100
AcDbXrecord
 70
     1
  0
XRECORD
  5
E0
102
{ACAD_REACTORS
330
D4
102
}
330
D4
100
AcDbXrecord
  1
{67FFED8A-345E-48FE-AD8A-6847A80D00CE}
  0
DICTIONARYVAR
  5
D2
102
{ACAD_REACTORS
330
D1
102
}
330
D1
100
DictionaryVariables
280
     0
  1
1
  0
ENDSEC
  0
EOF
