  0
SECTION
  2
HEADER
  9
$ACADVER
  1
AC1014
  9
$ACADMAINTVER
 70
     9
  9
$DWGCODEPAGE
  3
ANSI_1252
  9
$INSBASE
 10
0.0
 20
0.0
 30
0.0
  9
$EXTMIN
 10
0.214993999999997
 20
0.150521500000004
 30
0.0
  9
$EXTMAX
 10
117.785006
 20
174.8494785
 30
0.0
  9
$LIMMIN
 10
0.0
 20
0.0
  9
$LIMMAX
 10
12.0
 20
9.0
  9
$ORTHOMODE
 70
     0
  9
$REGENMODE
 70
     1
  9
$FILLMODE
 70
     1
  9
$QTEXTMODE
 70
     0
  9
$MIRRTEXT
 70
     1
  9
$DRAGMODE
 70
     2
  9
$LTSCALE
 40
1.0
  9
$OSMODE
 70
    37
  9
$ATTMODE
 70
     1
  9
$TEXTSIZE
 40
0.2
  9
$TRACEWID
 40
0.05
  9
$TEXTSTYLE
  7
STANDARD
  9
$CLAYER
  8
0
  9
$CELTYPE
  6
CONTINUOUS
  9
$CECOLOR
 62
   256
  9
$CELTSCALE
 40
1.0
  9
$DELOBJ
 70
     1
  9
$DISPSILH
 70
     0
  9
$DIMSCALE
 40
1.0
  9
$DIMASZ
 40
0.18
  9
$DIMEXO
 40
0.0625
  9
$DIMDLI
 40
0.38
  9
$DIMRND
 40
0.0
  9
$DIMDLE
 40
0.0
  9
$DIMEXE
 40
0.18
  9
$DIMTP
 40
0.0
  9
$DIMTM
 40
0.0
  9
$DIMTXT
 40
0.18
  9
$DIMCEN
 40
0.09
  9
$DIMTSZ
 40
0.0
  9
$DIMTOL
 70
     0
  9
$DIMLIM
 70
     0
  9
$DIMTIH
 70
     1
  9
$DIMTOH
 70
     1
  9
$DIMSE1
 70
     0
  9
$DIMSE2
 70
     0
  9
$DIMTAD
 70
     0
  9
$DIMZIN
 70
     0
  9
$DIMBLK
  1

  9
$DIMASO
 70
     1
  9
$DIMSHO
 70
     1
  9
$DIMPOST
  1

  9
$DIMAPOST
  1

  9
$DIMALT
 70
     0
  9
$DIMALTD
 70
     2
  9
$DIMALTF
 40
25.4
  9
$DIMLFAC
 40
1.0
  9
$DIMTOFL
 70
     0
  9
$DIMTVP
 40
0.0
  9
$DIMTIX
 70
     0
  9
$DIMSOXD
 70
     0
  9
$DIMSAH
 70
     0
  9
$DIMBLK1
  1

  9
$DIMBLK2
  1

  9
$DIMSTYLE
  2
STANDARD
  9
$DIMCLRD
 70
     0
  9
$DIMCLRE
 70
     0
  9
$DIMCLRT
 70
     0
  9
$DIMTFAC
 40
1.0
  9
$DIMGAP
 40
0.09
  9
$DIMJUST
 70
     0
  9
$DIMSD1
 70
     0
  9
$DIMSD2
 70
     0
  9
$DIMTOLJ
 70
     1
  9
$DIMTZIN
 70
     0
  9
$DIMALTZ
 70
     0
  9
$DIMALTTZ
 70
     0
  9
$DIMFIT
 70
     3
  9
$DIMUPT
 70
     0
  9
$DIMUNIT
 70
     2
  9
$DIMDEC
 70
     4
  9
$DIMTDEC
 70
     4
  9
$DIMALTU
 70
     2
  9
$DIMALTTD
 70
     2
  9
$DIMTXSTY
  7
STANDARD
  9
$DIMAUNIT
 70
     0
  9
$LUNITS
 70
     2
  9
$LUPREC
 70
     4
  9
$SKETCHINC
 40
0.1
  9
$FILLETRAD
 40
0.0
  9
$AUNITS
 70
     0
  9
$AUPREC
 70
     0
  9
$MENU
  1
.
  9
$ELEVATION
 40
0.0
  9
$PELEVATION
 40
0.0
  9
$THICKNESS
 40
0.0
  9
$LIMCHECK
 70
     0
  9
$BLIPMODE
 70
     0
  9
$CHAMFERA
 40
0.0
  9
$CHAMFERB
 40
0.0
  9
$CHAMFERC
 40
0.0
  9
$CHAMFERD
 40
0.0
  9
$SKPOLY
 70
     0
  9
$TDCREATE
 40
2454690.861408773
  9
$TDUPDATE
 40
2454690.862872893
  9
$TDINDWG
 40
0.0014643056
  9
$TDUSRTIMER
 40
0.0014643056
  9
$USRTIMER
 70
     1
  9
$ANGBASE
 50
0.0
  9
$ANGDIR
 70
     0
  9
$PDMODE
 70
     0
  9
$PDSIZE
 40
0.0
  9
$PLINEWID
 40
0.0
  9
$COORDS
 70
     1
  9
$SPLFRAME
 70
     0
  9
$SPLINETYPE
 70
     6
  9
$SPLINESEGS
 70
     8
  9
$ATTDIA
 70
     0
  9
$ATTREQ
 70
     1
  9
$HANDLING
 70
 22529
  9
$HANDSEED
  5
11B
  9
$SURFTAB1
 70
     6
  9
$SURFTAB2
 70
     6
  9
$SURFTYPE
 70
     6
  9
$SURFU
 70
     6
  9
$SURFV
 70
     6
  9
$UCSNAME
  2

  9
$UCSORG
 10
0.0
 20
0.0
 30
0.0
  9
$UCSXDIR
 10
1.0
 20
0.0
 30
0.0
  9
$UCSYDIR
 10
0.0
 20
1.0
 30
0.0
  9
$PUCSNAME
  2

  9
$PUCSORG
 10
0.0
 20
0.0
 30
0.0
  9
$PUCSXDIR
 10
1.0
 20
0.0
 30
0.0
  9
$PUCSYDIR
 10
0.0
 20
1.0
 30
0.0
  9
$USERI1
 70
     0
  9
$USERI2
 70
     0
  9
$USERI3
 70
     0
  9
$USERI4
 70
     0
  9
$USERI5
 70
     0
  9
$USERR1
 40
0.0
  9
$USERR2
 40
0.0
  9
$USERR3
 40
0.0
  9
$USERR4
 40
0.0
  9
$USERR5
 40
0.0
  9
$WORLDVIEW
 70
     1
  9
$SHADEDGE
 70
     3
  9
$SHADEDIF
 70
    70
  9
$TILEMODE
 70
     1
  9
$MAXACTVP
 70
    64
  9
$PINSBASE
 10
0.0
 20
0.0
 30
0.0
  9
$PLIMCHECK
 70
     0
  9
$PEXTMIN
 10
1.000000000000000E+20
 20
1.000000000000000E+20
 30
1.000000000000000E+20
  9
$PEXTMAX
 10
-1.000000000000000E+20
 20
-1.000000000000000E+20
 30
-1.000000000000000E+20
  9
$PLIMMIN
 10
0.0
 20
0.0
  9
$PLIMMAX
 10
12.0
 20
9.0
  9
$UNITMODE
 70
     0
  9
$VISRETAIN
 70
     1
  9
$PLINEGEN
 70
     0
  9
$PSLTSCALE
 70
     1
  9
$TREEDEPTH
 70
  3020
  9
$PICKSTYLE
 70
     1
  9
$CMLSTYLE
  2
STANDARD
  9
$CMLJUST
 70
     0
  9
$CMLSCALE
 40
1.0
  9
$PROXYGRAPHICS
 70
     1
  9
$MEASUREMENT
 70
     0
  0
ENDSEC
  0
SECTION
  2
CLASSES
  0
CLASS
  1
ACDBDICTIONARYWDFLT
  2
AcDbDictionaryWithDefault
  3
AutoCAD 2000
 90
        0
280
     0
281
     0
  0
CLASS
  1
ACDBPLACEHOLDER
  2
AcDbPlaceHolder
  3
AutoCAD 2000
 90
        0
280
     0
281
     0
  0
CLASS
  1
LAYOUT
  2
AcDbLayout
  3
AutoCAD 2000
 90
        0
280
     0
281
     0
  0
CLASS
  1
DICTIONARYVAR
  2
AcDbDictionaryVar
  3
AutoCAD 2000
 90
        0
280
     0
281
     0
  0
CLASS
  1
LONG_TRANSACTION
  2
AcDbLongTransaction
  3
AutoCAD 2000
 90
        0
280
     0
281
     0
  0
CLASS
  1
LWPOLYLINE
  2
AcDbPolyline
  3
AutoCAD 2000
 90
        0
280
     0
281
     1
  0
CLASS
  1
HATCH
  2
AcDbHatch
  3
AutoCAD 2000
 90
        0
280
     0
281
     1
  0
CLASS
  1
XRECORD
  2
AcDbXrecord
  3
AutoCAD 2000
 90
        0
280
     0
281
     0
  0
ENDSEC
  0
SECTION
  2
TABLES
  0
TABLE
  2
VPORT
  5
8
330
0
100
AcDbSymbolTable
 70
     2
  0
VPORT
  5
F6
330
8
100
AcDbSymbolTableRecord
100
AcDbViewportTableRecord
  2
*ACTIVE
 70
     0
 10
0.0
 20
0.0
 11
1.0
 21
1.0
 12
59.00000000000001
 22
87.50000000000001
 13
0.0
 23
0.0
 14
1.0
 24
1.0
 15
0.0
 25
0.0
 16
0.0
 26
0.0
 36
1.0
 17
0.0
 27
0.0
 37
0.0
 40
176.0393582046035
 41
2.043533930857874
 42
50.0
 43
0.0
 44
0.0
 50
0.0
 51
0.0
 71
     0
 72
   100
 73
     1
 74
     3
 75
     0
 76
     0
 77
     0
 78
     0
  0
ENDTAB
  0
TABLE
  2
LTYPE
  5
5
330
0
100
AcDbSymbolTable
 70
     1
  0
LTYPE
  5
13
330
5
100
AcDbSymbolTableRecord
100
AcDbLinetypeTableRecord
  2
BYBLOCK
 70
     0
  3

 72
    65
 73
     0
 40
0.0
  0
LTYPE
  5
14
330
5
100
AcDbSymbolTableRecord
100
AcDbLinetypeTableRecord
  2
BYLAYER
 70
     0
  3

 72
    65
 73
     0
 40
0.0
  0
LTYPE
  5
15
330
5
100
AcDbSymbolTableRecord
100
AcDbLinetypeTableRecord
  2
CONTINUOUS
 70
     0
  3
Solid line
 72
    65
 73
     0
 40
0.0
  0
ENDTAB
  0
TABLE
  2
LAYER
  5
2
330
0
100
AcDbSymbolTable
 70
     1
  0
LAYER
  5
10
330
2
100
AcDbSymbolTableRecord
100
AcDbLayerTableRecord
  2
0
 70
     0
 62
     7
  6
CONTINUOUS
  0
ENDTAB
  0
TABLE
  2
STYLE
  5
3
330
0
100
AcDbSymbolTable
 70
     1
  0
STYLE
  5
11
330
3
100
AcDbSymbolTableRecord
100
AcDbTextStyleTableRecord
  2
STANDARD
 70
     0
 40
0.0
 41
1.0
 50
0.0
 71
     0
 42
0.2
  3
txt
  4

  0
ENDTAB
  0
TABLE
  2
VIEW
  5
6
330
0
100
AcDbSymbolTable
 70
     0
  0
ENDTAB
  0
TABLE
  2
UCS
  5
7
330
0
100
AcDbSymbolTable
 70
     0
  0
ENDTAB
  0
TABLE
  2
APPID
  5
9
330
0
100
AcDbSymbolTable
 70
     1
  0
APPID
  5
12
330
9
100
AcDbSymbolTableRecord
100
AcDbRegAppTableRecord
  2
ACAD
 70
     0
  0
ENDTAB
  0
TABLE
  2
DIMSTYLE
  5
A
330
0
100
AcDbSymbolTable
 70
     1
  0
DIMSTYLE
105
F0
330
A
100
AcDbSymbolTableRecord
100
AcDbDimStyleTableRecord
  2
STANDARD
 70
     0
  3

  4

  5

  6

  7

 40
1.0
 41
0.18
 42
0.0625
 43
0.38
 44
0.18
 45
0.0
 46
0.0
 47
0.0
 48
0.0
140
0.18
141
0.09
142
0.0
143
25.4
144
1.0
145
0.0
146
1.0
147
0.09
 71
     0
 72
     0
 73
     1
 74
     1
 75
     0
 76
     0
 77
     0
 78
     0
170
     0
171
     2
172
     0
173
     0
174
     0
175
     0
176
     0
177
     0
178
     0
270
     2
271
     4
272
     4
273
     2
274
     2
340
11
275
     0
280
     0
281
     0
282
     0
283
     1
284
     0
285
     0
286
     0
287
     3
288
     0
  0
ENDTAB
  0
TABLE
  2
BLOCK_RECORD
  5
1
330
0
100
AcDbSymbolTable
 70
     0
  0
BLOCK_RECORD
  5
1E
102
{ACAD_XDICTIONARY
360
119
102
}
330
1
100
AcDbSymbolTableRecord
100
AcDbBlockTableRecord
  2
*MODEL_SPACE
  0
BLOCK_RECORD
  5
1A
102
{ACAD_XDICTIONARY
360
117
102
}
330
1
100
AcDbSymbolTableRecord
100
AcDbBlockTableRecord
  2
*PAPER_SPACE
  0
ENDTAB
  0
ENDSEC
  0
SECTION
  2
BLOCKS
  0
BLOCK
  5
1F
330
1E
100
AcDbEntity
  8
0
100
AcDbBlockBegin
  2
*MODEL_SPACE
 70
     0
 10
0.0
 20
0.0
 30
0.0
  3
*MODEL_SPACE
  1

  0
ENDBLK
  5
20
330
1E
100
AcDbEntity
  8
0
100
AcDbBlockEnd
  0
BLOCK
  5
1B
330
1A
100
AcDbEntity
 67
     1
  8
0
100
AcDbBlockBegin
  2
*PAPER_SPACE
 70
     0
 10
0.0
 20
0.0
 30
0.0
  3
*PAPER_SPACE
  1

  0
ENDBLK
  5
1C
330
1A
100
AcDbEntity
 67
     1
  8
0
100
AcDbBlockEnd
  0
ENDSEC
  0
SECTION
  2
ENTITIES
  0
LINE
  5
22
330
1E
100
AcDbEntity
  8
0
100
AcDbLine
 10
0.8407339999999969
 20
19.2535785
 30
0.0
 11
2.216066
 21
18.2542785
 31
0.0
  0
LINE
  5
23
330
1E
100
AcDbEntity
  8
0
100
AcDbLine
 10
2.216066
 20
18.2542785
 30
0.0
 11
4.319505999999999
 21
16.7260785
 31
0.0
  0
LINE
  5
24
330
1E
100
AcDbEntity
  8
0
100
AcDbLine
 10
4.34098599999999
 20
17.9465785
 30
0.0
 11
7.334346
 21
15.7716785
 31
0.0
  0
LINE
  5
25
330
1E
100
AcDbEntity
  8
0
100
AcDbLine
 10
4.319505999999999
 20
16.7260785
 30
0.0
 11
7.151066
 21
14.6687785
 31
0.0
  0
LINE
  5
26
330
1E
100
AcDbEntity
  8
0
100
AcDbLine
 10
0.214993999999997
 20
20.9442785
 30
0.0
 11
3.153916
 21
24.9892785
 31
0.0
  0
LINE
  5
27
330
1E
100
AcDbEntity
  8
0
100
AcDbLine
 10
0.214993999999997
 20
20.9442785
 30
0.0
 11
0.7004039999999971
 21
20.5915785
 31
0.0
  0
LINE
  5
28
330
1E
100
AcDbEntity
  8
0
100
AcDbLine
 10
3.153916
 20
24.9892785
 30
0.0
 11
3.639326
 21
24.6366785
 31
0.0
  0
LINE
  5
29
330
1E
100
AcDbEntity
  8
0
100
AcDbLine
 10
3.639326
 20
24.6366785
 30
0.0
 11
5.014655999999999
 21
23.6373785
 31
0.0
  0
LINE
  5
2A
330
1E
100
AcDbEntity
  8
0
100
AcDbLine
 10
5.014655999999999
 20
23.6373785
 30
0.0
 11
7.279905999999999
 21
21.9915785
 31
0.0
  0
LINE
  5
2B
330
1E
100
AcDbEntity
  8
0
100
AcDbLine
 10
0.7004039999999971
 20
20.5915785
 30
0.0
 11
2.075736
 21
19.5923785
 31
0.0
  0
LINE
  5
2C
330
1E
100
AcDbEntity
  8
0
100
AcDbLine
 10
2.075736
 20
19.5923785
 30
0.0
 11
4.34098599999999
 21
17.9465785
 31
0.0
  0
LINE
  5
2D
330
1E
100
AcDbEntity
  8
0
100
AcDbLine
 10
0.436225999999997
 20
19.5474785
 30
0.0
 11
0.8407339999999969
 21
19.2535785
 31
0.0
  0
LINE
  5
2E
330
1E
100
AcDbEntity
  8
0
100
AcDbLine
 10
5.505055999999999
 20
28.22537849999999
 30
0.0
 11
13.734006
 21
39.55157849999999
 31
0.0
  0
LINE
  5
2F
330
1E
100
AcDbEntity
  8
0
100
AcDbLine
 10
5.505055999999999
 20
28.22537849999999
 30
0.0
 11
5.990476
 21
27.87267849999999
 31
0.0
  0
LINE
  5
30
330
1E
100
AcDbEntity
  8
0
100
AcDbLine
 10
5.505055999999999
 20
28.22537849999999
 30
0.0
 11
13.734006
 21
39.55157849999999
 31
0.0
  0
LINE
  5
31
330
1E
100
AcDbEntity
  8
0
100
AcDbLine
 10
5.990476
 20
27.87267849999999
 30
0.0
 11
7.365796
 21
26.8734785
 31
0.0
  0
LINE
  5
32
330
1E
100
AcDbEntity
  8
0
100
AcDbLine
 10
0.214993999999997
 20
20.9442785
 30
0.0
 11
0.436225999999997
 21
19.5474785
 31
0.0
  0
LINE
  5
33
330
1E
100
AcDbEntity
  8
0
100
AcDbLine
 10
0.214993999999997
 20
20.9442785
 30
0.0
 11
3.153916
 21
24.9892785
 31
0.0
  0
LINE
  5
34
330
1E
100
AcDbEntity
  8
0
100
AcDbLine
 10
0.214993999999997
 20
20.9442785
 30
0.0
 11
0.7004039999999971
 21
20.5915785
 31
0.0
  0
LINE
  5
35
330
1E
100
AcDbEntity
  8
0
100
AcDbLine
 10
0.8407339999999969
 20
19.2535785
 30
0.0
 11
2.216066
 21
18.2542785
 31
0.0
  0
LINE
  5
36
330
1E
100
AcDbEntity
  8
0
100
AcDbLine
 10
7.334346
 20
15.7716785
 30
0.0
 11
10.73220599999999
 21
13.3030785
 31
0.0
  0
LINE
  5
37
330
1E
100
AcDbEntity
  8
0
100
AcDbLine
 10
12.295806
 20
18.3473785
 30
0.0
 11
14.722906
 21
16.5839785
 31
0.0
  0
LINE
  5
38
330
1E
100
AcDbEntity
  8
0
100
AcDbLine
 10
13.671106
 20
17.3480785
 30
0.0
 11
17.311706
 21
14.7030785
 31
0.0
  0
LINE
  5
39
330
1E
100
AcDbEntity
  8
0
100
AcDbLine
 10
10.73220599999999
 20
13.3030785
 30
0.0
 11
14.372806
 21
10.6579785
 31
0.0
  0
LINE
  5
3A
330
1E
100
AcDbEntity
  8
0
100
AcDbLine
 10
7.279905999999999
 20
21.9915785
 30
0.0
 11
10.27330599999999
 21
19.8167785
 31
0.0
  0
LINE
  5
3B
330
1E
100
AcDbEntity
  8
0
100
AcDbLine
 10
7.365796
 20
26.8734785
 30
0.0
 11
9.550135193231788
 21
25.2864636256061
 31
0.0
  0
LINE
  5
3C
330
1E
100
AcDbEntity
  8
0
100
AcDbLine
 10
7.365796
 20
26.8734785
 30
0.0
 11
9.631046000000001
 21
25.2276785
 31
0.0
  0
LINE
  5
3D
330
1E
100
AcDbEntity
  8
0
100
AcDbLine
 10
7.199005999999999
 20
22.0503785
 30
0.0
 11
7.522616
 21
21.8152785
 31
0.0
  0
LINE
  5
3E
330
1E
100
AcDbEntity
  8
0
100
AcDbLine
 10
7.199005999999999
 20
22.0503785
 30
0.0
 11
9.550135193231788
 21
25.2864636256061
 31
0.0
  0
LINE
  5
3F
330
1E
100
AcDbEntity
  8
0
100
AcDbLine
 10
8.493436
 20
21.10997849999999
 30
0.0
 11
10.111466
 21
19.9343785
 31
0.0
  0
LINE
  5
40
330
1E
100
AcDbEntity
  8
0
100
AcDbLine
 10
10.111466
 20
19.9343785
 30
0.0
 11
12.295806
 21
18.3473785
 31
0.0
  0
LINE
  5
41
330
1E
100
AcDbEntity
  8
0
100
AcDbLine
 10
13.2701730315756
 20
22.5837048719207
 30
0.0
 11
14.64690599999999
 21
21.5833785
 31
0.0
  0
LINE
  5
42
330
1E
100
AcDbEntity
  8
0
100
AcDbLine
 10
13.2701730315756
 20
22.5837048719207
 30
0.0
 11
16.022306
 21
20.5841785
 31
0.0
  0
LINE
  5
43
330
1E
100
AcDbEntity
  8
0
100
AcDbLine
 10
9.631046000000001
 20
25.2276785
 30
0.0
 11
12.624406
 21
23.0528785
 31
0.0
  0
LINE
  5
44
330
1E
100
AcDbEntity
  8
0
100
AcDbLine
 10
12.624406
 20
23.0528785
 30
0.0
 11
16.022306
 21
20.5841785
 31
0.0
  0
LINE
  5
45
330
1E
100
AcDbEntity
  8
0
100
AcDbLine
 10
13.734006
 20
39.55157849999999
 30
0.0
 11
15.939906
 21
39.18507849999999
 31
0.0
  0
LINE
  5
46
330
1E
100
AcDbEntity
  8
0
100
AcDbLine
 10
13.734006
 20
39.55157849999999
 30
0.0
 11
14.21950599999999
 21
39.19897849999999
 31
0.0
  0
LINE
  5
47
330
1E
100
AcDbEntity
  8
0
100
AcDbLine
 10
13.2701730315756
 20
22.5837048719207
 30
0.0
 11
14.64690599999999
 21
21.5833785
 31
0.0
  0
LINE
  5
48
330
1E
100
AcDbEntity
  8
0
100
AcDbLine
 10
7.522616
 20
21.8152785
 30
0.0
 11
8.493436
 21
21.10997849999999
 31
0.0
  0
LINE
  5
49
330
1E
100
AcDbEntity
  8
0
100
AcDbLine
 10
10.27330599999999
 20
19.8167785
 30
0.0
 11
13.671106
 21
17.3480785
 31
0.0
  0
LINE
  5
4A
330
1E
100
AcDbEntity
  8
0
100
AcDbLine
 10
7.151066
 20
14.6687785
 30
0.0
 11
10.38710599999999
 21
12.31767849999999
 31
0.0
  0
LINE
  5
4B
330
1E
100
AcDbEntity
  8
0
100
AcDbLine
 10
10.38710599999999
 20
12.31767849999999
 30
0.0
 11
13.78500599999999
 21
9.848978500000001
 31
0.0
  0
LINE
  5
4C
330
1E
100
AcDbEntity
  8
0
100
AcDbLine
 10
27.133806
 20
0.150521500000004
 30
0.0
 11
28.530606
 21
0.371753500000004
 31
0.0
  0
LINE
  5
4D
330
1E
100
AcDbEntity
  8
0
100
AcDbLine
 10
28.530606
 20
0.371753500000004
 30
0.0
 11
31.469506
 21
4.416838499999999
 31
0.0
  0
LINE
  5
4E
330
1E
100
AcDbEntity
  8
0
100
AcDbLine
 10
28.045206
 20
0.7244245000000041
 30
0.0
 11
28.530606
 21
0.371753500000004
 31
0.0
  0
LINE
  5
4F
330
1E
100
AcDbEntity
  8
0
100
AcDbLine
 10
28.530606
 20
0.371753500000004
 30
0.0
 11
31.469506
 21
4.416838499999999
 31
0.0
  0
LINE
  5
50
330
1E
100
AcDbEntity
  8
0
100
AcDbLine
 10
27.133806
 20
0.150521500000004
 30
0.0
 11
28.530606
 21
0.371753500000004
 31
0.0
  0
LINE
  5
51
330
1E
100
AcDbEntity
  8
0
100
AcDbLine
 10
26.729306
 20
0.444414500000004
 30
0.0
 11
27.133806
 21
0.150521500000004
 31
0.0
  0
LINE
  5
52
330
1E
100
AcDbEntity
  8
0
100
AcDbLine
 10
26.729306
 20
0.444414500000004
 30
0.0
 11
27.133806
 21
0.150521500000004
 31
0.0
  0
LINE
  5
53
330
1E
100
AcDbEntity
  8
0
100
AcDbLine
 10
21.411206
 20
5.544258499999999
 30
0.0
 11
24.404606
 21
3.369458499999999
 31
0.0
  0
LINE
  5
54
330
1E
100
AcDbEntity
  8
0
100
AcDbLine
 10
26.669806
 20
1.723658499999999
 30
0.0
 11
28.045206
 21
0.7244245000000041
 31
0.0
  0
LINE
  5
55
330
1E
100
AcDbEntity
  8
0
100
AcDbLine
 10
29.608806
 20
5.7687485
 30
0.0
 11
30.984106
 21
4.769508499999999
 31
0.0
  0
LINE
  5
56
330
1E
100
AcDbEntity
  8
0
100
AcDbLine
 10
24.404606
 20
3.369458499999999
 30
0.0
 11
26.669806
 21
1.723658499999999
 31
0.0
  0
LINE
  5
57
330
1E
100
AcDbEntity
  8
0
100
AcDbLine
 10
23.250506
 20
2.9718885
 30
0.0
 11
25.35390599999999
 21
1.4436485
 31
0.0
  0
LINE
  5
58
330
1E
100
AcDbEntity
  8
0
100
AcDbLine
 10
27.424406
 20
7.355768499999999
 30
0.0
 11
29.7755691463134
 21
10.59182777586609
 31
0.0
  0
LINE
  5
59
330
1E
100
AcDbEntity
  8
0
100
AcDbLine
 10
30.984106
 20
4.769508499999999
 30
0.0
 11
31.469506
 21
4.416838499999999
 31
0.0
  0
LINE
  5
5A
330
1E
100
AcDbEntity
  8
0
100
AcDbLine
 10
25.35390599999999
 20
1.4436485
 30
0.0
 11
26.729306
 21
0.444414500000004
 31
0.0
  0
LINE
  5
5B
330
1E
100
AcDbEntity
  8
0
100
AcDbLine
 10
20.41890599999999
 20
5.029138500000009
 30
0.0
 11
23.250506
 21
2.9718885
 31
0.0
  0
LINE
  5
5C
330
1E
100
AcDbEntity
  8
0
100
AcDbLine
 10
26.13000599999999
 20
8.2962185
 30
0.0
 11
27.10080599999999
 21
7.5908785
 31
0.0
  0
LINE
  5
5D
330
1E
100
AcDbEntity
  8
0
100
AcDbLine
 10
18.01340599999999
 20
8.012958499999999
 30
0.0
 11
21.411206
 21
5.544258499999999
 31
0.0
  0
LINE
  5
5E
330
1E
100
AcDbEntity
  8
0
100
AcDbLine
 10
27.10080599999999
 20
7.5908785
 30
0.0
 11
27.424406
 21
7.355768499999999
 31
0.0
  0
LINE
  5
5F
330
1E
100
AcDbEntity
  8
0
100
AcDbLine
 10
14.372806
 20
10.6579785
 30
0.0
 11
18.01340599999999
 21
8.012958499999999
 31
0.0
  0
LINE
  5
60
330
1E
100
AcDbEntity
  8
0
100
AcDbLine
 10
14.64690599999999
 20
21.5833785
 30
0.0
 11
17.074006
 21
19.8200785
 31
0.0
  0
LINE
  5
61
330
1E
100
AcDbEntity
  8
0
100
AcDbLine
 10
17.074006
 20
19.8200785
 30
0.0
 11
19.66290599999999
 21
17.9391785
 31
0.0
  0
LINE
  5
62
330
1E
100
AcDbEntity
  8
0
100
AcDbLine
 10
24.350206
 20
9.589348499999999
 30
0.0
 11
27.343506
 21
7.414538499999999
 31
0.0
  0
LINE
  5
63
330
1E
100
AcDbEntity
  8
0
100
AcDbLine
 10
19.66290599999999
 20
17.9391785
 30
0.0
 11
23.30340599999999
 21
15.2940785
 31
0.0
  0
LINE
  5
64
330
1E
100
AcDbEntity
  8
0
100
AcDbLine
 10
23.30340599999999
 20
15.2940785
 30
0.0
 11
26.701306
 21
12.8253785
 31
0.0
  0
LINE
  5
65
330
1E
100
AcDbEntity
  8
0
100
AcDbLine
 10
19.90060599999999
 20
12.8221785
 30
0.0
 11
20.10887948218039
 21
12.67085198229219
 31
0.0
  0
LINE
  5
66
330
1E
100
AcDbEntity
  8
0
100
AcDbLine
 10
20.952306
 20
12.0580785
 30
0.0
 11
24.350206
 21
9.589348499999999
 31
0.0
  0
LINE
  5
67
330
1E
100
AcDbEntity
  8
0
100
AcDbLine
 10
17.311706
 20
14.7030785
 30
0.0
 11
20.952306
 21
12.0580785
 31
0.0
  0
LINE
  5
68
330
1E
100
AcDbEntity
  8
0
100
AcDbLine
 10
17.311706
 20
14.7030785
 30
0.0
 11
19.90060599999999
 21
12.8221785
 31
0.0
  0
LINE
  5
69
330
1E
100
AcDbEntity
  8
0
100
AcDbLine
 10
22.250206
 20
34.60037849999999
 30
0.0
 11
25.324506
 21
32.36677849999999
 31
0.0
  0
LINE
  5
6A
330
1E
100
AcDbEntity
  8
0
100
AcDbLine
 10
20.85340599999999
 20
34.3790785
 30
0.0
 11
24.251306
 21
31.91037849999999
 31
0.0
  0
LINE
  5
6B
330
1E
100
AcDbEntity
  8
0
100
AcDbLine
 10
24.251306
 20
31.91037849999999
 30
0.0
 11
27.89180599999999
 21
29.26537849999999
 31
0.0
  0
LINE
  5
6C
330
1E
100
AcDbEntity
  8
0
100
AcDbLine
 10
16.022306
 20
20.5841785
 30
0.0
 11
19.66290599999999
 21
17.9391785
 31
0.0
  0
LINE
  5
6D
330
1E
100
AcDbEntity
  8
0
100
AcDbLine
 10
14.722906
 20
16.5839785
 30
0.0
 11
17.311706
 21
14.7030785
 31
0.0
  0
LINE
  5
6E
330
1E
100
AcDbEntity
  8
0
100
AcDbLine
 10
17.557906
 20
38.0094785
 30
0.0
 11
19.580406
 21
36.5400785
 31
0.0
  0
LINE
  5
6F
330
1E
100
AcDbEntity
  8
0
100
AcDbLine
 10
16.344406
 20
38.89117849999999
 30
0.0
 11
17.557906
 21
38.0094785
 31
0.0
  0
LINE
  5
70
330
1E
100
AcDbEntity
  8
0
100
AcDbLine
 10
15.594806
 20
38.19967849999999
 30
0.0
 11
17.86000599999999
 21
36.55387849999999
 31
0.0
  0
LINE
  5
71
330
1E
100
AcDbEntity
  8
0
100
AcDbLine
 10
17.86000599999999
 20
36.55387849999999
 30
0.0
 11
20.85340599999999
 21
34.3790785
 31
0.0
  0
LINE
  5
72
330
1E
100
AcDbEntity
  8
0
100
AcDbLine
 10
14.21950599999999
 20
39.19897849999999
 30
0.0
 11
15.594806
 21
38.19967849999999
 31
0.0
  0
LINE
  5
73
330
1E
100
AcDbEntity
  8
0
100
AcDbLine
 10
14.321806
 20
40.3606785
 30
0.0
 11
107.785006
 21
169.8494785
 31
0.0
  0
LINE
  5
74
330
1E
100
AcDbEntity
  8
0
100
AcDbLine
 10
14.321806
 20
40.3606785
 30
0.0
 11
14.80720599999999
 21
40.0079785
 31
0.0
  0
LINE
  5
75
330
1E
100
AcDbEntity
  8
0
100
AcDbLine
 10
14.321806
 20
40.3606785
 30
0.0
 11
107.785006
 21
169.8494785
 31
0.0
  0
LINE
  5
76
330
1E
100
AcDbEntity
  8
0
100
AcDbLine
 10
15.939906
 20
39.18507849999999
 30
0.0
 11
16.344406
 21
38.89117849999999
 31
0.0
  0
LINE
  5
77
330
1E
100
AcDbEntity
  8
0
100
AcDbLine
 10
14.80720599999999
 20
40.0079785
 30
0.0
 11
16.182606
 21
39.0087785
 31
0.0
  0
LINE
  5
78
330
1E
100
AcDbEntity
  8
0
100
AcDbLine
 10
16.182606
 20
39.0087785
 30
0.0
 11
18.44780599999999
 21
37.36297849999999
 31
0.0
  0
LINE
  5
79
330
1E
100
AcDbEntity
  8
0
100
AcDbLine
 10
19.580406
 20
36.5400785
 30
0.0
 11
22.250206
 21
34.60037849999999
 31
0.0
  0
LINE
  5
7A
330
1E
100
AcDbEntity
  8
0
100
AcDbLine
 10
18.44780599999999
 20
37.36297849999999
 30
0.0
 11
21.441206
 21
35.1881785
 31
0.0
  0
LINE
  5
7B
330
1E
100
AcDbEntity
  8
0
100
AcDbLine
 10
21.441206
 20
35.1881785
 30
0.0
 11
24.839106
 21
32.71947849999999
 31
0.0
  0
LINE
  5
7C
330
1E
100
AcDbEntity
  8
0
100
AcDbLine
 10
26.701306
 20
12.8253785
 30
0.0
 11
29.694706
 21
10.6505785
 31
0.0
  0
LINE
  5
7D
330
1E
100
AcDbEntity
  8
0
100
AcDbLine
 10
25.324506
 20
32.36677849999999
 30
0.0
 11
28.479606
 21
30.0743785
 31
0.0
  0
LINE
  5
7E
330
1E
100
AcDbEntity
  8
0
100
AcDbLine
 10
24.839106
 20
32.71947849999999
 30
0.0
 11
28.479606
 21
30.0743785
 31
0.0
  0
LINE
  5
7F
330
1E
100
AcDbEntity
  8
0
100
AcDbLine
 10
25.9829150906038
 20
8.40308850022178
 30
0.0
 11
26.13000599999999
 21
8.2962185
 31
0.0
  0
LINE
  5
80
330
1E
100
AcDbEntity
  8
0
100
AcDbLine
 10
28.0551975021311
 20
11.84173340117099
 30
0.0
 11
28.6855631374882
 21
11.3837527825518
 31
0.0
  0
LINE
  5
81
330
1E
100
AcDbEntity
  8
0
100
AcDbLine
 10
33.820706
 20
7.6529085
 30
0.0
 11
42.04960599999999
 21
18.97917849999999
 31
0.0
  0
LINE
  5
82
330
1E
100
AcDbEntity
  8
0
100
AcDbLine
 10
33.33520599999999
 20
8.0055785
 30
0.0
 11
33.820706
 21
7.6529085
 31
0.0
  0
LINE
  5
83
330
1E
100
AcDbEntity
  8
0
100
AcDbLine
 10
31.959906
 20
9.004808500000001
 30
0.0
 11
33.33520599999999
 21
8.0055785
 31
0.0
  0
LINE
  5
84
330
1E
100
AcDbEntity
  8
0
100
AcDbLine
 10
29.694706
 20
10.6505785
 30
0.0
 11
31.959906
 21
9.004808500000001
 31
0.0
  0
LINE
  5
85
330
1E
100
AcDbEntity
  8
0
100
AcDbLine
 10
29.7755691463134
 20
10.59182777586609
 30
0.0
 11
31.959906
 21
9.004808500000001
 31
0.0
  0
LINE
  5
86
330
1E
100
AcDbEntity
  8
0
100
AcDbLine
 10
28.481106
 20
11.5322785
 30
0.0
 11
28.6855631374882
 21
11.3837527825518
 31
0.0
  0
LINE
  5
87
330
1E
100
AcDbEntity
  8
0
100
AcDbLine
 10
28.481106
 20
11.5322785
 30
0.0
 11
28.6855631374882
 21
11.3837527825518
 31
0.0
  0
LINE
  5
88
330
1E
100
AcDbEntity
  8
0
100
AcDbLine
 10
40.61490599999999
 20
21.2575785
 30
0.0
 11
40.8749417142742
 21
21.06870707143689
 31
0.0
  0
LINE
  5
89
330
1E
100
AcDbEntity
  8
0
100
AcDbLine
 10
40.188906
 20
20.33107849999999
 30
0.0
 11
41.56420599999999
 21
19.33177849999999
 31
0.0
  0
LINE
  5
8A
330
1E
100
AcDbEntity
  8
0
100
AcDbLine
 10
37.923706
 20
21.9768785
 30
0.0
 11
40.188906
 21
20.33107849999999
 31
0.0
  0
LINE
  5
8B
330
1E
100
AcDbEntity
  8
0
100
AcDbLine
 10
41.01943051205779
 20
20.9637312794313
 30
0.0
 11
42.04960599999999
 21
18.97917849999999
 31
0.0
  0
LINE
  5
8C
330
1E
100
AcDbEntity
  8
0
100
AcDbLine
 10
40.776706
 20
21.1400785
 30
0.0
 11
42.152006
 21
20.1408785
 31
0.0
  0
LINE
  5
8D
330
1E
100
AcDbEntity
  8
0
100
AcDbLine
 10
27.89180599999999
 20
29.26537849999999
 30
0.0
 11
31.532406
 21
26.62037849999999
 31
0.0
  0
LINE
  5
8E
330
1E
100
AcDbEntity
  8
0
100
AcDbLine
 10
34.930306
 20
24.1516785
 30
0.0
 11
37.923706
 21
21.9768785
 31
0.0
  0
LINE
  5
8F
330
1E
100
AcDbEntity
  8
0
100
AcDbLine
 10
31.532406
 20
26.62037849999999
 30
0.0
 11
34.930306
 21
24.1516785
 31
0.0
  0
LINE
  5
90
330
1E
100
AcDbEntity
  8
0
100
AcDbLine
 10
38.511406
 20
22.7858785
 30
0.0
 11
40.776706
 21
21.1400785
 31
0.0
  0
LINE
  5
91
330
1E
100
AcDbEntity
  8
0
100
AcDbLine
 10
35.518106
 20
24.9606785
 30
0.0
 11
38.511406
 21
22.7858785
 31
0.0
  0
LINE
  5
92
330
1E
100
AcDbEntity
  8
0
100
AcDbLine
 10
32.120206
 20
27.4293785
 30
0.0
 11
35.518106
 21
24.9606785
 31
0.0
  0
LINE
  5
93
330
1E
100
AcDbEntity
  8
0
100
AcDbLine
 10
28.479606
 20
30.0743785
 30
0.0
 11
32.120206
 21
27.4293785
 31
0.0
  0
LINE
  5
94
330
1E
100
AcDbEntity
  8
0
100
AcDbLine
 10
39.57023615129939
 20
22.01661056065039
 30
0.0
 11
40.776706
 21
21.1400785
 31
0.0
  0
LINE
  5
95
330
1E
100
AcDbEntity
  8
0
100
AcDbLine
 10
39.57023615129939
 20
22.01661056065039
 30
0.0
 11
40.61490599999999
 21
21.2575785
 31
0.0
  0
LINE
  5
96
330
1E
100
AcDbEntity
  8
0
100
AcDbLine
 10
41.56420599999999
 20
19.33177849999999
 30
0.0
 11
42.04960599999999
 21
18.97917849999999
 31
0.0
  0
LINE
  5
97
330
1E
100
AcDbEntity
  8
0
100
AcDbLine
 10
42.637406
 20
19.7881785
 30
0.0
 11
107.785006
 21
109.3494784999999
 31
0.0
  0
LINE
  5
98
330
1E
100
AcDbEntity
  8
0
100
AcDbLine
 10
42.637406
 20
19.7881785
 30
0.0
 11
107.785006
 21
109.3494784999999
 31
0.0
  0
LINE
  5
99
330
1E
100
AcDbEntity
  8
0
100
AcDbLine
 10
42.152006
 20
20.1408785
 30
0.0
 11
42.637406
 21
19.7881785
 31
0.0
  0
LINE
  5
9A
330
1E
100
AcDbEntity
  8
0
100
AcDbLine
 10
41.01943051205779
 20
20.9637312794313
 30
0.0
 11
42.04960599999999
 21
18.97917849999999
 31
0.0
  0
LINE
  5
9B
330
1E
100
AcDbEntity
  8
0
100
AcDbLine
 10
28.0551975021311
 20
11.84173340117099
 30
0.0
 11
28.481106
 21
11.5322785
 31
0.0
  0
LINE
  5
9C
330
1E
100
AcDbEntity
  8
0
100
AcDbLine
 10
28.0551975021311
 20
11.84173340117099
 30
0.0
 11
28.6855631374882
 21
11.3837527825518
 31
0.0
  0
LINE
  5
9D
330
1E
100
AcDbEntity
  8
0
100
AcDbLine
 10
27.343506
 20
7.414538499999999
 30
0.0
 11
29.608806
 21
5.7687485
 31
0.0
  0
LINE
  5
9E
330
1E
100
AcDbEntity
  8
0
100
AcDbLine
 10
17.182906
 20
7.3802785
 30
0.0
 11
20.41890599999999
 21
5.029138500000009
 31
0.0
  0
LINE
  5
9F
330
1E
100
AcDbEntity
  8
0
100
AcDbLine
 10
13.78500599999999
 20
9.848978500000001
 30
0.0
 11
17.182906
 21
7.3802785
 31
0.0
  0
LINE
  5
A0
330
1E
100
AcDbEntity
  8
0
100
AcDbLine
 10
107.785006
 20
107.0484784999999
 30
0.0
 11
107.785006
 21
105.8494784999999
 31
0.0
  0
LINE
  5
A1
330
1E
100
AcDbEntity
  8
0
100
AcDbLine
 10
107.785006
 20
107.0484784999999
 30
0.0
 11
107.785006
 21
109.3494784999999
 31
0.0
  0
LINE
  5
A2
330
1E
100
AcDbEntity
  8
0
100
AcDbLine
 10
107.785006
 20
107.0484784999999
 30
0.0
 11
107.785006
 21
110.4494784999999
 31
0.0
  0
LINE
  5
A3
330
1E
100
AcDbEntity
  8
0
100
AcDbLine
 10
108.785006
 20
106.1484784999999
 30
0.0
 11
108.785006
 21
109.5484784999999
 31
0.0
  0
LINE
  5
A4
330
1E
100
AcDbEntity
  8
0
100
AcDbLine
 10
108.785006
 20
106.1484784999999
 30
0.0
 11
108.785006
 21
104.8494785
 31
0.0
  0
LINE
  5
A5
330
1E
100
AcDbEntity
  8
0
100
AcDbLine
 10
107.785006
 20
105.8494784999999
 30
0.0
 11
108.785006
 21
104.8494785
 31
0.0
  0
LINE
  5
A6
330
1E
100
AcDbEntity
  8
0
100
AcDbLine
 10
107.785006
 20
105.8494784999999
 30
0.0
 11
107.785006
 21
107.0484784999999
 31
0.0
  0
LINE
  5
A7
330
1E
100
AcDbEntity
  8
0
100
AcDbLine
 10
107.785006
 20
110.4494784999999
 30
0.0
 11
107.785006
 21
115.8494785
 31
0.0
  0
LINE
  5
A8
330
1E
100
AcDbEntity
  8
0
100
AcDbLine
 10
107.785006
 20
110.4494784999999
 30
0.0
 11
107.785006
 21
107.0484784999999
 31
0.0
  0
LINE
  5
A9
330
1E
100
AcDbEntity
  8
0
100
AcDbLine
 10
107.785006
 20
110.8494784999999
 30
0.0
 11
107.785006
 21
113.3494784999999
 31
0.0
  0
LINE
  5
AA
330
1E
100
AcDbEntity
  8
0
100
AcDbLine
 10
107.785006
 20
115.8494785
 30
0.0
 11
107.785006
 21
122.9494784999999
 31
0.0
  0
LINE
  5
AB
330
1E
100
AcDbEntity
  8
0
100
AcDbLine
 10
107.785006
 20
115.8494785
 30
0.0
 11
107.785006
 21
110.4494784999999
 31
0.0
  0
LINE
  5
AC
330
1E
100
AcDbEntity
  8
0
100
AcDbLine
 10
107.785006
 20
122.9494784999999
 30
0.0
 11
107.785006
 21
131.0484784999999
 31
0.0
  0
LINE
  5
AD
330
1E
100
AcDbEntity
  8
0
100
AcDbLine
 10
107.785006
 20
122.9494784999999
 30
0.0
 11
107.785006
 21
115.8494785
 31
0.0
  0
LINE
  5
AE
330
1E
100
AcDbEntity
  8
0
100
AcDbLine
 10
107.785006
 20
113.3494784999999
 30
0.0
 11
107.785006
 21
117.8494784999999
 31
0.0
  0
LINE
  5
AF
330
1E
100
AcDbEntity
  8
0
100
AcDbLine
 10
107.785006
 20
117.8494784999999
 30
0.0
 11
107.785006
 21
124.0484784999999
 31
0.0
  0
LINE
  5
B0
330
1E
100
AcDbEntity
  8
0
100
AcDbLine
 10
107.785006
 20
131.0484784999999
 30
0.0
 11
107.785006
 21
139.8494785
 31
0.0
  0
LINE
  5
B1
330
1E
100
AcDbEntity
  8
0
100
AcDbLine
 10
107.785006
 20
131.0484784999999
 30
0.0
 11
107.785006
 21
122.9494784999999
 31
0.0
  0
LINE
  5
B2
330
1E
100
AcDbEntity
  8
0
100
AcDbLine
 10
107.785006
 20
124.0484784999999
 30
0.0
 11
107.785006
 21
131.6494784999999
 31
0.0
  0
LINE
  5
B3
330
1E
100
AcDbEntity
  8
0
100
AcDbLine
 10
107.785006
 20
131.6494784999999
 30
0.0
 11
107.785006
 21
139.1494784999999
 31
0.0
  0
LINE
  5
B4
330
1E
100
AcDbEntity
  8
0
100
AcDbLine
 10
107.785006
 20
148.6494784999999
 30
0.0
 11
107.785006
 21
156.7484784999999
 31
0.0
  0
LINE
  5
B5
330
1E
100
AcDbEntity
  8
0
100
AcDbLine
 10
107.785006
 20
148.6494784999999
 30
0.0
 11
107.785006
 21
139.8494785
 31
0.0
  0
LINE
  5
B6
330
1E
100
AcDbEntity
  8
0
100
AcDbLine
 10
107.785006
 20
139.8494785
 30
0.0
 11
107.785006
 21
148.6494784999999
 31
0.0
  0
LINE
  5
B7
330
1E
100
AcDbEntity
  8
0
100
AcDbLine
 10
107.785006
 20
139.8494785
 30
0.0
 11
107.785006
 21
131.0484784999999
 31
0.0
  0
LINE
  5
B8
330
1E
100
AcDbEntity
  8
0
100
AcDbLine
 10
107.785006
 20
163.8494784999999
 30
0.0
 11
107.785006
 21
169.2484784999999
 31
0.0
  0
LINE
  5
B9
330
1E
100
AcDbEntity
  8
0
100
AcDbLine
 10
107.785006
 20
163.8494784999999
 30
0.0
 11
107.785006
 21
156.7484784999999
 31
0.0
  0
LINE
  5
BA
330
1E
100
AcDbEntity
  8
0
100
AcDbLine
 10
107.785006
 20
156.7484784999999
 30
0.0
 11
107.785006
 21
163.8494784999999
 31
0.0
  0
LINE
  5
BB
330
1E
100
AcDbEntity
  8
0
100
AcDbLine
 10
107.785006
 20
156.7484784999999
 30
0.0
 11
107.785006
 21
148.6494784999999
 31
0.0
  0
LINE
  5
BC
330
1E
100
AcDbEntity
  8
0
100
AcDbLine
 10
107.785006
 20
169.2484784999999
 30
0.0
 11
107.785006
 21
172.6494784999999
 31
0.0
  0
LINE
  5
BD
330
1E
100
AcDbEntity
  8
0
100
AcDbLine
 10
107.785006
 20
169.2484784999999
 30
0.0
 11
107.785006
 21
163.8494784999999
 31
0.0
  0
LINE
  5
BE
330
1E
100
AcDbEntity
  8
0
100
AcDbLine
 10
107.785006
 20
168.3494785
 30
0.0
 11
107.785006
 21
169.8494785
 31
0.0
  0
LINE
  5
BF
330
1E
100
AcDbEntity
  8
0
100
AcDbLine
 10
107.785006
 20
165.0484784999999
 30
0.0
 11
107.785006
 21
168.3494785
 31
0.0
  0
LINE
  5
C0
330
1E
100
AcDbEntity
  8
0
100
AcDbLine
 10
107.785006
 20
160.0484784999999
 30
0.0
 11
107.785006
 21
165.0484784999999
 31
0.0
  0
LINE
  5
C1
330
1E
100
AcDbEntity
  8
0
100
AcDbLine
 10
107.785006
 20
153.5484784999999
 30
0.0
 11
107.785006
 21
160.0484784999999
 31
0.0
  0
LINE
  5
C2
330
1E
100
AcDbEntity
  8
0
100
AcDbLine
 10
107.785006
 20
146.8494785
 30
0.0
 11
107.785006
 21
153.5484784999999
 31
0.0
  0
LINE
  5
C3
330
1E
100
AcDbEntity
  8
0
100
AcDbLine
 10
107.785006
 20
139.1494784999999
 30
0.0
 11
107.785006
 21
146.8494785
 31
0.0
  0
LINE
  5
C4
330
1E
100
AcDbEntity
  8
0
100
AcDbLine
 10
108.785006
 20
109.5484784999999
 30
0.0
 11
108.785006
 21
115.1484785
 31
0.0
  0
LINE
  5
C5
330
1E
100
AcDbEntity
  8
0
100
AcDbLine
 10
108.785006
 20
109.5484784999999
 30
0.0
 11
108.785006
 21
106.1484784999999
 31
0.0
  0
LINE
  5
C6
330
1E
100
AcDbEntity
  8
0
100
AcDbLine
 10
108.785006
 20
115.1484785
 30
0.0
 11
108.785006
 21
122.4494785
 31
0.0
  0
LINE
  5
C7
330
1E
100
AcDbEntity
  8
0
100
AcDbLine
 10
108.785006
 20
115.1484785
 30
0.0
 11
108.785006
 21
109.5484784999999
 31
0.0
  0
LINE
  5
C8
330
1E
100
AcDbEntity
  8
0
100
AcDbLine
 10
108.785006
 20
122.4494785
 30
0.0
 11
108.785006
 21
130.8494785
 31
0.0
  0
LINE
  5
C9
330
1E
100
AcDbEntity
  8
0
100
AcDbLine
 10
108.785006
 20
122.4494785
 30
0.0
 11
108.785006
 21
115.1484785
 31
0.0
  0
LINE
  5
CA
330
1E
100
AcDbEntity
  8
0
100
AcDbLine
 10
108.785006
 20
130.8494785
 30
0.0
 11
108.785006
 21
139.8494785
 31
0.0
  0
LINE
  5
CB
330
1E
100
AcDbEntity
  8
0
100
AcDbLine
 10
108.785006
 20
130.8494785
 30
0.0
 11
108.785006
 21
122.4494785
 31
0.0
  0
LINE
  5
CC
330
1E
100
AcDbEntity
  8
0
100
AcDbLine
 10
108.785006
 20
170.1494784999999
 30
0.0
 11
108.785006
 21
173.5484784999999
 31
0.0
  0
LINE
  5
CD
330
1E
100
AcDbEntity
  8
0
100
AcDbLine
 10
108.785006
 20
170.1494784999999
 30
0.0
 11
108.785006
 21
164.5484784999999
 31
0.0
  0
LINE
  5
CE
330
1E
100
AcDbEntity
  8
0
100
AcDbLine
 10
108.785006
 20
164.5484784999999
 30
0.0
 11
108.785006
 21
170.1494784999999
 31
0.0
  0
LINE
  5
CF
330
1E
100
AcDbEntity
  8
0
100
AcDbLine
 10
108.785006
 20
164.5484784999999
 30
0.0
 11
108.785006
 21
157.2484785
 31
0.0
  0
LINE
  5
D0
330
1E
100
AcDbEntity
  8
0
100
AcDbLine
 10
108.785006
 20
157.2484785
 30
0.0
 11
108.785006
 21
164.5484784999999
 31
0.0
  0
LINE
  5
D1
330
1E
100
AcDbEntity
  8
0
100
AcDbLine
 10
108.785006
 20
157.2484785
 30
0.0
 11
108.785006
 21
148.8494785
 31
0.0
  0
LINE
  5
D2
330
1E
100
AcDbEntity
  8
0
100
AcDbLine
 10
108.785006
 20
148.8494785
 30
0.0
 11
108.785006
 21
157.2484785
 31
0.0
  0
LINE
  5
D3
330
1E
100
AcDbEntity
  8
0
100
AcDbLine
 10
108.785006
 20
148.8494785
 30
0.0
 11
108.785006
 21
139.8494785
 31
0.0
  0
LINE
  5
D4
330
1E
100
AcDbEntity
  8
0
100
AcDbLine
 10
108.785006
 20
139.8494785
 30
0.0
 11
108.785006
 21
148.8494785
 31
0.0
  0
LINE
  5
D5
330
1E
100
AcDbEntity
  8
0
100
AcDbLine
 10
108.785006
 20
139.8494785
 30
0.0
 11
108.785006
 21
130.8494785
 31
0.0
  0
LINE
  5
D6
330
1E
100
AcDbEntity
  8
0
100
AcDbLine
 10
107.785006
 20
169.8494785
 30
0.0
 11
107.785006
 21
172.6494784999999
 31
0.0
  0
LINE
  5
D7
330
1E
100
AcDbEntity
  8
0
100
AcDbLine
 10
108.785006
 20
173.5484784999999
 30
0.0
 11
108.785006
 21
174.8494785
 31
0.0
  0
LINE
  5
D8
330
1E
100
AcDbEntity
  8
0
100
AcDbLine
 10
108.785006
 20
173.5484784999999
 30
0.0
 11
108.785006
 21
170.1494784999999
 31
0.0
  0
LINE
  5
D9
330
1E
100
AcDbEntity
  8
0
100
AcDbLine
 10
107.785006
 20
173.8494785
 30
0.0
 11
107.785006
 21
172.6494784999999
 31
0.0
  0
LINE
  5
DA
330
1E
100
AcDbEntity
  8
0
100
AcDbLine
 10
107.785006
 20
173.8494785
 30
0.0
 11
108.785006
 21
174.8494785
 31
0.0
  0
LINE
  5
DB
330
1E
100
AcDbEntity
  8
0
100
AcDbLine
 10
107.785006
 20
172.6494784999999
 30
0.0
 11
107.785006
 21
169.8494785
 31
0.0
  0
LINE
  5
DC
330
1E
100
AcDbEntity
  8
0
100
AcDbLine
 10
107.785006
 20
172.6494784999999
 30
0.0
 11
107.785006
 21
173.8494785
 31
0.0
  0
LINE
  5
DD
330
1E
100
AcDbEntity
  8
0
100
AcDbLine
 10
107.785006
 20
172.6494784999999
 30
0.0
 11
107.785006
 21
169.2484784999999
 31
0.0
  0
LINE
  5
DE
330
1E
100
AcDbEntity
  8
0
100
AcDbLine
 10
108.785006
 20
174.8494785
 30
0.0
 11
117.785006
 21
174.8494785
 31
0.0
  0
LINE
  5
DF
330
1E
100
AcDbEntity
  8
0
100
AcDbLine
 10
108.785006
 20
174.8494785
 30
0.0
 11
108.785006
 21
173.5484784999999
 31
0.0
  0
LINE
  5
E0
330
1E
100
AcDbEntity
  8
0
100
AcDbLine
 10
107.785006
 20
109.3494784999999
 30
0.0
 11
107.785006
 21
107.0484784999999
 31
0.0
  0
LINE
  5
E1
330
1E
100
AcDbEntity
  8
0
100
AcDbLine
 10
107.785006
 20
109.3494784999999
 30
0.0
 11
107.785006
 21
110.8494784999999
 31
0.0
  0
LINE
  5
E2
330
1E
100
AcDbEntity
  8
0
100
AcDbLine
 10
117.785006
 20
106.1484784999999
 30
0.0
 11
117.785006
 21
104.8494785
 31
0.0
  0
LINE
  5
E3
330
1E
100
AcDbEntity
  8
0
100
AcDbLine
 10
117.785006
 20
109.5484784999999
 30
0.0
 11
117.785006
 21
106.1484784999999
 31
0.0
  0
LINE
  5
E4
330
1E
100
AcDbEntity
  8
0
100
AcDbLine
 10
117.785006
 20
115.1484785
 30
0.0
 11
117.785006
 21
109.5484784999999
 31
0.0
  0
LINE
  5
E5
330
1E
100
AcDbEntity
  8
0
100
AcDbLine
 10
117.785006
 20
122.4494785
 30
0.0
 11
117.785006
 21
115.1484785
 31
0.0
  0
LINE
  5
E6
330
1E
100
AcDbEntity
  8
0
100
AcDbLine
 10
117.785006
 20
130.8494785
 30
0.0
 11
117.785006
 21
122.4494785
 31
0.0
  0
LINE
  5
E7
330
1E
100
AcDbEntity
  8
0
100
AcDbLine
 10
117.785006
 20
139.8494785
 30
0.0
 11
117.785006
 21
130.8494785
 31
0.0
  0
LINE
  5
E8
330
1E
100
AcDbEntity
  8
0
100
AcDbLine
 10
117.785006
 20
174.8494785
 30
0.0
 11
117.785006
 21
173.5484784999999
 31
0.0
  0
LINE
  5
E9
330
1E
100
AcDbEntity
  8
0
100
AcDbLine
 10
117.785006
 20
173.5484784999999
 30
0.0
 11
117.785006
 21
170.1494784999999
 31
0.0
  0
LINE
  5
EA
330
1E
100
AcDbEntity
  8
0
100
AcDbLine
 10
117.785006
 20
170.1494784999999
 30
0.0
 11
117.785006
 21
164.5484784999999
 31
0.0
  0
LINE
  5
EB
330
1E
100
AcDbEntity
  8
0
100
AcDbLine
 10
117.785006
 20
164.5484784999999
 30
0.0
 11
117.785006
 21
157.2484785
 31
0.0
  0
LINE
  5
EC
330
1E
100
AcDbEntity
  8
0
100
AcDbLine
 10
117.785006
 20
157.2484785
 30
0.0
 11
117.785006
 21
148.8494785
 31
0.0
  0
LINE
  5
ED
330
1E
100
AcDbEntity
  8
0
100
AcDbLine
 10
117.785006
 20
148.8494785
 30
0.0
 11
117.785006
 21
139.8494785
 31
0.0
  0
LINE
  5
EE
330
1E
100
AcDbEntity
  8
0
100
AcDbLine
 10
108.785006
 20
104.8494785
 30
0.0
 11
117.785006
 21
104.8494785
 31
0.0
  0
LINE
  5
EF
330
1E
100
AcDbEntity
  8
0
100
AcDbLine
 10
108.785006
 20
104.8494785
 30
0.0
 11
108.785006
 21
106.1484784999999
 31
0.0
  0
ENDSEC
  0
SECTION
  2
OBJECTS
  0
DICTIONARY
  5
C
330
0
100
AcDbDictionary
  3
ACAD_GROUP
350
D
  3
ACAD_LAYOUT
350
19
  3
ACAD_MLINESTYLE
350
16
  3
ACAD_PLOTSETTINGS
350
18
  3
ACAD_PLOTSTYLENAME
350
E
  3
ACDBHEADERROUNDTRIPXREC
350
F7
  3
ACDBVARIABLEDICTIONARY
350
F4
  0
DICTIONARY
  5
119
330
1E
100
AcDbDictionary
280
     1
  3
ACAD_LAYOUTSELFREF
360
11A
  0
DICTIONARY
  5
117
330
1A
100
AcDbDictionary
280
     1
  3
ACAD_LAYOUTSELFREF
360
118
  0
DICTIONARY
  5
D
102
{ACAD_REACTORS
330
C
102
}
330
C
100
AcDbDictionary
  0
DICTIONARY
  5
19
102
{ACAD_REACTORS
330
C
102
}
330
C
100
AcDbDictionary
  0
DICTIONARY
  5
16
102
{ACAD_REACTORS
330
C
102
}
330
C
100
AcDbDictionary
  3
STANDARD
350
17
  0
DICTIONARY
  5
18
102
{ACAD_REACTORS
330
C
102
}
330
C
100
AcDbDictionary
  0
ACDBDICTIONARYWDFLT
  5
E
102
{ACAD_REACTORS
330
C
102
}
330
C
100
AcDbDictionary
281
     1
  3
Normal
350
F
100
AcDbDictionaryWithDefault
340
F
  0
DICTIONARY
  5
F7
102
{ACAD_REACTORS
330
C
102
}
330
C
100
AcDbDictionary
  3
CEPSNTYPE
350
101
  3
FINGERPRINTGUID
350
102
  3
HYPERLINKBASE
350
FA
  3
INSUNITS
350
100
  3
LAYOUTDICT
350
FC
  3
LWETCUNION
350
FF
  3
PLOTSETDICT
350
FD
  3
PLOTSTYLNAMDICT
350
FE
  3
PSVPSCALE
350
104
  3
PUCSBASE
350
107
  3
PUCSORGBACK
350
10D
  3
PUCSORGBOTTOM
350
109
  3
PUCSORGFRONT
350
10C
  3
PUCSORGLEFT
350
10A
  3
PUCSORGRIGHT
350
10B
  3
PUCSORGTOP
350
108
  3
PUCSORTHOREF
350
105
  3
PUCSORTHOVIEW
350
106
  3
STYLESHEET
350
FB
  3
TSTACKALIGN
350
F8
  3
TSTACKSIZE
350
F9
  3
UCSBASE
350
110
  3
UCSORGBACK
350
116
  3
UCSORGBOTTOM
350
112
  3
UCSORGFRONT
350
115
  3
UCSORGLEFT
350
113
  3
UCSORGRIGHT
350
114
  3
UCSORGTOP
350
111
  3
UCSORTHOREF
350
10E
  3
UCSORTHOVIEW
350
10F
  3
VERSIONGUID
350
103
  0
DICTIONARY
  5
F4
102
{ACAD_REACTORS
330
C
102
}
330
C
100
AcDbDictionary
  3
DIMASSOC
350
F5
  0
XRECORD
  5
11A
102
{ACAD_REACTORS
330
119
102
}
330
119
100
AcDbXrecord
340
1E
  0
XRECORD
  5
118
102
{ACAD_REACTORS
330
117
102
}
330
117
100
AcDbXrecord
340
1A
  0
MLINESTYLE
  5
17
102
{ACAD_REACTORS
330
16
102
}
330
16
100
AcDbMlineStyle
  2
STANDARD
 70
     0
  3

 62
   256
 51
90.0
 52
90.0
 71
     2
 49
0.5
 62
   256
  6
BYLAYER
 49
-0.5
 62
   256
  6
BYLAYER
  0
ACDBPLACEHOLDER
  5
F
102
{ACAD_REACTORS
330
E
102
}
330
E
100
AcDbPlaceHolder
280
     0
  0
XRECORD
  5
101
102
{ACAD_REACTORS
330
F7
102
}
330
F7
100
AcDbXrecord
 90
        0
  0
XRECORD
  5
102
102
{ACAD_REACTORS
330
F7
102
}
330
F7
100
AcDbXrecord
  1
{8F4687A6-CE16-4881-B8FE-5462C86E77E0}
  0
XRECORD
  5
FA
102
{ACAD_REACTORS
330
F7
102
}
330
F7
100
AcDbXrecord
  1

  0
XRECORD
  5
100
102
{ACAD_REACTORS
330
F7
102
}
330
F7
100
AcDbXrecord
 90
        0
  0
XRECORD
  5
FC
102
{ACAD_REACTORS
330
F7
102
}
330
F7
100
AcDbXrecord
340
19
  0
XRECORD
  5
FF
102
{ACAD_REACTORS
330
F7
102
}
330
F7
100
AcDbXrecord
 90
    10781
  0
XRECORD
  5
FD
102
{ACAD_REACTORS
330
F7
102
}
330
F7
100
AcDbXrecord
340
18
  0
XRECORD
  5
FE
102
{ACAD_REACTORS
330
F7
102
}
330
F7
100
AcDbXrecord
340
E
  0
XRECORD
  5
104
102
{ACAD_REACTORS
330
F7
102
}
330
F7
100
AcDbXrecord
 40
0.0
  0
XRECORD
  5
107
102
{ACAD_REACTORS
330
F7
102
}
330
F7
100
AcDbXrecord
340
0
  0
XRECORD
  5
10D
102
{ACAD_REACTORS
330
F7
102
}
330
F7
100
AcDbXrecord
 10
0.0
 20
0.0
 30
0.0
  0
XRECORD
  5
109
102
{ACAD_REACTORS
330
F7
102
}
330
F7
100
AcDbXrecord
 10
0.0
 20
0.0
 30
0.0
  0
XRECORD
  5
10C
102
{ACAD_REACTORS
330
F7
102
}
330
F7
100
AcDbXrecord
 10
0.0
 20
0.0
 30
0.0
  0
XRECORD
  5
10A
102
{ACAD_REACTORS
330
F7
102
}
330
F7
100
AcDbXrecord
 10
0.0
 20
0.0
 30
0.0
  0
XRECORD
  5
10B
102
{ACAD_REACTORS
330
F7
102
}
330
F7
100
AcDbXrecord
 10
0.0
 20
0.0
 30
0.0
  0
XRECORD
  5
108
102
{ACAD_REACTORS
330
F7
102
}
330
F7
100
AcDbXrecord
 10
0.0
 20
0.0
 30
0.0
  0
XRECORD
  5
105
102
{ACAD_REACTORS
330
F7
102
}
330
F7
100
AcDbXrecord
340
0
  0
XRECORD
  5
106
102
{ACAD_REACTORS
330
F7
102
}
330
F7
100
AcDbXrecord
 70
     0
  0
XRECORD
  5
FB
102
{ACAD_REACTORS
330
F7
102
}
330
F7
100
AcDbXrecord
  1

  0
XRECORD
  5
F8
102
{ACAD_REACTORS
330
F7
102
}
330
F7
100
AcDbXrecord
 90
        1
  0
XRECORD
  5
F9
102
{ACAD_REACTORS
330
F7
102
}
330
F7
100
AcDbXrecord
 90
       70
  0
XRECORD
  5
110
102
{ACAD_REACTORS
330
F7
102
}
330
F7
100
AcDbXrecord
340
0
  0
XRECORD
  5
116
102
{ACAD_REACTORS
330
F7
102
}
330
F7
100
AcDbXrecord
 10
0.0
 20
0.0
 30
0.0
  0
XRECORD
  5
112
102
{ACAD_REACTORS
330
F7
102
}
330
F7
100
AcDbXrecord
 10
0.0
 20
0.0
 30
0.0
  0
XRECORD
  5
115
102
{ACAD_REACTORS
330
F7
102
}
330
F7
100
AcDbXrecord
 10
0.0
 20
0.0
 30
0.0
  0
XRECORD
  5
113
102
{ACAD_REACTORS
330
F7
102
}
330
F7
100
AcDbXrecord
 10
0.0
 20
0.0
 30
0.0
  0
XRECORD
  5
114
102
{ACAD_REACTORS
330
F7
102
}
330
F7
100
AcDbXrecord
 10
0.0
 20
0.0
 30
0.0
  0
XRECORD
  5
111
102
{ACAD_REACTORS
330
F7
102
}
330
F7
100
AcDbXrecord
 10
0.0
 20
0.0
 30
0.0
  0
XRECORD
  5
10E
102
{ACAD_REACTORS
330
F7
102
}
330
F7
100
AcDbXrecord
340
0
  0
XRECORD
  5
10F
102
{ACAD_REACTORS
330
F7
102
}
330
F7
100
AcDbXrecord
 70
     1
  0
XRECORD
  5
103
102
{ACAD_REACTORS
330
F7
102
}
330
F7
100
AcDbXrecord
  1
{C87B6349-DD24-4E83-BD7B-4F3CDD77708A}
  0
DICTIONARYVAR
  5
F5
102
{ACAD_REACTORS
330
F4
102
}
330
F4
100
DictionaryVariables
280
     0
  1
1
  0
ENDSEC
  0
EOF
