  0
SECTION
  2
HEADER
  9
$ACADVER
  1
AC1015
  9
$ACADMAINTVER
 70
    13
  9
$DWGCODEPAGE
  3
ANSI_1252
  9
$INSBASE
 10
0.0
 20
0.0
 30
0.0
  9
$EXTMIN
 10
-0.0000000000000052
 20
-0.0822500000000077
 30
0.0
  9
$EXTMAX
 10
270.0
 20
163.0822499999999
 30
0.0
  9
$LIMMIN
 10
0.0
 20
0.0
  9
$LIMMAX
 10
12.0
 20
9.0
  9
$ORTHOMODE
 70
     0
  9
$REGENMODE
 70
     1
  9
$FILLMODE
 70
     1
  9
$QTEXTMODE
 70
     0
  9
$MIRRTEXT
 70
     1
  9
$LTSCALE
 40
1.0
  9
$ATTMODE
 70
     1
  9
$TEXTSIZE
 40
0.2
  9
$TRACEWID
 40
0.05
  9
$TEXTSTYLE
  7
Standard
  9
$CLAYER
  8
0
  9
$CELTYPE
  6
Continuous
  9
$CECOLOR
 62
   256
  9
$CELTSCALE
 40
1.0
  9
$DISPSILH
 70
     0
  9
$DIMSCALE
 40
1.0
  9
$DIMASZ
 40
0.18
  9
$DIMEXO
 40
0.0625
  9
$DIMDLI
 40
0.38
  9
$DIMRND
 40
0.0
  9
$DIMDLE
 40
0.0
  9
$DIMEXE
 40
0.18
  9
$DIMTP
 40
0.0
  9
$DIMTM
 40
0.0
  9
$DIMTXT
 40
0.18
  9
$DIMCEN
 40
0.09
  9
$DIMTSZ
 40
0.0
  9
$DIMTOL
 70
     0
  9
$DIMLIM
 70
     0
  9
$DIMTIH
 70
     1
  9
$DIMTOH
 70
     1
  9
$DIMSE1
 70
     0
  9
$DIMSE2
 70
     0
  9
$DIMTAD
 70
     0
  9
$DIMZIN
 70
     0
  9
$DIMBLK
  1

  9
$DIMASO
 70
     1
  9
$DIMSHO
 70
     1
  9
$DIMPOST
  1

  9
$DIMAPOST
  1

  9
$DIMALT
 70
     0
  9
$DIMALTD
 70
     2
  9
$DIMALTF
 40
25.4
  9
$DIMLFAC
 40
1.0
  9
$DIMTOFL
 70
     0
  9
$DIMTVP
 40
0.0
  9
$DIMTIX
 70
     0
  9
$DIMSOXD
 70
     0
  9
$DIMSAH
 70
     0
  9
$DIMBLK1
  1

  9
$DIMBLK2
  1

  9
$DIMSTYLE
  2
Standard
  9
$DIMCLRD
 70
     0
  9
$DIMCLRE
 70
     0
  9
$DIMCLRT
 70
     0
  9
$DIMTFAC
 40
1.0
  9
$DIMGAP
 40
0.09
  9
$DIMJUST
 70
     0
  9
$DIMSD1
 70
     0
  9
$DIMSD2
 70
     0
  9
$DIMTOLJ
 70
     1
  9
$DIMTZIN
 70
     0
  9
$DIMALTZ
 70
     0
  9
$DIMALTTZ
 70
     0
  9
$DIMUPT
 70
     0
  9
$DIMDEC
 70
     4
  9
$DIMTDEC
 70
     4
  9
$DIMALTU
 70
     2
  9
$DIMALTTD
 70
     2
  9
$DIMTXSTY
  7
Standard
  9
$DIMAUNIT
 70
     0
  9
$DIMADEC
 70
     0
  9
$DIMALTRND
 40
0.0
  9
$DIMAZIN
 70
     0
  9
$DIMDSEP
 70
    46
  9
$DIMATFIT
 70
     3
  9
$DIMFRAC
 70
     0
  9
$DIMLDRBLK
  1

  9
$DIMLUNIT
 70
     2
  9
$DIMLWD
 70
    -2
  9
$DIMLWE
 70
    -2
  9
$DIMTMOVE
 70
     0
  9
$LUNITS
 70
     2
  9
$LUPREC
 70
     4
  9
$SKETCHINC
 40
0.1
  9
$FILLETRAD
 40
0.0
  9
$AUNITS
 70
     0
  9
$AUPREC
 70
     0
  9
$MENU
  1
.
  9
$ELEVATION
 40
0.0
  9
$PELEVATION
 40
0.0
  9
$THICKNESS
 40
0.0
  9
$LIMCHECK
 70
     0
  9
$CHAMFERA
 40
0.0
  9
$CHAMFERB
 40
0.0
  9
$CHAMFERC
 40
0.0
  9
$CHAMFERD
 40
0.0
  9
$SKPOLY
 70
     0
  9
$TDCREATE
 40
2454691.698843669
  9
$TDUCREATE
 40
2454691.615510335
  9
$TDUPDATE
 40
2454691.699053634
  9
$TDUUPDATE
 40
2454691.615720301
  9
$TDINDWG
 40
0.0002099653
  9
$TDUSRTIMER
 40
0.0002099653
  9
$USRTIMER
 70
     1
  9
$ANGBASE
 50
0.0
  9
$ANGDIR
 70
     0
  9
$PDMODE
 70
     0
  9
$PDSIZE
 40
0.0
  9
$PLINEWID
 40
0.0
  9
$SPLFRAME
 70
     0
  9
$SPLINETYPE
 70
     6
  9
$SPLINESEGS
 70
     8
  9
$HANDSEED
  5
15A
  9
$SURFTAB1
 70
     6
  9
$SURFTAB2
 70
     6
  9
$SURFTYPE
 70
     6
  9
$SURFU
 70
     6
  9
$SURFV
 70
     6
  9
$UCSBASE
  2

  9
$UCSNAME
  2

  9
$UCSORG
 10
0.0
 20
0.0
 30
0.0
  9
$UCSXDIR
 10
1.0
 20
0.0
 30
0.0
  9
$UCSYDIR
 10
0.0
 20
1.0
 30
0.0
  9
$UCSORTHOREF
  2

  9
$UCSORTHOVIEW
 70
     1
  9
$UCSORGTOP
 10
0.0
 20
0.0
 30
0.0
  9
$UCSORGBOTTOM
 10
0.0
 20
0.0
 30
0.0
  9
$UCSORGLEFT
 10
0.0
 20
0.0
 30
0.0
  9
$UCSORGRIGHT
 10
0.0
 20
0.0
 30
0.0
  9
$UCSORGFRONT
 10
0.0
 20
0.0
 30
0.0
  9
$UCSORGBACK
 10
0.0
 20
0.0
 30
0.0
  9
$PUCSBASE
  2

  9
$PUCSNAME
  2

  9
$PUCSORG
 10
0.0
 20
0.0
 30
0.0
  9
$PUCSXDIR
 10
1.0
 20
0.0
 30
0.0
  9
$PUCSYDIR
 10
0.0
 20
1.0
 30
0.0
  9
$PUCSORTHOREF
  2

  9
$PUCSORTHOVIEW
 70
     0
  9
$PUCSORGTOP
 10
0.0
 20
0.0
 30
0.0
  9
$PUCSORGBOTTOM
 10
0.0
 20
0.0
 30
0.0
  9
$PUCSORGLEFT
 10
0.0
 20
0.0
 30
0.0
  9
$PUCSORGRIGHT
 10
0.0
 20
0.0
 30
0.0
  9
$PUCSORGFRONT
 10
0.0
 20
0.0
 30
0.0
  9
$PUCSORGBACK
 10
0.0
 20
0.0
 30
0.0
  9
$USERI1
 70
     0
  9
$USERI2
 70
     0
  9
$USERI3
 70
     0
  9
$USERI4
 70
     0
  9
$USERI5
 70
     0
  9
$USERR1
 40
0.0
  9
$USERR2
 40
0.0
  9
$USERR3
 40
0.0
  9
$USERR4
 40
0.0
  9
$USERR5
 40
0.0
  9
$WORLDVIEW
 70
     1
  9
$SHADEDGE
 70
     3
  9
$SHADEDIF
 70
    70
  9
$TILEMODE
 70
     1
  9
$MAXACTVP
 70
    64
  9
$PINSBASE
 10
0.0
 20
0.0
 30
0.0
  9
$PLIMCHECK
 70
     0
  9
$PEXTMIN
 10
1.000000000000000E+20
 20
1.000000000000000E+20
 30
1.000000000000000E+20
  9
$PEXTMAX
 10
-1.000000000000000E+20
 20
-1.000000000000000E+20
 30
-1.000000000000000E+20
  9
$PLIMMIN
 10
0.0
 20
0.0
  9
$PLIMMAX
 10
12.0
 20
9.0
  9
$UNITMODE
 70
     0
  9
$VISRETAIN
 70
     1
  9
$PLINEGEN
 70
     0
  9
$PSLTSCALE
 70
     1
  9
$TREEDEPTH
 70
  3020
  9
$CMLSTYLE
  2
Standard
  9
$CMLJUST
 70
     0
  9
$CMLSCALE
 40
1.0
  9
$PROXYGRAPHICS
 70
     1
  9
$MEASUREMENT
 70
     0
  9
$CELWEIGHT
370
    -1
  9
$ENDCAPS
280
     0
  9
$JOINSTYLE
280
     0
  9
$LWDISPLAY
290
     0
  9
$INSUNITS
 70
     0
  9
$HYPERLINKBASE
  1

  9
$STYLESHEET
  1

  9
$XEDIT
290
     1
  9
$CEPSNTYPE
380
     0
  9
$PSTYLEMODE
290
     1
  9
$FINGERPRINTGUID
  2
{E39F8D68-1559-402F-A1D6-01B1165857F9}
  9
$VERSIONGUID
  2
{B3DAE067-5C21-4660-97BF-1FBEADD0B9CA}
  9
$EXTNAMES
290
     1
  9
$PSVPSCALE
 40
0.0
  9
$OLESTARTUP
290
     0
  0
ENDSEC
  0
SECTION
  2
CLASSES
  0
CLASS
  1
ACDBDICTIONARYWDFLT
  2
AcDbDictionaryWithDefault
  3
AutoCAD 2000
 90
        0
280
     0
281
     0
  0
CLASS
  1
ACDBPLACEHOLDER
  2
AcDbPlaceHolder
  3
AutoCAD 2000
 90
        0
280
     0
281
     0
  0
CLASS
  1
LAYOUT
  2
AcDbLayout
  3
AutoCAD 2000
 90
        0
280
     0
281
     0
  0
CLASS
  1
DICTIONARYVAR
  2
AcDbDictionaryVar
  3
AutoCAD 2000
 90
        0
280
     0
281
     0
  0
ENDSEC
  0
SECTION
  2
TABLES
  0
TABLE
  2
VPORT
  5
8
330
0
100
AcDbSymbolTable
 70
     2
  0
VPORT
  5
159
330
8
100
AcDbSymbolTableRecord
100
AcDbViewportTableRecord
  2
*Active
 70
     0
 10
0.0
 20
0.0
 11
1.0
 21
1.0
 12
135.0
 22
81.5
 13
0.0
 23
0.0
 14
1.0
 24
1.0
 15
0.0
 25
0.0
 16
0.0
 26
0.0
 36
1.0
 17
0.0
 27
0.0
 37
0.0
 40
164.4164015345268
 41
2.043533930857874
 42
50.0
 43
0.0
 44
0.0
 50
0.0
 51
0.0
 71
     0
 72
   100
 73
     1
 74
     3
 75
     0
 76
     0
 77
     0
 78
     0
281
     0
 65
     1
110
0.0
120
0.0
130
0.0
111
1.0
121
0.0
131
0.0
112
0.0
122
1.0
132
0.0
 79
     1
146
0.0
  0
ENDTAB
  0
TABLE
  2
LTYPE
  5
5
330
0
100
AcDbSymbolTable
 70
     1
  0
LTYPE
  5
13
330
5
100
AcDbSymbolTableRecord
100
AcDbLinetypeTableRecord
  2
ByBlock
 70
     0
  3

 72
    65
 73
     0
 40
0.0
  0
LTYPE
  5
14
330
5
100
AcDbSymbolTableRecord
100
AcDbLinetypeTableRecord
  2
ByLayer
 70
     0
  3

 72
    65
 73
     0
 40
0.0
  0
LTYPE
  5
15
330
5
100
AcDbSymbolTableRecord
100
AcDbLinetypeTableRecord
  2
Continuous
 70
     0
  3
Solid line
 72
    65
 73
     0
 40
0.0
  0
ENDTAB
  0
TABLE
  2
LAYER
  5
2
330
0
100
AcDbSymbolTable
 70
     1
  0
LAYER
  5
10
330
2
100
AcDbSymbolTableRecord
100
AcDbLayerTableRecord
  2
0
 70
     0
 62
     7
  6
Continuous
370
    -3
390
F
  0
ENDTAB
  0
TABLE
  2
STYLE
  5
3
330
0
100
AcDbSymbolTable
 70
     1
  0
STYLE
  5
11
330
3
100
AcDbSymbolTableRecord
100
AcDbTextStyleTableRecord
  2
Standard
 70
     0
 40
0.0
 41
1.0
 50
0.0
 71
     0
 42
0.2
  3
txt
  4

  0
ENDTAB
  0
TABLE
  2
VIEW
  5
6
330
0
100
AcDbSymbolTable
 70
     0
  0
ENDTAB
  0
TABLE
  2
UCS
  5
7
330
0
100
AcDbSymbolTable
 70
     0
  0
ENDTAB
  0
TABLE
  2
APPID
  5
9
330
0
100
AcDbSymbolTable
 70
     1
  0
APPID
  5
12
330
9
100
AcDbSymbolTableRecord
100
AcDbRegAppTableRecord
  2
ACAD
 70
     0
  0
ENDTAB
  0
TABLE
  2
DIMSTYLE
  5
A
330
0
100
AcDbSymbolTable
 70
     1
100
AcDbDimStyleTable
 71
     0
  0
DIMSTYLE
105
153
330
A
100
AcDbSymbolTableRecord
100
AcDbDimStyleTableRecord
  2
Standard
 70
     0
340
11
  0
ENDTAB
  0
TABLE
  2
BLOCK_RECORD
  5
1
330
0
100
AcDbSymbolTable
 70
     0
  0
BLOCK_RECORD
  5
1E
330
1
100
AcDbSymbolTableRecord
100
AcDbBlockTableRecord
  2
*Model_Space
340
21
  0
BLOCK_RECORD
  5
1A
330
1
100
AcDbSymbolTableRecord
100
AcDbBlockTableRecord
  2
*Paper_Space
340
1D
  0
ENDTAB
  0
ENDSEC
  0
SECTION
  2
BLOCKS
  0
BLOCK
  5
1F
330
1E
100
AcDbEntity
  8
0
100
AcDbBlockBegin
  2
*Model_Space
 70
     0
 10
0.0
 20
0.0
 30
0.0
  3
*Model_Space
  1

  0
ENDBLK
  5
20
330
1E
100
AcDbEntity
  8
0
100
AcDbBlockEnd
  0
BLOCK
  5
1B
330
1A
100
AcDbEntity
 67
     1
  8
0
100
AcDbBlockBegin
  2
*Paper_Space
 70
     0
 10
0.0
 20
0.0
 30
0.0
  3
*Paper_Space
  1

  0
ENDBLK
  5
1C
330
1A
100
AcDbEntity
 67
     1
  8
0
100
AcDbBlockEnd
  0
ENDSEC
  0
SECTION
  2
ENTITIES
  0
LINE
  5
22
330
1E
100
AcDbEntity
  8
0
100
AcDbLine
 10
-0.0000000000000052
 20
63.58624999999999
 30
0.0
 11
0.5999999999999951
 21
63.08225
 31
0.0
  0
LINE
  5
23
330
1E
100
AcDbEntity
  8
0
100
AcDbLine
 10
-0.0000000000000052
 20
63.58624999999999
 30
0.0
 11
-0.0000000000000052
 21
64.34225000000001
 31
0.0
  0
LINE
  5
24
330
1E
100
AcDbEntity
  8
0
100
AcDbLine
 10
-0.0000000000000052
 20
64.34225000000001
 30
0.0
 11
-0.0000000000000052
 21
66.35825
 31
0.0
  0
LINE
  5
25
330
1E
100
AcDbEntity
  8
0
100
AcDbLine
 10
-0.0000000000000052
 20
64.34225000000001
 30
0.0
 11
-0.0000000000000052
 21
63.58624999999999
 31
0.0
  0
LINE
  5
26
330
1E
100
AcDbEntity
  8
0
100
AcDbLine
 10
-0.0000000000000052
 20
66.35825
 30
0.0
 11
-0.0000000000000052
 21
69.63424999999999
 31
0.0
  0
LINE
  5
27
330
1E
100
AcDbEntity
  8
0
100
AcDbLine
 10
-0.0000000000000052
 20
66.35825
 30
0.0
 11
-0.0000000000000052
 21
64.34225000000001
 31
0.0
  0
LINE
  5
28
330
1E
100
AcDbEntity
  8
0
100
AcDbLine
 10
-0.0000000000000052
 20
73.91825
 30
0.0
 11
-0.0000000000000052
 21
69.63424999999999
 31
0.0
  0
LINE
  5
29
330
1E
100
AcDbEntity
  8
0
100
AcDbLine
 10
-0.0000000000000052
 20
73.91825
 30
0.0
 11
-0.0000000000000052
 21
78.79025
 31
0.0
  0
LINE
  5
2A
330
1E
100
AcDbEntity
  8
0
100
AcDbLine
 10
-0.0000000000000052
 20
69.63424999999999
 30
0.0
 11
-0.0000000000000052
 21
73.91825
 31
0.0
  0
LINE
  5
2B
330
1E
100
AcDbEntity
  8
0
100
AcDbLine
 10
-0.0000000000000052
 20
69.63424999999999
 30
0.0
 11
-0.0000000000000052
 21
66.35825
 31
0.0
  0
LINE
  5
2C
330
1E
100
AcDbEntity
  8
0
100
AcDbLine
 10
-0.0000000000000052
 20
69.63424999999999
 30
0.0
 11
-0.0000000000000052
 21
73.91825
 31
0.0
  0
LINE
  5
2D
330
1E
100
AcDbEntity
  8
0
100
AcDbLine
 10
0.5999999999999951
 20
63.08225
 30
0.0
 11
137.0
 21
63.08225
 31
0.0
  0
LINE
  5
2E
330
1E
100
AcDbEntity
  8
0
100
AcDbLine
 10
0.5999999999999951
 20
63.08225
 30
0.0
 11
0.5999999999999951
 21
63.83825
 31
0.0
  0
LINE
  5
2F
330
1E
100
AcDbEntity
  8
0
100
AcDbLine
 10
0.5999999999999951
 20
63.83825
 30
0.0
 11
0.5999999999999951
 21
63.08225
 31
0.0
  0
LINE
  5
30
330
1E
100
AcDbEntity
  8
0
100
AcDbLine
 10
0.5999999999999951
 20
63.83825
 30
0.0
 11
0.5999999999999951
 21
65.85424999999999
 31
0.0
  0
LINE
  5
31
330
1E
100
AcDbEntity
  8
0
100
AcDbLine
 10
0.5999999999999951
 20
65.85424999999999
 30
0.0
 11
0.5999999999999951
 21
63.83825
 31
0.0
  0
LINE
  5
32
330
1E
100
AcDbEntity
  8
0
100
AcDbLine
 10
0.5999999999999951
 20
65.85424999999999
 30
0.0
 11
0.5999999999999951
 21
69.21425000000001
 31
0.0
  0
LINE
  5
33
330
1E
100
AcDbEntity
  8
0
100
AcDbLine
 10
0.5999999999999951
 20
69.21425000000001
 30
0.0
 11
0.5999999999999951
 21
65.85424999999999
 31
0.0
  0
LINE
  5
34
330
1E
100
AcDbEntity
  8
0
100
AcDbLine
 10
0.5999999999999951
 20
69.21425000000001
 30
0.0
 11
0.5999999999999951
 21
73.66625
 31
0.0
  0
LINE
  5
35
330
1E
100
AcDbEntity
  8
0
100
AcDbLine
 10
0.5999999999999951
 20
73.66625
 30
0.0
 11
0.5999999999999951
 21
69.21425000000001
 31
0.0
  0
LINE
  5
36
330
1E
100
AcDbEntity
  8
0
100
AcDbLine
 10
0.5999999999999951
 20
73.66625
 30
0.0
 11
0.5999999999999951
 21
78.70625
 31
0.0
  0
LINE
  5
37
330
1E
100
AcDbEntity
  8
0
100
AcDbLine
 10
0.5999999999999951
 20
78.70625
 30
0.0
 11
0.5999999999999951
 21
73.66625
 31
0.0
  0
LINE
  5
38
330
1E
100
AcDbEntity
  8
0
100
AcDbLine
 10
0.5999999999999951
 20
78.70625
 30
0.0
 11
0.5999999999999951
 21
84.08224999999999
 31
0.0
  0
LINE
  5
39
330
1E
100
AcDbEntity
  8
0
100
AcDbLine
 10
-0.0000000000000052
 20
73.91825
 30
0.0
 11
-0.0000000000000052
 21
78.79025
 31
0.0
  0
LINE
  5
3A
330
1E
100
AcDbEntity
  8
0
100
AcDbLine
 10
-0.0000000000000052
 20
73.91825
 30
0.0
 11
-0.0000000000000052
 21
69.63424999999999
 31
0.0
  0
LINE
  5
3B
330
1E
100
AcDbEntity
  8
0
100
AcDbLine
 10
-0.0000000000000052
 20
104.57825
 30
0.0
 11
-0.0000000000000052
 21
103.82225
 31
0.0
  0
LINE
  5
3C
330
1E
100
AcDbEntity
  8
0
100
AcDbLine
 10
-0.0000000000000052
 20
104.57825
 30
0.0
 11
0.5999999999999951
 21
105.0822499999999
 31
0.0
  0
LINE
  5
3D
330
1E
100
AcDbEntity
  8
0
100
AcDbLine
 10
-0.0000000000000052
 20
103.82225
 30
0.0
 11
-0.0000000000000052
 21
101.80625
 31
0.0
  0
LINE
  5
3E
330
1E
100
AcDbEntity
  8
0
100
AcDbLine
 10
-0.0000000000000052
 20
103.82225
 30
0.0
 11
-0.0000000000000052
 21
104.57825
 31
0.0
  0
LINE
  5
3F
330
1E
100
AcDbEntity
  8
0
100
AcDbLine
 10
-0.0000000000000052
 20
101.80625
 30
0.0
 11
-0.0000000000000052
 21
98.53025
 31
0.0
  0
LINE
  5
40
330
1E
100
AcDbEntity
  8
0
100
AcDbLine
 10
-0.0000000000000052
 20
101.80625
 30
0.0
 11
-0.0000000000000052
 21
103.82225
 31
0.0
  0
LINE
  5
41
330
1E
100
AcDbEntity
  8
0
100
AcDbLine
 10
-0.0000000000000052
 20
98.53025
 30
0.0
 11
-0.0000000000000052
 21
94.24625
 31
0.0
  0
LINE
  5
42
330
1E
100
AcDbEntity
  8
0
100
AcDbLine
 10
-0.0000000000000052
 20
98.53025
 30
0.0
 11
-0.0000000000000052
 21
101.80625
 31
0.0
  0
LINE
  5
43
330
1E
100
AcDbEntity
  8
0
100
AcDbLine
 10
-0.0000000000000052
 20
94.24625
 30
0.0
 11
-0.0000000000000052
 21
89.37425000000001
 31
0.0
  0
LINE
  5
44
330
1E
100
AcDbEntity
  8
0
100
AcDbLine
 10
-0.0000000000000052
 20
94.24625
 30
0.0
 11
-0.0000000000000052
 21
98.53025
 31
0.0
  0
LINE
  5
45
330
1E
100
AcDbEntity
  8
0
100
AcDbLine
 10
-0.0000000000000052
 20
89.37425000000001
 30
0.0
 11
-0.0000000000000052
 21
84.08224999999999
 31
0.0
  0
LINE
  5
46
330
1E
100
AcDbEntity
  8
0
100
AcDbLine
 10
-0.0000000000000052
 20
89.37425000000001
 30
0.0
 11
-0.0000000000000052
 21
94.24625
 31
0.0
  0
LINE
  5
47
330
1E
100
AcDbEntity
  8
0
100
AcDbLine
 10
0.5999999999999951
 20
105.0822499999999
 30
0.0
 11
0.5999999999999951
 21
104.3262499999999
 31
0.0
  0
LINE
  5
48
330
1E
100
AcDbEntity
  8
0
100
AcDbLine
 10
0.600000000000004
 20
105.0822499999999
 30
0.0
 11
54.46
 21
105.0822499999999
 31
0.0
  0
LINE
  5
49
330
1E
100
AcDbEntity
  8
0
100
AcDbLine
 10
0.5999999999999951
 20
104.3262499999999
 30
0.0
 11
0.5999999999999951
 21
102.31025
 31
0.0
  0
LINE
  5
4A
330
1E
100
AcDbEntity
  8
0
100
AcDbLine
 10
0.5999999999999951
 20
104.3262499999999
 30
0.0
 11
0.5999999999999951
 21
105.0822499999999
 31
0.0
  0
LINE
  5
4B
330
1E
100
AcDbEntity
  8
0
100
AcDbLine
 10
0.5999999999999951
 20
102.31025
 30
0.0
 11
0.5999999999999951
 21
98.95025
 31
0.0
  0
LINE
  5
4C
330
1E
100
AcDbEntity
  8
0
100
AcDbLine
 10
0.5999999999999951
 20
102.31025
 30
0.0
 11
0.5999999999999951
 21
104.3262499999999
 31
0.0
  0
LINE
  5
4D
330
1E
100
AcDbEntity
  8
0
100
AcDbLine
 10
0.5999999999999951
 20
98.95025
 30
0.0
 11
0.5999999999999951
 21
94.49825
 31
0.0
  0
LINE
  5
4E
330
1E
100
AcDbEntity
  8
0
100
AcDbLine
 10
0.5999999999999951
 20
98.95025
 30
0.0
 11
0.5999999999999951
 21
102.31025
 31
0.0
  0
LINE
  5
4F
330
1E
100
AcDbEntity
  8
0
100
AcDbLine
 10
0.5999999999999951
 20
94.49825
 30
0.0
 11
0.5999999999999951
 21
89.45825000000001
 31
0.0
  0
LINE
  5
50
330
1E
100
AcDbEntity
  8
0
100
AcDbLine
 10
0.5999999999999951
 20
94.49825
 30
0.0
 11
0.5999999999999951
 21
98.95025
 31
0.0
  0
LINE
  5
51
330
1E
100
AcDbEntity
  8
0
100
AcDbLine
 10
0.600000000000004
 20
105.0822499999999
 30
0.0
 11
54.46
 21
105.0822499999999
 31
0.0
  0
LINE
  5
52
330
1E
100
AcDbEntity
  8
0
100
AcDbLine
 10
0.5999999999999951
 20
89.45825000000001
 30
0.0
 11
0.5999999999999951
 21
84.08224999999999
 31
0.0
  0
LINE
  5
53
330
1E
100
AcDbEntity
  8
0
100
AcDbLine
 10
0.5999999999999951
 20
89.45825000000001
 30
0.0
 11
0.5999999999999951
 21
94.49825
 31
0.0
  0
LINE
  5
54
330
1E
100
AcDbEntity
  8
0
100
AcDbLine
 10
0.5999999999999951
 20
84.08224999999999
 30
0.0
 11
0.5999999999999951
 21
78.70625
 31
0.0
  0
LINE
  5
55
330
1E
100
AcDbEntity
  8
0
100
AcDbLine
 10
0.5999999999999951
 20
84.08224999999999
 30
0.0
 11
0.5999999999999951
 21
89.45825000000001
 31
0.0
  0
LINE
  5
56
330
1E
100
AcDbEntity
  8
0
100
AcDbLine
 10
-0.0000000000000052
 20
84.08224999999999
 30
0.0
 11
-0.0000000000000052
 21
78.79025
 31
0.0
  0
LINE
  5
57
330
1E
100
AcDbEntity
  8
0
100
AcDbLine
 10
-0.0000000000000052
 20
84.08224999999999
 30
0.0
 11
-0.0000000000000052
 21
89.37425000000001
 31
0.0
  0
LINE
  5
58
330
1E
100
AcDbEntity
  8
0
100
AcDbLine
 10
-0.0000000000000052
 20
78.79025
 30
0.0
 11
-0.0000000000000052
 21
84.08224999999999
 31
0.0
  0
LINE
  5
59
330
1E
100
AcDbEntity
  8
0
100
AcDbLine
 10
-0.0000000000000052
 20
78.79025
 30
0.0
 11
-0.0000000000000052
 21
73.91825
 31
0.0
  0
LINE
  5
5A
330
1E
100
AcDbEntity
  8
0
100
AcDbLine
 10
-0.0000000000000052
 20
78.79025
 30
0.0
 11
-0.0000000000000052
 21
73.91825
 31
0.0
  0
LINE
  5
5B
330
1E
100
AcDbEntity
  8
0
100
AcDbLine
 10
25.0
 20
105.0822499999999
 30
0.0
 11
25.0
 21
139.0822499999999
 31
0.0
  0
LINE
  5
5C
330
1E
100
AcDbEntity
  8
0
100
AcDbLine
 10
175.0
 20
105.0822499999999
 30
0.0
 11
175.0
 21
139.0822499999999
 31
0.0
  0
LINE
  5
5D
330
1E
100
AcDbEntity
  8
0
100
AcDbLine
 10
55.0
 20
105.0822499999999
 30
0.0
 11
55.0
 21
139.0822499999999
 31
0.0
  0
LINE
  5
5E
330
1E
100
AcDbEntity
  8
0
100
AcDbLine
 10
137.0
 20
63.08225
 30
0.0
 11
233.4
 21
63.08225
 31
0.0
  0
LINE
  5
5F
330
1E
100
AcDbEntity
  8
0
100
AcDbLine
 10
233.4
 20
63.08225
 30
0.0
 11
233.4
 21
63.83825
 31
0.0
  0
LINE
  5
60
330
1E
100
AcDbEntity
  8
0
100
AcDbLine
 10
233.4
 20
63.08225
 30
0.0
 11
234.0
 21
63.58624999999999
 31
0.0
  0
LINE
  5
61
330
1E
100
AcDbEntity
  8
0
100
AcDbLine
 10
233.4
 20
63.83825
 30
0.0
 11
233.4
 21
65.85424999999999
 31
0.0
  0
LINE
  5
62
330
1E
100
AcDbEntity
  8
0
100
AcDbLine
 10
233.4
 20
63.83825
 30
0.0
 11
233.4
 21
63.08225
 31
0.0
  0
LINE
  5
63
330
1E
100
AcDbEntity
  8
0
100
AcDbLine
 10
233.4
 20
65.85424999999999
 30
0.0
 11
233.4
 21
69.21425000000001
 31
0.0
  0
LINE
  5
64
330
1E
100
AcDbEntity
  8
0
100
AcDbLine
 10
233.4
 20
65.85424999999999
 30
0.0
 11
233.4
 21
63.83825
 31
0.0
  0
LINE
  5
65
330
1E
100
AcDbEntity
  8
0
100
AcDbLine
 10
233.4
 20
69.21425000000001
 30
0.0
 11
233.4
 21
73.66625
 31
0.0
  0
LINE
  5
66
330
1E
100
AcDbEntity
  8
0
100
AcDbLine
 10
233.4
 20
69.21425000000001
 30
0.0
 11
233.4
 21
65.85424999999999
 31
0.0
  0
LINE
  5
67
330
1E
100
AcDbEntity
  8
0
100
AcDbLine
 10
233.4
 20
73.66625
 30
0.0
 11
233.4
 21
78.70625
 31
0.0
  0
LINE
  5
68
330
1E
100
AcDbEntity
  8
0
100
AcDbLine
 10
233.4
 20
73.66625
 30
0.0
 11
233.4
 21
69.21425000000001
 31
0.0
  0
LINE
  5
69
330
1E
100
AcDbEntity
  8
0
100
AcDbLine
 10
233.4
 20
78.70625
 30
0.0
 11
233.4
 21
84.08224999999999
 31
0.0
  0
LINE
  5
6A
330
1E
100
AcDbEntity
  8
0
100
AcDbLine
 10
233.4
 20
78.70625
 30
0.0
 11
233.4
 21
73.66625
 31
0.0
  0
LINE
  5
6B
330
1E
100
AcDbEntity
  8
0
100
AcDbLine
 10
205.0
 20
105.0822499999999
 30
0.0
 11
205.0
 21
139.0822499999999
 31
0.0
  0
LINE
  5
6C
330
1E
100
AcDbEntity
  8
0
100
AcDbLine
 10
233.4
 20
104.3262499999999
 30
0.0
 11
233.4
 21
105.0822499999999
 31
0.0
  0
LINE
  5
6D
330
1E
100
AcDbEntity
  8
0
100
AcDbLine
 10
233.4
 20
104.3262499999999
 30
0.0
 11
233.4
 21
102.31025
 31
0.0
  0
LINE
  5
6E
330
1E
100
AcDbEntity
  8
0
100
AcDbLine
 10
233.4
 20
102.31025
 30
0.0
 11
233.4
 21
104.3262499999999
 31
0.0
  0
LINE
  5
6F
330
1E
100
AcDbEntity
  8
0
100
AcDbLine
 10
233.4
 20
102.31025
 30
0.0
 11
233.4
 21
98.95025
 31
0.0
  0
LINE
  5
70
330
1E
100
AcDbEntity
  8
0
100
AcDbLine
 10
233.4
 20
98.95025
 30
0.0
 11
233.4
 21
102.31025
 31
0.0
  0
LINE
  5
71
330
1E
100
AcDbEntity
  8
0
100
AcDbLine
 10
233.4
 20
98.95025
 30
0.0
 11
233.4
 21
94.49825
 31
0.0
  0
LINE
  5
72
330
1E
100
AcDbEntity
  8
0
100
AcDbLine
 10
233.4
 20
94.49825
 30
0.0
 11
233.4
 21
98.95025
 31
0.0
  0
LINE
  5
73
330
1E
100
AcDbEntity
  8
0
100
AcDbLine
 10
233.4
 20
94.49825
 30
0.0
 11
233.4
 21
89.45825000000001
 31
0.0
  0
LINE
  5
74
330
1E
100
AcDbEntity
  8
0
100
AcDbLine
 10
233.4
 20
89.45825000000001
 30
0.0
 11
233.4
 21
94.49825
 31
0.0
  0
LINE
  5
75
330
1E
100
AcDbEntity
  8
0
100
AcDbLine
 10
233.4
 20
89.45825000000001
 30
0.0
 11
233.4
 21
84.08224999999999
 31
0.0
  0
LINE
  5
76
330
1E
100
AcDbEntity
  8
0
100
AcDbLine
 10
234.0
 20
64.17799000000001
 30
0.0
 11
234.593
 21
64.17799000000001
 31
0.0
  0
LINE
  5
77
330
1E
100
AcDbEntity
  8
0
100
AcDbLine
 10
234.0
 20
63.58624999999999
 30
0.0
 11
234.0
 21
64.34225000000001
 31
0.0
  0
LINE
  5
78
330
1E
100
AcDbEntity
  8
0
100
AcDbLine
 10
234.0
 20
64.34225000000001
 30
0.0
 11
234.0
 21
66.35825
 31
0.0
  0
LINE
  5
79
330
1E
100
AcDbEntity
  8
0
100
AcDbLine
 10
234.0
 20
64.34225000000001
 30
0.0
 11
234.0
 21
63.58624999999999
 31
0.0
  0
LINE
  5
7A
330
1E
100
AcDbEntity
  8
0
100
AcDbLine
 10
234.0
 20
66.35825
 30
0.0
 11
234.0
 21
69.63424999999999
 31
0.0
  0
LINE
  5
7B
330
1E
100
AcDbEntity
  8
0
100
AcDbLine
 10
234.0
 20
66.35825
 30
0.0
 11
234.0
 21
64.34225000000001
 31
0.0
  0
LINE
  5
7C
330
1E
100
AcDbEntity
  8
0
100
AcDbLine
 10
234.0
 20
69.63424999999999
 30
0.0
 11
234.0
 21
73.91825
 31
0.0
  0
LINE
  5
7D
330
1E
100
AcDbEntity
  8
0
100
AcDbLine
 10
234.0
 20
69.63424999999999
 30
0.0
 11
234.0
 21
66.35825
 31
0.0
  0
LINE
  5
7E
330
1E
100
AcDbEntity
  8
0
100
AcDbLine
 10
234.0
 20
73.91825
 30
0.0
 11
234.0
 21
78.79025
 31
0.0
  0
LINE
  5
7F
330
1E
100
AcDbEntity
  8
0
100
AcDbLine
 10
234.0
 20
73.91825
 30
0.0
 11
234.0
 21
69.63424999999999
 31
0.0
  0
LINE
  5
80
330
1E
100
AcDbEntity
  8
0
100
AcDbLine
 10
260.0
 20
-0.0399500000000104
 30
0.0
 11
261.0
 21
-0.0822500000000077
 31
0.0
  0
LINE
  5
81
330
1E
100
AcDbEntity
  8
0
100
AcDbLine
 10
234.593
 20
64.17799000000001
 30
0.0
 11
236.343984976901
 21
64.33460929355909
 31
0.0
  0
LINE
  5
82
330
1E
100
AcDbEntity
  8
0
100
AcDbLine
 10
236.031122753869
 20
64.30662489563509
 30
0.0
 11
236.05
 21
63.784626
 31
0.0
  0
LINE
  5
83
330
1E
100
AcDbEntity
  8
0
100
AcDbLine
 10
236.05
 20
63.784626
 30
0.0
 11
236.194
 21
63.56272399999999
 31
0.0
  0
LINE
  5
84
330
1E
100
AcDbEntity
  8
0
100
AcDbLine
 10
236.194
 20
63.56272399999999
 30
0.0
 11
236.424
 21
64.74639999999999
 31
0.0
  0
LINE
  5
85
330
1E
100
AcDbEntity
  8
0
100
AcDbLine
 10
236.194
 20
63.56272399999999
 30
0.0
 11
267.8819999999999
 21
63.56272399999999
 31
0.0
  0
LINE
  5
86
330
1E
100
AcDbEntity
  8
0
100
AcDbLine
 10
236.424
 20
64.74639999999999
 30
0.0
 11
236.728
 21
67.42186
 31
0.0
  0
LINE
  5
87
330
1E
100
AcDbEntity
  8
0
100
AcDbLine
 10
236.728
 20
67.42186
 30
0.0
 11
237.0719999999999
 21
71.17839
 31
0.0
  0
LINE
  5
88
330
1E
100
AcDbEntity
  8
0
100
AcDbLine
 10
237.72
 20
79.98765
 30
0.0
 11
238.064
 21
85.58255
 31
0.0
  0
LINE
  5
89
330
1E
100
AcDbEntity
  8
0
100
AcDbLine
 10
237.3959999999999
 20
75.26595
 30
0.0
 11
237.72
 21
79.98765
 31
0.0
  0
LINE
  5
8A
330
1E
100
AcDbEntity
  8
0
100
AcDbLine
 10
237.0719999999999
 20
71.17839
 30
0.0
 11
237.3959999999999
 21
75.26595
 31
0.0
  0
LINE
  5
8B
330
1E
100
AcDbEntity
  8
0
100
AcDbLine
 10
257.0
 20
1.608249999999999
 30
0.0
 11
257.1
 21
1.18565
 31
0.0
  0
LINE
  5
8C
330
1E
100
AcDbEntity
  8
0
100
AcDbLine
 10
257.0
 20
1.608249999999999
 30
0.0
 11
257.0
 21
63.56272399999999
 31
0.0
  0
LINE
  5
8D
330
1E
100
AcDbEntity
  8
0
100
AcDbLine
 10
257.1
 20
1.18565
 30
0.0
 11
257.5
 21
0.7630500000000011
 31
0.0
  0
LINE
  5
8E
330
1E
100
AcDbEntity
  8
0
100
AcDbLine
 10
257.5
 20
0.7630500000000011
 30
0.0
 11
258.1
 21
0.382649999999992
 31
0.0
  0
LINE
  5
8F
330
1E
100
AcDbEntity
  8
0
100
AcDbLine
 10
258.1
 20
0.382649999999992
 30
0.0
 11
259.0
 21
0.129050000000001
 31
0.0
  0
LINE
  5
90
330
1E
100
AcDbEntity
  8
0
100
AcDbLine
 10
259.0
 20
0.129050000000001
 30
0.0
 11
260.0
 21
-0.0399500000000104
 31
0.0
  0
LINE
  5
91
330
1E
100
AcDbEntity
  8
0
100
AcDbLine
 10
259.0
 20
0.129050000000001
 30
0.0
 11
260.0
 21
-0.0399500000000104
 31
0.0
  0
LINE
  5
92
330
1E
100
AcDbEntity
  8
0
100
AcDbLine
 10
257.0
 20
63.56272399999999
 30
0.0
 11
257.0
 21
1.608249999999999
 31
0.0
  0
LINE
  5
93
330
1E
100
AcDbEntity
  8
0
100
AcDbLine
 10
262.0
 20
-0.0399500000000104
 30
0.0
 11
263.0
 21
0.129050000000001
 31
0.0
  0
LINE
  5
94
330
1E
100
AcDbEntity
  8
0
100
AcDbLine
 10
267.8819999999999
 20
63.56272399999999
 30
0.0
 11
268.87
 21
63.996591
 31
0.0
  0
LINE
  5
95
330
1E
100
AcDbEntity
  8
0
100
AcDbLine
 10
265.0
 20
1.608249999999999
 30
0.0
 11
265.0
 21
63.56272399999999
 31
0.0
  0
LINE
  5
96
330
1E
100
AcDbEntity
  8
0
100
AcDbLine
 10
268.87
 20
63.996591
 30
0.0
 11
268.87
 21
65.24365999999999
 31
0.0
  0
LINE
  5
97
330
1E
100
AcDbEntity
  8
0
100
AcDbLine
 10
268.87
 20
63.996591
 30
0.0
 11
269.294
 21
65.0317
 31
0.0
  0
LINE
  5
98
330
1E
100
AcDbEntity
  8
0
100
AcDbLine
 10
268.87
 20
65.24365999999999
 30
0.0
 11
268.87
 21
63.996591
 31
0.0
  0
LINE
  5
99
330
1E
100
AcDbEntity
  8
0
100
AcDbLine
 10
268.87
 20
65.24365999999999
 30
0.0
 11
268.87
 21
67.78362
 31
0.0
  0
LINE
  5
9A
330
1E
100
AcDbEntity
  8
0
100
AcDbLine
 10
268.87
 20
67.78362
 30
0.0
 11
268.87
 21
65.24365999999999
 31
0.0
  0
LINE
  5
9B
330
1E
100
AcDbEntity
  8
0
100
AcDbLine
 10
268.87
 20
67.78362
 30
0.0
 11
268.87
 21
71.50406
 31
0.0
  0
LINE
  5
9C
330
1E
100
AcDbEntity
  8
0
100
AcDbLine
 10
268.87
 20
80.04224999999999
 30
0.0
 11
268.87
 21
75.45614999999999
 31
0.0
  0
LINE
  5
9D
330
1E
100
AcDbEntity
  8
0
100
AcDbLine
 10
268.87
 20
80.04224999999999
 30
0.0
 11
268.87
 21
85.53765
 31
0.0
  0
LINE
  5
9E
330
1E
100
AcDbEntity
  8
0
100
AcDbLine
 10
268.87
 20
71.50406
 30
0.0
 11
268.87
 21
67.78362
 31
0.0
  0
LINE
  5
9F
330
1E
100
AcDbEntity
  8
0
100
AcDbLine
 10
268.87
 20
71.50406
 30
0.0
 11
268.87
 21
75.45614999999999
 31
0.0
  0
LINE
  5
A0
330
1E
100
AcDbEntity
  8
0
100
AcDbLine
 10
269.647
 20
73.24854999999999
 30
0.0
 11
270.0
 21
84.14095000000001
 31
0.0
  0
LINE
  5
A1
330
1E
100
AcDbEntity
  8
0
100
AcDbLine
 10
269.294
 20
65.0317
 30
0.0
 11
269.647
 21
73.24854999999999
 31
0.0
  0
LINE
  5
A2
330
1E
100
AcDbEntity
  8
0
100
AcDbLine
 10
268.87
 20
75.45614999999999
 30
0.0
 11
268.87
 21
71.50406
 31
0.0
  0
LINE
  5
A3
330
1E
100
AcDbEntity
  8
0
100
AcDbLine
 10
268.87
 20
75.45614999999999
 30
0.0
 11
268.87
 21
80.04224999999999
 31
0.0
  0
LINE
  5
A4
330
1E
100
AcDbEntity
  8
0
100
AcDbLine
 10
265.0
 20
63.56272399999999
 30
0.0
 11
265.0
 21
1.608249999999999
 31
0.0
  0
LINE
  5
A5
330
1E
100
AcDbEntity
  8
0
100
AcDbLine
 10
264.9
 20
1.18565
 30
0.0
 11
265.0
 21
1.608249999999999
 31
0.0
  0
LINE
  5
A6
330
1E
100
AcDbEntity
  8
0
100
AcDbLine
 10
264.5
 20
0.7630500000000011
 30
0.0
 11
264.9
 21
1.18565
 31
0.0
  0
LINE
  5
A7
330
1E
100
AcDbEntity
  8
0
100
AcDbLine
 10
263.8999999999999
 20
0.382649999999992
 30
0.0
 11
264.5
 21
0.7630500000000011
 31
0.0
  0
LINE
  5
A8
330
1E
100
AcDbEntity
  8
0
100
AcDbLine
 10
263.0
 20
0.129050000000001
 30
0.0
 11
263.8999999999999
 21
0.382649999999992
 31
0.0
  0
LINE
  5
A9
330
1E
100
AcDbEntity
  8
0
100
AcDbLine
 10
262.0
 20
-0.0399500000000104
 30
0.0
 11
263.0
 21
0.129050000000001
 31
0.0
  0
LINE
  5
AA
330
1E
100
AcDbEntity
  8
0
100
AcDbLine
 10
261.0
 20
-0.0822500000000077
 30
0.0
 11
262.0
 21
-0.0399500000000104
 31
0.0
  0
LINE
  5
AB
330
1E
100
AcDbEntity
  8
0
100
AcDbLine
 10
234.0
 20
78.79025
 30
0.0
 11
234.0
 21
84.08224999999999
 31
0.0
  0
LINE
  5
AC
330
1E
100
AcDbEntity
  8
0
100
AcDbLine
 10
234.0
 20
78.79025
 30
0.0
 11
234.0
 21
73.91825
 31
0.0
  0
LINE
  5
AD
330
1E
100
AcDbEntity
  8
0
100
AcDbLine
 10
234.0
 20
103.9864499999999
 30
0.0
 11
234.593
 21
103.9864499999999
 31
0.0
  0
LINE
  5
AE
330
1E
100
AcDbEntity
  8
0
100
AcDbLine
 10
234.0
 20
104.57825
 30
0.0
 11
234.0
 21
103.82225
 31
0.0
  0
LINE
  5
AF
330
1E
100
AcDbEntity
  8
0
100
AcDbLine
 10
234.0
 20
103.82225
 30
0.0
 11
234.0
 21
104.57825
 31
0.0
  0
LINE
  5
B0
330
1E
100
AcDbEntity
  8
0
100
AcDbLine
 10
234.0
 20
103.82225
 30
0.0
 11
234.0
 21
101.80625
 31
0.0
  0
LINE
  5
B1
330
1E
100
AcDbEntity
  8
0
100
AcDbLine
 10
234.0
 20
101.80625
 30
0.0
 11
234.0
 21
103.82225
 31
0.0
  0
LINE
  5
B2
330
1E
100
AcDbEntity
  8
0
100
AcDbLine
 10
234.0
 20
101.80625
 30
0.0
 11
234.0
 21
98.53025
 31
0.0
  0
LINE
  5
B3
330
1E
100
AcDbEntity
  8
0
100
AcDbLine
 10
234.0
 20
98.53025
 30
0.0
 11
234.0
 21
101.80625
 31
0.0
  0
LINE
  5
B4
330
1E
100
AcDbEntity
  8
0
100
AcDbLine
 10
234.0
 20
98.53025
 30
0.0
 11
234.0
 21
94.24625
 31
0.0
  0
LINE
  5
B5
330
1E
100
AcDbEntity
  8
0
100
AcDbLine
 10
234.0
 20
94.24625
 30
0.0
 11
234.0
 21
98.53025
 31
0.0
  0
LINE
  5
B6
330
1E
100
AcDbEntity
  8
0
100
AcDbLine
 10
234.0
 20
94.24625
 30
0.0
 11
234.0
 21
89.37425000000001
 31
0.0
  0
LINE
  5
B7
330
1E
100
AcDbEntity
  8
0
100
AcDbLine
 10
268.87
 20
85.53765
 30
0.0
 11
268.87
 21
80.04224999999999
 31
0.0
  0
LINE
  5
B8
330
1E
100
AcDbEntity
  8
0
100
AcDbLine
 10
268.87
 20
85.53765
 30
0.0
 11
268.87
 21
90.99365
 31
0.0
  0
LINE
  5
B9
330
1E
100
AcDbEntity
  8
0
100
AcDbLine
 10
238.296
 20
103.6552499999999
 30
0.0
 11
238.777617412246
 21
103.522012051207
 31
0.0
  0
LINE
  5
BA
330
1E
100
AcDbEntity
  8
0
100
AcDbLine
 10
234.593
 20
103.9864499999999
 30
0.0
 11
238.296
 21
103.6552499999999
 31
0.0
  0
LINE
  5
BB
330
1E
100
AcDbEntity
  8
0
100
AcDbLine
 10
268.87
 20
95.98095
 30
0.0
 11
268.87
 21
90.99365
 31
0.0
  0
LINE
  5
BC
330
1E
100
AcDbEntity
  8
0
100
AcDbLine
 10
268.87
 20
95.98095
 30
0.0
 11
268.87
 21
100.0336499999999
 31
0.0
  0
LINE
  5
BD
330
1E
100
AcDbEntity
  8
0
100
AcDbLine
 10
269.647
 20
95.03345000000001
 30
0.0
 11
270.0
 21
84.14095000000001
 31
0.0
  0
LINE
  5
BE
330
1E
100
AcDbEntity
  8
0
100
AcDbLine
 10
268.87
 20
90.99365
 30
0.0
 11
268.87
 21
85.53765
 31
0.0
  0
LINE
  5
BF
330
1E
100
AcDbEntity
  8
0
100
AcDbLine
 10
268.87
 20
90.99365
 30
0.0
 11
268.87
 21
95.98095
 31
0.0
  0
LINE
  5
C0
330
1E
100
AcDbEntity
  8
0
100
AcDbLine
 10
238.743
 20
104.5022499999999
 30
0.0
 11
238.792
 21
103.11475
 31
0.0
  0
LINE
  5
C1
330
1E
100
AcDbEntity
  8
0
100
AcDbLine
 10
238.5979999999999
 20
104.7200499999999
 30
0.0
 11
267.8819999999999
 21
104.7192499999999
 31
0.0
  0
LINE
  5
C2
330
1E
100
AcDbEntity
  8
0
100
AcDbLine
 10
238.5979999999999
 20
104.7200499999999
 30
0.0
 11
238.743
 21
104.5022499999999
 31
0.0
  0
LINE
  5
C3
330
1E
100
AcDbEntity
  8
0
100
AcDbLine
 10
238.386990095032
 20
103.630077875168
 30
0.0
 11
238.5979999999999
 21
104.7200499999999
 31
0.0
  0
LINE
  5
C4
330
1E
100
AcDbEntity
  8
0
100
AcDbLine
 10
268.87
 20
104.02735
 30
0.0
 11
268.87
 21
102.7081499999999
 31
0.0
  0
LINE
  5
C5
330
1E
100
AcDbEntity
  8
0
100
AcDbLine
 10
268.87
 20
104.02735
 30
0.0
 11
268.87
 21
104.2853499999999
 31
0.0
  0
LINE
  5
C6
330
1E
100
AcDbEntity
  8
0
100
AcDbLine
 10
268.87
 20
104.2853499999999
 30
0.0
 11
268.87
 21
104.02735
 31
0.0
  0
LINE
  5
C7
330
1E
100
AcDbEntity
  8
0
100
AcDbLine
 10
268.87
 20
104.2853499999999
 30
0.0
 11
269.294
 21
103.25035
 31
0.0
  0
LINE
  5
C8
330
1E
100
AcDbEntity
  8
0
100
AcDbLine
 10
267.8819999999999
 20
104.7192499999999
 30
0.0
 11
268.87
 21
104.2853499999999
 31
0.0
  0
LINE
  5
C9
330
1E
100
AcDbEntity
  8
0
100
AcDbLine
 10
269.294
 20
103.25035
 30
0.0
 11
269.647
 21
95.03345000000001
 31
0.0
  0
LINE
  5
CA
330
1E
100
AcDbEntity
  8
0
100
AcDbLine
 10
268.87
 20
102.7081499999999
 30
0.0
 11
268.87
 21
100.0336499999999
 31
0.0
  0
LINE
  5
CB
330
1E
100
AcDbEntity
  8
0
100
AcDbLine
 10
268.87
 20
102.7081499999999
 30
0.0
 11
268.87
 21
104.02735
 31
0.0
  0
LINE
  5
CC
330
1E
100
AcDbEntity
  8
0
100
AcDbLine
 10
268.87
 20
100.0336499999999
 30
0.0
 11
268.87
 21
95.98095
 31
0.0
  0
LINE
  5
CD
330
1E
100
AcDbEntity
  8
0
100
AcDbLine
 10
268.87
 20
100.0336499999999
 30
0.0
 11
268.87
 21
102.7081499999999
 31
0.0
  0
LINE
  5
CE
330
1E
100
AcDbEntity
  8
0
100
AcDbLine
 10
238.743
 20
100.3816499999999
 30
0.0
 11
238.792
 21
103.11475
 31
0.0
  0
LINE
  5
CF
330
1E
100
AcDbEntity
  8
0
100
AcDbLine
 10
238.5979999999999
 20
96.22545
 30
0.0
 11
238.743
 21
100.3816499999999
 31
0.0
  0
LINE
  5
D0
330
1E
100
AcDbEntity
  8
0
100
AcDbLine
 10
238.369
 20
91.17565
 30
0.0
 11
238.5979999999999
 21
96.22545
 31
0.0
  0
LINE
  5
D1
330
1E
100
AcDbEntity
  8
0
100
AcDbLine
 10
238.064
 20
85.58255
 30
0.0
 11
238.369
 21
91.17565
 31
0.0
  0
LINE
  5
D2
330
1E
100
AcDbEntity
  8
0
100
AcDbLine
 10
234.0
 20
89.37425000000001
 30
0.0
 11
234.0
 21
94.24625
 31
0.0
  0
LINE
  5
D3
330
1E
100
AcDbEntity
  8
0
100
AcDbLine
 10
234.0
 20
89.37425000000001
 30
0.0
 11
234.0
 21
84.08224999999999
 31
0.0
  0
LINE
  5
D4
330
1E
100
AcDbEntity
  8
0
100
AcDbLine
 10
234.0
 20
84.08224999999999
 30
0.0
 11
234.0
 21
89.37425000000001
 31
0.0
  0
LINE
  5
D5
330
1E
100
AcDbEntity
  8
0
100
AcDbLine
 10
234.0
 20
84.08224999999999
 30
0.0
 11
234.0
 21
78.79025
 31
0.0
  0
LINE
  5
D6
330
1E
100
AcDbEntity
  8
0
100
AcDbLine
 10
233.4
 20
84.08224999999999
 30
0.0
 11
233.4
 21
89.45825000000001
 31
0.0
  0
LINE
  5
D7
330
1E
100
AcDbEntity
  8
0
100
AcDbLine
 10
233.4
 20
84.08224999999999
 30
0.0
 11
233.4
 21
78.70625
 31
0.0
  0
LINE
  5
D8
330
1E
100
AcDbEntity
  8
0
100
AcDbLine
 10
233.4
 20
105.0822499999999
 30
0.0
 11
234.0
 21
104.57825
 31
0.0
  0
LINE
  5
D9
330
1E
100
AcDbEntity
  8
0
100
AcDbLine
 10
233.4
 20
105.0822499999999
 30
0.0
 11
233.4
 21
104.3262499999999
 31
0.0
  0
LINE
  5
DA
330
1E
100
AcDbEntity
  8
0
100
AcDbLine
 10
204.4599999999999
 20
105.0822499999999
 30
0.0
 11
233.4
 21
105.0822499999999
 31
0.0
  0
LINE
  5
DB
330
1E
100
AcDbEntity
  8
0
100
AcDbLine
 10
137.0
 20
105.0822499999999
 30
0.0
 11
204.4599999999999
 21
105.0822499999999
 31
0.0
  0
LINE
  5
DC
330
1E
100
AcDbEntity
  8
0
100
AcDbLine
 10
54.46
 20
105.0822499999999
 30
0.0
 11
137.0
 21
105.0822499999999
 31
0.0
  0
LINE
  5
DD
330
1E
100
AcDbEntity
  8
0
100
AcDbLine
 10
10.70799999999999
 20
139.0822499999999
 30
0.0
 11
11.77
 21
139.0822499999999
 31
0.0
  0
LINE
  5
DE
330
1E
100
AcDbEntity
  8
0
100
AcDbLine
 10
11.77
 20
139.0822499999999
 30
0.0
 11
14.602
 21
139.0822499999999
 31
0.0
  0
LINE
  5
DF
330
1E
100
AcDbEntity
  8
0
100
AcDbLine
 10
14.602
 20
139.0822499999999
 30
0.0
 11
19.204
 21
139.0822499999999
 31
0.0
  0
LINE
  5
E0
330
1E
100
AcDbEntity
  8
0
100
AcDbLine
 10
19.204
 20
139.0822499999999
 30
0.0
 11
25.22199999999999
 21
139.0822499999999
 31
0.0
  0
LINE
  5
E1
330
1E
100
AcDbEntity
  8
0
100
AcDbLine
 10
19.204
 20
139.0822499999999
 30
0.0
 11
25.0
 21
139.0822499999999
 31
0.0
  0
LINE
  5
E2
330
1E
100
AcDbEntity
  8
0
100
AcDbLine
 10
25.22199999999999
 20
139.0822499999999
 30
0.0
 11
32.066
 21
139.0822499999999
 31
0.0
  0
LINE
  5
E3
330
1E
100
AcDbEntity
  8
0
100
AcDbLine
 10
25.0
 20
139.0822499999999
 30
0.0
 11
25.0
 21
105.0822499999999
 31
0.0
  0
LINE
  5
E4
330
1E
100
AcDbEntity
  8
0
100
AcDbLine
 10
25.0
 20
139.0822499999999
 30
0.0
 11
25.54
 21
139.0822499999999
 31
0.0
  0
LINE
  5
E5
330
1E
100
AcDbEntity
  8
0
100
AcDbLine
 10
25.54
 20
139.0822499999999
 30
0.0
 11
26.98
 21
139.0822499999999
 31
0.0
  0
LINE
  5
E6
330
1E
100
AcDbEntity
  8
0
100
AcDbLine
 10
32.066
 20
139.0822499999999
 30
0.0
 11
39.5
 21
139.0822499999999
 31
0.0
  0
LINE
  5
E7
330
1E
100
AcDbEntity
  8
0
100
AcDbLine
 10
26.98
 20
139.0822499999999
 30
0.0
 11
29.38
 21
139.0822499999999
 31
0.0
  0
LINE
  5
E8
330
1E
100
AcDbEntity
  8
0
100
AcDbLine
 10
29.38
 20
139.0822499999999
 30
0.0
 11
32.56
 21
139.0822499999999
 31
0.0
  0
LINE
  5
E9
330
1E
100
AcDbEntity
  8
0
100
AcDbLine
 10
39.5
 20
139.0822499999999
 30
0.0
 11
46.93399999999999
 21
139.0822499999999
 31
0.0
  0
LINE
  5
EA
330
1E
100
AcDbEntity
  8
0
100
AcDbLine
 10
32.56
 20
139.0822499999999
 30
0.0
 11
36.15999999999999
 21
139.0822499999999
 31
0.0
  0
LINE
  5
EB
330
1E
100
AcDbEntity
  8
0
100
AcDbLine
 10
36.15999999999999
 20
139.0822499999999
 30
0.0
 11
40.0
 21
139.0822499999999
 31
0.0
  0
LINE
  5
EC
330
1E
100
AcDbEntity
  8
0
100
AcDbLine
 10
46.93399999999999
 20
139.0822499999999
 30
0.0
 11
53.778
 21
139.0822499999999
 31
0.0
  0
LINE
  5
ED
330
1E
100
AcDbEntity
  8
0
100
AcDbLine
 10
53.778
 20
139.0822499999999
 30
0.0
 11
59.79600000000001
 21
139.0822499999999
 31
0.0
  0
LINE
  5
EE
330
1E
100
AcDbEntity
  8
0
100
AcDbLine
 10
54.46
 20
139.0822499999999
 30
0.0
 11
55.0
 21
139.0822499999999
 31
0.0
  0
LINE
  5
EF
330
1E
100
AcDbEntity
  8
0
100
AcDbLine
 10
53.02
 20
139.0822499999999
 30
0.0
 11
54.46
 21
139.0822499999999
 31
0.0
  0
LINE
  5
F0
330
1E
100
AcDbEntity
  8
0
100
AcDbLine
 10
50.62
 20
139.0822499999999
 30
0.0
 11
53.02
 21
139.0822499999999
 31
0.0
  0
LINE
  5
F1
330
1E
100
AcDbEntity
  8
0
100
AcDbLine
 10
47.43999999999999
 20
139.0822499999999
 30
0.0
 11
50.62
 21
139.0822499999999
 31
0.0
  0
LINE
  5
F2
330
1E
100
AcDbEntity
  8
0
100
AcDbLine
 10
43.84
 20
139.0822499999999
 30
0.0
 11
47.43999999999999
 21
139.0822499999999
 31
0.0
  0
LINE
  5
F3
330
1E
100
AcDbEntity
  8
0
100
AcDbLine
 10
10.0
 20
139.8022499999999
 30
0.0
 11
11.062
 21
139.8022499999999
 31
0.0
  0
LINE
  5
F4
330
1E
100
AcDbEntity
  8
0
100
AcDbLine
 10
10.0
 20
139.8022499999999
 30
0.0
 11
10.70799999999999
 21
139.0822499999999
 31
0.0
  0
LINE
  5
F5
330
1E
100
AcDbEntity
  8
0
100
AcDbLine
 10
10.0
 20
139.8022499999999
 30
0.0
 11
10.0
 21
163.0822499999999
 31
0.0
  0
LINE
  5
F6
330
1E
100
AcDbEntity
  8
0
100
AcDbLine
 10
11.062
 20
139.8022499999999
 30
0.0
 11
13.894
 21
139.8022499999999
 31
0.0
  0
LINE
  5
F7
330
1E
100
AcDbEntity
  8
0
100
AcDbLine
 10
13.894
 20
139.8022499999999
 30
0.0
 11
18.614
 21
139.8022499999999
 31
0.0
  0
LINE
  5
F8
330
1E
100
AcDbEntity
  8
0
100
AcDbLine
 10
18.614
 20
139.8022499999999
 30
0.0
 11
24.868
 21
139.8022499999999
 31
0.0
  0
LINE
  5
F9
330
1E
100
AcDbEntity
  8
0
100
AcDbLine
 10
24.868
 20
139.8022499999999
 30
0.0
 11
31.948
 21
139.8022499999999
 31
0.0
  0
LINE
  5
FA
330
1E
100
AcDbEntity
  8
0
100
AcDbLine
 10
31.948
 20
139.8022499999999
 30
0.0
 11
39.5
 21
139.8022499999999
 31
0.0
  0
LINE
  5
FB
330
1E
100
AcDbEntity
  8
0
100
AcDbLine
 10
10.0
 20
163.0822499999999
 30
0.0
 11
11.062
 21
163.0822499999999
 31
0.0
  0
LINE
  5
FC
330
1E
100
AcDbEntity
  8
0
100
AcDbLine
 10
10.0
 20
163.0822499999999
 30
0.0
 11
10.0
 21
139.8022499999999
 31
0.0
  0
LINE
  5
FD
330
1E
100
AcDbEntity
  8
0
100
AcDbLine
 10
11.062
 20
163.0822499999999
 30
0.0
 11
13.894
 21
163.0822499999999
 31
0.0
  0
LINE
  5
FE
330
1E
100
AcDbEntity
  8
0
100
AcDbLine
 10
13.894
 20
163.0822499999999
 30
0.0
 11
18.614
 21
163.0822499999999
 31
0.0
  0
LINE
  5
FF
330
1E
100
AcDbEntity
  8
0
100
AcDbLine
 10
18.614
 20
163.0822499999999
 30
0.0
 11
24.868
 21
163.0822499999999
 31
0.0
  0
LINE
  5
100
330
1E
100
AcDbEntity
  8
0
100
AcDbLine
 10
24.868
 20
163.0822499999999
 30
0.0
 11
31.948
 21
163.0822499999999
 31
0.0
  0
LINE
  5
101
330
1E
100
AcDbEntity
  8
0
100
AcDbLine
 10
31.948
 20
163.0822499999999
 30
0.0
 11
39.5
 21
163.0822499999999
 31
0.0
  0
LINE
  5
102
330
1E
100
AcDbEntity
  8
0
100
AcDbLine
 10
39.5
 20
139.8022499999999
 30
0.0
 11
47.052
 21
139.8022499999999
 31
0.0
  0
LINE
  5
103
330
1E
100
AcDbEntity
  8
0
100
AcDbLine
 10
54.13199999999999
 20
139.8022499999999
 30
0.0
 11
60.386
 21
139.8022499999999
 31
0.0
  0
LINE
  5
104
330
1E
100
AcDbEntity
  8
0
100
AcDbLine
 10
47.052
 20
139.8022499999999
 30
0.0
 11
54.13199999999999
 21
139.8022499999999
 31
0.0
  0
LINE
  5
105
330
1E
100
AcDbEntity
  8
0
100
AcDbLine
 10
54.13199999999999
 20
163.0822499999999
 30
0.0
 11
60.386
 21
163.0822499999999
 31
0.0
  0
LINE
  5
106
330
1E
100
AcDbEntity
  8
0
100
AcDbLine
 10
47.052
 20
163.0822499999999
 30
0.0
 11
54.13199999999999
 21
163.0822499999999
 31
0.0
  0
LINE
  5
107
330
1E
100
AcDbEntity
  8
0
100
AcDbLine
 10
39.5
 20
163.0822499999999
 30
0.0
 11
47.052
 21
163.0822499999999
 31
0.0
  0
LINE
  5
108
330
1E
100
AcDbEntity
  8
0
100
AcDbLine
 10
40.0
 20
139.0822499999999
 30
0.0
 11
43.84
 21
139.0822499999999
 31
0.0
  0
LINE
  5
109
330
1E
100
AcDbEntity
  8
0
100
AcDbLine
 10
160.708
 20
139.0822499999999
 30
0.0
 11
161.77
 21
139.0822499999999
 31
0.0
  0
LINE
  5
10A
330
1E
100
AcDbEntity
  8
0
100
AcDbLine
 10
161.77
 20
139.0822499999999
 30
0.0
 11
164.602
 21
139.0822499999999
 31
0.0
  0
LINE
  5
10B
330
1E
100
AcDbEntity
  8
0
100
AcDbLine
 10
164.602
 20
139.0822499999999
 30
0.0
 11
169.204
 21
139.0822499999999
 31
0.0
  0
LINE
  5
10C
330
1E
100
AcDbEntity
  8
0
100
AcDbLine
 10
169.204
 20
139.0822499999999
 30
0.0
 11
175.222
 21
139.0822499999999
 31
0.0
  0
LINE
  5
10D
330
1E
100
AcDbEntity
  8
0
100
AcDbLine
 10
169.204
 20
139.0822499999999
 30
0.0
 11
175.0
 21
139.0822499999999
 31
0.0
  0
LINE
  5
10E
330
1E
100
AcDbEntity
  8
0
100
AcDbLine
 10
175.222
 20
139.0822499999999
 30
0.0
 11
182.0659999999999
 21
139.0822499999999
 31
0.0
  0
LINE
  5
10F
330
1E
100
AcDbEntity
  8
0
100
AcDbLine
 10
175.0
 20
139.0822499999999
 30
0.0
 11
175.0
 21
105.0822499999999
 31
0.0
  0
LINE
  5
110
330
1E
100
AcDbEntity
  8
0
100
AcDbLine
 10
175.0
 20
139.0822499999999
 30
0.0
 11
175.5399999999999
 21
139.0822499999999
 31
0.0
  0
LINE
  5
111
330
1E
100
AcDbEntity
  8
0
100
AcDbLine
 10
175.5399999999999
 20
139.0822499999999
 30
0.0
 11
176.98
 21
139.0822499999999
 31
0.0
  0
LINE
  5
112
330
1E
100
AcDbEntity
  8
0
100
AcDbLine
 10
182.0659999999999
 20
139.0822499999999
 30
0.0
 11
189.4999999999999
 21
139.0822499999999
 31
0.0
  0
LINE
  5
113
330
1E
100
AcDbEntity
  8
0
100
AcDbLine
 10
176.98
 20
139.0822499999999
 30
0.0
 11
179.38
 21
139.0822499999999
 31
0.0
  0
LINE
  5
114
330
1E
100
AcDbEntity
  8
0
100
AcDbLine
 10
179.38
 20
139.0822499999999
 30
0.0
 11
182.56
 21
139.0822499999999
 31
0.0
  0
LINE
  5
115
330
1E
100
AcDbEntity
  8
0
100
AcDbLine
 10
189.4999999999999
 20
139.0822499999999
 30
0.0
 11
196.934
 21
139.0822499999999
 31
0.0
  0
LINE
  5
116
330
1E
100
AcDbEntity
  8
0
100
AcDbLine
 10
182.56
 20
139.0822499999999
 30
0.0
 11
186.1599999999999
 21
139.0822499999999
 31
0.0
  0
LINE
  5
117
330
1E
100
AcDbEntity
  8
0
100
AcDbLine
 10
186.1599999999999
 20
139.0822499999999
 30
0.0
 11
190.0
 21
139.0822499999999
 31
0.0
  0
LINE
  5
118
330
1E
100
AcDbEntity
  8
0
100
AcDbLine
 10
196.934
 20
139.0822499999999
 30
0.0
 11
203.778
 21
139.0822499999999
 31
0.0
  0
LINE
  5
119
330
1E
100
AcDbEntity
  8
0
100
AcDbLine
 10
203.778
 20
139.0822499999999
 30
0.0
 11
209.796
 21
139.0822499999999
 31
0.0
  0
LINE
  5
11A
330
1E
100
AcDbEntity
  8
0
100
AcDbLine
 10
204.4599999999999
 20
139.0822499999999
 30
0.0
 11
205.0
 21
139.0822499999999
 31
0.0
  0
LINE
  5
11B
330
1E
100
AcDbEntity
  8
0
100
AcDbLine
 10
203.02
 20
139.0822499999999
 30
0.0
 11
204.4599999999999
 21
139.0822499999999
 31
0.0
  0
LINE
  5
11C
330
1E
100
AcDbEntity
  8
0
100
AcDbLine
 10
200.62
 20
139.0822499999999
 30
0.0
 11
203.02
 21
139.0822499999999
 31
0.0
  0
LINE
  5
11D
330
1E
100
AcDbEntity
  8
0
100
AcDbLine
 10
197.4399999999999
 20
139.0822499999999
 30
0.0
 11
200.62
 21
139.0822499999999
 31
0.0
  0
LINE
  5
11E
330
1E
100
AcDbEntity
  8
0
100
AcDbLine
 10
193.84
 20
139.0822499999999
 30
0.0
 11
197.4399999999999
 21
139.0822499999999
 31
0.0
  0
LINE
  5
11F
330
1E
100
AcDbEntity
  8
0
100
AcDbLine
 10
190.0
 20
139.0822499999999
 30
0.0
 11
193.84
 21
139.0822499999999
 31
0.0
  0
LINE
  5
120
330
1E
100
AcDbEntity
  8
0
100
AcDbLine
 10
218.292
 20
139.0822499999999
 30
0.0
 11
219.0
 21
139.8022499999999
 31
0.0
  0
LINE
  5
121
330
1E
100
AcDbEntity
  8
0
100
AcDbLine
 10
217.2299999999999
 20
139.0822499999999
 30
0.0
 11
218.292
 21
139.0822499999999
 31
0.0
  0
LINE
  5
122
330
1E
100
AcDbEntity
  8
0
100
AcDbLine
 10
214.3979999999999
 20
139.0822499999999
 30
0.0
 11
217.2299999999999
 21
139.0822499999999
 31
0.0
  0
LINE
  5
123
330
1E
100
AcDbEntity
  8
0
100
AcDbLine
 10
209.796
 20
139.0822499999999
 30
0.0
 11
214.3979999999999
 21
139.0822499999999
 31
0.0
  0
LINE
  5
124
330
1E
100
AcDbEntity
  8
0
100
AcDbLine
 10
205.0
 20
139.0822499999999
 30
0.0
 11
205.0
 21
105.0822499999999
 31
0.0
  0
LINE
  5
125
330
1E
100
AcDbEntity
  8
0
100
AcDbLine
 10
205.0
 20
139.0822499999999
 30
0.0
 11
209.796
 21
139.0822499999999
 31
0.0
  0
LINE
  5
126
330
1E
100
AcDbEntity
  8
0
100
AcDbLine
 10
68.292
 20
139.0822499999999
 30
0.0
 11
69.0
 21
139.8022499999999
 31
0.0
  0
LINE
  5
127
330
1E
100
AcDbEntity
  8
0
100
AcDbLine
 10
67.23
 20
139.0822499999999
 30
0.0
 11
68.292
 21
139.0822499999999
 31
0.0
  0
LINE
  5
128
330
1E
100
AcDbEntity
  8
0
100
AcDbLine
 10
60.386
 20
139.8022499999999
 30
0.0
 11
65.10600000000001
 21
139.8022499999999
 31
0.0
  0
LINE
  5
129
330
1E
100
AcDbEntity
  8
0
100
AcDbLine
 10
67.938
 20
139.8022499999999
 30
0.0
 11
69.0
 21
139.8022499999999
 31
0.0
  0
LINE
  5
12A
330
1E
100
AcDbEntity
  8
0
100
AcDbLine
 10
65.10600000000001
 20
139.8022499999999
 30
0.0
 11
67.938
 21
139.8022499999999
 31
0.0
  0
LINE
  5
12B
330
1E
100
AcDbEntity
  8
0
100
AcDbLine
 10
160.0
 20
139.8022499999999
 30
0.0
 11
161.062
 21
139.8022499999999
 31
0.0
  0
LINE
  5
12C
330
1E
100
AcDbEntity
  8
0
100
AcDbLine
 10
160.0
 20
139.8022499999999
 30
0.0
 11
160.708
 21
139.0822499999999
 31
0.0
  0
LINE
  5
12D
330
1E
100
AcDbEntity
  8
0
100
AcDbLine
 10
160.0
 20
139.8022499999999
 30
0.0
 11
160.0
 21
163.0822499999999
 31
0.0
  0
LINE
  5
12E
330
1E
100
AcDbEntity
  8
0
100
AcDbLine
 10
161.062
 20
139.8022499999999
 30
0.0
 11
163.894
 21
139.8022499999999
 31
0.0
  0
LINE
  5
12F
330
1E
100
AcDbEntity
  8
0
100
AcDbLine
 10
163.894
 20
139.8022499999999
 30
0.0
 11
168.6139999999999
 21
139.8022499999999
 31
0.0
  0
LINE
  5
130
330
1E
100
AcDbEntity
  8
0
100
AcDbLine
 10
168.6139999999999
 20
139.8022499999999
 30
0.0
 11
174.868
 21
139.8022499999999
 31
0.0
  0
LINE
  5
131
330
1E
100
AcDbEntity
  8
0
100
AcDbLine
 10
174.868
 20
139.8022499999999
 30
0.0
 11
181.9479999999999
 21
139.8022499999999
 31
0.0
  0
LINE
  5
132
330
1E
100
AcDbEntity
  8
0
100
AcDbLine
 10
181.9479999999999
 20
139.8022499999999
 30
0.0
 11
189.4999999999999
 21
139.8022499999999
 31
0.0
  0
LINE
  5
133
330
1E
100
AcDbEntity
  8
0
100
AcDbLine
 10
217.938
 20
139.8022499999999
 30
0.0
 11
219.0
 21
139.8022499999999
 31
0.0
  0
LINE
  5
134
330
1E
100
AcDbEntity
  8
0
100
AcDbLine
 10
219.0
 20
139.8022499999999
 30
0.0
 11
219.0
 21
163.0822499999999
 31
0.0
  0
LINE
  5
135
330
1E
100
AcDbEntity
  8
0
100
AcDbLine
 10
215.106
 20
139.8022499999999
 30
0.0
 11
217.938
 21
139.8022499999999
 31
0.0
  0
LINE
  5
136
330
1E
100
AcDbEntity
  8
0
100
AcDbLine
 10
210.386
 20
139.8022499999999
 30
0.0
 11
215.106
 21
139.8022499999999
 31
0.0
  0
LINE
  5
137
330
1E
100
AcDbEntity
  8
0
100
AcDbLine
 10
204.132
 20
139.8022499999999
 30
0.0
 11
210.386
 21
139.8022499999999
 31
0.0
  0
LINE
  5
138
330
1E
100
AcDbEntity
  8
0
100
AcDbLine
 10
197.052
 20
139.8022499999999
 30
0.0
 11
204.132
 21
139.8022499999999
 31
0.0
  0
LINE
  5
139
330
1E
100
AcDbEntity
  8
0
100
AcDbLine
 10
189.4999999999999
 20
139.8022499999999
 30
0.0
 11
197.052
 21
139.8022499999999
 31
0.0
  0
LINE
  5
13A
330
1E
100
AcDbEntity
  8
0
100
AcDbLine
 10
160.0
 20
163.0822499999999
 30
0.0
 11
161.062
 21
163.0822499999999
 31
0.0
  0
LINE
  5
13B
330
1E
100
AcDbEntity
  8
0
100
AcDbLine
 10
160.0
 20
163.0822499999999
 30
0.0
 11
160.0
 21
139.8022499999999
 31
0.0
  0
LINE
  5
13C
330
1E
100
AcDbEntity
  8
0
100
AcDbLine
 10
161.062
 20
163.0822499999999
 30
0.0
 11
163.894
 21
163.0822499999999
 31
0.0
  0
LINE
  5
13D
330
1E
100
AcDbEntity
  8
0
100
AcDbLine
 10
163.894
 20
163.0822499999999
 30
0.0
 11
168.6139999999999
 21
163.0822499999999
 31
0.0
  0
LINE
  5
13E
330
1E
100
AcDbEntity
  8
0
100
AcDbLine
 10
168.6139999999999
 20
163.0822499999999
 30
0.0
 11
174.868
 21
163.0822499999999
 31
0.0
  0
LINE
  5
13F
330
1E
100
AcDbEntity
  8
0
100
AcDbLine
 10
174.868
 20
163.0822499999999
 30
0.0
 11
181.9479999999999
 21
163.0822499999999
 31
0.0
  0
LINE
  5
140
330
1E
100
AcDbEntity
  8
0
100
AcDbLine
 10
181.9479999999999
 20
163.0822499999999
 30
0.0
 11
189.4999999999999
 21
163.0822499999999
 31
0.0
  0
LINE
  5
141
330
1E
100
AcDbEntity
  8
0
100
AcDbLine
 10
217.938
 20
163.0822499999999
 30
0.0
 11
219.0
 21
163.0822499999999
 31
0.0
  0
LINE
  5
142
330
1E
100
AcDbEntity
  8
0
100
AcDbLine
 10
215.106
 20
163.0822499999999
 30
0.0
 11
217.938
 21
163.0822499999999
 31
0.0
  0
LINE
  5
143
330
1E
100
AcDbEntity
  8
0
100
AcDbLine
 10
210.386
 20
163.0822499999999
 30
0.0
 11
215.106
 21
163.0822499999999
 31
0.0
  0
LINE
  5
144
330
1E
100
AcDbEntity
  8
0
100
AcDbLine
 10
204.132
 20
163.0822499999999
 30
0.0
 11
210.386
 21
163.0822499999999
 31
0.0
  0
LINE
  5
145
330
1E
100
AcDbEntity
  8
0
100
AcDbLine
 10
197.052
 20
163.0822499999999
 30
0.0
 11
204.132
 21
163.0822499999999
 31
0.0
  0
LINE
  5
146
330
1E
100
AcDbEntity
  8
0
100
AcDbLine
 10
189.4999999999999
 20
163.0822499999999
 30
0.0
 11
197.052
 21
163.0822499999999
 31
0.0
  0
LINE
  5
147
330
1E
100
AcDbEntity
  8
0
100
AcDbLine
 10
219.0
 20
163.0822499999999
 30
0.0
 11
219.0
 21
139.8022499999999
 31
0.0
  0
LINE
  5
148
330
1E
100
AcDbEntity
  8
0
100
AcDbLine
 10
69.0
 20
139.8022499999999
 30
0.0
 11
69.0
 21
163.0822499999999
 31
0.0
  0
LINE
  5
149
330
1E
100
AcDbEntity
  8
0
100
AcDbLine
 10
67.938
 20
163.0822499999999
 30
0.0
 11
69.0
 21
163.0822499999999
 31
0.0
  0
LINE
  5
14A
330
1E
100
AcDbEntity
  8
0
100
AcDbLine
 10
65.10600000000001
 20
163.0822499999999
 30
0.0
 11
67.938
 21
163.0822499999999
 31
0.0
  0
LINE
  5
14B
330
1E
100
AcDbEntity
  8
0
100
AcDbLine
 10
60.386
 20
163.0822499999999
 30
0.0
 11
65.10600000000001
 21
163.0822499999999
 31
0.0
  0
LINE
  5
14C
330
1E
100
AcDbEntity
  8
0
100
AcDbLine
 10
64.39799999999999
 20
139.0822499999999
 30
0.0
 11
67.23
 21
139.0822499999999
 31
0.0
  0
LINE
  5
14D
330
1E
100
AcDbEntity
  8
0
100
AcDbLine
 10
59.79600000000001
 20
139.0822499999999
 30
0.0
 11
64.39799999999999
 21
139.0822499999999
 31
0.0
  0
LINE
  5
14E
330
1E
100
AcDbEntity
  8
0
100
AcDbLine
 10
69.0
 20
163.0822499999999
 30
0.0
 11
69.0
 21
139.8022499999999
 31
0.0
  0
LINE
  5
14F
330
1E
100
AcDbEntity
  8
0
100
AcDbLine
 10
55.0
 20
139.0822499999999
 30
0.0
 11
55.0
 21
105.0822499999999
 31
0.0
  0
LINE
  5
150
330
1E
100
AcDbEntity
  8
0
100
AcDbLine
 10
55.0
 20
139.0822499999999
 30
0.0
 11
59.79600000000001
 21
139.0822499999999
 31
0.0
  0
LINE
  5
151
330
1E
100
AcDbEntity
  8
0
100
AcDbLine
 10
54.46
 20
105.0822499999999
 30
0.0
 11
137.0
 21
105.0822499999999
 31
0.0
  0
LINE
  5
152
330
1E
100
AcDbEntity
  8
0
100
AcDbLine
 10
0.600000000000004
 20
63.08225
 30
0.0
 11
137.0
 21
63.08225
 31
0.0
  0
ENDSEC
  0
SECTION
  2
OBJECTS
  0
DICTIONARY
  5
C
330
0
100
AcDbDictionary
281
     1
  3
ACAD_GROUP
350
D
  3
ACAD_LAYOUT
350
19
  3
ACAD_MLINESTYLE
350
16
  3
ACAD_PLOTSETTINGS
350
18
  3
ACAD_PLOTSTYLENAME
350
E
  3
AcDbVariableDictionary
350
157
  0
DICTIONARY
  5
D
102
{ACAD_REACTORS
330
C
102
}
330
C
100
AcDbDictionary
281
     1
  0
DICTIONARY
  5
19
102
{ACAD_REACTORS
330
C
102
}
330
C
100
AcDbDictionary
281
     1
  3
Layout1
350
1D
  3
Model
350
21
  0
DICTIONARY
  5
16
102
{ACAD_REACTORS
330
C
102
}
330
C
100
AcDbDictionary
281
     1
  3
Standard
350
17
  0
DICTIONARY
  5
18
102
{ACAD_REACTORS
330
C
102
}
330
C
100
AcDbDictionary
281
     1
  0
ACDBDICTIONARYWDFLT
  5
E
102
{ACAD_REACTORS
330
C
102
}
330
C
100
AcDbDictionary
281
     1
  3
Normal
350
F
100
AcDbDictionaryWithDefault
340
F
  0
DICTIONARY
  5
157
102
{ACAD_REACTORS
330
C
102
}
330
C
100
AcDbDictionary
281
     1
  3
DIMASSOC
350
158
  0
LAYOUT
  5
1D
102
{ACAD_REACTORS
330
19
102
}
330
19
100
AcDbPlotSettings
  1

  2
hp deskjet 980c series
  4

  6

 40
0.0
 41
0.0
 42
0.0
 43
0.0
 44
0.0
 45
0.0
 46
0.0
 47
0.0
 48
0.0
 49
0.0
140
0.0
141
0.0
142
1.0
143
1.0
 70
   688
 72
     0
 73
     0
 74
     5
  7

 75
    16
147
1.0
148
0.0
149
0.0
100
AcDbLayout
  1
Layout1
 70
     1
 71
     1
 10
0.0
 20
0.0
 11
12.0
 21
9.0
 12
0.0
 22
0.0
 32
0.0
 14
1.000000000000000E+20
 24
1.000000000000000E+20
 34
1.000000000000000E+20
 15
-1.000000000000000E+20
 25
-1.000000000000000E+20
 35
-1.000000000000000E+20
146
0.0
 13
0.0
 23
0.0
 33
0.0
 16
1.0
 26
0.0
 36
0.0
 17
0.0
 27
1.0
 37
0.0
 76
     0
330
1A
  0
LAYOUT
  5
21
102
{ACAD_REACTORS
330
19
102
}
330
19
100
AcDbPlotSettings
  1

  2
hp deskjet 980c series
  4

  6

 40
0.0
 41
0.0
 42
0.0
 43
0.0
 44
0.0
 45
0.0
 46
0.0
 47
0.0
 48
0.0
 49
0.0
140
0.0
141
0.0
142
1.0
143
1.0
 70
  1712
 72
     0
 73
     0
 74
     0
  7

 75
     0
147
1.0
148
0.0
149
0.0
100
AcDbLayout
  1
Model
 70
     1
 71
     0
 10
0.0
 20
0.0
 11
12.0
 21
9.0
 12
0.0
 22
0.0
 32
0.0
 14
0.0
 24
0.0
 34
0.0
 15
0.0
 25
0.0
 35
0.0
146
0.0
 13
0.0
 23
0.0
 33
0.0
 16
1.0
 26
0.0
 36
0.0
 17
0.0
 27
1.0
 37
0.0
 76
     0
330
1E
  0
MLINESTYLE
  5
17
102
{ACAD_REACTORS
330
16
102
}
330
16
100
AcDbMlineStyle
  2
STANDARD
 70
     0
  3

 62
   256
 51
90.0
 52
90.0
 71
     2
 49
0.5
 62
   256
  6
BYLAYER
 49
-0.5
 62
   256
  6
BYLAYER
  0
ACDBPLACEHOLDER
  5
F
102
{ACAD_REACTORS
330
E
102
}
330
E
  0
DICTIONARYVAR
  5
158
102
{ACAD_REACTORS
330
157
102
}
330
157
100
DictionaryVariables
280
     0
  1
1
  0
ENDSEC
  0
EOF
