  0
SECTION
  2
HEADER
  9
$ACADVER
  1
AC1014
  9
$ACADMAINTVER
 70
     9
  9
$DWGCODEPAGE
  3
ANSI_1252
  9
$INSBASE
 10
0.0
 20
0.0
 30
0.0
  9
$EXTMIN
 10
-0.0000000000000051
 20
0.171749580624618
 30
0.0
  9
$EXTMAX
 10
265.0
 20
131.828250419375
 30
0.0
  9
$LIMMIN
 10
0.0
 20
0.0
  9
$LIMMAX
 10
12.0
 20
9.0
  9
$ORTHOMODE
 70
     0
  9
$REGENMODE
 70
     1
  9
$FILLMODE
 70
     1
  9
$QTEXTMODE
 70
     0
  9
$MIRRTEXT
 70
     1
  9
$DRAGMODE
 70
     2
  9
$LTSCALE
 40
1.0
  9
$OSMODE
 70
    37
  9
$ATTMODE
 70
     1
  9
$TEXTSIZE
 40
0.2
  9
$TRACEWID
 40
0.05
  9
$TEXTSTYLE
  7
STANDARD
  9
$CLAYER
  8
0
  9
$CELTYPE
  6
CONTINUOUS
  9
$CECOLOR
 62
   256
  9
$CELTSCALE
 40
1.0
  9
$DELOBJ
 70
     1
  9
$DISPSILH
 70
     0
  9
$DIMSCALE
 40
1.0
  9
$DIMASZ
 40
0.18
  9
$DIMEXO
 40
0.0625
  9
$DIMDLI
 40
0.38
  9
$DIMRND
 40
0.0
  9
$DIMDLE
 40
0.0
  9
$DIMEXE
 40
0.18
  9
$DIMTP
 40
0.0
  9
$DIMTM
 40
0.0
  9
$DIMTXT
 40
0.18
  9
$DIMCEN
 40
0.09
  9
$DIMTSZ
 40
0.0
  9
$DIMTOL
 70
     0
  9
$DIMLIM
 70
     0
  9
$DIMTIH
 70
     1
  9
$DIMTOH
 70
     1
  9
$DIMSE1
 70
     0
  9
$DIMSE2
 70
     0
  9
$DIMTAD
 70
     0
  9
$DIMZIN
 70
     0
  9
$DIMBLK
  1

  9
$DIMASO
 70
     1
  9
$DIMSHO
 70
     1
  9
$DIMPOST
  1

  9
$DIMAPOST
  1

  9
$DIMALT
 70
     0
  9
$DIMALTD
 70
     2
  9
$DIMALTF
 40
25.4
  9
$DIMLFAC
 40
1.0
  9
$DIMTOFL
 70
     0
  9
$DIMTVP
 40
0.0
  9
$DIMTIX
 70
     0
  9
$DIMSOXD
 70
     0
  9
$DIMSAH
 70
     0
  9
$DIMBLK1
  1

  9
$DIMBLK2
  1

  9
$DIMSTYLE
  2
STANDARD
  9
$DIMCLRD
 70
     0
  9
$DIMCLRE
 70
     0
  9
$DIMCLRT
 70
     0
  9
$DIMTFAC
 40
1.0
  9
$DIMGAP
 40
0.09
  9
$DIMJUST
 70
     0
  9
$DIMSD1
 70
     0
  9
$DIMSD2
 70
     0
  9
$DIMTOLJ
 70
     1
  9
$DIMTZIN
 70
     0
  9
$DIMALTZ
 70
     0
  9
$DIMALTTZ
 70
     0
  9
$DIMFIT
 70
     3
  9
$DIMUPT
 70
     0
  9
$DIMUNIT
 70
     2
  9
$DIMDEC
 70
     4
  9
$DIMTDEC
 70
     4
  9
$DIMALTU
 70
     2
  9
$DIMALTTD
 70
     2
  9
$DIMTXSTY
  7
STANDARD
  9
$DIMAUNIT
 70
     0
  9
$LUNITS
 70
     2
  9
$LUPREC
 70
     4
  9
$SKETCHINC
 40
0.1
  9
$FILLETRAD
 40
0.0
  9
$AUNITS
 70
     0
  9
$AUPREC
 70
     0
  9
$MENU
  1
.
  9
$ELEVATION
 40
0.0
  9
$PELEVATION
 40
0.0
  9
$THICKNESS
 40
0.0
  9
$LIMCHECK
 70
     0
  9
$BLIPMODE
 70
     0
  9
$CHAMFERA
 40
0.0
  9
$CHAMFERB
 40
0.0
  9
$CHAMFERC
 40
0.0
  9
$CHAMFERD
 40
0.0
  9
$SKPOLY
 70
     0
  9
$TDCREATE
 40
2454690.805811446
  9
$TDUPDATE
 40
2454690.813102928
  9
$TDINDWG
 40
0.0072914815
  9
$TDUSRTIMER
 40
0.0072914815
  9
$USRTIMER
 70
     1
  9
$ANGBASE
 50
0.0
  9
$ANGDIR
 70
     0
  9
$PDMODE
 70
     0
  9
$PDSIZE
 40
0.0
  9
$PLINEWID
 40
0.0
  9
$COORDS
 70
     1
  9
$SPLFRAME
 70
     0
  9
$SPLINETYPE
 70
     6
  9
$SPLINESEGS
 70
     8
  9
$ATTDIA
 70
     0
  9
$ATTREQ
 70
     1
  9
$HANDLING
 70
 22529
  9
$HANDSEED
  5
11C
  9
$SURFTAB1
 70
     6
  9
$SURFTAB2
 70
     6
  9
$SURFTYPE
 70
     6
  9
$SURFU
 70
     6
  9
$SURFV
 70
     6
  9
$UCSNAME
  2

  9
$UCSORG
 10
0.0
 20
0.0
 30
0.0
  9
$UCSXDIR
 10
1.0
 20
0.0
 30
0.0
  9
$UCSYDIR
 10
0.0
 20
1.0
 30
0.0
  9
$PUCSNAME
  2

  9
$PUCSORG
 10
0.0
 20
0.0
 30
0.0
  9
$PUCSXDIR
 10
1.0
 20
0.0
 30
0.0
  9
$PUCSYDIR
 10
0.0
 20
1.0
 30
0.0
  9
$USERI1
 70
     0
  9
$USERI2
 70
     0
  9
$USERI3
 70
     0
  9
$USERI4
 70
     0
  9
$USERI5
 70
     0
  9
$USERR1
 40
0.0
  9
$USERR2
 40
0.0
  9
$USERR3
 40
0.0
  9
$USERR4
 40
0.0
  9
$USERR5
 40
0.0
  9
$WORLDVIEW
 70
     1
  9
$SHADEDGE
 70
     3
  9
$SHADEDIF
 70
    70
  9
$TILEMODE
 70
     1
  9
$MAXACTVP
 70
    64
  9
$PINSBASE
 10
0.0
 20
0.0
 30
0.0
  9
$PLIMCHECK
 70
     0
  9
$PEXTMIN
 10
1.000000000000000E+20
 20
1.000000000000000E+20
 30
1.000000000000000E+20
  9
$PEXTMAX
 10
-1.000000000000000E+20
 20
-1.000000000000000E+20
 30
-1.000000000000000E+20
  9
$PLIMMIN
 10
0.0
 20
0.0
  9
$PLIMMAX
 10
12.0
 20
9.0
  9
$UNITMODE
 70
     0
  9
$VISRETAIN
 70
     1
  9
$PLINEGEN
 70
     0
  9
$PSLTSCALE
 70
     1
  9
$TREEDEPTH
 70
  3020
  9
$PICKSTYLE
 70
     1
  9
$CMLSTYLE
  2
STANDARD
  9
$CMLJUST
 70
     0
  9
$CMLSCALE
 40
1.0
  9
$PROXYGRAPHICS
 70
     1
  9
$MEASUREMENT
 70
     0
  0
ENDSEC
  0
SECTION
  2
CLASSES
  0
CLASS
  1
ACDBDICTIONARYWDFLT
  2
AcDbDictionaryWithDefault
  3
AutoCAD 2000
 90
        0
280
     0
281
     0
  0
CLASS
  1
ACDBPLACEHOLDER
  2
AcDbPlaceHolder
  3
AutoCAD 2000
 90
        0
280
     0
281
     0
  0
CLASS
  1
LAYOUT
  2
AcDbLayout
  3
AutoCAD 2000
 90
        0
280
     0
281
     0
  0
CLASS
  1
DICTIONARYVAR
  2
AcDbDictionaryVar
  3
AutoCAD 2000
 90
        0
280
     0
281
     0
  0
CLASS
  1
LONG_TRANSACTION
  2
AcDbLongTransaction
  3
AutoCAD 2000
 90
        0
280
     0
281
     0
  0
CLASS
  1
LWPOLYLINE
  2
AcDbPolyline
  3
AutoCAD 2000
 90
        0
280
     0
281
     1
  0
CLASS
  1
HATCH
  2
AcDbHatch
  3
AutoCAD 2000
 90
        0
280
     0
281
     1
  0
CLASS
  1
XRECORD
  2
AcDbXrecord
  3
AutoCAD 2000
 90
        0
280
     0
281
     0
  0
ENDSEC
  0
SECTION
  2
TABLES
  0
TABLE
  2
VPORT
  5
8
330
0
100
AcDbSymbolTable
 70
     2
  0
VPORT
  5
F7
330
8
100
AcDbSymbolTableRecord
100
AcDbViewportTableRecord
  2
*ACTIVE
 70
     0
 10
0.0
 20
0.0
 11
1.0
 21
1.0
 12
132.4999999999999
 22
65.99999999999981
 13
0.0
 23
0.0
 14
1.0
 24
1.0
 15
0.0
 25
0.0
 16
0.0
 26
0.0
 36
1.0
 17
0.0
 27
0.0
 37
0.0
 40
132.6666530190988
 41
2.043533930857874
 42
50.0
 43
0.0
 44
0.0
 50
0.0
 51
0.0
 71
     0
 72
   100
 73
     1
 74
     3
 75
     0
 76
     0
 77
     0
 78
     0
  0
ENDTAB
  0
TABLE
  2
LTYPE
  5
5
330
0
100
AcDbSymbolTable
 70
     1
  0
LTYPE
  5
13
330
5
100
AcDbSymbolTableRecord
100
AcDbLinetypeTableRecord
  2
BYBLOCK
 70
     0
  3

 72
    65
 73
     0
 40
0.0
  0
LTYPE
  5
14
330
5
100
AcDbSymbolTableRecord
100
AcDbLinetypeTableRecord
  2
BYLAYER
 70
     0
  3

 72
    65
 73
     0
 40
0.0
  0
LTYPE
  5
15
330
5
100
AcDbSymbolTableRecord
100
AcDbLinetypeTableRecord
  2
CONTINUOUS
 70
     0
  3
Solid line
 72
    65
 73
     0
 40
0.0
  0
ENDTAB
  0
TABLE
  2
LAYER
  5
2
330
0
100
AcDbSymbolTable
 70
     1
  0
LAYER
  5
10
330
2
100
AcDbSymbolTableRecord
100
AcDbLayerTableRecord
  2
0
 70
     0
 62
     7
  6
CONTINUOUS
  0
ENDTAB
  0
TABLE
  2
STYLE
  5
3
330
0
100
AcDbSymbolTable
 70
     1
  0
STYLE
  5
11
330
3
100
AcDbSymbolTableRecord
100
AcDbTextStyleTableRecord
  2
STANDARD
 70
     0
 40
0.0
 41
1.0
 50
0.0
 71
     0
 42
0.2
  3
txt
  4

  0
ENDTAB
  0
TABLE
  2
VIEW
  5
6
330
0
100
AcDbSymbolTable
 70
     0
  0
ENDTAB
  0
TABLE
  2
UCS
  5
7
330
0
100
AcDbSymbolTable
 70
     0
  0
ENDTAB
  0
TABLE
  2
APPID
  5
9
330
0
100
AcDbSymbolTable
 70
     1
  0
APPID
  5
12
330
9
100
AcDbSymbolTableRecord
100
AcDbRegAppTableRecord
  2
ACAD
 70
     0
  0
ENDTAB
  0
TABLE
  2
DIMSTYLE
  5
A
330
0
100
AcDbSymbolTable
 70
     1
  0
DIMSTYLE
105
F1
330
A
100
AcDbSymbolTableRecord
100
AcDbDimStyleTableRecord
  2
STANDARD
 70
     0
  3

  4

  5

  6

  7

 40
1.0
 41
0.18
 42
0.0625
 43
0.38
 44
0.18
 45
0.0
 46
0.0
 47
0.0
 48
0.0
140
0.18
141
0.09
142
0.0
143
25.4
144
1.0
145
0.0
146
1.0
147
0.09
 71
     0
 72
     0
 73
     1
 74
     1
 75
     0
 76
     0
 77
     0
 78
     0
170
     0
171
     2
172
     0
173
     0
174
     0
175
     0
176
     0
177
     0
178
     0
270
     2
271
     4
272
     4
273
     2
274
     2
340
11
275
     0
280
     0
281
     0
282
     0
283
     1
284
     0
285
     0
286
     0
287
     3
288
     0
  0
ENDTAB
  0
TABLE
  2
BLOCK_RECORD
  5
1
330
0
100
AcDbSymbolTable
 70
     0
  0
BLOCK_RECORD
  5
1E
102
{ACAD_XDICTIONARY
360
11A
102
}
330
1
100
AcDbSymbolTableRecord
100
AcDbBlockTableRecord
  2
*MODEL_SPACE
  0
BLOCK_RECORD
  5
1A
102
{ACAD_XDICTIONARY
360
118
102
}
330
1
100
AcDbSymbolTableRecord
100
AcDbBlockTableRecord
  2
*PAPER_SPACE
  0
ENDTAB
  0
ENDSEC
  0
SECTION
  2
BLOCKS
  0
BLOCK
  5
1F
330
1E
100
AcDbEntity
  8
0
100
AcDbBlockBegin
  2
*MODEL_SPACE
 70
     0
 10
0.0
 20
0.0
 30
0.0
  3
*MODEL_SPACE
  1

  0
ENDBLK
  5
20
330
1E
100
AcDbEntity
  8
0
100
AcDbBlockEnd
  0
BLOCK
  5
1B
330
1A
100
AcDbEntity
 67
     1
  8
0
100
AcDbBlockBegin
  2
*PAPER_SPACE
 70
     0
 10
0.0
 20
0.0
 30
0.0
  3
*PAPER_SPACE
  1

  0
ENDBLK
  5
1C
330
1A
100
AcDbEntity
 67
     1
  8
0
100
AcDbBlockEnd
  0
ENDSEC
  0
SECTION
  2
ENTITIES
  0
LINE
  5
22
330
1E
100
AcDbEntity
  8
0
100
AcDbLine
 10
132.5148539
 20
0.171749580624618
 30
0.0
 11
137.8500399999999
 21
0.7008698255259849
 31
0.0
  0
LINE
  5
23
330
1E
100
AcDbEntity
  8
0
100
AcDbLine
 10
132.5148539
 20
0.171749580624618
 30
0.0
 11
137.8500399999999
 21
0.7008698255259849
 31
0.0
  0
LINE
  5
24
330
1E
100
AcDbEntity
  8
0
100
AcDbLine
 10
127.13488
 20
0.7083103421228811
 30
0.0
 11
132.5148539
 21
0.171749580624618
 31
0.0
  0
LINE
  5
25
330
1E
100
AcDbEntity
  8
0
100
AcDbLine
 10
127.13488
 20
0.7083103421228811
 30
0.0
 11
132.5148539
 21
0.171749580624618
 31
0.0
  0
LINE
  5
26
330
1E
100
AcDbEntity
  8
0
100
AcDbLine
 10
137.8500399999999
 20
0.7008698255259849
 30
0.0
 11
142.392
 21
2.215129953504529
 31
0.0
  0
LINE
  5
27
330
1E
100
AcDbEntity
  8
0
100
AcDbLine
 10
137.8500399999999
 20
0.7008698255259849
 30
0.0
 11
142.392
 21
2.215129953504529
 31
0.0
  0
LINE
  5
28
330
1E
100
AcDbEntity
  8
0
100
AcDbLine
 10
118.4925999999999
 20
7.18147976103499
 30
0.0
 11
118.5
 21
15.2647830052633
 31
0.0
  0
LINE
  5
29
330
1E
100
AcDbEntity
  8
0
100
AcDbLine
 10
118.4925999999999
 20
7.18147976103499
 30
0.0
 11
119.5581999999999
 21
4.5019446494412
 31
0.0
  0
LINE
  5
2A
330
1E
100
AcDbEntity
  8
0
100
AcDbLine
 10
119.5581999999999
 20
4.5019446494412
 30
0.0
 11
122.59298
 21
2.22886833587643
 31
0.0
  0
LINE
  5
2B
330
1E
100
AcDbEntity
  8
0
100
AcDbLine
 10
122.59298
 20
2.22886833587643
 30
0.0
 11
127.13488
 21
0.7083103421228811
 31
0.0
  0
LINE
  5
2C
330
1E
100
AcDbEntity
  8
0
100
AcDbLine
 10
122.59298
 20
2.22886833587643
 30
0.0
 11
127.13488
 21
0.7083103421228811
 31
0.0
  0
LINE
  5
2D
330
1E
100
AcDbEntity
  8
0
100
AcDbLine
 10
127.14232
 20
8.791579198698981
 30
0.0
 11
132.5222872999999
 21
8.255016522406599
 31
0.0
  0
LINE
  5
2E
330
1E
100
AcDbEntity
  8
0
100
AcDbLine
 10
132.5222872999999
 20
8.255016522406599
 30
0.0
 11
137.85748
 21
8.784187045003349
 31
0.0
  0
LINE
  5
2F
330
1E
100
AcDbEntity
  8
0
100
AcDbLine
 10
137.85748
 20
8.784187045003349
 30
0.0
 11
142.3994299999999
 21
10.298432193644
 31
0.0
  0
LINE
  5
30
330
1E
100
AcDbEntity
  8
0
100
AcDbLine
 10
142.392
 20
2.215129953504529
 30
0.0
 11
145.4268999999999
 21
4.484001473068599
 31
0.0
  0
LINE
  5
31
330
1E
100
AcDbEntity
  8
0
100
AcDbLine
 10
145.4268999999999
 20
4.484001473068599
 30
0.0
 11
146.4926
 21
7.167665176883519
 31
0.0
  0
LINE
  5
33
330
1E
100
AcDbEntity
  8
0
100
AcDbLine
 10
18.5
 20
109.80236980141
 30
0.0
 11
18.5
 21
67.8023831182724
 31
0.0
  0
LINE
  5
34
330
1E
100
AcDbEntity
  8
0
100
AcDbLine
 10
18.5
 20
109.80236980141
 30
0.0
 11
19.5657
 21
109.806636185335
 31
0.0
  0
LINE
  5
35
330
1E
100
AcDbEntity
  8
0
100
AcDbLine
 10
22.6005
 20
67.8102663544124
 30
0.0
 11
27.14244
 21
67.8126830467141
 31
0.0
  0
LINE
  5
36
330
1E
100
AcDbEntity
  8
0
100
AcDbLine
 10
19.5657
 20
67.8066495021984
 30
0.0
 11
22.6005
 21
67.8102663544124
 31
0.0
  0
LINE
  5
37
330
1E
100
AcDbEntity
  8
0
100
AcDbLine
 10
18.5
 20
67.8023831182724
 30
0.0
 11
19.5657
 21
67.79811673408059
 31
0.0
  0
LINE
  5
38
330
1E
100
AcDbEntity
  8
0
100
AcDbLine
 10
18.5
 20
67.8023831182724
 30
0.0
 11
18.5
 21
109.80236980141
 31
0.0
  0
LINE
  5
39
330
1E
100
AcDbEntity
  8
0
100
AcDbLine
 10
18.5
 20
67.8023831182724
 30
0.0
 11
19.5657
 21
67.8066495021984
 31
0.0
  0
LINE
  5
3A
330
1E
100
AcDbEntity
  8
0
100
AcDbLine
 10
19.5657
 20
67.79811673408059
 30
0.0
 11
22.6005
 21
67.7944998818666
 31
0.0
  0
LINE
  5
3B
330
1E
100
AcDbEntity
  8
0
100
AcDbLine
 10
27.14244
 20
67.8126830467141
 30
0.0
 11
32.5
 21
67.81353169208969
 31
0.0
  0
LINE
  5
3C
330
1E
100
AcDbEntity
  8
0
100
AcDbLine
 10
22.6005
 20
67.7944998818666
 30
0.0
 11
27.14244
 21
67.79208318956481
 31
0.0
  0
LINE
  5
3D
330
1E
100
AcDbEntity
  8
0
100
AcDbLine
 10
27.14244
 20
67.79208318956481
 30
0.0
 11
32.50000211394
 21
67.79123454418921
 31
0.0
  0
LINE
  5
3E
330
1E
100
AcDbEntity
  8
0
100
AcDbLine
 10
32.5
 20
67.81353169208969
 30
0.0
 11
37.85756
 21
67.8126830467141
 31
0.0
  0
LINE
  5
3F
330
1E
100
AcDbEntity
  8
0
100
AcDbLine
 10
19.5657
 20
109.806636185335
 30
0.0
 11
22.6005
 21
109.810253037549
 31
0.0
  0
LINE
  5
40
330
1E
100
AcDbEntity
  8
0
100
AcDbLine
 10
22.6005
 20
109.810253037549
 30
0.0
 11
27.14244
 21
109.8126697298509
 31
0.0
  0
LINE
  5
41
330
1E
100
AcDbEntity
  8
0
100
AcDbLine
 10
27.14244
 20
109.8126697298509
 30
0.0
 11
32.5
 21
109.8135183752269
 31
0.0
  0
LINE
  5
42
330
1E
100
AcDbEntity
  8
0
100
AcDbLine
 10
32.5
 20
109.8135183752269
 30
0.0
 11
37.85756
 21
109.8126697298509
 31
0.0
  0
LINE
  5
43
330
1E
100
AcDbEntity
  8
0
100
AcDbLine
 10
27.14244
 20
109.8126744858739
 30
0.0
 11
32.5
 21
109.813523131249
 31
0.0
  0
LINE
  5
44
330
1E
100
AcDbEntity
  8
0
100
AcDbLine
 10
22.6005
 20
109.810257793572
 30
0.0
 11
27.14244
 21
109.8126744858739
 31
0.0
  0
LINE
  5
45
330
1E
100
AcDbEntity
  8
0
100
AcDbLine
 10
19.5657
 20
109.8066409413579
 30
0.0
 11
22.6005
 21
109.810257793572
 31
0.0
  0
LINE
  5
46
330
1E
100
AcDbEntity
  8
0
100
AcDbLine
 10
18.5
 20
109.802374557432
 30
0.0
 11
18.5
 21
124.80236980141
 31
0.0
  0
LINE
  5
47
330
1E
100
AcDbEntity
  8
0
100
AcDbLine
 10
18.5
 20
109.802374557432
 30
0.0
 11
19.5657
 21
109.8066409413579
 31
0.0
  0
LINE
  5
48
330
1E
100
AcDbEntity
  8
0
100
AcDbLine
 10
32.50000211394
 20
67.79123454418921
 30
0.0
 11
37.85756
 21
67.79208318956481
 31
0.0
  0
LINE
  5
49
330
1E
100
AcDbEntity
  8
0
100
AcDbLine
 10
37.85756
 20
67.79208318956481
 30
0.0
 11
42.3995
 21
67.7944998818666
 31
0.0
  0
LINE
  5
4A
330
1E
100
AcDbEntity
  8
0
100
AcDbLine
 10
42.3995
 20
67.7944998818666
 30
0.0
 11
45.43429999999999
 21
67.79811673408059
 31
0.0
  0
LINE
  5
4B
330
1E
100
AcDbEntity
  8
0
100
AcDbLine
 10
42.3995
 20
67.8102663544124
 30
0.0
 11
45.43429999999999
 21
67.8066494862718
 31
0.0
  0
LINE
  5
4C
330
1E
100
AcDbEntity
  8
0
100
AcDbLine
 10
42.3995
 20
109.810253037549
 30
0.0
 11
45.43429999999999
 21
109.8066361694089
 31
0.0
  0
LINE
  5
4D
330
1E
100
AcDbEntity
  8
0
100
AcDbLine
 10
37.85756
 20
109.8126697298509
 30
0.0
 11
42.3995
 21
109.810253037549
 31
0.0
  0
LINE
  5
4E
330
1E
100
AcDbEntity
  8
0
100
AcDbLine
 10
37.85756
 20
67.8126830467141
 30
0.0
 11
42.3995
 21
67.8102663544124
 31
0.0
  0
LINE
  5
4F
330
1E
100
AcDbEntity
  8
0
100
AcDbLine
 10
45.43429999999999
 20
67.79811673408059
 30
0.0
 11
46.5
 21
67.80238311765221
 31
0.0
  0
LINE
  5
50
330
1E
100
AcDbEntity
  8
0
100
AcDbLine
 10
45.43429999999999
 20
67.8066494862718
 30
0.0
 11
46.5
 21
67.80238311765221
 31
0.0
  0
LINE
  5
51
330
1E
100
AcDbEntity
  8
0
100
AcDbLine
 10
46.5
 20
109.8023698007889
 30
0.0
 11
46.5
 21
67.80238311765221
 31
0.0
  0
LINE
  5
52
330
1E
100
AcDbEntity
  8
0
100
AcDbLine
 10
46.5
 20
67.80238311765221
 30
0.0
 11
46.5
 21
109.8023698007889
 31
0.0
  0
LINE
  5
53
330
1E
100
AcDbEntity
  8
0
100
AcDbLine
 10
45.43429999999999
 20
109.8066361694089
 30
0.0
 11
46.5
 21
109.8023698007889
 31
0.0
  0
LINE
  5
54
330
1E
100
AcDbEntity
  8
0
100
AcDbLine
 10
45.43429999999999
 20
109.8066409254309
 30
0.0
 11
46.5
 21
109.802374556812
 31
0.0
  0
LINE
  5
55
330
1E
100
AcDbEntity
  8
0
100
AcDbLine
 10
46.5
 20
109.802374556812
 30
0.0
 11
46.5
 21
124.802369800789
 31
0.0
  0
LINE
  5
56
330
1E
100
AcDbEntity
  8
0
100
AcDbLine
 10
42.3995
 20
109.810257793572
 30
0.0
 11
45.43429999999999
 21
109.8066409254309
 31
0.0
  0
LINE
  5
57
330
1E
100
AcDbEntity
  8
0
100
AcDbLine
 10
37.85756
 20
109.8126744858739
 30
0.0
 11
42.3995
 21
109.810257793572
 31
0.0
  0
LINE
  5
58
330
1E
100
AcDbEntity
  8
0
100
AcDbLine
 10
32.5
 20
109.813523131249
 30
0.0
 11
37.85756
 21
109.8126744858739
 31
0.0
  0
LINE
  5
59
330
1E
100
AcDbEntity
  8
0
100
AcDbLine
 10
2.473899999999999
 20
124.792467922297
 30
0.0
 11
9.519054999999999
 21
124.784071680412
 31
0.0
  0
LINE
  5
5A
330
1E
100
AcDbEntity
  8
0
100
AcDbLine
 10
9.519054999999999
 20
124.784071680412
 30
0.0
 11
18.5
 21
124.7792929754919
 31
0.0
  0
LINE
  5
5B
330
1E
100
AcDbEntity
  8
0
100
AcDbLine
 10
46.5
 20
124.7792929754919
 30
0.0
 11
55.480945
 21
124.784071680412
 31
0.0
  0
LINE
  5
5C
330
1E
100
AcDbEntity
  8
0
100
AcDbLine
 10
55.480945
 20
124.784071680412
 30
0.0
 11
62.5261
 21
124.792467922297
 31
0.0
  0
LINE
  5
5D
330
1E
100
AcDbEntity
  8
0
100
AcDbLine
 10
62.5261
 20
124.792467922297
 30
0.0
 11
65.0
 21
124.802372019622
 31
0.0
  0
LINE
  5
5E
330
1E
100
AcDbEntity
  8
0
100
AcDbLine
 10
109.519055
 20
124.5508827319959
 30
0.0
 11
120.06277
 21
124.62694305007
 31
0.0
  0
LINE
  5
5F
330
1E
100
AcDbEntity
  8
0
100
AcDbLine
 10
102.473965
 20
124.437051550627
 30
0.0
 11
109.519055
 21
124.5508827319959
 31
0.0
  0
LINE
  5
60
330
1E
100
AcDbEntity
  8
0
100
AcDbLine
 10
100.0
 20
124.3027777638509
 30
0.0
 11
102.4739
 21
124.168503968706
 31
0.0
  0
LINE
  5
61
330
1E
100
AcDbEntity
  8
0
100
AcDbLine
 10
100.0
 20
124.3027777638509
 30
0.0
 11
100.0
 21
131.302369805461
 31
0.0
  0
LINE
  5
62
330
1E
100
AcDbEntity
  8
0
100
AcDbLine
 10
100.0
 20
124.3027777638509
 30
0.0
 11
102.473965
 21
124.437051550627
 31
0.0
  0
LINE
  5
63
330
1E
100
AcDbEntity
  8
0
100
AcDbLine
 10
102.4739
 20
124.168503968706
 30
0.0
 11
109.519055
 21
124.0546727873369
 31
0.0
  0
LINE
  5
64
330
1E
100
AcDbEntity
  8
0
100
AcDbLine
 10
109.519055
 20
124.0546727873369
 30
0.0
 11
118.505184745811
 21
123.9898485876389
 31
0.0
  0
LINE
  5
65
330
1E
100
AcDbEntity
  8
0
100
AcDbLine
 10
118.5
 20
15.2647830052633
 30
0.0
 11
119.5656
 21
12.5852447148597
 31
0.0
  0
LINE
  5
66
330
1E
100
AcDbEntity
  8
0
100
AcDbLine
 10
118.5
 20
15.2647830052633
 30
0.0
 11
118.5924426092739
 21
15.4970651198894
 31
0.0
  0
LINE
  5
67
330
1E
100
AcDbEntity
  8
0
100
AcDbLine
 10
120.06277
 20
124.62694305007
 30
0.0
 11
132.4999999999999
 21
124.65365156406
 31
0.0
  0
LINE
  5
68
330
1E
100
AcDbEntity
  8
0
100
AcDbLine
 10
119.5656
 20
12.5852447148597
 30
0.0
 11
122.60041
 21
10.3121659547365
 31
0.0
  0
LINE
  5
69
330
1E
100
AcDbEntity
  8
0
100
AcDbLine
 10
144.93723
 20
124.62694305007
 30
0.0
 11
155.480945
 21
124.5508827319959
 31
0.0
  0
LINE
  5
6A
330
1E
100
AcDbEntity
  8
0
100
AcDbLine
 10
132.4999999999999
 20
124.65365156406
 30
0.0
 11
144.93723
 21
124.62694305007
 31
0.0
  0
LINE
  5
6B
330
1E
100
AcDbEntity
  8
0
100
AcDbLine
 10
122.60041
 20
10.3121659547365
 30
0.0
 11
127.14232
 21
8.791579198698981
 31
0.0
  0
LINE
  5
6C
330
1E
100
AcDbEntity
  8
0
100
AcDbLine
 10
142.3994299999999
 20
10.298432193644
 30
0.0
 11
145.4343
 21
12.5673036265658
 31
0.0
  0
LINE
  5
6D
330
1E
100
AcDbEntity
  8
0
100
AcDbLine
 10
118.504983400121
 20
124.24019341027
 30
0.0
 11
118.592629479413
 21
15.2647185928663
 31
0.0
  0
LINE
  5
6E
330
1E
100
AcDbEntity
  8
0
100
AcDbLine
 10
118.504983400121
 20
124.24019341027
 30
0.0
 11
118.592629479413
 21
15.2647185928663
 31
0.0
  0
LINE
  5
70
330
1E
100
AcDbEntity
  8
0
100
AcDbLine
 10
146.50518570148
 20
123.989923398038
 30
0.0
 11
155.480945
 21
124.0546727873369
 31
0.0
  0
LINE
  5
71
330
1E
100
AcDbEntity
  8
0
100
AcDbLine
 10
155.480945
 20
124.0546727873369
 30
0.0
 11
162.5261
 21
124.168503968706
 31
0.0
  0
LINE
  5
72
330
1E
100
AcDbEntity
  8
0
100
AcDbLine
 10
162.5261
 20
124.168503968706
 30
0.0
 11
165.0
 21
124.30277774433
 31
0.0
  0
LINE
  5
73
330
1E
100
AcDbEntity
  8
0
100
AcDbLine
 10
146.4926
 20
7.167665176883519
 30
0.0
 11
146.499052498691
 21
14.2159721625173
 31
0.0
  0
LINE
  5
74
330
1E
100
AcDbEntity
  8
0
100
AcDbLine
 10
162.5261
 20
124.437051550627
 30
0.0
 11
165.0
 21
124.30277774433
 31
0.0
  0
LINE
  5
75
330
1E
100
AcDbEntity
  8
0
100
AcDbLine
 10
165.0
 20
124.30277774433
 30
0.0
 11
165.0
 21
131.3023697859389
 31
0.0
  0
LINE
  5
76
330
1E
100
AcDbEntity
  8
0
100
AcDbLine
 10
155.480945
 20
124.5508827319959
 30
0.0
 11
162.5261
 21
124.437051550627
 31
0.0
  0
LINE
  5
77
330
1E
100
AcDbEntity
  8
0
100
AcDbLine
 10
146.504984412378
 20
124.2401488351849
 30
0.0
 11
146.5932999999999
 21
14.4537458043887
 31
0.0
  0
LINE
  5
78
330
1E
100
AcDbEntity
  8
0
100
AcDbLine
 10
145.4343
 20
12.5673036265658
 30
0.0
 11
146.5932999999999
 21
14.4537458043887
 31
0.0
  0
LINE
  5
79
330
1E
100
AcDbEntity
  8
0
100
AcDbLine
 10
18.5
 20
124.80236980141
 30
0.0
 11
18.5
 21
109.802374557432
 31
0.0
  0
LINE
  5
7A
330
1E
100
AcDbEntity
  8
0
100
AcDbLine
 10
18.5
 20
124.80236980141
 30
0.0
 11
19.5657
 21
124.806636185335
 31
0.0
  0
LINE
  5
7B
330
1E
100
AcDbEntity
  8
0
100
AcDbLine
 10
-0.0000000000000048
 20
124.8023720210619
 30
0.0
 11
-0.0000000000000048
 21
131.8023698015849
 31
0.0
  0
LINE
  5
7C
330
1E
100
AcDbEntity
  8
0
100
AcDbLine
 10
-0.0000000000000048
 20
124.8023720210619
 30
0.0
 11
2.473964999999989
 21
124.81227611921
 31
0.0
  0
LINE
  5
7D
330
1E
100
AcDbEntity
  8
0
100
AcDbLine
 10
-0.0000000000000048
 20
124.8023720210619
 30
0.0
 11
2.473899999999999
 21
124.792467922297
 31
0.0
  0
LINE
  5
7E
330
1E
100
AcDbEntity
  8
0
100
AcDbLine
 10
27.14244
 20
124.8126697298509
 30
0.0
 11
32.5
 21
124.8135183752269
 31
0.0
  0
LINE
  5
7F
330
1E
100
AcDbEntity
  8
0
100
AcDbLine
 10
22.6005
 20
124.810253037549
 30
0.0
 11
27.14244
 21
124.8126697298509
 31
0.0
  0
LINE
  5
80
330
1E
100
AcDbEntity
  8
0
100
AcDbLine
 10
19.5657
 20
124.806636185335
 30
0.0
 11
22.6005
 21
124.810253037549
 31
0.0
  0
LINE
  5
81
330
1E
100
AcDbEntity
  8
0
100
AcDbLine
 10
32.5
 20
124.8135183752269
 30
0.0
 11
37.85756
 21
124.8126697298509
 31
0.0
  0
LINE
  5
82
330
1E
100
AcDbEntity
  8
0
100
AcDbLine
 10
2.473965
 20
124.81227611921
 30
0.0
 11
9.519054999999999
 21
124.820672361095
 31
0.0
  0
LINE
  5
83
330
1E
100
AcDbEntity
  8
0
100
AcDbLine
 10
20.06277
 20
124.826282606203
 30
0.0
 11
32.5
 21
124.8282526388529
 31
0.0
  0
LINE
  5
84
330
1E
100
AcDbEntity
  8
0
100
AcDbLine
 10
9.519054999999999
 20
124.820672361095
 30
0.0
 11
20.06277
 21
124.826282606203
 31
0.0
  0
LINE
  5
85
330
1E
100
AcDbEntity
  8
0
100
AcDbLine
 10
2.473964999999989
 20
124.81227611921
 30
0.0
 11
9.519054999999999
 21
124.820672361095
 31
0.0
  0
LINE
  5
86
330
1E
100
AcDbEntity
  8
0
100
AcDbLine
 10
-0.0000000000000051
 20
124.8023720210619
 30
0.0
 11
2.473899999999999
 21
124.792467922297
 31
0.0
  0
LINE
  5
87
330
1E
100
AcDbEntity
  8
0
100
AcDbLine
 10
-0.0000000000000051
 20
124.8023720210619
 30
0.0
 11
2.473964999999989
 21
124.81227611921
 31
0.0
  0
LINE
  5
88
330
1E
100
AcDbEntity
  8
0
100
AcDbLine
 10
46.5
 20
124.802369800789
 30
0.0
 11
46.5
 21
109.802374556812
 31
0.0
  0
LINE
  5
89
330
1E
100
AcDbEntity
  8
0
100
AcDbLine
 10
45.43429999999999
 20
124.806636169409
 30
0.0
 11
46.5
 21
124.802369800789
 31
0.0
  0
LINE
  5
8A
330
1E
100
AcDbEntity
  8
0
100
AcDbLine
 10
42.3995
 20
124.810253037549
 30
0.0
 11
45.43429999999999
 21
124.806636169409
 31
0.0
  0
LINE
  5
8B
330
1E
100
AcDbEntity
  8
0
100
AcDbLine
 10
37.85756
 20
124.8126697298509
 30
0.0
 11
42.3995
 21
124.810253037549
 31
0.0
  0
LINE
  5
8C
330
1E
100
AcDbEntity
  8
0
100
AcDbLine
 10
62.5261
 20
124.81227611921
 30
0.0
 11
65.0
 21
124.802372019622
 31
0.0
  0
LINE
  5
8D
330
1E
100
AcDbEntity
  8
0
100
AcDbLine
 10
65.0
 20
124.802372019622
 30
0.0
 11
65.0
 21
131.8023698001449
 31
0.0
  0
LINE
  5
8E
330
1E
100
AcDbEntity
  8
0
100
AcDbLine
 10
55.480945
 20
124.820672361095
 30
0.0
 11
62.5261
 21
124.81227611921
 31
0.0
  0
LINE
  5
8F
330
1E
100
AcDbEntity
  8
0
100
AcDbLine
 10
44.93723
 20
124.826282606203
 30
0.0
 11
55.480945
 21
124.820672361095
 31
0.0
  0
LINE
  5
90
330
1E
100
AcDbEntity
  8
0
100
AcDbLine
 10
32.5
 20
124.8282526388529
 30
0.0
 11
44.93723
 21
124.826282606203
 31
0.0
  0
LINE
  5
91
330
1E
100
AcDbEntity
  8
0
100
AcDbLine
 10
-0.0000000000000051
 20
131.8023698015849
 30
0.0
 11
2.473964999999989
 21
131.812273899733
 31
0.0
  0
LINE
  5
92
330
1E
100
AcDbEntity
  8
0
100
AcDbLine
 10
-0.0000000000000048
 20
131.8023698015849
 30
0.0
 11
-0.0000000000000048
 21
124.8023720210619
 31
0.0
  0
LINE
  5
93
330
1E
100
AcDbEntity
  8
0
100
AcDbLine
 10
-0.0000000000000048
 20
131.8023698015849
 30
0.0
 11
2.473964999999989
 21
131.812273899733
 31
0.0
  0
LINE
  5
94
330
1E
100
AcDbEntity
  8
0
100
AcDbLine
 10
65.0
 20
131.8023698001449
 30
0.0
 11
65.0
 21
124.802372019622
 31
0.0
  0
LINE
  5
95
330
1E
100
AcDbEntity
  8
0
100
AcDbLine
 10
120.06277
 20
131.62653509168
 30
0.0
 11
132.4999999999999
 21
131.6532436056699
 31
0.0
  0
LINE
  5
96
330
1E
100
AcDbEntity
  8
0
100
AcDbLine
 10
109.519055
 20
131.5504747736059
 30
0.0
 11
120.06277
 21
131.62653509168
 31
0.0
  0
LINE
  5
97
330
1E
100
AcDbEntity
  8
0
100
AcDbLine
 10
102.473965
 20
131.436643592237
 30
0.0
 11
109.519055
 21
131.5504747736059
 31
0.0
  0
LINE
  5
98
330
1E
100
AcDbEntity
  8
0
100
AcDbLine
 10
100.0
 20
131.302369805461
 30
0.0
 11
100.0
 21
124.3027777638509
 31
0.0
  0
LINE
  5
99
330
1E
100
AcDbEntity
  8
0
100
AcDbLine
 10
100.0
 20
131.302369805461
 30
0.0
 11
102.473965
 21
131.436643592237
 31
0.0
  0
LINE
  5
9A
330
1E
100
AcDbEntity
  8
0
100
AcDbLine
 10
165.0
 20
131.3023697859389
 30
0.0
 11
165.0
 21
124.30277774433
 31
0.0
  0
LINE
  5
9B
330
1E
100
AcDbEntity
  8
0
100
AcDbLine
 10
162.5261
 20
131.436643592237
 30
0.0
 11
165.0
 21
131.3023697859389
 31
0.0
  0
LINE
  5
9C
330
1E
100
AcDbEntity
  8
0
100
AcDbLine
 10
155.480945
 20
131.5504747736059
 30
0.0
 11
162.5261
 21
131.436643592237
 31
0.0
  0
LINE
  5
9D
330
1E
100
AcDbEntity
  8
0
100
AcDbLine
 10
144.93723
 20
131.62653509168
 30
0.0
 11
155.480945
 21
131.5504747736059
 31
0.0
  0
LINE
  5
9E
330
1E
100
AcDbEntity
  8
0
100
AcDbLine
 10
132.4999999999999
 20
131.6532436056699
 30
0.0
 11
144.93723
 21
131.62653509168
 31
0.0
  0
LINE
  5
9F
330
1E
100
AcDbEntity
  8
0
100
AcDbLine
 10
2.473964999999989
 20
131.812273899733
 30
0.0
 11
9.519054999999999
 21
131.820670141618
 31
0.0
  0
LINE
  5
A0
330
1E
100
AcDbEntity
  8
0
100
AcDbLine
 10
20.06277
 20
131.826280386726
 30
0.0
 11
32.5
 21
131.828250419375
 31
0.0
  0
LINE
  5
A1
330
1E
100
AcDbEntity
  8
0
100
AcDbLine
 10
9.519054999999999
 20
131.820670141618
 30
0.0
 11
20.06277
 21
131.826280386726
 31
0.0
  0
LINE
  5
A2
330
1E
100
AcDbEntity
  8
0
100
AcDbLine
 10
2.473965
 20
131.812273899733
 30
0.0
 11
9.519054999999999
 21
131.820670141618
 31
0.0
  0
LINE
  5
A3
330
1E
100
AcDbEntity
  8
0
100
AcDbLine
 10
62.5261
 20
131.812273899733
 30
0.0
 11
65.0
 21
131.8023698001449
 31
0.0
  0
LINE
  5
A4
330
1E
100
AcDbEntity
  8
0
100
AcDbLine
 10
55.480945
 20
131.820670141618
 30
0.0
 11
62.5261
 21
131.812273899733
 31
0.0
  0
LINE
  5
A5
330
1E
100
AcDbEntity
  8
0
100
AcDbLine
 10
44.93723
 20
131.826280386726
 30
0.0
 11
55.480945
 21
131.820670141618
 31
0.0
  0
LINE
  5
A6
330
1E
100
AcDbEntity
  8
0
100
AcDbLine
 10
32.5
 20
131.828250419375
 30
0.0
 11
44.93723
 21
131.826280386726
 31
0.0
  0
LINE
  5
A7
330
1E
100
AcDbEntity
  8
0
100
AcDbLine
 10
200.0
 20
131.8023698015849
 30
0.0
 11
200.0
 21
124.8023720210619
 31
0.0
  0
LINE
  5
A8
330
1E
100
AcDbEntity
  8
0
100
AcDbLine
 10
200.0
 20
131.8023698015849
 30
0.0
 11
202.4739649999999
 21
131.812273899733
 31
0.0
  0
LINE
  5
A9
330
1E
100
AcDbEntity
  8
0
100
AcDbLine
 10
209.519055
 20
131.820670141618
 30
0.0
 11
220.06277
 21
131.826280386726
 31
0.0
  0
LINE
  5
AA
330
1E
100
AcDbEntity
  8
0
100
AcDbLine
 10
209.519055
 20
124.820672361095
 30
0.0
 11
220.06277
 21
124.826282606203
 31
0.0
  0
LINE
  5
AB
330
1E
100
AcDbEntity
  8
0
100
AcDbLine
 10
202.4739649999999
 20
131.812273899733
 30
0.0
 11
209.519055
 21
131.820670141618
 31
0.0
  0
LINE
  5
AC
330
1E
100
AcDbEntity
  8
0
100
AcDbLine
 10
202.4739649999999
 20
124.81227611921
 30
0.0
 11
209.519055
 21
124.820672361095
 31
0.0
  0
LINE
  5
AD
330
1E
100
AcDbEntity
  8
0
100
AcDbLine
 10
200.0
 20
124.8023720210619
 30
0.0
 11
202.4738999999999
 21
124.792467922297
 31
0.0
  0
LINE
  5
AE
330
1E
100
AcDbEntity
  8
0
100
AcDbLine
 10
200.0
 20
124.8023720210619
 30
0.0
 11
200.0
 21
131.8023698015849
 31
0.0
  0
LINE
  5
AF
330
1E
100
AcDbEntity
  8
0
100
AcDbLine
 10
200.0
 20
124.8023720210619
 30
0.0
 11
202.4739649999999
 21
124.81227611921
 31
0.0
  0
LINE
  5
B0
330
1E
100
AcDbEntity
  8
0
100
AcDbLine
 10
202.4738999999999
 20
124.792467922297
 30
0.0
 11
209.519055
 21
124.784071680412
 31
0.0
  0
LINE
  5
B1
330
1E
100
AcDbEntity
  8
0
100
AcDbLine
 10
218.5
 20
109.80236980141
 30
0.0
 11
218.5
 21
67.8023831182724
 31
0.0
  0
LINE
  5
B2
330
1E
100
AcDbEntity
  8
0
100
AcDbLine
 10
218.5
 20
109.80236980141
 30
0.0
 11
219.5657
 21
109.806636185335
 31
0.0
  0
LINE
  5
B3
330
1E
100
AcDbEntity
  8
0
100
AcDbLine
 10
218.5
 20
67.8023831182724
 30
0.0
 11
219.5657
 21
67.79811673408059
 31
0.0
  0
LINE
  5
B4
330
1E
100
AcDbEntity
  8
0
100
AcDbLine
 10
218.5
 20
67.8023831182724
 30
0.0
 11
218.5
 21
109.80236980141
 31
0.0
  0
LINE
  5
B5
330
1E
100
AcDbEntity
  8
0
100
AcDbLine
 10
218.5
 20
67.8023831182724
 30
0.0
 11
219.5657
 21
67.8066495021984
 31
0.0
  0
LINE
  5
B6
330
1E
100
AcDbEntity
  8
0
100
AcDbLine
 10
218.5
 20
124.80236980141
 30
0.0
 11
218.5
 21
109.802374557432
 31
0.0
  0
LINE
  5
B7
330
1E
100
AcDbEntity
  8
0
100
AcDbLine
 10
218.5
 20
124.80236980141
 30
0.0
 11
219.5657
 21
124.806636185335
 31
0.0
  0
LINE
  5
B8
330
1E
100
AcDbEntity
  8
0
100
AcDbLine
 10
219.5657
 20
109.806636185335
 30
0.0
 11
222.6005
 21
109.810253037549
 31
0.0
  0
LINE
  5
B9
330
1E
100
AcDbEntity
  8
0
100
AcDbLine
 10
222.6005
 20
67.8102663544124
 30
0.0
 11
227.1424399999999
 21
67.8126830467141
 31
0.0
  0
LINE
  5
BA
330
1E
100
AcDbEntity
  8
0
100
AcDbLine
 10
219.5657
 20
67.8066495021984
 30
0.0
 11
222.6005
 21
67.8102663544124
 31
0.0
  0
LINE
  5
BB
330
1E
100
AcDbEntity
  8
0
100
AcDbLine
 10
219.5657
 20
67.79811673408059
 30
0.0
 11
222.6005
 21
67.7944998818666
 31
0.0
  0
LINE
  5
BC
330
1E
100
AcDbEntity
  8
0
100
AcDbLine
 10
227.1424399999999
 20
67.8126830467141
 30
0.0
 11
232.5
 21
67.81353169208969
 31
0.0
  0
LINE
  5
BD
330
1E
100
AcDbEntity
  8
0
100
AcDbLine
 10
222.6005
 20
67.7944998818666
 30
0.0
 11
227.1424399999999
 21
67.79208318956481
 31
0.0
  0
LINE
  5
BE
330
1E
100
AcDbEntity
  8
0
100
AcDbLine
 10
227.1424399999999
 20
67.79208318956481
 30
0.0
 11
232.5000021139399
 21
67.79123454418921
 31
0.0
  0
LINE
  5
BF
330
1E
100
AcDbEntity
  8
0
100
AcDbLine
 10
232.5
 20
67.81353169208969
 30
0.0
 11
237.85756
 21
67.8126830467141
 31
0.0
  0
LINE
  5
C0
330
1E
100
AcDbEntity
  8
0
100
AcDbLine
 10
222.6005
 20
109.810253037549
 30
0.0
 11
227.1424399999999
 21
109.8126697298509
 31
0.0
  0
LINE
  5
C1
330
1E
100
AcDbEntity
  8
0
100
AcDbLine
 10
227.1424399999999
 20
109.8126697298509
 30
0.0
 11
232.5
 21
109.8135183752269
 31
0.0
  0
LINE
  5
C2
330
1E
100
AcDbEntity
  8
0
100
AcDbLine
 10
232.5
 20
109.8135183752269
 30
0.0
 11
237.85756
 21
109.8126697298509
 31
0.0
  0
LINE
  5
C3
330
1E
100
AcDbEntity
  8
0
100
AcDbLine
 10
227.1424399999999
 20
124.8126697298509
 30
0.0
 11
232.5
 21
124.8135183752269
 31
0.0
  0
LINE
  5
C4
330
1E
100
AcDbEntity
  8
0
100
AcDbLine
 10
227.1424399999999
 20
109.8126744858739
 30
0.0
 11
232.5
 21
109.813523131249
 31
0.0
  0
LINE
  5
C5
330
1E
100
AcDbEntity
  8
0
100
AcDbLine
 10
222.6005
 20
124.810253037549
 30
0.0
 11
227.1424399999999
 21
124.8126697298509
 31
0.0
  0
LINE
  5
C6
330
1E
100
AcDbEntity
  8
0
100
AcDbLine
 10
222.6005
 20
109.810257793572
 30
0.0
 11
227.1424399999999
 21
109.8126744858739
 31
0.0
  0
LINE
  5
C7
330
1E
100
AcDbEntity
  8
0
100
AcDbLine
 10
219.5657
 20
124.806636185335
 30
0.0
 11
222.6005
 21
124.810253037549
 31
0.0
  0
LINE
  5
C8
330
1E
100
AcDbEntity
  8
0
100
AcDbLine
 10
219.5657
 20
109.8066409413579
 30
0.0
 11
222.6005
 21
109.810257793572
 31
0.0
  0
LINE
  5
C9
330
1E
100
AcDbEntity
  8
0
100
AcDbLine
 10
218.5
 20
109.802374557432
 30
0.0
 11
218.5
 21
124.80236980141
 31
0.0
  0
LINE
  5
CA
330
1E
100
AcDbEntity
  8
0
100
AcDbLine
 10
218.5
 20
109.802374557432
 30
0.0
 11
219.5657
 21
109.8066409413579
 31
0.0
  0
LINE
  5
CB
330
1E
100
AcDbEntity
  8
0
100
AcDbLine
 10
232.5
 20
124.8135183752269
 30
0.0
 11
237.85756
 21
124.8126697298509
 31
0.0
  0
LINE
  5
CC
330
1E
100
AcDbEntity
  8
0
100
AcDbLine
 10
232.5
 20
109.813523131249
 30
0.0
 11
237.85756
 21
109.8126744858739
 31
0.0
  0
LINE
  5
CD
330
1E
100
AcDbEntity
  8
0
100
AcDbLine
 10
220.06277
 20
131.826280386726
 30
0.0
 11
232.5
 21
131.828250419375
 31
0.0
  0
LINE
  5
CE
330
1E
100
AcDbEntity
  8
0
100
AcDbLine
 10
220.06277
 20
124.826282606203
 30
0.0
 11
232.5
 21
124.8282526388529
 31
0.0
  0
LINE
  5
CF
330
1E
100
AcDbEntity
  8
0
100
AcDbLine
 10
209.519055
 20
124.784071680412
 30
0.0
 11
218.5
 21
124.7792929754919
 31
0.0
  0
LINE
  5
D0
330
1E
100
AcDbEntity
  8
0
100
AcDbLine
 10
232.5
 20
131.828250419375
 30
0.0
 11
244.9372299999999
 21
131.826280386726
 31
0.0
  0
LINE
  5
D1
330
1E
100
AcDbEntity
  8
0
100
AcDbLine
 10
232.5000021139399
 20
67.79123454418921
 30
0.0
 11
237.85756
 21
67.79208318956481
 31
0.0
  0
LINE
  5
D2
330
1E
100
AcDbEntity
  8
0
100
AcDbLine
 10
237.85756
 20
67.79208318956481
 30
0.0
 11
242.3995
 21
67.7944998818666
 31
0.0
  0
LINE
  5
D3
330
1E
100
AcDbEntity
  8
0
100
AcDbLine
 10
242.3995
 20
67.7944998818666
 30
0.0
 11
245.4343
 21
67.79811673408059
 31
0.0
  0
LINE
  5
D4
330
1E
100
AcDbEntity
  8
0
100
AcDbLine
 10
242.3995
 20
67.8102663544124
 30
0.0
 11
245.4343
 21
67.8066494862718
 31
0.0
  0
LINE
  5
D5
330
1E
100
AcDbEntity
  8
0
100
AcDbLine
 10
242.3995
 20
109.810253037549
 30
0.0
 11
245.4343
 21
109.8066361694089
 31
0.0
  0
LINE
  5
D6
330
1E
100
AcDbEntity
  8
0
100
AcDbLine
 10
237.85756
 20
109.8126697298509
 30
0.0
 11
242.3995
 21
109.810253037549
 31
0.0
  0
LINE
  5
D7
330
1E
100
AcDbEntity
  8
0
100
AcDbLine
 10
237.85756
 20
67.8126830467141
 30
0.0
 11
242.3995
 21
67.8102663544124
 31
0.0
  0
LINE
  5
D8
330
1E
100
AcDbEntity
  8
0
100
AcDbLine
 10
245.4343
 20
67.79811673408059
 30
0.0
 11
246.4999999999999
 21
67.80238311765221
 31
0.0
  0
LINE
  5
D9
330
1E
100
AcDbEntity
  8
0
100
AcDbLine
 10
245.4343
 20
67.8066494862718
 30
0.0
 11
246.4999999999999
 21
67.80238311765221
 31
0.0
  0
LINE
  5
DA
330
1E
100
AcDbEntity
  8
0
100
AcDbLine
 10
246.4999999999999
 20
109.8023698007889
 30
0.0
 11
246.4999999999999
 21
67.80238311765221
 31
0.0
  0
LINE
  5
DB
330
1E
100
AcDbEntity
  8
0
100
AcDbLine
 10
246.4999999999999
 20
67.80238311765221
 30
0.0
 11
246.4999999999999
 21
109.8023698007889
 31
0.0
  0
LINE
  5
DC
330
1E
100
AcDbEntity
  8
0
100
AcDbLine
 10
245.4343
 20
109.8066361694089
 30
0.0
 11
246.4999999999999
 21
109.8023698007889
 31
0.0
  0
LINE
  5
DD
330
1E
100
AcDbEntity
  8
0
100
AcDbLine
 10
245.4343
 20
109.8066409254309
 30
0.0
 11
246.4999999999999
 21
109.802374556812
 31
0.0
  0
LINE
  5
DE
330
1E
100
AcDbEntity
  8
0
100
AcDbLine
 10
246.4999999999999
 20
109.802374556812
 30
0.0
 11
246.4999999999999
 21
124.802369800789
 31
0.0
  0
LINE
  5
DF
330
1E
100
AcDbEntity
  8
0
100
AcDbLine
 10
242.3995
 20
109.810257793572
 30
0.0
 11
245.4343
 21
109.8066409254309
 31
0.0
  0
LINE
  5
E0
330
1E
100
AcDbEntity
  8
0
100
AcDbLine
 10
237.85756
 20
109.8126744858739
 30
0.0
 11
242.3995
 21
109.810257793572
 31
0.0
  0
LINE
  5
E1
330
1E
100
AcDbEntity
  8
0
100
AcDbLine
 10
246.4999999999999
 20
124.7792929754919
 30
0.0
 11
255.480945
 21
124.784071680412
 31
0.0
  0
LINE
  5
E2
330
1E
100
AcDbEntity
  8
0
100
AcDbLine
 10
246.4999999999999
 20
124.802369800789
 30
0.0
 11
246.4999999999999
 21
109.802374556812
 31
0.0
  0
LINE
  5
E3
330
1E
100
AcDbEntity
  8
0
100
AcDbLine
 10
245.4343
 20
124.806636169409
 30
0.0
 11
246.4999999999999
 21
124.802369800789
 31
0.0
  0
LINE
  5
E4
330
1E
100
AcDbEntity
  8
0
100
AcDbLine
 10
242.3995
 20
124.810253037549
 30
0.0
 11
245.4343
 21
124.806636169409
 31
0.0
  0
LINE
  5
E5
330
1E
100
AcDbEntity
  8
0
100
AcDbLine
 10
237.85756
 20
124.8126697298509
 30
0.0
 11
242.3995
 21
124.810253037549
 31
0.0
  0
LINE
  5
E6
330
1E
100
AcDbEntity
  8
0
100
AcDbLine
 10
255.480945
 20
124.784071680412
 30
0.0
 11
262.5261
 21
124.792467922297
 31
0.0
  0
LINE
  5
E7
330
1E
100
AcDbEntity
  8
0
100
AcDbLine
 10
262.5261
 20
124.792467922297
 30
0.0
 11
265.0
 21
124.802372019622
 31
0.0
  0
LINE
  5
E8
330
1E
100
AcDbEntity
  8
0
100
AcDbLine
 10
262.5261
 20
124.81227611921
 30
0.0
 11
265.0
 21
124.802372019622
 31
0.0
  0
LINE
  5
E9
330
1E
100
AcDbEntity
  8
0
100
AcDbLine
 10
265.0
 20
124.802372019622
 30
0.0
 11
265.0
 21
131.8023698001449
 31
0.0
  0
LINE
  5
EA
330
1E
100
AcDbEntity
  8
0
100
AcDbLine
 10
255.480945
 20
124.820672361095
 30
0.0
 11
262.5261
 21
124.81227611921
 31
0.0
  0
LINE
  5
EB
330
1E
100
AcDbEntity
  8
0
100
AcDbLine
 10
265.0
 20
131.8023698001449
 30
0.0
 11
265.0
 21
124.802372019622
 31
0.0
  0
LINE
  5
EC
330
1E
100
AcDbEntity
  8
0
100
AcDbLine
 10
262.5261
 20
131.812273899733
 30
0.0
 11
265.0
 21
131.8023698001449
 31
0.0
  0
LINE
  5
ED
330
1E
100
AcDbEntity
  8
0
100
AcDbLine
 10
255.480945
 20
131.820670141618
 30
0.0
 11
262.5261
 21
131.812273899733
 31
0.0
  0
LINE
  5
EE
330
1E
100
AcDbEntity
  8
0
100
AcDbLine
 10
244.9372299999999
 20
131.826280386726
 30
0.0
 11
255.480945
 21
131.820670141618
 31
0.0
  0
LINE
  5
EF
330
1E
100
AcDbEntity
  8
0
100
AcDbLine
 10
244.9372299999999
 20
124.826282606203
 30
0.0
 11
255.480945
 21
124.820672361095
 31
0.0
  0
LINE
  5
F0
330
1E
100
AcDbEntity
  8
0
100
AcDbLine
 10
232.5
 20
124.8282526388529
 30
0.0
 11
244.9372299999999
 21
124.826282606203
 31
0.0
  0
ENDSEC
  0
SECTION
  2
OBJECTS
  0
DICTIONARY
  5
C
330
0
100
AcDbDictionary
  3
ACAD_GROUP
350
D
  3
ACAD_LAYOUT
350
19
  3
ACAD_MLINESTYLE
350
16
  3
ACAD_PLOTSETTINGS
350
18
  3
ACAD_PLOTSTYLENAME
350
E
  3
ACDBHEADERROUNDTRIPXREC
350
F8
  3
ACDBVARIABLEDICTIONARY
350
F5
  0
DICTIONARY
  5
11A
330
1E
100
AcDbDictionary
280
     1
  3
ACAD_LAYOUTSELFREF
360
11B
  0
DICTIONARY
  5
118
330
1A
100
AcDbDictionary
280
     1
  3
ACAD_LAYOUTSELFREF
360
119
  0
DICTIONARY
  5
D
102
{ACAD_REACTORS
330
C
102
}
330
C
100
AcDbDictionary
  0
DICTIONARY
  5
19
102
{ACAD_REACTORS
330
C
102
}
330
C
100
AcDbDictionary
  0
DICTIONARY
  5
16
102
{ACAD_REACTORS
330
C
102
}
330
C
100
AcDbDictionary
  3
STANDARD
350
17
  0
DICTIONARY
  5
18
102
{ACAD_REACTORS
330
C
102
}
330
C
100
AcDbDictionary
  0
ACDBDICTIONARYWDFLT
  5
E
102
{ACAD_REACTORS
330
C
102
}
330
C
100
AcDbDictionary
281
     1
  3
Normal
350
F
100
AcDbDictionaryWithDefault
340
F
  0
DICTIONARY
  5
F8
102
{ACAD_REACTORS
330
C
102
}
330
C
100
AcDbDictionary
  3
CEPSNTYPE
350
102
  3
FINGERPRINTGUID
350
103
  3
HYPERLINKBASE
350
FB
  3
INSUNITS
350
101
  3
LAYOUTDICT
350
FD
  3
LWETCUNION
350
100
  3
PLOTSETDICT
350
FE
  3
PLOTSTYLNAMDICT
350
FF
  3
PSVPSCALE
350
105
  3
PUCSBASE
350
108
  3
PUCSORGBACK
350
10E
  3
PUCSORGBOTTOM
350
10A
  3
PUCSORGFRONT
350
10D
  3
PUCSORGLEFT
350
10B
  3
PUCSORGRIGHT
350
10C
  3
PUCSORGTOP
350
109
  3
PUCSORTHOREF
350
106
  3
PUCSORTHOVIEW
350
107
  3
STYLESHEET
350
FC
  3
TSTACKALIGN
350
F9
  3
TSTACKSIZE
350
FA
  3
UCSBASE
350
111
  3
UCSORGBACK
350
117
  3
UCSORGBOTTOM
350
113
  3
UCSORGFRONT
350
116
  3
UCSORGLEFT
350
114
  3
UCSORGRIGHT
350
115
  3
UCSORGTOP
350
112
  3
UCSORTHOREF
350
10F
  3
UCSORTHOVIEW
350
110
  3
VERSIONGUID
350
104
  0
DICTIONARY
  5
F5
102
{ACAD_REACTORS
330
C
102
}
330
C
100
AcDbDictionary
  3
DIMASSOC
350
F6
  0
XRECORD
  5
11B
102
{ACAD_REACTORS
330
11A
102
}
330
11A
100
AcDbXrecord
340
1E
  0
XRECORD
  5
119
102
{ACAD_REACTORS
330
118
102
}
330
118
100
AcDbXrecord
340
1A
  0
MLINESTYLE
  5
17
102
{ACAD_REACTORS
330
16
102
}
330
16
100
AcDbMlineStyle
  2
STANDARD
 70
     0
  3

 62
   256
 51
90.0
 52
90.0
 71
     2
 49
0.5
 62
   256
  6
BYLAYER
 49
-0.5
 62
   256
  6
BYLAYER
  0
ACDBPLACEHOLDER
  5
F
102
{ACAD_REACTORS
330
E
102
}
330
E
100
AcDbPlaceHolder
280
     0
  0
XRECORD
  5
102
102
{ACAD_REACTORS
330
F8
102
}
330
F8
100
AcDbXrecord
 90
        0
  0
XRECORD
  5
103
102
{ACAD_REACTORS
330
F8
102
}
330
F8
100
AcDbXrecord
  1
{F8792A13-80C2-4BB0-A4CF-64E6161EB335}
  0
XRECORD
  5
FB
102
{ACAD_REACTORS
330
F8
102
}
330
F8
100
AcDbXrecord
  1

  0
XRECORD
  5
101
102
{ACAD_REACTORS
330
F8
102
}
330
F8
100
AcDbXrecord
 90
        0
  0
XRECORD
  5
FD
102
{ACAD_REACTORS
330
F8
102
}
330
F8
100
AcDbXrecord
340
19
  0
XRECORD
  5
100
102
{ACAD_REACTORS
330
F8
102
}
330
F8
100
AcDbXrecord
 90
    10781
  0
XRECORD
  5
FE
102
{ACAD_REACTORS
330
F8
102
}
330
F8
100
AcDbXrecord
340
18
  0
XRECORD
  5
FF
102
{ACAD_REACTORS
330
F8
102
}
330
F8
100
AcDbXrecord
340
E
  0
XRECORD
  5
105
102
{ACAD_REACTORS
330
F8
102
}
330
F8
100
AcDbXrecord
 40
0.0
  0
XRECORD
  5
108
102
{ACAD_REACTORS
330
F8
102
}
330
F8
100
AcDbXrecord
340
0
  0
XRECORD
  5
10E
102
{ACAD_REACTORS
330
F8
102
}
330
F8
100
AcDbXrecord
 10
0.0
 20
0.0
 30
0.0
  0
XRECORD
  5
10A
102
{ACAD_REACTORS
330
F8
102
}
330
F8
100
AcDbXrecord
 10
0.0
 20
0.0
 30
0.0
  0
XRECORD
  5
10D
102
{ACAD_REACTORS
330
F8
102
}
330
F8
100
AcDbXrecord
 10
0.0
 20
0.0
 30
0.0
  0
XRECORD
  5
10B
102
{ACAD_REACTORS
330
F8
102
}
330
F8
100
AcDbXrecord
 10
0.0
 20
0.0
 30
0.0
  0
XRECORD
  5
10C
102
{ACAD_REACTORS
330
F8
102
}
330
F8
100
AcDbXrecord
 10
0.0
 20
0.0
 30
0.0
  0
XRECORD
  5
109
102
{ACAD_REACTORS
330
F8
102
}
330
F8
100
AcDbXrecord
 10
0.0
 20
0.0
 30
0.0
  0
XRECORD
  5
106
102
{ACAD_REACTORS
330
F8
102
}
330
F8
100
AcDbXrecord
340
0
  0
XRECORD
  5
107
102
{ACAD_REACTORS
330
F8
102
}
330
F8
100
AcDbXrecord
 70
     0
  0
XRECORD
  5
FC
102
{ACAD_REACTORS
330
F8
102
}
330
F8
100
AcDbXrecord
  1

  0
XRECORD
  5
F9
102
{ACAD_REACTORS
330
F8
102
}
330
F8
100
AcDbXrecord
 90
        1
  0
XRECORD
  5
FA
102
{ACAD_REACTORS
330
F8
102
}
330
F8
100
AcDbXrecord
 90
       70
  0
XRECORD
  5
111
102
{ACAD_REACTORS
330
F8
102
}
330
F8
100
AcDbXrecord
340
0
  0
XRECORD
  5
117
102
{ACAD_REACTORS
330
F8
102
}
330
F8
100
AcDbXrecord
 10
0.0
 20
0.0
 30
0.0
  0
XRECORD
  5
113
102
{ACAD_REACTORS
330
F8
102
}
330
F8
100
AcDbXrecord
 10
0.0
 20
0.0
 30
0.0
  0
XRECORD
  5
116
102
{ACAD_REACTORS
330
F8
102
}
330
F8
100
AcDbXrecord
 10
0.0
 20
0.0
 30
0.0
  0
XRECORD
  5
114
102
{ACAD_REACTORS
330
F8
102
}
330
F8
100
AcDbXrecord
 10
0.0
 20
0.0
 30
0.0
  0
XRECORD
  5
115
102
{ACAD_REACTORS
330
F8
102
}
330
F8
100
AcDbXrecord
 10
0.0
 20
0.0
 30
0.0
  0
XRECORD
  5
112
102
{ACAD_REACTORS
330
F8
102
}
330
F8
100
AcDbXrecord
 10
0.0
 20
0.0
 30
0.0
  0
XRECORD
  5
10F
102
{ACAD_REACTORS
330
F8
102
}
330
F8
100
AcDbXrecord
340
0
  0
XRECORD
  5
110
102
{ACAD_REACTORS
330
F8
102
}
330
F8
100
AcDbXrecord
 70
     1
  0
XRECORD
  5
104
102
{ACAD_REACTORS
330
F8
102
}
330
F8
100
AcDbXrecord
  1
{4C83276C-DC4B-40FC-A7D0-BF832B48B8E2}
  0
DICTIONARYVAR
  5
F6
102
{ACAD_REACTORS
330
F5
102
}
330
F5
100
DictionaryVariables
280
     0
  1
1
  0
ENDSEC
  0
EOF
